999
DXF file: C:\Users\sesa63760\Dev\_Creo\CAD\MCADID0004831_3D-CAD\drw0001_5.dxf
999
Pro/ENGINEER 2019471 by Parametric Technology Corporation
  0
SECTION
  2
HEADER
  9
$ACADVER
  1
AC1024
  9
$DWGCODEPAGE
  3
ANSI_1252
  9
$EXTMAX
 10
26.4925840648
 20
37.4680831773
 30
0.0
  9
$EXTMIN
 10
0.0
 20
0.0
 30
0.0
  9
$LIMMIN
 10
0.0
 20
0.0
  9
$LIMMAX
 10
26.4925840648
 20
37.4680831773
  9
$VIEWCTR
 10
13.2462920324
 20
18.7340415887
  9
$VIEWSIZE
 40
37.4680831773
  9
$CLAYER
  8
0
  9
$LTSCALE
 40
2.4423639404
  9
$CELTYPE
  6
BYLAYER
  9
$DIMSCALE
 40
1.0
  9
$DIMASZ
 40
0.3153879055
  9
$DIMEXO
 40
1.0
  9
$DIMDLI
 40
1.6874514498
  9
$DIMEXE
 40
1.0
  9
$DIMCEN
 40
0.3996595539
  9
$DIMLFAC
 40
1.0
  9
$DIMBLK
  1
_FILLED
  9
$DIMALT
 70
0
  9
$DIMALTF
 40
0.0393700787
  9
$DIMTXT
 40
0.4415430677
  9
$DIMTOL
 70
1
  9
$DIMLIM
 70
0
  9
$DIMTFAC
 40
1.0
  9
$DIMTP
 40
0.01
  9
$DIMTM
 40
0.01
  9
$DIMGAP
 40
0.625
  9
$DIMDSEP
 70
46
  9
$AUNITS
 70
0
  9
$PDMODE
 70
3
  9
$PDSIZE
 40
0.3125
  9
$HANDSEED
  5
268
  9
$TILEMODE
 70
1
  9
$MEASUREMENT
 70
1
  9
$INSUNITS
 70
4
  0
ENDSEC
  0
SECTION
  2
CLASSES
  0
CLASS
  1
ACDBDICTIONARYWDFLT
  2
AcDbDictionaryWithDefault
  3
AutoCAD 2000
 90
0
 91
1
280
0
281
0
  0
CLASS
  1
ACDBPLACEHOLDER
  2
AcDbPlaceHolder
  3
AutoCAD 2000
 90
0
 91
1
280
0
281
0
  0
CLASS
  1
LAYOUT
  2
AcDbLayout
  3
AutoCAD 2000
 90
0
 91
0
280
0
281
0
  0
ENDSEC
  0
SECTION
  2
TABLES
  0
TABLE
  2
VPORT
  5
8
100
AcDbSymbolTable
 70
2
  0
VPORT
  5
1F4
100
AcDbSymbolTableRecord
100
AcDbViewportTableRecord
  2
*ACTIVE
 70
0
 10
0.0
 20
0.0
 11
1.0
 21
1.0
 12
13.2462920324
 22
18.7340415887
 13
0.0
 23
0.0
 14
1.0
 24
1.0
 15
0.0
 25
0.0
 16
0.0
 26
0.0
 36
1.0
 17
0.0
 27
0.0
 37
0.0
 40
37.4680831773
 41
0.7070707071
 42
50.0
 43
0.0
 44
0.0
 50
0.0
 51
0.0
 71
0
 72
100
 73
1
 74
1
 75
0
 76
0
 77
0
 78
0
  0
ENDTAB
  0
TABLE
  2
LTYPE
  5
5
100
AcDbSymbolTable
 70
6
  0
LTYPE
  5
14
100
AcDbSymbolTableRecord
100
AcDbLinetypeTableRecord
  2
BYBLOCK
 70
0
  3

 72
65
 73
0
 40
0.0
  0
LTYPE
  5
15
100
AcDbSymbolTableRecord
100
AcDbLinetypeTableRecord
  2
BYLAYER
 70
0
  3

 72
65
 73
0
 40
0.0
  0
LTYPE
  5
16
100
AcDbSymbolTableRecord
100
AcDbLinetypeTableRecord
  2
CONTINUOUS
 70
64
  3
Solid line
 72
65
 73
0
 40
0.0
  0
LTYPE
  5
1F5
100
AcDbSymbolTableRecord
100
AcDbLinetypeTableRecord
  2
CENTER
 70
64
  3
____ _ ____ _ ____ _ ____ _ ____ _ ____ _ ____
 72
65
 73
4
 40
0.6
 49
0.375
 74
0
 49
-0.075
 74
0
 49
0.075
 74
0
 49
-0.075
 74
0
  0
LTYPE
  5
1F6
100
AcDbSymbolTableRecord
100
AcDbLinetypeTableRecord
  2
HIDDEN
 70
64
  3
- - - - - - - - - - - - - - - - - - - -
 72
65
 73
2
 40
0.2
 49
0.1
 74
0
 49
-0.1
 74
0
  0
LTYPE
  5
1F7
100
AcDbSymbolTableRecord
100
AcDbLinetypeTableRecord
  2
PHANTOM
 70
64
  3
_____ _ _ _____ _ _ _____ _ _ _____
 72
65
 73
6
 40
0.8
 49
0.45
 74
0
 49
-0.05
 74
0
 49
0.1
 74
0
 49
-0.05
 74
0
 49
0.1
 74
0
 49
-0.05
 74
0
  0
LTYPE
  5
1F8
100
AcDbSymbolTableRecord
100
AcDbLinetypeTableRecord
  2
DOT
 70
64
  3
. . . . . . . . . . . . . . . . . . . .
 72
65
 73
2
 40
0.2
 49
0.1
 74
0
 49
-0.1
 74
0
  0
LTYPE
  5
1F9
100
AcDbSymbolTableRecord
100
AcDbLinetypeTableRecord
  2
DASHED
 70
64
  3
- - - - - - - - - - - - - - - - - - - -
 72
65
 73
2
 40
0.2
 49
0.1
 74
0
 49
-0.1
 74
0
  0
ENDTAB
  0
TABLE
  2
LAYER
  5
2
100
AcDbSymbolTable
 70
36
  0
LAYER
  5
10
100
AcDbSymbolTableRecord
100
AcDbLayerTableRecord
  2
0
 70
0
 62
7
  6
CONTINUOUS
370
-3
390
F
  0
LAYER
  5
1FA
100
AcDbSymbolTableRecord
100
AcDbLayerTableRecord
  2
DEFAULT_1
 70
0
 62
7
  6
CENTER
370
-3
390
F
  0
LAYER
  5
1FB
100
AcDbSymbolTableRecord
100
AcDbLayerTableRecord
  2
DEFAULT_2
 70
0
 62
7
  6
HIDDEN
370
-3
390
F
  0
LAYER
  5
1FC
100
AcDbSymbolTableRecord
100
AcDbLayerTableRecord
  2
DEFAULT_3
 70
0
 62
7
  6
PHANTOM
370
-3
390
F
  0
LAYER
  5
1FD
100
AcDbSymbolTableRecord
100
AcDbLayerTableRecord
  2
00_COMPONENTS
 70
0
 62
7
  6
CONTINUOUS
370
-3
390
F
  0
LAYER
  5
1FE
100
AcDbSymbolTableRecord
100
AcDbLayerTableRecord
  2
01_1_DEFAULT_DATUMS
 70
0
 62
7
  6
CONTINUOUS
370
-3
390
F
  0
LAYER
  5
1FF
100
AcDbSymbolTableRecord
100
AcDbLayerTableRecord
  2
01_PLANES
 70
0
 62
7
  6
CONTINUOUS
370
-3
390
F
  0
LAYER
  5
200
100
AcDbSymbolTableRecord
100
AcDbLayerTableRecord
  2
02_COORD_SYS
 70
0
 62
7
  6
CONTINUOUS
370
-3
390
F
  0
LAYER
  5
201
100
AcDbSymbolTableRecord
100
AcDbLayerTableRecord
  2
03_AXES
 70
0
 62
7
  6
CONTINUOUS
370
-3
390
F
  0
LAYER
  5
202
100
AcDbSymbolTableRecord
100
AcDbLayerTableRecord
  2
04_POINTS
 70
0
 62
7
  6
CONTINUOUS
370
-3
390
F
  0
LAYER
  5
203
100
AcDbSymbolTableRecord
100
AcDbLayerTableRecord
  2
05_CURVES
 70
0
 62
7
  6
CONTINUOUS
370
-3
390
F
  0
LAYER
  5
204
100
AcDbSymbolTableRecord
100
AcDbLayerTableRecord
  2
06_SURFS
 70
0
 62
7
  6
CONTINUOUS
370
-3
390
F
  0
LAYER
  5
205
100
AcDbSymbolTableRecord
100
AcDbLayerTableRecord
  2
07_COSMETICS
 70
0
 62
7
  6
CONTINUOUS
370
-3
390
F
  0
LAYER
  5
206
100
AcDbSymbolTableRecord
100
AcDbLayerTableRecord
  2
10_NOTES
 70
0
 62
7
  6
CONTINUOUS
370
-3
390
F
  0
LAYER
  5
207
100
AcDbSymbolTableRecord
100
AcDbLayerTableRecord
  2
11_NOTES_PUB
 70
0
 62
7
  6
CONTINUOUS
370
-3
390
F
  0
LAYER
  5
208
100
AcDbSymbolTableRecord
100
AcDbLayerTableRecord
  2
13_REF_GTOL
 70
0
 62
7
  6
CONTINUOUS
370
-3
390
F
  0
LAYER
  5
209
100
AcDbSymbolTableRecord
100
AcDbLayerTableRecord
  2
16_MISC
 70
0
 62
7
  6
CONTINUOUS
370
-3
390
F
  0
LAYER
  5
20A
100
AcDbSymbolTableRecord
100
AcDbLayerTableRecord
  2
17_NO_PRINT
 70
0
 62
7
  6
CONTINUOUS
370
-3
390
F
  0
LAYER
  5
20B
100
AcDbSymbolTableRecord
100
AcDbLayerTableRecord
  2
18_DATUM_CAMS_JOINTS
 70
0
 62
7
  6
CONTINUOUS
370
-3
390
F
  0
LAYER
  5
20C
100
AcDbSymbolTableRecord
100
AcDbLayerTableRecord
  2
19_DATUM_FUNCTIONAL
 70
0
 62
7
  6
CONTINUOUS
370
-3
390
F
  0
LAYER
  5
20D
100
AcDbSymbolTableRecord
100
AcDbLayerTableRecord
  2
20_DATUM_KINEMATIC_SCHEME
 70
0
 62
7
  6
CONTINUOUS
370
-3
390
F
  0
ENDTAB
  0
TABLE
  2
STYLE
  5
3
100
AcDbSymbolTable
 70
1
  0
STYLE
  5
11
100
AcDbSymbolTableRecord
100
AcDbTextStyleTableRecord
  2
STANDARD
 70
0
 40
0.0
 41
1.0
 50
0.0
 71
0
 42
0.2
  3
ARIAL.TTF
  4

  0
STYLE
  5
20E
100
AcDbSymbolTableRecord
100
AcDbTextStyleTableRecord
  2
TEXTSTYLE_1
 70
0
 40
0.0
 41
0.8
 50
0.0
 71
0
 42
0.2
  3
gdt
  4

  0
ENDTAB
  0
TABLE
  2
VIEW
  5
6
100
AcDbSymbolTable
 70
0
  0
ENDTAB
  0
TABLE
  2
UCS
  5
7
100
AcDbSymbolTable
 70
0
  0
ENDTAB
  0
TABLE
  2
APPID
  5
9
100
AcDbSymbolTable
 70
1
  0
APPID
  5
20F
100
AcDbSymbolTableRecord
100
AcDbRegAppTableRecord
  2
ACAD
 70
0
  0
ENDTAB
  0
TABLE
  2
BLOCK_RECORD
  5
1
100
AcDbSymbolTable
 70
0
  0
BLOCK_RECORD
  5
210
100
AcDbSymbolTableRecord
100
AcDbBlockTableRecord
  2
*Model_Space
  0
BLOCK_RECORD
  5
211
100
AcDbSymbolTableRecord
100
AcDbBlockTableRecord
  2
*Paper_Space
  0
BLOCK_RECORD
  5
212
100
AcDbSymbolTableRecord
100
AcDbBlockTableRecord
  2
_FILLED
  0
ENDTAB
  0
TABLE
  2
DIMSTYLE
  5
A
100
AcDbSymbolTable
 70
1
100
AcDbDimStyleTable
 71
0
  0
DIMSTYLE
105
213
100
AcDbSymbolTableRecord
100
AcDbDimStyleTableRecord
  2
STANDARD
 70
0
  3

  4

 40
1.0
 41
0.3153879055
 42
1.0
 43
0.38
 44
1.0
 45
0.0
 46
0.0
 47
0.01
 48
0.01
140
0.4415430677
141
0.09
142
0.0
143
25.4
144
1.0
145
0.0
146
1.0
147
0.625
 71
1
 72
0
 73
0
 74
0
 75
0
 76
0
 77
1
 78
8
 79
2
170
0
171
1
172
0
173
0
174
0
175
0
176
0
177
0
178
0
270
2
179
2
271
2
272
2
273
2
274
2
275
0
280
0
281
0
282
0
283
1
284
8
285
0
286
0
287
3
288
0
340
11
278
46
341
212
342
212
343
212
344
212
  0
ENDTAB
  0
ENDSEC
  0
SECTION
  2
BLOCKS
  0
BLOCK
  5
20
100
AcDbEntity
  8
0
100
AcDbBlockBegin
  2
*Model_Space
 70
0
 10
0.0
 20
0.0
 30
0.0
  3
*Model_Space
  1

  0
ENDBLK
  5
21
100
AcDbEntity
  8
0
100
AcDbBlockEnd
  0
BLOCK
  5
1C
100
AcDbEntity
  8
0
100
AcDbBlockBegin
  2
*Paper_Space
 70
0
 10
0.0
 20
0.0
 30
0.0
  3
*Paper_Space
  1

  0
ENDBLK
  5
1D
100
AcDbEntity
  8
0
100
AcDbBlockEnd
  0
BLOCK
  5
214
100
AcDbEntity
  8
0
100
AcDbBlockBegin
  2
_FILLED
 70
64
 10
0.0
 20
0.0
  3
_FILLED
  1

  0
SOLID
  5
215
100
AcDbEntity
  8
0
  6
BYBLOCK
 62
0
100
AcDbTrace
 10
0.0
 20
0.0
 11
-1.0
 21
0.25
 12
-1.0
 22
-0.25
 13
-1.0
 23
-0.25
  0
ENDBLK
  5
216
100
AcDbEntity
  8
0
  6
BYBLOCK
 62
0
100
AcDbBlockEnd
  0
ENDSEC
  0
SECTION
  2
ENTITIES
  0
LINE
  5
217
100
AcDbEntity
  8
0
100
AcDbLine
 62
7
  6
BYLAYER
 10
3.0881764586
 20
17.3819774052
 11
3.0881764586
 21
20.177826906
  0
LINE
  5
218
100
AcDbEntity
  8
0
100
AcDbLine
 62
7
  6
BYLAYER
 10
3.4381764586
 20
17.1799021556
 11
3.4381764586
 21
20.3799021556
  0
LINE
  5
219
100
AcDbEntity
  8
0
100
AcDbLine
 62
7
  6
BYLAYER
 10
4.0881764586
 20
20.3799021556
 11
4.0881764586
 21
17.1799021556
  0
LINE
  5
21A
100
AcDbEntity
  8
0
100
AcDbLine
 62
7
  6
BYLAYER
 10
17.5381764586
 20
9.2549021556
 11
23.0381764586
 21
9.2549021556
  0
LINE
  5
21B
100
AcDbEntity
  8
0
100
AcDbLine
 62
7
  6
BYLAYER
 10
4.7809967816
 20
16.7799021556
 11
4.7809967816
 21
20.7799021556
  0
LINE
  5
21C
100
AcDbEntity
  8
0
100
AcDbLine
 62
7
  6
BYLAYER
 10
13.2881764586
 20
10.7799021556
 11
11.2881764586
 21
10.7799021556
  0
LINE
  5
21D
100
AcDbEntity
  8
0
100
AcDbLine
 62
7
  6
BYLAYER
 10
11.2881764586
 20
10.841835861
 11
13.2881764586
 21
10.841835861
  0
LINE
  5
21E
100
AcDbEntity
  8
0
100
AcDbLine
 62
7
  6
BYLAYER
 10
3.0881764586
 20
20.1778295614
 11
3.4381764586
 21
20.3799021556
  0
LINE
  5
21F
100
AcDbEntity
  8
0
100
AcDbLine
 62
7
  6
BYLAYER
 10
4.0881764586
 20
20.3799021556
 11
4.7809967816
 21
20.7799021556
  0
LINE
  5
220
100
AcDbEntity
  8
0
100
AcDbLine
 62
7
  6
BYLAYER
 10
16.8141979658
 20
13.1461607892
 11
13.3941710818
 21
12.3672884064
  0
LINE
  5
221
100
AcDbEntity
  8
0
100
AcDbLine
 62
7
  6
BYLAYER
 10
11.8181495746
 20
12.4508897074
 11
15.2381764586
 21
13.1461607892
  0
LINE
  5
222
100
AcDbEntity
  8
0
100
AcDbLine
 62
7
  6
BYLAYER
 10
15.2381764586
 20
13.1990062528
 11
15.1321818354
 21
13.1820261378
  0
LINE
  5
223
100
AcDbEntity
  8
0
100
AcDbLine
 62
7
  6
BYLAYER
 10
11.4243800196
 20
12.3431493317
 11
13.3154171708
 21
12.3431493317
  0
LINE
  5
224
100
AcDbEntity
  8
0
100
AcDbLine
 62
7
  6
BYLAYER
 10
16.8141979658
 20
13.1461607892
 11
15.2381764586
 21
13.1461607892
  0
LINE
  5
225
100
AcDbEntity
  8
0
100
AcDbLine
 62
7
  6
BYLAYER
 10
17.2381764586
 20
13.1990062528
 11
15.2381764586
 21
13.1990062528
  0
LINE
  5
226
100
AcDbEntity
  8
0
100
AcDbLine
 62
7
  6
BYLAYER
 10
13.8830779699
 20
12.2799021556
 11
13.3369749913
 21
12.351552166
  0
LINE
  5
227
100
AcDbEntity
  8
0
100
AcDbLine
 62
7
  6
BYLAYER
 10
3.0881764586
 20
17.3819747498
 11
3.4381764586
 21
17.1799021556
  0
LINE
  5
228
100
AcDbEntity
  8
0
100
AcDbLine
 62
7
  6
BYLAYER
 10
4.0881764586
 20
17.1799021556
 11
4.7809967816
 21
16.7799021556
  0
LINE
  5
229
100
AcDbEntity
  8
0
100
AcDbLine
 62
7
  6
BYLAYER
 10
17.2881764586
 20
14.0299021556
 11
17.5381764586
 21
14.0299021556
  0
LINE
  5
22A
100
AcDbEntity
  8
0
100
AcDbLine
 62
7
  6
BYLAYER
 10
15.2381764586
 20
14.3147398649
 11
17.2381764586
 21
14.3147398649
  0
LINE
  5
22B
100
AcDbEntity
  8
0
100
AcDbLine
 62
7
  6
BYLAYER
 10
23.8474064417
 20
14.6549021556
 11
23.8981764586
 21
14.6549021556
  0
LINE
  5
22C
100
AcDbEntity
  8
0
100
AcDbLine
 62
7
  6
BYLAYER
 10
17.2381764586
 20
15.8049021556
 11
17.2881764586
 21
15.8049021556
  0
LINE
  5
22D
100
AcDbEntity
  8
0
100
AcDbLine
 62
7
  6
BYLAYER
 10
11.2881764586
 20
10.7799021556
 11
11.2881764586
 21
26.7799021556
  0
LINE
  5
22E
100
AcDbEntity
  8
0
100
AcDbLine
 62
7
  6
BYLAYER
 10
11.8181495746
 20
12.4508897074
 11
11.8181495746
 21
25.1089146037
  0
LINE
  5
22F
100
AcDbEntity
  8
0
100
AcDbLine
 62
7
  6
BYLAYER
 10
13.7381764586
 20
16.7299021556
 11
15.2381764586
 21
16.7299021556
  0
LINE
  5
230
100
AcDbEntity
  8
0
100
AcDbLine
 62
7
  6
BYLAYER
 10
4.7809967816
 20
16.7799021556
 11
11.2881764586
 21
16.7799021556
  0
LINE
  5
231
100
AcDbEntity
  8
0
100
AcDbLine
 62
7
  6
BYLAYER
 10
3.4381764586
 20
17.1799021556
 11
4.0881764586
 21
17.1799021556
  0
LINE
  5
232
100
AcDbEntity
  8
0
100
AcDbLine
 62
7
  6
BYLAYER
 10
13.2881764586
 20
26.7799021556
 11
13.2881764586
 21
25.2395155064
  0
LINE
  5
233
100
AcDbEntity
  8
0
100
AcDbLine
 62
7
  6
BYLAYER
 10
13.2881764586
 20
12.3202888048
 11
13.2881764586
 21
10.7799021556
  0
LINE
  5
234
100
AcDbEntity
  8
0
100
AcDbLine
 62
7
  6
BYLAYER
 10
13.7381764586
 20
16.7299021556
 11
13.7381764586
 21
20.8299021556
  0
LINE
  5
235
100
AcDbEntity
  8
0
100
AcDbLine
 62
7
  6
BYLAYER
 10
13.8830779699
 20
12.2799021556
 11
13.8830779699
 21
12.4786314122
  0
LINE
  5
236
100
AcDbEntity
  8
0
100
AcDbLine
 62
7
  6
BYLAYER
 10
13.8830779699
 20
25.081172899
 11
13.8830779699
 21
25.2799021556
  0
LINE
  5
237
100
AcDbEntity
  8
0
100
AcDbLine
 62
7
  6
BYLAYER
 10
15.1321818354
 20
24.3777781733
 11
15.1321818354
 21
20.8299021556
  0
LINE
  5
238
100
AcDbEntity
  8
0
100
AcDbLine
 62
7
  6
BYLAYER
 10
15.1321818354
 20
16.7299021556
 11
15.1321818354
 21
13.1820261378
  0
LINE
  5
239
100
AcDbEntity
  8
0
100
AcDbLine
 62
7
  6
BYLAYER
 10
15.2381764586
 20
24.413643522
 11
15.2381764586
 21
24.3607980584
  0
LINE
  5
23A
100
AcDbEntity
  8
0
100
AcDbLine
 62
7
  6
BYLAYER
 10
15.2381764586
 20
13.1990062528
 11
15.2381764586
 21
13.1461607892
  0
LINE
  5
23B
100
AcDbEntity
  8
0
100
AcDbLine
 62
7
  6
BYLAYER
 10
15.2381764586
 20
13.2205543279
 11
15.2381764586
 21
24.3392499832
  0
LINE
  5
23C
100
AcDbEntity
  8
0
100
AcDbLine
 62
7
  6
BYLAYER
 10
13.9099547971
 20
12.4847523051
 11
13.8830779699
 21
12.2799021556
  0
LINE
  5
23D
100
AcDbEntity
  8
0
100
AcDbLine
 62
7
  6
BYLAYER
 10
3.4381764586
 20
20.3799021556
 11
4.0881764586
 21
20.3799021556
  0
LINE
  5
23E
100
AcDbEntity
  8
0
100
AcDbLine
 62
7
  6
BYLAYER
 10
4.7809967816
 20
20.7799021556
 11
11.2881764586
 21
20.7799021556
  0
LINE
  5
23F
100
AcDbEntity
  8
0
100
AcDbLine
 62
7
  6
BYLAYER
 10
13.9099547971
 20
25.0750520061
 11
13.8830779699
 21
25.2799021556
  0
LINE
  5
240
100
AcDbEntity
  8
0
100
AcDbLine
 62
7
  6
BYLAYER
 10
13.7381764586
 20
20.8299021556
 11
15.2381764586
 21
20.8299021556
  0
LINE
  5
241
100
AcDbEntity
  8
0
100
AcDbLine
 62
7
  6
BYLAYER
 10
17.2381764586
 20
24.3607980584
 11
17.2381764586
 21
13.1990062528
  0
LINE
  5
242
100
AcDbEntity
  8
0
100
AcDbLine
 62
7
  6
BYLAYER
 10
17.2881764586
 20
14.0299817159
 11
17.2881764586
 21
23.5298225953
  0
LINE
  5
243
100
AcDbEntity
  8
0
100
AcDbLine
 62
7
  6
BYLAYER
 10
17.2381764586
 20
21.7549021556
 11
17.2881764586
 21
21.7549021556
  0
LINE
  5
244
100
AcDbEntity
  8
0
100
AcDbLine
 62
7
  6
BYLAYER
 10
17.5381764586
 20
9.2549820931
 11
17.5381764586
 21
28.3048222181
  0
LINE
  5
245
100
AcDbEntity
  8
0
100
AcDbLine
 62
7
  6
BYLAYER
 10
23.8474064417
 20
22.9049021556
 11
23.8981764586
 21
22.9049021556
  0
LINE
  5
246
100
AcDbEntity
  8
0
100
AcDbLine
 62
7
  6
BYLAYER
 10
17.2381764586
 20
23.2450644463
 11
15.2381764586
 21
23.2450644463
  0
LINE
  5
247
100
AcDbEntity
  8
0
100
AcDbLine
 62
7
  6
BYLAYER
 10
17.2881764586
 20
23.5299021556
 11
17.5381764586
 21
23.5299021556
  0
LINE
  5
248
100
AcDbEntity
  8
0
100
AcDbLine
 62
7
  6
BYLAYER
 10
15.2381764586
 20
24.3607980584
 11
17.2381764586
 21
24.3607980584
  0
LINE
  5
249
100
AcDbEntity
  8
0
100
AcDbLine
 62
7
  6
BYLAYER
 10
16.8141979658
 20
24.413643522
 11
15.2381764586
 21
24.413643522
  0
LINE
  5
24A
100
AcDbEntity
  8
0
100
AcDbLine
 62
7
  6
BYLAYER
 10
15.2381764586
 20
24.3607980584
 11
15.1321818354
 21
24.3777781733
  0
LINE
  5
24B
100
AcDbEntity
  8
0
100
AcDbLine
 62
7
  6
BYLAYER
 10
13.8830779699
 20
25.2799021556
 11
13.3369729838
 21
25.2082518817
  0
LINE
  5
24C
100
AcDbEntity
  8
0
100
AcDbLine
 62
7
  6
BYLAYER
 10
11.4243800196
 20
25.2166549795
 11
13.3154171708
 21
25.2166549795
  0
LINE
  5
24D
100
AcDbEntity
  8
0
100
AcDbLine
 62
7
  6
BYLAYER
 10
15.2381764586
 20
24.413643522
 11
11.8181495746
 21
25.1089146037
  0
LINE
  5
24E
100
AcDbEntity
  8
0
100
AcDbLine
 62
7
  6
BYLAYER
 10
13.3941710818
 20
25.1925159047
 11
16.8141979658
 21
24.413643522
  0
LINE
  5
24F
100
AcDbEntity
  8
0
100
AcDbLine
 62
7
  6
BYLAYER
 10
13.2881764586
 20
26.7179684502
 11
11.2881764586
 21
26.7179684502
  0
LINE
  5
250
100
AcDbEntity
  8
0
100
AcDbLine
 62
7
  6
BYLAYER
 10
13.2881764586
 20
26.7799021556
 11
11.2881764586
 21
26.7799021556
  0
LINE
  5
251
100
AcDbEntity
  8
0
100
AcDbLine
 62
7
  6
BYLAYER
 10
23.0381764586
 20
28.3049021556
 11
23.0381764586
 21
9.2549021556
  0
LINE
  5
252
100
AcDbEntity
  8
0
100
AcDbLine
 62
7
  6
BYLAYER
 10
17.5381764586
 20
28.3049021556
 11
23.0381764586
 21
28.3049021556
  0
LINE
  5
253
100
AcDbEntity
  8
0
100
AcDbLine
 62
7
  6
BYLAYER
 10
23.8474064417
 20
14.5299021556
 11
23.8474064417
 21
23.0299021556
  0
LINE
  5
254
100
AcDbEntity
  8
0
100
AcDbLine
 62
7
  6
BYLAYER
 10
23.8981764586
 20
22.9049021556
 11
23.8981764586
 21
14.6549021556
  0
LINE
  5
255
100
AcDbEntity
  8
0
100
AcDbLine
 62
7
  6
BYLAYER
 10
24.1381764586
 20
19.7798635393
 11
24.1381764586
 21
17.7799407719
  0
LINE
  5
256
100
AcDbEntity
  8
0
100
AcDbLine
 62
7
  6
BYLAYER
 10
23.8981764586
 20
22.9049021556
 11
24.1381765468
 21
19.7798986614
  0
LINE
  5
257
100
AcDbEntity
  8
0
100
AcDbLine
 62
7
  6
BYLAYER
 10
23.8981764586
 20
14.6549021556
 11
24.1381765468
 21
17.7799056498
  0
ARC
  5
258
100
AcDbEntity
  8
0
100
AcDbCircle
 62
7
  6
BYLAYER
 10
-21.4536697045
 20
18.7799021556
 40
45.5
100
AcDbArc
 50
347.9162839941
 51
354.6403834767
  0
ARC
  5
259
100
AcDbEntity
  8
0
100
AcDbCircle
 62
7
  6
BYLAYER
 10
-21.4536697045
 20
18.7799021556
 40
45.5
100
AcDbArc
 50
5.3596165233
 51
12.0837160059
  0
SPLINE
  5
25A
100
AcDbEntity
  8
0
100
AcDbSpline
 62
7
  6
BYLAYER
 70
0
 71
3
 72
21
 73
17
 74
0
 42
0.0000001
 43
0.0000001
 44
0.0000000001
 40
0.0
 40
0.0
 40
0.0
 40
0.0
 40
0.00864906
 40
0.0149509226
 40
0.0229262114
 40
0.0326902206
 40
0.0443025355
 40
0.0731850222
 40
0.1097097703
 40
0.1539125176
 40
0.205761207
 40
0.2651853092
 40
0.4064304038
 40
0.5769088826
 40
0.7753178257
 40
1.0
 40
1.0
 40
1.0
 40
1.0
 10
17.2381764586
 20
13.1990062528
 30
0.0
 10
17.2381764586
 20
13.1977657835
 30
0.0
 10
17.2367803692
 20
13.1957622713
 30
0.0
 10
17.234142864
 20
13.193883019
 30
0.0
 10
17.2310836911
 20
13.1922365573
 30
0.0
 10
17.22720107
 20
13.1906156237
 30
0.0
 10
17.2203821244
 20
13.1882599104
 30
0.0
 10
17.2096957129
 20
13.185424194
 30
0.0
 10
17.1943094904
 20
13.1821827544
 30
0.0
 10
17.1755722301
 20
13.1789296688
 30
0.0
 10
17.1535126381
 20
13.1756628114
 30
0.0
 10
17.1175923354
 20
13.1710259727
 30
0.0
 10
17.0646569904
 20
13.1653732924
 30
0.0
 10
16.9917797823
 20
13.15887536
 30
0.0
 10
16.9068970674
 20
13.1523538162
 30
0.0
 10
16.846355173
 20
13.1482416982
 30
0.0
 10
16.8141979658
 20
13.1461607892
 30
0.0
  0
SPLINE
  5
25B
100
AcDbEntity
  8
0
100
AcDbSpline
 62
7
  6
BYLAYER
 70
0
 71
3
 72
21
 73
17
 74
0
 42
0.0000001
 43
0.0000001
 44
0.0000000001
 40
0.0
 40
0.0
 40
0.0
 40
0.0
 40
0.2246821743
 40
0.4230911174
 40
0.5935695962
 40
0.7348146908
 40
0.794238793
 40
0.8460874824
 40
0.8902902297
 40
0.9268149778
 40
0.9556974645
 40
0.9673097794
 40
0.9770737886
 40
0.9850490774
 40
0.99135094
 40
1.0
 40
1.0
 40
1.0
 40
1.0
 10
16.8141979658
 20
24.413643522
 30
0.0
 10
16.846355173
 20
24.4115626129
 30
0.0
 10
16.9068970674
 20
24.407450495
 30
0.0
 10
16.9917797823
 20
24.4009289511
 30
0.0
 10
17.0646569904
 20
24.3944310188
 30
0.0
 10
17.1175923354
 20
24.3887783384
 30
0.0
 10
17.1535126381
 20
24.3841414998
 30
0.0
 10
17.1755722301
 20
24.3808746424
 30
0.0
 10
17.1943094904
 20
24.3776215568
 30
0.0
 10
17.2096957129
 20
24.3743801171
 30
0.0
 10
17.2203821244
 20
24.3715444008
 30
0.0
 10
17.22720107
 20
24.3691886875
 30
0.0
 10
17.2310836911
 20
24.3675677539
 30
0.0
 10
17.234142864
 20
24.3659212922
 30
0.0
 10
17.2367803692
 20
24.3640420399
 30
0.0
 10
17.2381764586
 20
24.3620385277
 30
0.0
 10
17.2381764586
 20
24.3607980584
 30
0.0
  0
SPLINE
  5
25C
100
AcDbEntity
  8
0
100
AcDbSpline
 62
7
  6
BYLAYER
 70
0
 71
3
 72
10
 73
6
 74
0
 42
0.0000001
 43
0.0000001
 44
0.0000000001
 40
0.0
 40
0.0
 40
0.0
 40
0.0
 40
0.5692049212
 40
0.8024002407
 40
1.0
 40
1.0
 40
1.0
 40
1.0
 10
13.3941710818
 20
12.367287524
 30
0.0
 10
13.378912362
 20
12.3638125234
 30
0.0
 10
13.3574935026
 20
12.3584081808
 30
0.0
 10
13.3313739342
 20
12.3497972967
 30
0.0
 10
13.3203597988
 20
12.3454040656
 30
0.0
 10
13.3154171804
 20
12.3431491223
 30
0.0
  0
SPLINE
  5
25D
100
AcDbEntity
  8
0
100
AcDbSpline
 62
7
  6
BYLAYER
 70
0
 71
3
 72
10
 73
6
 74
0
 42
0.0000001
 43
0.0000001
 44
0.0000000001
 40
0.0
 40
0.0
 40
0.0
 40
0.0
 40
0.197600172
 40
0.4307954683
 40
1.0
 40
1.0
 40
1.0
 40
1.0
 10
13.3154171498
 20
25.2166545443
 30
0.0
 10
13.3203597856
 20
25.2143995917
 30
0.0
 10
13.331373864
 20
25.2100061462
 30
0.0
 10
13.357493484
 20
25.2013952554
 30
0.0
 10
13.378912349
 20
25.1959908613
 30
0.0
 10
13.3941710818
 20
25.192515858
 30
0.0
  0
SPLINE
  5
25E
100
AcDbEntity
  8
0
100
AcDbSpline
 62
7
  6
BYLAYER
 70
0
 71
3
 72
12
 73
8
 74
0
 42
0.0000001
 43
0.0000001
 44
0.0000000001
 40
0.0
 40
0.0
 40
0.0
 40
0.0
 40
0.1575809073
 40
0.2535721279
 40
0.3654264299
 40
0.6435294485
 40
1.0
 40
1.0
 40
1.0
 40
1.0
 10
13.2881764586
 20
25.2395150703
 30
0.0
 10
13.2881764586
 20
25.2375698062
 30
0.0
 10
13.2893113905
 20
25.2344395755
 30
0.0
 10
13.29209782
 20
25.230894737
 30
0.0
 10
13.2964973201
 20
25.2267784871
 30
0.0
 10
13.3042985809
 20
25.2217755168
 30
0.0
 10
13.3113770901
 20
25.218398682
 30
0.0
 10
13.3154171498
 20
25.2166545443
 30
0.0
  0
SPLINE
  5
25F
100
AcDbEntity
  8
0
100
AcDbSpline
 62
7
  6
BYLAYER
 70
0
 71
3
 72
12
 73
8
 74
0
 42
0.0000001
 43
0.0000001
 44
0.0000000001
 40
0.0
 40
0.0
 40
0.0
 40
0.0
 40
0.3564691233
 40
0.6345707912
 40
0.7464255531
 40
0.8424176607
 40
1.0
 40
1.0
 40
1.0
 40
1.0
 10
13.3154171804
 20
12.3431491223
 30
0.0
 10
13.3113771384
 20
12.3414049931
 30
0.0
 10
13.3042986012
 20
12.33802832
 30
0.0
 10
13.2964972953
 20
12.3330254579
 30
0.0
 10
13.2920978147
 20
12.3289091876
 30
0.0
 10
13.2893113927
 20
12.3253643025
 30
0.0
 10
13.2881764586
 20
12.3222340462
 30
0.0
 10
13.2881764586
 20
12.3202887652
 30
0.0
  0
SPLINE
  5
260
100
AcDbEntity
  8
0
100
AcDbSpline
 62
7
  6
BYLAYER
 70
0
 71
3
 72
11
 73
7
 74
0
 42
0.0000001
 43
0.0000001
 44
0.0000000001
 40
0.0
 40
0.0
 40
0.0
 40
0.0
 40
0.3022667684
 40
0.5705686585
 40
0.8034600121
 40
1.0
 40
1.0
 40
1.0
 40
1.0
 10
11.8181495746
 20
25.1089321151
 30
0.0
 10
11.7777930513
 20
25.1171363558
 30
0.0
 10
11.7017839443
 20
25.1334854463
 30
0.0
 10
11.5955478786
 20
25.1599966487
 30
0.0
 10
11.5043362193
 20
25.1868698452
 30
0.0
 10
11.4491596818
 20
25.2065104312
 30
0.0
 10
11.4243802212
 20
25.2166596479
 30
0.0
  0
SPLINE
  5
261
100
AcDbEntity
  8
0
100
AcDbSpline
 62
7
  6
BYLAYER
 70
0
 71
3
 72
11
 73
7
 74
0
 42
0.0000001
 43
0.0000001
 44
0.0000000001
 40
0.0
 40
0.0
 40
0.0
 40
0.0
 40
0.1965414853
 40
0.4294330573
 40
0.6977338896
 40
1.0
 40
1.0
 40
1.0
 40
1.0
 10
11.4243796415
 20
12.3431580728
 30
0.0
 10
11.4491594045
 20
12.3533074324
 30
0.0
 10
11.504335025
 20
12.3729519511
 30
0.0
 10
11.5955470729
 20
12.3998262623
 30
0.0
 10
11.7017837895
 20
12.4263360838
 30
0.0
 10
11.7777929429
 20
12.4426856182
 30
0.0
 10
11.8181495746
 20
12.4508898793
 30
0.0
  0
SPLINE
  5
262
100
AcDbEntity
  8
0
100
AcDbSpline
 62
7
  6
BYLAYER
 70
0
 71
3
 72
15
 73
11
 74
0
 42
0.0000001
 43
0.0000001
 44
0.0000000001
 40
0.0
 40
0.0
 40
0.0
 40
0.0
 40
0.0730124499
 40
0.1541111077
 40
0.248620113
 40
0.3598588682
 40
0.4897407237
 40
0.6393836297
 40
0.8093823004
 40
1.0
 40
1.0
 40
1.0
 40
1.0
 10
11.2881764586
 20
12.2354184741
 30
0.0
 10
11.2881764586
 20
12.2398273551
 30
0.0
 10
11.2898209288
 20
12.2491804508
 30
0.0
 10
11.2967335186
 20
12.2626836115
 30
0.0
 10
11.3078514749
 20
12.2760940349
 30
0.0
 10
11.3231110728
 20
12.28951972
 30
0.0
 10
11.3425131949
 20
12.303014316
 30
0.0
 10
11.366057884
 20
12.3165720926
 30
0.0
 10
11.3937158211
 20
12.3301890278
 30
0.0
 10
11.4137227396
 20
12.3388080896
 30
0.0
 10
11.4243796415
 20
12.3431580728
 30
0.0
  0
SPLINE
  5
263
100
AcDbEntity
  8
0
100
AcDbSpline
 62
7
  6
BYLAYER
 70
0
 71
3
 72
15
 73
11
 74
0
 42
0.0000001
 43
0.0000001
 44
0.0000000001
 40
0.0
 40
0.0
 40
0.0
 40
0.0
 40
0.1906173593
 40
0.3606130028
 40
0.5102533896
 40
0.6401355585
 40
0.7513764717
 40
0.8458874736
 40
0.9269870901
 40
1.0
 40
1.0
 40
1.0
 40
1.0
 10
11.4243802212
 20
25.2166596479
 30
0.0
 10
11.4137233934
 20
25.2210095914
 30
0.0
 10
11.3937165179
 20
25.229627885
 30
0.0
 10
11.3660581536
 20
25.2432427471
 30
0.0
 10
11.3425131138
 20
25.2567990332
 30
0.0
 10
11.3231109968
 20
25.2702934637
 30
0.0
 10
11.3078515183
 20
25.2837195369
 30
0.0
 10
11.2967335963
 20
25.2971302495
 30
0.0
 10
11.2898209461
 20
25.3106335098
 30
0.0
 10
11.2881764586
 20
25.3199866403
 30
0.0
 10
11.2881764586
 20
25.324395525
 30
0.0
  0
ELLIPSE
  5
264
100
AcDbEntity
  8
0
100
AcDbEllipse
 62
7
  6
BYLAYER
 10
14.7381764586
 20
13.2205543279
 30
0.0
 11
0.5
 21
-0.0
 31
0.0
 40
0.1251603085
 41
-0.6632251158
 42
-0.0
  0
ELLIPSE
  5
265
100
AcDbEntity
  8
0
100
AcDbEllipse
 62
7
  6
BYLAYER
 10
14.7381764586
 20
24.3392499832
 30
0.0
 11
0.5
 21
-0.0
 31
0.0
 40
0.1251603085
 41
0.0
 42
0.6632251158
  0
ENDSEC
  0
SECTION
  2
OBJECTS
  0
DICTIONARY
  5
C
100
AcDbDictionary
280
0
281
1
  3
ACAD_GROUP
350
D
  3
ACAD_MLINESTYLE
350
17
  3
ACAD_LAYOUT
350
1A
  3
ACAD_PLOTSETTINGS
350
19
  3
ACAD_PLOTSTYLENAME
350
E
  0
DICTIONARY
  5
D
102
{ACAD_REACTORS
330
C
102
}
100
AcDbDictionary
280
0
281
1
  0
ACDBDICTIONARYWDFLT
  5
E
102
{ACAD_REACTORS
330
C
102
}
100
AcDbDictionary
281
1
  3
Normal
350
F
100
AcDbDictionaryWithDefault
340
F
  0
DICTIONARY
  5
17
102
{ACAD_REACTORS
330
C
102
}
100
AcDbDictionary
280
0
281
1
  3
Standard
350
18
  0
DICTIONARY
  5
19
102
{ACAD_REACTORS
330
C
102
}
100
AcDbDictionary
281
1
  0
DICTIONARY
  5
1A
102
{ACAD_REACTORS
330
C
102
}
100
AcDbDictionary
281
1
  3
Model
350
266
  3
Layout1
350
267
  0
ACDBPLACEHOLDER
  5
F
102
{ACAD_REACTORS
330
E
102
}
  0
MLINESTYLE
  5
18
102
{ACAD_REACTORS
330
17
102
}
100
AcDbMlineStyle
  2
STANDARD
 70
0
  3

 62
256
 51
90.0
 52
90.0
 71
2
 49
0.5
 62
256
  6
BYLAYER
 49
-0.5
 62
256
  6
BYLAYER
  0
LAYOUT
  5
266
102
{ACAD_REACTORS
330
1A
102
}
100
AcDbPlotSettings
  1

  2
none_device
  4

  6

 40
0.0
 41
0.0
 42
0.0
 43
0.0
 44
210.0
 45
297.0
 46
0.0
 47
0.0
 48
0.0
 49
0.0
140
0.0
141
0.0
142
1.0
143
1.0
 70
1024
 72
1
 73
0
 74
0
  7

 75
0
147
1.0
148
0.0
149
0.0
100
AcDbLayout
  1
Model
 70
0
 71
0
 10
0.0
 20
0.0
 11
210.0
 21
297.0
 12
0.0
 22
0.0
 32
0.0
 14
0.0
 24
0.0
 34
0.0
 15
0.0
 25
0.0
 35
0.0
146
0.0
 13
0.0
 23
0.0
 33
0.0
 16
1.0
 26
0.0
 36
0.0
 17
0.0
 27
1.0
 37
0.0
 76
0
330
210
345
0
346
0
  0
LAYOUT
  5
267
102
{ACAD_REACTORS
330
1A
102
}
100
AcDbPlotSettings
  1

  2
none_device
  4

  6

 40
0.0
 41
0.0
 42
0.0
 43
0.0
 44
210.0
 45
297.0
 46
0.0
 47
0.0
 48
0.0
 49
0.0
140
0.0
141
0.0
142
1.0
143
1.0
 70
0
 72
1
 73
0
 74
0
  7

 75
0
147
1.0
148
0.0
149
0.0
100
AcDbLayout
  1
Layout1
 70
0
 71
1
 10
0.0
 20
0.0
 11
210.0
 21
297.0
 12
0.0
 22
0.0
 32
0.0
 14
0.0
 24
0.0
 34
0.0
 15
0.0
 25
0.0
 35
0.0
146
0.0
 13
0.0
 23
0.0
 33
0.0
 16
1.0
 26
0.0
 36
0.0
 17
0.0
 27
1.0
 37
0.0
 76
0
330
211
345
0
346
0
  0
ENDSEC
  0
EOF
