999
DXF file: C:\Users\sesa63760\Dev\_Creo\CAD\MCADID0004826_3D-CAD\drw0001_4.dxf
999
Pro/ENGINEER 2019471 by Parametric Technology Corporation
  0
SECTION
  2
HEADER
  9
$ACADVER
  1
AC1024
  9
$DWGCODEPAGE
  3
ANSI_1252
  9
$EXTMAX
 10
38.3763108976
 20
54.2750682695
 30
0.0
  9
$EXTMIN
 10
0.0
 20
0.0
 30
0.0
  9
$LIMMIN
 10
0.0
 20
0.0
  9
$LIMMAX
 10
38.3763108976
 20
54.2750682695
  9
$VIEWCTR
 10
19.1881554488
 20
27.1375341347
  9
$VIEWSIZE
 40
54.2750682695
  9
$CLAYER
  8
0
  9
$LTSCALE
 40
3.5379303761
  9
$CELTYPE
  6
BYLAYER
  9
$DIMSCALE
 40
1.0
  9
$DIMASZ
 40
0.456860844
  9
$DIMEXO
 40
1.0
  9
$DIMDLI
 40
2.4443882598
  9
$DIMEXE
 40
1.0
  9
$DIMCEN
 40
0.5789340615
  9
$DIMLFAC
 40
1.0
  9
$DIMBLK
  1
_FILLED
  9
$DIMALT
 70
0
  9
$DIMALTF
 40
0.0393700787
  9
$DIMTXT
 40
0.6396051816
  9
$DIMTOL
 70
1
  9
$DIMLIM
 70
0
  9
$DIMTFAC
 40
1.0
  9
$DIMTP
 40
0.01
  9
$DIMTM
 40
0.01
  9
$DIMGAP
 40
0.625
  9
$DIMDSEP
 70
46
  9
$AUNITS
 70
0
  9
$PDMODE
 70
3
  9
$PDSIZE
 40
0.3125
  9
$HANDSEED
  5
269
  9
$TILEMODE
 70
1
  9
$MEASUREMENT
 70
1
  9
$INSUNITS
 70
4
  0
ENDSEC
  0
SECTION
  2
CLASSES
  0
CLASS
  1
ACDBDICTIONARYWDFLT
  2
AcDbDictionaryWithDefault
  3
AutoCAD 2000
 90
0
 91
1
280
0
281
0
  0
CLASS
  1
ACDBPLACEHOLDER
  2
AcDbPlaceHolder
  3
AutoCAD 2000
 90
0
 91
1
280
0
281
0
  0
CLASS
  1
LAYOUT
  2
AcDbLayout
  3
AutoCAD 2000
 90
0
 91
0
280
0
281
0
  0
ENDSEC
  0
SECTION
  2
TABLES
  0
TABLE
  2
VPORT
  5
8
100
AcDbSymbolTable
 70
2
  0
VPORT
  5
1F4
100
AcDbSymbolTableRecord
100
AcDbViewportTableRecord
  2
*ACTIVE
 70
0
 10
0.0
 20
0.0
 11
1.0
 21
1.0
 12
19.1881554488
 22
27.1375341347
 13
0.0
 23
0.0
 14
1.0
 24
1.0
 15
0.0
 25
0.0
 16
0.0
 26
0.0
 36
1.0
 17
0.0
 27
0.0
 37
0.0
 40
54.2750682695
 41
0.7070707071
 42
50.0
 43
0.0
 44
0.0
 50
0.0
 51
0.0
 71
0
 72
100
 73
1
 74
1
 75
0
 76
0
 77
0
 78
0
  0
ENDTAB
  0
TABLE
  2
LTYPE
  5
5
100
AcDbSymbolTable
 70
6
  0
LTYPE
  5
14
100
AcDbSymbolTableRecord
100
AcDbLinetypeTableRecord
  2
BYBLOCK
 70
0
  3

 72
65
 73
0
 40
0.0
  0
LTYPE
  5
15
100
AcDbSymbolTableRecord
100
AcDbLinetypeTableRecord
  2
BYLAYER
 70
0
  3

 72
65
 73
0
 40
0.0
  0
LTYPE
  5
16
100
AcDbSymbolTableRecord
100
AcDbLinetypeTableRecord
  2
CONTINUOUS
 70
64
  3
Solid line
 72
65
 73
0
 40
0.0
  0
LTYPE
  5
1F5
100
AcDbSymbolTableRecord
100
AcDbLinetypeTableRecord
  2
CENTER
 70
64
  3
____ _ ____ _ ____ _ ____ _ ____ _ ____ _ ____
 72
65
 73
4
 40
0.6
 49
0.375
 74
0
 49
-0.075
 74
0
 49
0.075
 74
0
 49
-0.075
 74
0
  0
LTYPE
  5
1F6
100
AcDbSymbolTableRecord
100
AcDbLinetypeTableRecord
  2
HIDDEN
 70
64
  3
- - - - - - - - - - - - - - - - - - - -
 72
65
 73
2
 40
0.2
 49
0.1
 74
0
 49
-0.1
 74
0
  0
LTYPE
  5
1F7
100
AcDbSymbolTableRecord
100
AcDbLinetypeTableRecord
  2
PHANTOM
 70
64
  3
_____ _ _ _____ _ _ _____ _ _ _____
 72
65
 73
6
 40
0.8
 49
0.45
 74
0
 49
-0.05
 74
0
 49
0.1
 74
0
 49
-0.05
 74
0
 49
0.1
 74
0
 49
-0.05
 74
0
  0
LTYPE
  5
1F8
100
AcDbSymbolTableRecord
100
AcDbLinetypeTableRecord
  2
DOT
 70
64
  3
. . . . . . . . . . . . . . . . . . . .
 72
65
 73
2
 40
0.2
 49
0.1
 74
0
 49
-0.1
 74
0
  0
LTYPE
  5
1F9
100
AcDbSymbolTableRecord
100
AcDbLinetypeTableRecord
  2
DASHED
 70
64
  3
- - - - - - - - - - - - - - - - - - - -
 72
65
 73
2
 40
0.2
 49
0.1
 74
0
 49
-0.1
 74
0
  0
ENDTAB
  0
TABLE
  2
LAYER
  5
2
100
AcDbSymbolTable
 70
36
  0
LAYER
  5
10
100
AcDbSymbolTableRecord
100
AcDbLayerTableRecord
  2
0
 70
0
 62
7
  6
CONTINUOUS
370
-3
390
F
  0
LAYER
  5
1FA
100
AcDbSymbolTableRecord
100
AcDbLayerTableRecord
  2
DEFAULT_1
 70
0
 62
7
  6
CENTER
370
-3
390
F
  0
LAYER
  5
1FB
100
AcDbSymbolTableRecord
100
AcDbLayerTableRecord
  2
DEFAULT_2
 70
0
 62
7
  6
HIDDEN
370
-3
390
F
  0
LAYER
  5
1FC
100
AcDbSymbolTableRecord
100
AcDbLayerTableRecord
  2
DEFAULT_3
 70
0
 62
7
  6
PHANTOM
370
-3
390
F
  0
LAYER
  5
1FD
100
AcDbSymbolTableRecord
100
AcDbLayerTableRecord
  2
00_COMPONENTS
 70
0
 62
7
  6
CONTINUOUS
370
-3
390
F
  0
LAYER
  5
1FE
100
AcDbSymbolTableRecord
100
AcDbLayerTableRecord
  2
01_1_DEFAULT_DATUMS
 70
0
 62
7
  6
CONTINUOUS
370
-3
390
F
  0
LAYER
  5
1FF
100
AcDbSymbolTableRecord
100
AcDbLayerTableRecord
  2
01_PLANES
 70
0
 62
7
  6
CONTINUOUS
370
-3
390
F
  0
LAYER
  5
200
100
AcDbSymbolTableRecord
100
AcDbLayerTableRecord
  2
02_COORD_SYS
 70
0
 62
7
  6
CONTINUOUS
370
-3
390
F
  0
LAYER
  5
201
100
AcDbSymbolTableRecord
100
AcDbLayerTableRecord
  2
03_AXES
 70
0
 62
7
  6
CONTINUOUS
370
-3
390
F
  0
LAYER
  5
202
100
AcDbSymbolTableRecord
100
AcDbLayerTableRecord
  2
04_POINTS
 70
0
 62
7
  6
CONTINUOUS
370
-3
390
F
  0
LAYER
  5
203
100
AcDbSymbolTableRecord
100
AcDbLayerTableRecord
  2
05_CURVES
 70
0
 62
7
  6
CONTINUOUS
370
-3
390
F
  0
LAYER
  5
204
100
AcDbSymbolTableRecord
100
AcDbLayerTableRecord
  2
06_SURFS
 70
0
 62
7
  6
CONTINUOUS
370
-3
390
F
  0
LAYER
  5
205
100
AcDbSymbolTableRecord
100
AcDbLayerTableRecord
  2
07_COSMETICS
 70
0
 62
7
  6
CONTINUOUS
370
-3
390
F
  0
LAYER
  5
206
100
AcDbSymbolTableRecord
100
AcDbLayerTableRecord
  2
10_NOTES
 70
0
 62
7
  6
CONTINUOUS
370
-3
390
F
  0
LAYER
  5
207
100
AcDbSymbolTableRecord
100
AcDbLayerTableRecord
  2
11_NOTES_PUB
 70
0
 62
7
  6
CONTINUOUS
370
-3
390
F
  0
LAYER
  5
208
100
AcDbSymbolTableRecord
100
AcDbLayerTableRecord
  2
13_REF_GTOL
 70
0
 62
7
  6
CONTINUOUS
370
-3
390
F
  0
LAYER
  5
209
100
AcDbSymbolTableRecord
100
AcDbLayerTableRecord
  2
16_MISC
 70
0
 62
7
  6
CONTINUOUS
370
-3
390
F
  0
LAYER
  5
20A
100
AcDbSymbolTableRecord
100
AcDbLayerTableRecord
  2
17_NO_PRINT
 70
0
 62
7
  6
CONTINUOUS
370
-3
390
F
  0
LAYER
  5
20B
100
AcDbSymbolTableRecord
100
AcDbLayerTableRecord
  2
18_DATUM_CAMS_JOINTS
 70
0
 62
7
  6
CONTINUOUS
370
-3
390
F
  0
LAYER
  5
20C
100
AcDbSymbolTableRecord
100
AcDbLayerTableRecord
  2
19_DATUM_FUNCTIONAL
 70
0
 62
7
  6
CONTINUOUS
370
-3
390
F
  0
LAYER
  5
20D
100
AcDbSymbolTableRecord
100
AcDbLayerTableRecord
  2
20_DATUM_KINEMATIC_SCHEME
 70
0
 62
7
  6
CONTINUOUS
370
-3
390
F
  0
ENDTAB
  0
TABLE
  2
STYLE
  5
3
100
AcDbSymbolTable
 70
1
  0
STYLE
  5
11
100
AcDbSymbolTableRecord
100
AcDbTextStyleTableRecord
  2
STANDARD
 70
0
 40
0.0
 41
1.0
 50
0.0
 71
0
 42
0.2
  3
ARIAL.TTF
  4

  0
STYLE
  5
20E
100
AcDbSymbolTableRecord
100
AcDbTextStyleTableRecord
  2
TEXTSTYLE_1
 70
0
 40
0.0
 41
0.8
 50
0.0
 71
0
 42
0.2
  3
gdt
  4

  0
ENDTAB
  0
TABLE
  2
VIEW
  5
6
100
AcDbSymbolTable
 70
0
  0
ENDTAB
  0
TABLE
  2
UCS
  5
7
100
AcDbSymbolTable
 70
0
  0
ENDTAB
  0
TABLE
  2
APPID
  5
9
100
AcDbSymbolTable
 70
1
  0
APPID
  5
20F
100
AcDbSymbolTableRecord
100
AcDbRegAppTableRecord
  2
ACAD
 70
0
  0
ENDTAB
  0
TABLE
  2
BLOCK_RECORD
  5
1
100
AcDbSymbolTable
 70
0
  0
BLOCK_RECORD
  5
210
100
AcDbSymbolTableRecord
100
AcDbBlockTableRecord
  2
*Model_Space
  0
BLOCK_RECORD
  5
211
100
AcDbSymbolTableRecord
100
AcDbBlockTableRecord
  2
*Paper_Space
  0
BLOCK_RECORD
  5
212
100
AcDbSymbolTableRecord
100
AcDbBlockTableRecord
  2
_FILLED
  0
ENDTAB
  0
TABLE
  2
DIMSTYLE
  5
A
100
AcDbSymbolTable
 70
1
100
AcDbDimStyleTable
 71
0
  0
DIMSTYLE
105
213
100
AcDbSymbolTableRecord
100
AcDbDimStyleTableRecord
  2
STANDARD
 70
0
  3

  4

 40
1.0
 41
0.456860844
 42
1.0
 43
0.38
 44
1.0
 45
0.0
 46
0.0
 47
0.01
 48
0.01
140
0.6396051816
141
0.09
142
0.0
143
25.4
144
1.0
145
0.0
146
1.0
147
0.625
 71
1
 72
0
 73
0
 74
0
 75
0
 76
0
 77
1
 78
8
 79
2
170
0
171
1
172
0
173
0
174
0
175
0
176
0
177
0
178
0
270
2
179
2
271
2
272
2
273
2
274
2
275
0
280
0
281
0
282
0
283
1
284
8
285
0
286
0
287
3
288
0
340
11
278
46
341
212
342
212
343
212
344
212
  0
ENDTAB
  0
ENDSEC
  0
SECTION
  2
BLOCKS
  0
BLOCK
  5
20
100
AcDbEntity
  8
0
100
AcDbBlockBegin
  2
*Model_Space
 70
0
 10
0.0
 20
0.0
 30
0.0
  3
*Model_Space
  1

  0
ENDBLK
  5
21
100
AcDbEntity
  8
0
100
AcDbBlockEnd
  0
BLOCK
  5
1C
100
AcDbEntity
  8
0
100
AcDbBlockBegin
  2
*Paper_Space
 70
0
 10
0.0
 20
0.0
 30
0.0
  3
*Paper_Space
  1

  0
ENDBLK
  5
1D
100
AcDbEntity
  8
0
100
AcDbBlockEnd
  0
BLOCK
  5
214
100
AcDbEntity
  8
0
100
AcDbBlockBegin
  2
_FILLED
 70
64
 10
0.0
 20
0.0
  3
_FILLED
  1

  0
SOLID
  5
215
100
AcDbEntity
  8
0
  6
BYBLOCK
 62
0
100
AcDbTrace
 10
0.0
 20
0.0
 11
-1.0
 21
0.25
 12
-1.0
 22
-0.25
 13
-1.0
 23
-0.25
  0
ENDBLK
  5
216
100
AcDbEntity
  8
0
  6
BYBLOCK
 62
0
100
AcDbBlockEnd
  0
ENDSEC
  0
SECTION
  2
ENTITIES
  0
LINE
  5
217
100
AcDbEntity
  8
0
100
AcDbLine
 62
7
  6
BYLAYER
 10
4.3425731267
 20
20.9569661027
 11
4.4201150401
 21
12.071542924
  0
LINE
  5
218
100
AcDbEntity
  8
0
100
AcDbLine
 62
7
  6
BYLAYER
 10
4.5004072005
 20
12.071542924
 11
4.5030281083
 21
11.771542924
  0
LWPOLYLINE
  5
219
100
AcDbEntity
  8
0
100
AcDbPolyline
 62
7
  6
BYLAYER
 90
3
 70
0
 10
4.2862934576
 20
27.1892402234
 10
4.2855851621
 20
29.9603464098
 10
4.2862752761
 20
36.7715429351
  0
LWPOLYLINE
  5
21A
100
AcDbEntity
  8
0
100
AcDbPolyline
 62
7
  6
BYLAYER
 90
3
 70
0
 10
4.2863958262
 20
36.771542921
 10
4.2873530841
 20
29.8628650562
 10
4.2868501989
 20
27.1892403657
  0
LINE
  5
21B
100
AcDbEntity
  8
0
100
AcDbLine
 62
7
  6
BYLAYER
 10
4.2863956539
 20
20.9564758493
 11
4.2863956539
 21
26.8029549658
  0
LINE
  5
21C
100
AcDbEntity
  8
0
100
AcDbLine
 62
7
  6
BYLAYER
 10
4.2863958262
 20
36.771542921
 11
4.2868501989
 21
27.1892403657
  0
LINE
  5
21D
100
AcDbEntity
  8
0
100
AcDbLine
 62
7
  6
BYLAYER
 10
4.3217540099
 20
28.8316744753
 11
4.2863956539
 21
26.8029519042
  0
LINE
  5
21E
100
AcDbEntity
  8
0
100
AcDbLine
 62
7
  6
BYLAYER
 10
4.2741373013
 20
36.7716499142
 11
4.3347742838
 21
40.2306052332
  0
LINE
  5
21F
100
AcDbEntity
  8
0
100
AcDbLine
 62
7
  6
BYLAYER
 10
4.5030281083
 20
11.771542924
 11
34.8697631994
 21
11.771542924
  0
LINE
  5
220
100
AcDbEntity
  8
0
100
AcDbLine
 62
7
  6
BYLAYER
 10
4.4201150401
 20
12.071542924
 11
34.9526762677
 21
12.071542924
  0
LINE
  5
221
100
AcDbEntity
  8
0
100
AcDbLine
 62
7
  6
BYLAYER
 10
7.2863956539
 20
40.2057100349
 11
7.2863956539
 21
21.6603223509
  0
LINE
  5
222
100
AcDbEntity
  8
0
100
AcDbLine
 62
7
  6
BYLAYER
 10
7.4863956539
 20
12.071542924
 11
7.4863956539
 21
26.521542924
  0
LINE
  5
223
100
AcDbEntity
  8
0
100
AcDbLine
 62
7
  6
BYLAYER
 10
7.9363956539
 20
27.5825397291
 11
7.9363956539
 21
26.771542924
  0
LINE
  5
224
100
AcDbEntity
  8
0
100
AcDbLine
 62
7
  6
BYLAYER
 10
9.1863956539
 20
11.771542924
 11
9.1863956539
 21
12.071542924
  0
LINE
  5
225
100
AcDbEntity
  8
0
100
AcDbLine
 62
7
  6
BYLAYER
 10
13.1863956539
 20
11.771542924
 11
13.1863956539
 21
12.071542924
  0
LINE
  5
226
100
AcDbEntity
  8
0
100
AcDbLine
 62
7
  6
BYLAYER
 10
35.0863956539
 20
20.9563681233
 11
32.7288746159
 21
20.9563681233
  0
LINE
  5
227
100
AcDbEntity
  8
0
100
AcDbLine
 62
7
  6
BYLAYER
 10
4.2863956539
 20
20.9563681233
 11
6.6439166919
 21
20.9563681233
  0
LINE
  5
228
100
AcDbEntity
  8
0
100
AcDbLine
 62
7
  6
BYLAYER
 10
35.0863956539
 20
22.4301895136
 11
32.0863956539
 21
22.4301895136
  0
LINE
  5
229
100
AcDbEntity
  8
0
100
AcDbLine
 62
7
  6
BYLAYER
 10
7.2863956539
 20
22.4301895136
 11
4.2863956539
 21
22.4301895136
  0
LINE
  5
22A
100
AcDbEntity
  8
0
100
AcDbLine
 62
7
  6
BYLAYER
 10
7.4863956539
 20
24.1389449773
 11
7.2863956539
 21
24.1389449773
  0
LINE
  5
22B
100
AcDbEntity
  8
0
100
AcDbLine
 62
7
  6
BYLAYER
 10
31.8863956539
 20
24.1389449773
 11
32.0863956539
 21
24.1389449773
  0
LINE
  5
22C
100
AcDbEntity
  8
0
100
AcDbLine
 62
7
  6
BYLAYER
 10
7.2863956539
 20
24.5841584981
 11
7.4863956539
 21
24.5841584981
  0
LINE
  5
22D
100
AcDbEntity
  8
0
100
AcDbLine
 62
7
  6
BYLAYER
 10
31.8863956539
 20
24.5841584981
 11
32.0863956539
 21
24.5841584981
  0
LINE
  5
22E
100
AcDbEntity
  8
0
100
AcDbLine
 62
7
  6
BYLAYER
 10
32.0863956539
 20
24.7250284708
 11
31.8863956539
 21
24.7250284708
  0
LINE
  5
22F
100
AcDbEntity
  8
0
100
AcDbLine
 62
7
  6
BYLAYER
 10
7.2863956539
 20
24.7250284708
 11
7.4863956539
 21
24.7250284708
  0
LINE
  5
230
100
AcDbEntity
  8
0
100
AcDbLine
 62
7
  6
BYLAYER
 10
32.0863956539
 20
24.9250284708
 11
31.8863956539
 21
24.9250284708
  0
LINE
  5
231
100
AcDbEntity
  8
0
100
AcDbLine
 62
7
  6
BYLAYER
 10
7.4863956539
 20
24.9250284708
 11
7.2863956539
 21
24.9250284708
  0
LINE
  5
232
100
AcDbEntity
  8
0
100
AcDbLine
 62
7
  6
BYLAYER
 10
31.8863956539
 20
25.756339302
 11
30.7398730075
 21
25.756339302
  0
LINE
  5
233
100
AcDbEntity
  8
0
100
AcDbLine
 62
7
  6
BYLAYER
 10
8.6329183003
 20
25.756339302
 11
7.4863956539
 21
25.756339302
  0
LINE
  5
234
100
AcDbEntity
  8
0
100
AcDbLine
 62
7
  6
BYLAYER
 10
31.8863956539
 20
26.521542924
 11
31.4337357784
 21
26.521542924
  0
LINE
  5
235
100
AcDbEntity
  8
0
100
AcDbLine
 62
7
  6
BYLAYER
 10
7.9390555294
 20
26.521542924
 11
7.4863956539
 21
26.521542924
  0
LINE
  5
236
100
AcDbEntity
  8
0
100
AcDbLine
 62
7
  6
BYLAYER
 10
7.2863956539
 20
26.6441669757
 11
7.9370860841
 21
26.6441669757
  0
LINE
  5
237
100
AcDbEntity
  8
0
100
AcDbLine
 62
7
  6
BYLAYER
 10
31.4357052237
 20
26.6441669757
 11
32.0863956539
 21
26.6441669757
  0
LINE
  5
238
100
AcDbEntity
  8
0
100
AcDbLine
 62
7
  6
BYLAYER
 10
4.2863956539
 20
26.8029519042
 11
7.2863956539
 21
26.8029519042
  0
LINE
  5
239
100
AcDbEntity
  8
0
100
AcDbLine
 62
7
  6
BYLAYER
 10
32.0863956539
 20
26.8029519042
 11
35.0863956539
 21
26.8029519042
  0
LINE
  5
23A
100
AcDbEntity
  8
0
100
AcDbLine
 62
7
  6
BYLAYER
 10
32.0863956539
 20
27.1036335674
 11
31.7786782208
 21
27.1036335657
  0
LINE
  5
23B
100
AcDbEntity
  8
0
100
AcDbLine
 62
7
  6
BYLAYER
 10
7.594113087
 20
27.1036335657
 11
7.2863956539
 21
27.1036335674
  0
LINE
  5
23C
100
AcDbEntity
  8
0
100
AcDbLine
 62
7
  6
BYLAYER
 10
7.594113087
 20
27.1413643743
 11
7.9363956539
 21
27.1413643743
  0
LINE
  5
23D
100
AcDbEntity
  8
0
100
AcDbLine
 62
7
  6
BYLAYER
 10
31.4363956539
 20
27.1413643743
 11
31.7786782208
 21
27.1413643743
  0
LINE
  5
23E
100
AcDbEntity
  8
0
100
AcDbLine
 62
7
  6
BYLAYER
 10
31.7224495018
 20
27.582539729
 11
31.4363956539
 21
27.582539729
  0
LINE
  5
23F
100
AcDbEntity
  8
0
100
AcDbLine
 62
7
  6
BYLAYER
 10
7.9363956539
 20
27.582539729
 11
7.6501111678
 21
27.582539729
  0
LINE
  5
240
100
AcDbEntity
  8
0
100
AcDbLine
 62
7
  6
BYLAYER
 10
31.7222715841
 20
27.9156050574
 11
7.6505197236
 21
27.9156050574
  0
LINE
  5
241
100
AcDbEntity
  8
0
100
AcDbLine
 62
7
  6
BYLAYER
 10
35.0510372979
 20
28.8316744753
 11
32.0863956539
 21
28.8316741923
  0
LINE
  5
242
100
AcDbEntity
  8
0
100
AcDbLine
 62
7
  6
BYLAYER
 10
4.3217540099
 20
28.8316744753
 11
7.2863956539
 21
28.8316744753
  0
LINE
  5
243
100
AcDbEntity
  8
0
100
AcDbLine
 62
7
  6
BYLAYER
 10
26.1863956539
 20
12.071542924
 11
26.1863956539
 21
11.771542924
  0
LINE
  5
244
100
AcDbEntity
  8
0
100
AcDbLine
 62
7
  6
BYLAYER
 10
35.0865184677
 20
36.771542924
 11
35.0863956539
 21
36.771542924
  0
LINE
  5
245
100
AcDbEntity
  8
0
100
AcDbLine
 62
7
  6
BYLAYER
 10
4.2863956539
 20
36.771542924
 11
4.2862752761
 21
36.771542924
  0
LINE
  5
246
100
AcDbEntity
  8
0
100
AcDbLine
 62
7
  6
BYLAYER
 10
30.1863956539
 20
12.071542924
 11
30.1863956539
 21
11.771542924
  0
LINE
  5
247
100
AcDbEntity
  8
0
100
AcDbLine
 62
7
  6
BYLAYER
 10
31.4363956539
 20
26.771542924
 11
31.4363956539
 21
27.5825397291
  0
LINE
  5
248
100
AcDbEntity
  8
0
100
AcDbLine
 62
7
  6
BYLAYER
 10
31.8863956539
 20
12.071542924
 11
31.8863956539
 21
26.521542924
  0
LINE
  5
249
100
AcDbEntity
  8
0
100
AcDbLine
 62
7
  6
BYLAYER
 10
32.0863956539
 20
21.6603223509
 11
32.0863956539
 21
40.2057100349
  0
LINE
  5
24A
100
AcDbEntity
  8
0
100
AcDbLine
 62
7
  6
BYLAYER
 10
7.2863956539
 20
40.2057100349
 11
32.0863956539
 21
40.2057100349
  0
LINE
  5
24B
100
AcDbEntity
  8
0
100
AcDbLine
 62
7
  6
BYLAYER
 10
35.0863956539
 20
26.8029519042
 11
35.0510372979
 21
28.8316744753
  0
LINE
  5
24C
100
AcDbEntity
  8
0
100
AcDbLine
 62
7
  6
BYLAYER
 10
35.0889404496
 20
37.3257469058
 11
35.0986558779
 21
36.7715429666
  0
LINE
  5
24D
100
AcDbEntity
  8
0
100
AcDbLine
 62
7
  6
BYLAYER
 10
35.0859413578
 20
27.1892258753
 11
35.0854382208
 21
29.8628646779
  0
LINE
  5
24E
100
AcDbEntity
  8
0
100
AcDbLine
 62
7
  6
BYLAYER
 10
35.0863956539
 20
26.8029388253
 11
35.0863956539
 21
20.9564758493
  0
LINE
  5
24F
100
AcDbEntity
  8
0
100
AcDbLine
 62
7
  6
BYLAYER
 10
35.0865184679
 20
36.7715415174
 11
35.0872061777
 21
29.9603464095
  0
LINE
  5
250
100
AcDbEntity
  8
0
100
AcDbLine
 62
7
  6
BYLAYER
 10
35.0854382208
 20
29.8628646779
 11
35.086397353
 21
36.7714359735
  0
LINE
  5
251
100
AcDbEntity
  8
0
100
AcDbLine
 62
7
  6
BYLAYER
 10
35.0859413578
 20
27.1892258753
 11
35.086397353
 21
36.7714359735
  0
LINE
  5
252
100
AcDbEntity
  8
0
100
AcDbLine
 62
7
  6
BYLAYER
 10
35.0872061777
 20
29.9603464095
 11
35.0864978684
 21
27.1892405552
  0
LINE
  5
253
100
AcDbEntity
  8
0
100
AcDbLine
 62
7
  6
BYLAYER
 10
34.8725120124
 20
12.0715418078
 11
34.8698905652
 21
11.7713187785
  0
LINE
  5
254
100
AcDbEntity
  8
0
100
AcDbLine
 62
7
  6
BYLAYER
 10
34.9526762677
 20
12.071542924
 11
35.030217241
 21
20.9568583849
  0
ARC
  5
255
100
AcDbEntity
  8
0
100
AcDbCircle
 62
7
  6
BYLAYER
 10
19.6863956539
 20
-76.908457076
 40
119.08
100
AcDbArc
 50
82.6039714654
 51
97.3960290901
  0
ARC
  5
256
100
AcDbEntity
  8
0
100
AcDbCircle
 62
7
  6
BYLAYER
 10
51.9718156318
 20
111.97963757
 40
96.3859206249
100
AcDbArc
 50
242.9731525944
 51
243.2210946641
  0
ARC
  5
257
100
AcDbEntity
  8
0
100
AcDbCircle
 62
7
  6
BYLAYER
 10
-12.3741305394
 20
111.5359595696
 40
95.8885021023
100
AcDbArc
 50
296.7783834743
 51
297.0276236249
  0
ARC
  5
258
100
AcDbEntity
  8
0
100
AcDbCircle
 62
7
  6
BYLAYER
 10
19.6863956539
 20
26.671542924
 40
12.1
100
AcDbArc
 50
2.0464656897
 51
177.9535343103
  0
ARC
  5
259
100
AcDbEntity
  8
0
100
AcDbCircle
 62
7
  6
BYLAYER
 10
19.6863956539
 20
26.771542924
 40
11.75
100
AcDbArc
 50
180.0
 51
182.0143051294
  0
ARC
  5
25A
100
AcDbEntity
  8
0
100
AcDbCircle
 62
7
  6
BYLAYER
 10
19.6863956539
 20
26.771542924
 40
11.75
100
AcDbArc
 50
357.9856948706
 51
360.0
  0
ARC
  5
25B
100
AcDbEntity
  8
0
100
AcDbCircle
 62
7
  6
BYLAYER
 10
19.6863956539
 20
26.771542924
 40
11.1
100
AcDbArc
 50
184.7554874328
 51
355.2445125672
  0
SPLINE
  5
25C
100
AcDbEntity
  8
0
100
AcDbSpline
 62
7
  6
BYLAYER
 70
0
 71
3
 72
29
 73
25
 74
0
 42
0.0000001
 43
0.0000001
 44
0.0000000001
 40
0.0
 40
0.0
 40
0.0
 40
0.0
 40
0.2007070515
 40
0.3927268387
 40
0.482824445
 40
0.5677502096
 40
0.6466766896
 40
0.7188208078
 40
0.7835066727
 40
0.8402933231
 40
0.8887783172
 40
0.9098143578
 40
0.9286831696
 40
0.9453633948
 40
0.9598337087
 40
0.9720746554
 40
0.9820840556
 40
0.9898694286
 40
0.9929306508
 40
0.9954390507
 40
0.9973959936
 40
0.9988033984
 40
0.9996651442
 40
1.0
 40
1.0
 40
1.0
 40
1.0
 10
4.3347742838
 20
40.2306052332
 30
0.0
 10
4.3358888295
 20
40.2941892384
 30
0.0
 10
4.3381453821
 20
40.418603809
 30
0.0
 10
4.3411172453
 20
40.5715573019
 30
0.0
 10
4.3435088232
 20
40.6878298751
 30
0.0
 10
4.3452302667
 20
40.7682751548
 30
0.0
 10
4.34689972
 20
40.8430316743
 30
0.0
 10
4.3485001441
 20
40.9113751134
 30
0.0
 10
4.350017002
 20
40.9727035627
 30
0.0
 10
4.3514352699
 20
41.0265357292
 30
0.0
 10
4.3525720984
 20
41.0665400516
 30
0.0
 10
4.3534316145
 20
41.0945330892
 30
0.0
 10
4.3540140843
 20
41.1124525258
 30
0.0
 10
4.3545642214
 20
41.128291623
 30
0.0
 10
4.3550809661
 20
41.1420302755
 30
0.0
 10
4.3555627079
 20
41.1536557947
 30
0.0
 10
4.356009284
 20
41.1631606036
 30
0.0
 10
4.3563707961
 20
41.1697625526
 30
0.0
 10
4.3566528362
 20
41.1739794085
 30
0.0
 10
4.356833561
 20
41.1763685089
 30
0.0
 10
4.3570128632
 20
41.1781920446
 30
0.0
 10
4.3571565657
 20
41.1795889169
 30
0.0
 10
4.3573256565
 20
41.1802806306
 30
0.0
 10
4.3574064947
 20
41.1807826415
 30
0.0
 10
4.357511651
 20
41.1807967509
 30
0.0
  0
LINE
  5
25D
100
AcDbEntity
  8
0
100
AcDbLine
 62
7
  6
BYLAYER
 10
35.0380170302
 20
40.2306052334
 11
35.0889404496
 21
37.3257469058
  0
SPLINE
  5
25E
100
AcDbEntity
  8
0
100
AcDbSpline
 62
7
  6
BYLAYER
 70
0
 71
3
 72
29
 73
25
 74
0
 42
0.0000001
 43
0.0000001
 44
0.0000000001
 40
0.0
 40
0.0
 40
0.0
 40
0.0
 40
0.0003343094
 40
0.0011969415
 40
0.0026062973
 40
0.0045658461
 40
0.0070771011
 40
0.0101410227
 40
0.0179297135
 40
0.027936968
 40
0.0401671815
 40
0.0546244789
 40
0.0713035057
 40
0.090178496
 40
0.1112209811
 40
0.1596944545
 40
0.2164932356
 40
0.2812429366
 40
0.3533550742
 40
0.4322231705
 40
0.5171543743
 40
0.6072726833
 40
0.7994044693
 40
1.0
 40
1.0
 40
1.0
 40
1.0
 10
35.0152794464
 20
41.1808091849
 30
0.0
 10
35.0153845508
 20
41.1807960106
 30
0.0
 10
35.0154653334
 20
41.1802919576
 30
0.0
 10
35.0156341993
 20
41.1796013274
 30
0.0
 10
35.0157778262
 20
41.1782016274
 30
0.0
 10
35.0159570599
 20
41.1763761679
 30
0.0
 10
35.01613776
 20
41.1739842653
 30
0.0
 10
35.0164197374
 20
41.1697646142
 30
0.0
 10
35.0167812254
 20
41.1631612997
 30
0.0
 10
35.017227801
 20
41.1536594214
 30
0.0
 10
35.0177096576
 20
41.1420419611
 30
0.0
 10
35.0182266151
 20
41.1283110506
 30
0.0
 10
35.018776821
 20
41.1124742968
 30
0.0
 10
35.0193594769
 20
41.094551012
 30
0.0
 10
35.0202190127
 20
41.066557262
 30
0.0
 10
35.0213560763
 20
41.0265501905
 30
0.0
 10
35.0227743437
 20
40.9726968974
 30
0.0
 10
35.0242905761
 20
40.9113536955
 30
0.0
 10
35.0258916757
 20
40.8430177934
 30
0.0
 10
35.0275612011
 20
40.76828722
 30
0.0
 10
35.0292821547
 20
40.6878511038
 30
0.0
 10
35.0316749204
 20
40.5715332663
 30
0.0
 10
35.0346458266
 20
40.4185710569
 30
0.0
 10
35.0369029965
 20
40.2941547317
 30
0.0
 10
35.0380170302
 20
40.2306052334
 30
0.0
  0
SPLINE
  5
25F
100
AcDbEntity
  8
0
100
AcDbSpline
 62
7
  6
BYLAYER
 70
0
 71
3
 72
10
 73
6
 74
0
 42
0.0000001
 43
0.0000001
 44
0.0000000001
 40
0.0
 40
0.0
 40
0.0
 40
0.0
 40
0.2635831368
 40
0.6465852677
 40
1.0
 40
1.0
 40
1.0
 40
1.0
 10
35.0510781481
 20
28.8316743338
 30
0.0
 10
35.0321312195
 20
29.918643844
 30
0.0
 10
34.9858224683
 20
32.5850483152
 30
0.0
 10
34.9156453543
 20
36.7088981681
 30
0.0
 10
34.865186482
 20
39.7457913235
 30
0.0
 10
34.8413955523
 20
41.2032374258
 30
0.0
  0
SPLINE
  5
260
100
AcDbEntity
  8
0
100
AcDbSpline
 62
7
  6
BYLAYER
 70
0
 71
3
 72
9
 73
5
 74
0
 42
0.0000001
 43
0.0000001
 44
0.0000000001
 40
0.0
 40
0.0
 40
0.0
 40
0.0
 40
0.2315192187
 40
1.0
 40
1.0
 40
1.0
 40
1.0
 10
4.5314368742
 20
41.2032414069
 30
0.0
 10
4.5158516183
 20
40.248479616
 30
0.0
 10
4.4477456117
 20
36.1245938491
 30
0.0
 10
4.3769940961
 20
32.0007521179
 30
0.0
 10
4.3217540099
 20
28.8316744753
 30
0.0
  0
SPLINE
  5
261
100
AcDbEntity
  8
0
100
AcDbSpline
 62
7
  6
BYLAYER
 70
0
 71
3
 72
11
 73
7
 74
0
 42
0.0000001
 43
0.0000001
 44
0.0000000001
 40
0.0
 40
0.0
 40
0.0
 40
0.0
 40
0.3290012742
 40
0.5987634689
 40
0.8168360312
 40
1.0
 40
1.0
 40
1.0
 40
1.0
 10
8.5452465049
 20
25.9309374719
 30
0.0
 10
8.5566592921
 20
25.9251782291
 30
0.0
 10
8.5769791135
 20
25.9137109899
 30
0.0
 10
8.6021350894
 20
25.8940957095
 30
0.0
 10
8.6188572066
 20
25.8736753868
 30
0.0
 10
8.6240198524
 20
25.858404881
 30
0.0
 10
8.6246098765
 20
25.8513123991
 30
0.0
  0
SPLINE
  5
262
100
AcDbEntity
  8
0
100
AcDbSpline
 62
7
  6
BYLAYER
 70
0
 71
3
 72
11
 73
7
 74
0
 42
0.0000001
 43
0.0000001
 44
0.0000000001
 40
0.0
 40
0.0
 40
0.0
 40
0.0
 40
0.1831562455
 40
0.4012127242
 40
0.6709831371
 40
1.0
 40
1.0
 40
1.0
 40
1.0
 10
30.7481838153
 20
25.8513060406
 30
0.0
 10
30.7487738513
 20
25.8583986711
 30
0.0
 10
30.7539312482
 20
25.8736705152
 30
0.0
 10
30.7706525141
 20
25.8940941406
 30
0.0
 10
30.7958112562
 20
25.9137095574
 30
0.0
 10
30.8161334721
 20
25.9251773598
 30
0.0
 10
30.8275475204
 20
25.9309372389
 30
0.0
  0
SPLINE
  5
263
100
AcDbEntity
  8
0
100
AcDbSpline
 62
7
  6
BYLAYER
 70
0
 71
3
 72
13
 73
9
 74
0
 42
0.0000001
 43
0.0000001
 44
0.0000000001
 40
0.0
 40
0.0
 40
0.0
 40
0.0
 40
0.0896000838
 40
0.1841529728
 40
0.2872038855
 40
0.4014631507
 40
0.6703827769
 40
1.0
 40
1.0
 40
1.0
 40
1.0
 10
7.9436559445
 20
26.3585471161
 30
0.0
 10
7.944018547
 20
26.3482373433
 30
0.0
 10
7.947267293
 20
26.3270692086
 30
0.0
 10
7.9592948163
 20
26.2960384949
 30
0.0
 10
7.9783241104
 20
26.2653846648
 30
0.0
 10
8.014866434
 20
26.2227486214
 30
0.0
 10
8.0795301638
 20
26.1712088861
 30
0.0
 10
8.1394800536
 20
26.1369111846
 30
0.0
 10
8.1732866634
 20
26.1196669497
 30
0.0
  0
SPLINE
  5
264
100
AcDbEntity
  8
0
100
AcDbSpline
 62
7
  6
BYLAYER
 70
0
 71
3
 72
13
 73
9
 74
0
 42
0.0000001
 43
0.0000001
 44
0.0000000001
 40
0.0
 40
0.0
 40
0.0
 40
0.0
 40
0.3296120844
 40
0.5985268535
 40
0.712787666
 40
0.8158421903
 40
0.9103983865
 40
1.0
 40
1.0
 40
1.0
 40
1.0
 10
31.199524684
 20
26.1196765441
 30
0.0
 10
31.2333282133
 20
26.1369192075
 30
0.0
 10
31.2932718676
 20
26.1712153228
 30
0.0
 10
31.3579278149
 20
26.2227529941
 30
0.0
 10
31.3944672286
 20
26.2653858719
 30
0.0
 10
31.4134967755
 20
26.2960373843
 30
0.0
 10
31.4255259912
 20
26.3270657651
 30
0.0
 10
31.4287755799
 20
26.3482328215
 30
0.0
 10
31.4291381609
 20
26.3585419916
 30
0.0
  0
ELLIPSE
  5
265
100
AcDbEntity
  8
0
100
AcDbEllipse
 62
7
  6
BYLAYER
 10
7.4524210577
 20
22.4563681233
 30
0.0
 11
0.8327581729
 21
1.4941367258
 31
0.0
 40
0.1591061666
 41
-3.053144749
 42
-2.0417726753
  0
ELLIPSE
  5
266
100
AcDbEntity
  8
0
100
AcDbEllipse
 62
7
  6
BYLAYER
 10
31.9203702501
 20
22.4563681233
 30
0.0
 11
-0.8327581729
 21
1.4941367258
 31
0.0
 40
0.1591061666
 41
-4.2414126319
 42
-3.2300403289
  0
ENDSEC
  0
SECTION
  2
OBJECTS
  0
DICTIONARY
  5
C
100
AcDbDictionary
280
0
281
1
  3
ACAD_GROUP
350
D
  3
ACAD_MLINESTYLE
350
17
  3
ACAD_LAYOUT
350
1A
  3
ACAD_PLOTSETTINGS
350
19
  3
ACAD_PLOTSTYLENAME
350
E
  0
DICTIONARY
  5
D
102
{ACAD_REACTORS
330
C
102
}
100
AcDbDictionary
280
0
281
1
  0
ACDBDICTIONARYWDFLT
  5
E
102
{ACAD_REACTORS
330
C
102
}
100
AcDbDictionary
281
1
  3
Normal
350
F
100
AcDbDictionaryWithDefault
340
F
  0
DICTIONARY
  5
17
102
{ACAD_REACTORS
330
C
102
}
100
AcDbDictionary
280
0
281
1
  3
Standard
350
18
  0
DICTIONARY
  5
19
102
{ACAD_REACTORS
330
C
102
}
100
AcDbDictionary
281
1
  0
DICTIONARY
  5
1A
102
{ACAD_REACTORS
330
C
102
}
100
AcDbDictionary
281
1
  3
Model
350
267
  3
Layout1
350
268
  0
ACDBPLACEHOLDER
  5
F
102
{ACAD_REACTORS
330
E
102
}
  0
MLINESTYLE
  5
18
102
{ACAD_REACTORS
330
17
102
}
100
AcDbMlineStyle
  2
STANDARD
 70
0
  3

 62
256
 51
90.0
 52
90.0
 71
2
 49
0.5
 62
256
  6
BYLAYER
 49
-0.5
 62
256
  6
BYLAYER
  0
LAYOUT
  5
267
102
{ACAD_REACTORS
330
1A
102
}
100
AcDbPlotSettings
  1

  2
none_device
  4

  6

 40
0.0
 41
0.0
 42
0.0
 43
0.0
 44
210.0
 45
297.0
 46
0.0
 47
0.0
 48
0.0
 49
0.0
140
0.0
141
0.0
142
1.0
143
1.0
 70
1024
 72
1
 73
0
 74
0
  7

 75
0
147
1.0
148
0.0
149
0.0
100
AcDbLayout
  1
Model
 70
0
 71
0
 10
0.0
 20
0.0
 11
210.0
 21
297.0
 12
0.0
 22
0.0
 32
0.0
 14
0.0
 24
0.0
 34
0.0
 15
0.0
 25
0.0
 35
0.0
146
0.0
 13
0.0
 23
0.0
 33
0.0
 16
1.0
 26
0.0
 36
0.0
 17
0.0
 27
1.0
 37
0.0
 76
0
330
210
345
0
346
0
  0
LAYOUT
  5
268
102
{ACAD_REACTORS
330
1A
102
}
100
AcDbPlotSettings
  1

  2
none_device
  4

  6

 40
0.0
 41
0.0
 42
0.0
 43
0.0
 44
210.0
 45
297.0
 46
0.0
 47
0.0
 48
0.0
 49
0.0
140
0.0
141
0.0
142
1.0
143
1.0
 70
0
 72
1
 73
0
 74
0
  7

 75
0
147
1.0
148
0.0
149
0.0
100
AcDbLayout
  1
Layout1
 70
0
 71
1
 10
0.0
 20
0.0
 11
210.0
 21
297.0
 12
0.0
 22
0.0
 32
0.0
 14
0.0
 24
0.0
 34
0.0
 15
0.0
 25
0.0
 35
0.0
146
0.0
 13
0.0
 23
0.0
 33
0.0
 16
1.0
 26
0.0
 36
0.0
 17
0.0
 27
1.0
 37
0.0
 76
0
330
211
345
0
346
0
  0
ENDSEC
  0
EOF
