999
DXF file: C:\Users\sesa63760\Dev\_Creo\CAD\MCADID0004818_3D-CAD\drw0001_7.dxf
999
Pro/ENGINEER 2019471 by Parametric Technology Corporation
  0
SECTION
  2
HEADER
  9
$ACADVER
  1
AC1024
  9
$DWGCODEPAGE
  3
ANSI_1252
  9
$EXTMAX
 10
67.5131477656
 20
95.4828804114
 30
0.0
  9
$EXTMIN
 10
0.0
 20
0.0
 30
0.0
  9
$LIMMIN
 10
0.0
 20
0.0
  9
$LIMMAX
 10
67.5131477656
 20
95.4828804114
  9
$VIEWCTR
 10
33.7565738828
 20
47.7414402057
  9
$VIEWSIZE
 40
95.4828804114
  9
$CLAYER
  8
0
  9
$LTSCALE
 40
6.2240692416
  9
$CELTYPE
  6
BYLAYER
  9
$DIMSCALE
 40
1.0
  9
$DIMASZ
 40
0.8037279496
  9
$DIMEXO
 40
1.0
  9
$DIMDLI
 40
4.3002660215
  9
$DIMEXE
 40
1.0
  9
$DIMCEN
 40
1.0184840577
  9
$DIMLFAC
 40
1.0
  9
$DIMBLK
  1
_FILLED
  9
$DIMALT
 70
0
  9
$DIMALTF
 40
0.0393700787
  9
$DIMTXT
 40
1.1252191294
  9
$DIMTOL
 70
1
  9
$DIMLIM
 70
0
  9
$DIMTFAC
 40
1.0
  9
$DIMTP
 40
0.01
  9
$DIMTM
 40
0.01
  9
$DIMGAP
 40
0.625
  9
$DIMDSEP
 70
46
  9
$AUNITS
 70
0
  9
$PDMODE
 70
3
  9
$PDSIZE
 40
0.3125
  9
$HANDSEED
  5
258
  9
$TILEMODE
 70
1
  9
$MEASUREMENT
 70
1
  9
$INSUNITS
 70
4
  0
ENDSEC
  0
SECTION
  2
CLASSES
  0
CLASS
  1
ACDBDICTIONARYWDFLT
  2
AcDbDictionaryWithDefault
  3
AutoCAD 2000
 90
0
 91
1
280
0
281
0
  0
CLASS
  1
ACDBPLACEHOLDER
  2
AcDbPlaceHolder
  3
AutoCAD 2000
 90
0
 91
1
280
0
281
0
  0
CLASS
  1
LAYOUT
  2
AcDbLayout
  3
AutoCAD 2000
 90
0
 91
0
280
0
281
0
  0
ENDSEC
  0
SECTION
  2
TABLES
  0
TABLE
  2
VPORT
  5
8
100
AcDbSymbolTable
 70
2
  0
VPORT
  5
1F4
100
AcDbSymbolTableRecord
100
AcDbViewportTableRecord
  2
*ACTIVE
 70
0
 10
0.0
 20
0.0
 11
1.0
 21
1.0
 12
33.7565738828
 22
47.7414402057
 13
0.0
 23
0.0
 14
1.0
 24
1.0
 15
0.0
 25
0.0
 16
0.0
 26
0.0
 36
1.0
 17
0.0
 27
0.0
 37
0.0
 40
95.4828804114
 41
0.7070707071
 42
50.0
 43
0.0
 44
0.0
 50
0.0
 51
0.0
 71
0
 72
100
 73
1
 74
1
 75
0
 76
0
 77
0
 78
0
  0
ENDTAB
  0
TABLE
  2
LTYPE
  5
5
100
AcDbSymbolTable
 70
6
  0
LTYPE
  5
14
100
AcDbSymbolTableRecord
100
AcDbLinetypeTableRecord
  2
BYBLOCK
 70
0
  3

 72
65
 73
0
 40
0.0
  0
LTYPE
  5
15
100
AcDbSymbolTableRecord
100
AcDbLinetypeTableRecord
  2
BYLAYER
 70
0
  3

 72
65
 73
0
 40
0.0
  0
LTYPE
  5
16
100
AcDbSymbolTableRecord
100
AcDbLinetypeTableRecord
  2
CONTINUOUS
 70
64
  3
Solid line
 72
65
 73
0
 40
0.0
  0
LTYPE
  5
1F5
100
AcDbSymbolTableRecord
100
AcDbLinetypeTableRecord
  2
CENTER
 70
64
  3
____ _ ____ _ ____ _ ____ _ ____ _ ____ _ ____
 72
65
 73
4
 40
0.6
 49
0.375
 74
0
 49
-0.075
 74
0
 49
0.075
 74
0
 49
-0.075
 74
0
  0
LTYPE
  5
1F6
100
AcDbSymbolTableRecord
100
AcDbLinetypeTableRecord
  2
HIDDEN
 70
64
  3
- - - - - - - - - - - - - - - - - - - -
 72
65
 73
2
 40
0.2
 49
0.1
 74
0
 49
-0.1
 74
0
  0
LTYPE
  5
1F7
100
AcDbSymbolTableRecord
100
AcDbLinetypeTableRecord
  2
PHANTOM
 70
64
  3
_____ _ _ _____ _ _ _____ _ _ _____
 72
65
 73
6
 40
0.8
 49
0.45
 74
0
 49
-0.05
 74
0
 49
0.1
 74
0
 49
-0.05
 74
0
 49
0.1
 74
0
 49
-0.05
 74
0
  0
LTYPE
  5
1F8
100
AcDbSymbolTableRecord
100
AcDbLinetypeTableRecord
  2
DOT
 70
64
  3
. . . . . . . . . . . . . . . . . . . .
 72
65
 73
2
 40
0.2
 49
0.1
 74
0
 49
-0.1
 74
0
  0
LTYPE
  5
1F9
100
AcDbSymbolTableRecord
100
AcDbLinetypeTableRecord
  2
DASHED
 70
64
  3
- - - - - - - - - - - - - - - - - - - -
 72
65
 73
2
 40
0.2
 49
0.1
 74
0
 49
-0.1
 74
0
  0
ENDTAB
  0
TABLE
  2
LAYER
  5
2
100
AcDbSymbolTable
 70
36
  0
LAYER
  5
10
100
AcDbSymbolTableRecord
100
AcDbLayerTableRecord
  2
0
 70
0
 62
7
  6
CONTINUOUS
370
-3
390
F
  0
LAYER
  5
1FA
100
AcDbSymbolTableRecord
100
AcDbLayerTableRecord
  2
DEFAULT_1
 70
0
 62
7
  6
CENTER
370
-3
390
F
  0
LAYER
  5
1FB
100
AcDbSymbolTableRecord
100
AcDbLayerTableRecord
  2
DEFAULT_2
 70
0
 62
7
  6
HIDDEN
370
-3
390
F
  0
LAYER
  5
1FC
100
AcDbSymbolTableRecord
100
AcDbLayerTableRecord
  2
DEFAULT_3
 70
0
 62
7
  6
PHANTOM
370
-3
390
F
  0
LAYER
  5
1FD
100
AcDbSymbolTableRecord
100
AcDbLayerTableRecord
  2
00_COMPONENTS
 70
0
 62
7
  6
CONTINUOUS
370
-3
390
F
  0
LAYER
  5
1FE
100
AcDbSymbolTableRecord
100
AcDbLayerTableRecord
  2
01_1_DEFAULT_DATUMS
 70
0
 62
7
  6
CONTINUOUS
370
-3
390
F
  0
LAYER
  5
1FF
100
AcDbSymbolTableRecord
100
AcDbLayerTableRecord
  2
01_PLANES
 70
0
 62
7
  6
CONTINUOUS
370
-3
390
F
  0
LAYER
  5
200
100
AcDbSymbolTableRecord
100
AcDbLayerTableRecord
  2
02_COORD_SYS
 70
0
 62
7
  6
CONTINUOUS
370
-3
390
F
  0
LAYER
  5
201
100
AcDbSymbolTableRecord
100
AcDbLayerTableRecord
  2
03_AXES
 70
0
 62
7
  6
CONTINUOUS
370
-3
390
F
  0
LAYER
  5
202
100
AcDbSymbolTableRecord
100
AcDbLayerTableRecord
  2
04_POINTS
 70
0
 62
7
  6
CONTINUOUS
370
-3
390
F
  0
LAYER
  5
203
100
AcDbSymbolTableRecord
100
AcDbLayerTableRecord
  2
05_CURVES
 70
0
 62
7
  6
CONTINUOUS
370
-3
390
F
  0
LAYER
  5
204
100
AcDbSymbolTableRecord
100
AcDbLayerTableRecord
  2
06_SURFS
 70
0
 62
7
  6
CONTINUOUS
370
-3
390
F
  0
LAYER
  5
205
100
AcDbSymbolTableRecord
100
AcDbLayerTableRecord
  2
07_COSMETICS
 70
0
 62
7
  6
CONTINUOUS
370
-3
390
F
  0
LAYER
  5
206
100
AcDbSymbolTableRecord
100
AcDbLayerTableRecord
  2
10_NOTES
 70
0
 62
7
  6
CONTINUOUS
370
-3
390
F
  0
LAYER
  5
207
100
AcDbSymbolTableRecord
100
AcDbLayerTableRecord
  2
11_NOTES_PUB
 70
0
 62
7
  6
CONTINUOUS
370
-3
390
F
  0
LAYER
  5
208
100
AcDbSymbolTableRecord
100
AcDbLayerTableRecord
  2
13_REF_GTOL
 70
0
 62
7
  6
CONTINUOUS
370
-3
390
F
  0
LAYER
  5
209
100
AcDbSymbolTableRecord
100
AcDbLayerTableRecord
  2
16_MISC
 70
0
 62
7
  6
CONTINUOUS
370
-3
390
F
  0
LAYER
  5
20A
100
AcDbSymbolTableRecord
100
AcDbLayerTableRecord
  2
17_NO_PRINT
 70
0
 62
7
  6
CONTINUOUS
370
-3
390
F
  0
LAYER
  5
20B
100
AcDbSymbolTableRecord
100
AcDbLayerTableRecord
  2
18_DATUM_CAMS_JOINTS
 70
0
 62
7
  6
CONTINUOUS
370
-3
390
F
  0
LAYER
  5
20C
100
AcDbSymbolTableRecord
100
AcDbLayerTableRecord
  2
19_DATUM_FUNCTIONAL
 70
0
 62
7
  6
CONTINUOUS
370
-3
390
F
  0
LAYER
  5
20D
100
AcDbSymbolTableRecord
100
AcDbLayerTableRecord
  2
20_DATUM_KINEMATIC_SCHEME
 70
0
 62
7
  6
CONTINUOUS
370
-3
390
F
  0
ENDTAB
  0
TABLE
  2
STYLE
  5
3
100
AcDbSymbolTable
 70
1
  0
STYLE
  5
11
100
AcDbSymbolTableRecord
100
AcDbTextStyleTableRecord
  2
STANDARD
 70
0
 40
0.0
 41
1.0
 50
0.0
 71
0
 42
0.2
  3
ARIAL.TTF
  4

  0
STYLE
  5
20E
100
AcDbSymbolTableRecord
100
AcDbTextStyleTableRecord
  2
TEXTSTYLE_1
 70
0
 40
0.0
 41
0.8
 50
0.0
 71
0
 42
0.2
  3
gdt
  4

  0
ENDTAB
  0
TABLE
  2
VIEW
  5
6
100
AcDbSymbolTable
 70
0
  0
ENDTAB
  0
TABLE
  2
UCS
  5
7
100
AcDbSymbolTable
 70
0
  0
ENDTAB
  0
TABLE
  2
APPID
  5
9
100
AcDbSymbolTable
 70
1
  0
APPID
  5
20F
100
AcDbSymbolTableRecord
100
AcDbRegAppTableRecord
  2
ACAD
 70
0
  0
ENDTAB
  0
TABLE
  2
BLOCK_RECORD
  5
1
100
AcDbSymbolTable
 70
0
  0
BLOCK_RECORD
  5
210
100
AcDbSymbolTableRecord
100
AcDbBlockTableRecord
  2
*Model_Space
  0
BLOCK_RECORD
  5
211
100
AcDbSymbolTableRecord
100
AcDbBlockTableRecord
  2
*Paper_Space
  0
BLOCK_RECORD
  5
212
100
AcDbSymbolTableRecord
100
AcDbBlockTableRecord
  2
_FILLED
  0
ENDTAB
  0
TABLE
  2
DIMSTYLE
  5
A
100
AcDbSymbolTable
 70
1
100
AcDbDimStyleTable
 71
0
  0
DIMSTYLE
105
213
100
AcDbSymbolTableRecord
100
AcDbDimStyleTableRecord
  2
STANDARD
 70
0
  3

  4

 40
1.0
 41
0.8037279496
 42
1.0
 43
0.38
 44
1.0
 45
0.0
 46
0.0
 47
0.01
 48
0.01
140
1.1252191294
141
0.09
142
0.0
143
25.4
144
1.0
145
0.0
146
1.0
147
0.625
 71
1
 72
0
 73
0
 74
0
 75
0
 76
0
 77
1
 78
8
 79
2
170
0
171
1
172
0
173
0
174
0
175
0
176
0
177
0
178
0
270
2
179
2
271
2
272
2
273
2
274
2
275
0
280
0
281
0
282
0
283
1
284
8
285
0
286
0
287
3
288
0
340
11
278
46
341
212
342
212
343
212
344
212
  0
ENDTAB
  0
ENDSEC
  0
SECTION
  2
BLOCKS
  0
BLOCK
  5
20
100
AcDbEntity
  8
0
100
AcDbBlockBegin
  2
*Model_Space
 70
0
 10
0.0
 20
0.0
 30
0.0
  3
*Model_Space
  1

  0
ENDBLK
  5
21
100
AcDbEntity
  8
0
100
AcDbBlockEnd
  0
BLOCK
  5
1C
100
AcDbEntity
  8
0
100
AcDbBlockBegin
  2
*Paper_Space
 70
0
 10
0.0
 20
0.0
 30
0.0
  3
*Paper_Space
  1

  0
ENDBLK
  5
1D
100
AcDbEntity
  8
0
100
AcDbBlockEnd
  0
BLOCK
  5
214
100
AcDbEntity
  8
0
100
AcDbBlockBegin
  2
_FILLED
 70
64
 10
0.0
 20
0.0
  3
_FILLED
  1

  0
SOLID
  5
215
100
AcDbEntity
  8
0
  6
BYBLOCK
 62
0
100
AcDbTrace
 10
0.0
 20
0.0
 11
-1.0
 21
0.25
 12
-1.0
 22
-0.25
 13
-1.0
 23
-0.25
  0
ENDBLK
  5
216
100
AcDbEntity
  8
0
  6
BYBLOCK
 62
0
100
AcDbBlockEnd
  0
ENDSEC
  0
SECTION
  2
ENTITIES
  0
LINE
  5
217
100
AcDbEntity
  8
0
100
AcDbLine
 62
7
  6
BYLAYER
 10
35.5779834163
 20
24.4522173164
 11
59.3779836623
 21
24.4522173164
  0
LINE
  5
218
100
AcDbEntity
  8
0
100
AcDbLine
 62
7
  6
BYLAYER
 10
30.5779834627
 20
24.5522173164
 11
35.0010356787
 21
24.5522173164
  0
LINE
  5
219
100
AcDbEntity
  8
0
100
AcDbLine
 62
7
  6
BYLAYER
 10
59.8535855891
 20
24.5522173164
 11
60.5779834627
 21
24.5522173164
  0
LINE
  5
21A
100
AcDbEntity
  8
0
100
AcDbLine
 62
7
  6
BYLAYER
 10
59.3779834627
 20
24.7522173164
 11
35.5779834627
 21
24.7522173164
  0
LINE
  5
21B
100
AcDbEntity
  8
0
100
AcDbLine
 62
7
  6
BYLAYER
 10
49.6779834627
 20
26.2522173164
 11
41.3279834627
 21
26.2522173164
  0
LINE
  5
21C
100
AcDbEntity
  8
0
100
AcDbLine
 62
7
  6
BYLAYER
 10
41.3279834627
 20
28.0522173164
 11
49.6779834627
 21
28.0522173164
  0
LINE
  5
21D
100
AcDbEntity
  8
0
100
AcDbLine
 62
7
  6
BYLAYER
 10
30.5779834627
 20
24.5522173164
 11
30.5779834627
 21
72.6422173164
  0
LINE
  5
21E
100
AcDbEntity
  8
0
100
AcDbLine
 62
7
  6
BYLAYER
 10
31.2779834627
 20
28.5169319191
 11
31.2779834624
 21
63.6456040275
  0
LINE
  5
21F
100
AcDbEntity
  8
0
100
AcDbLine
 62
7
  6
BYLAYER
 10
31.2779834623
 20
65.2588306053
 11
31.2779834627
 21
72.8084702382
  0
LINE
  5
220
100
AcDbEntity
  8
0
100
AcDbLine
 62
7
  6
BYLAYER
 10
19.370748297
 20
30.4246788007
 11
15.6282795315
 21
24.0407985121
  0
LINE
  5
221
100
AcDbEntity
  8
0
100
AcDbLine
 62
7
  6
BYLAYER
 10
7.1686237071
 20
32.5004543366
 11
13.5525039957
 21
36.242923102
  0
LINE
  5
222
100
AcDbEntity
  8
0
100
AcDbLine
 62
7
  6
BYLAYER
 10
35.5779834599
 20
24.4522173164
 11
35.5779834599
 21
24.7522173164
  0
LINE
  5
223
100
AcDbEntity
  8
0
100
AcDbLine
 62
7
  6
BYLAYER
 10
36.2029834627
 20
70.4522173164
 11
36.2029834627
 21
71.9522173164
  0
LINE
  5
224
100
AcDbEntity
  8
0
100
AcDbLine
 62
7
  6
BYLAYER
 10
36.8029834627
 20
71.9522173164
 11
36.8029834627
 21
70.4522173164
  0
LINE
  5
225
100
AcDbEntity
  8
0
100
AcDbLine
 62
7
  6
BYLAYER
 10
37.5779834627
 20
73.9354601967
 11
37.5779834627
 21
74.4522173164
  0
LINE
  5
226
100
AcDbEntity
  8
0
100
AcDbLine
 62
7
  6
BYLAYER
 10
41.3279834627
 20
26.2522173164
 11
41.3279834627
 21
28.0522173164
  0
LINE
  5
227
100
AcDbEntity
  8
0
100
AcDbLine
 62
7
  6
BYLAYER
 10
41.4779834627
 20
28.0522173164
 11
41.4779834627
 21
26.2522173164
  0
LINE
  5
228
100
AcDbEntity
  8
0
100
AcDbLine
 62
7
  6
BYLAYER
 10
59.5831257361
 20
65.203523093
 11
59.8779845259
 21
65.2588249389
  0
LINE
  5
229
100
AcDbEntity
  8
0
100
AcDbLine
 62
7
  6
BYLAYER
 10
49.6779834627
 20
28.0522173164
 11
49.6779834627
 21
26.2522173164
  0
LINE
  5
22A
100
AcDbEntity
  8
0
100
AcDbLine
 62
7
  6
BYLAYER
 10
31.5728412873
 20
63.7009110178
 11
31.2779822255
 21
63.6456106218
  0
LINE
  5
22B
100
AcDbEntity
  8
0
100
AcDbLine
 62
7
  6
BYLAYER
 10
31.5029874564
 20
64.4522171251
 11
31.1467295077
 21
64.4522176339
  0
LINE
  5
22C
100
AcDbEntity
  8
0
100
AcDbLine
 62
7
  6
BYLAYER
 10
59.6529811377
 20
64.4522174527
 11
60.0092358727
 21
64.4522170973
  0
LINE
  5
22D
100
AcDbEntity
  8
0
100
AcDbLine
 62
7
  6
BYLAYER
 10
31.5728406053
 20
65.2035199798
 11
31.2779834625
 21
65.2588306053
  0
LINE
  5
22E
100
AcDbEntity
  8
0
100
AcDbLine
 62
7
  6
BYLAYER
 10
53.5779834627
 20
73.9354601967
 11
53.5779834627
 21
74.4522173164
  0
LINE
  5
22F
100
AcDbEntity
  8
0
100
AcDbLine
 62
7
  6
BYLAYER
 10
59.5831263201
 20
63.7009146529
 11
59.8779834629
 21
63.6456040274
  0
LINE
  5
230
100
AcDbEntity
  8
0
100
AcDbLine
 62
7
  6
BYLAYER
 10
54.3529834627
 20
71.9522173164
 11
54.3529834627
 21
70.4522173164
  0
LINE
  5
231
100
AcDbEntity
  8
0
100
AcDbLine
 62
7
  6
BYLAYER
 10
54.9529834627
 20
71.9522173164
 11
54.9529834627
 21
70.4522173164
  0
LINE
  5
232
100
AcDbEntity
  8
0
100
AcDbLine
 62
7
  6
BYLAYER
 10
54.9529834627
 20
70.4522173164
 11
36.2029834627
 21
70.4522173164
  0
LINE
  5
233
100
AcDbEntity
  8
0
100
AcDbLine
 62
7
  6
BYLAYER
 10
36.2029834627
 20
71.9522173164
 11
54.9529834627
 21
71.9522173164
  0
LINE
  5
234
100
AcDbEntity
  8
0
100
AcDbLine
 62
7
  6
BYLAYER
 10
59.3779837029
 20
24.4522173164
 11
59.3779837029
 21
24.7522173164
  0
LINE
  5
235
100
AcDbEntity
  8
0
100
AcDbLine
 62
7
  6
BYLAYER
 10
59.8779834627
 20
72.8084702382
 11
59.877983463
 21
65.2588285701
  0
LINE
  5
236
100
AcDbEntity
  8
0
100
AcDbLine
 62
7
  6
BYLAYER
 10
59.877983463
 20
63.6456040272
 11
59.8779834627
 21
24.9722281727
  0
LINE
  5
237
100
AcDbEntity
  8
0
100
AcDbLine
 62
7
  6
BYLAYER
 10
60.5779834627
 20
24.5522173164
 11
60.5779834627
 21
72.6422173164
  0
LINE
  5
238
100
AcDbEntity
  8
0
100
AcDbLine
 62
7
  6
BYLAYER
 10
37.5779834627
 20
74.4522173164
 11
53.5779834627
 21
74.4522173164
  0
LINE
  5
239
100
AcDbEntity
  8
0
100
AcDbLine
 62
7
  6
BYLAYER
 10
60.5779834627
 20
25.6522224232
 11
60.555374798
 21
25.4203776228
  0
ARC
  5
23A
100
AcDbEntity
  8
0
100
AcDbCircle
 62
7
  6
BYLAYER
 10
45.5779834627
 20
11.0422173164
 40
63.4
100
AcDbArc
 50
76.3144531747
 51
103.6855468253
  0
ARC
  5
23B
100
AcDbEntity
  8
0
100
AcDbCircle
 62
7
  6
BYLAYER
 10
27.6142943613
 20
44.4864691663
 40
23.7
100
AcDbArc
 50
210.3804226091
 51
239.6195773909
  0
ARC
  5
23C
100
AcDbEntity
  8
0
100
AcDbCircle
 62
7
  6
BYLAYER
 10
25.0855992495
 20
40.1730365388
 40
18.7
100
AcDbArc
 50
239.6195773909
 51
299.9003645997
  0
ARC
  5
23D
100
AcDbEntity
  8
0
100
AcDbCircle
 62
7
  6
BYLAYER
 10
27.6142943613
 20
44.4864691663
 40
16.3
100
AcDbArc
 50
210.3804226091
 51
239.6195773909
  0
ARC
  5
23E
100
AcDbEntity
  8
0
100
AcDbCircle
 62
7
  6
BYLAYER
 10
25.0855992495
 20
40.1730365388
 40
11.3
100
AcDbArc
 50
239.6195773909
 51
299.1285983967
  0
ARC
  5
23F
100
AcDbEntity
  8
0
100
AcDbCircle
 62
7
  6
BYLAYER
 10
35.5779834627
 20
29.4522173164
 40
5.0
100
AcDbArc
 50
180.0
 51
269.999999734
  0
ARC
  5
240
100
AcDbEntity
  8
0
100
AcDbCircle
 62
7
  6
BYLAYER
 10
35.7765995542
 20
29.0741568831
 40
4.5329866616
100
AcDbArc
 50
187.0610259119
 51
205.2837218486
  0
ARC
  5
241
100
AcDbEntity
  8
0
100
AcDbCircle
 62
7
  6
BYLAYER
 10
35.5779834627
 20
64.4522173164
 40
4.375
100
AcDbArc
 50
190.6243314825
 51
169.3756685182
  0
ARC
  5
242
100
AcDbEntity
  8
0
100
AcDbCircle
 62
7
  6
BYLAYER
 10
55.5779834627
 20
64.4522173164
 40
4.375
100
AcDbArc
 50
10.6243052855
 51
349.3756685132
  0
CIRCLE
  5
243
100
AcDbEntity
  8
0
100
AcDbCircle
 62
7
  6
BYLAYER
 10
35.5779834627
 20
64.4522173164
 40
4.075
  0
CIRCLE
  5
244
100
AcDbEntity
  8
0
100
AcDbCircle
 62
7
  6
BYLAYER
 10
55.5779834627
 20
64.4522173164
 40
4.075
  0
CIRCLE
  5
245
100
AcDbEntity
  8
0
100
AcDbCircle
 62
7
  6
BYLAYER
 10
35.5779834627
 20
64.4522173164
 40
2.125
  0
CIRCLE
  5
246
100
AcDbEntity
  8
0
100
AcDbCircle
 62
7
  6
BYLAYER
 10
55.5779834627
 20
64.4522173164
 40
2.125
  0
ARC
  5
247
100
AcDbEntity
  8
0
100
AcDbCircle
 62
7
  6
BYLAYER
 10
59.3779834627
 20
25.6522173164
 40
1.2
100
AcDbArc
 50
270.0000047641
 51
348.8604231624
  0
SPLINE
  5
248
100
AcDbEntity
  8
0
100
AcDbSpline
 62
7
  6
BYLAYER
 70
0
 71
3
 72
17
 73
13
 74
0
 42
0.0000001
 43
0.0000001
 44
0.0000000001
 40
0.0
 40
0.0
 40
0.0
 40
0.0
 40
0.0202787395
 40
0.042436841
 40
0.0692653672
 40
0.1029507152
 40
0.1952519236
 40
0.3206919947
 40
0.4749187302
 40
0.6473065227
 40
0.8258286145
 40
1.0
 40
1.0
 40
1.0
 40
1.0
 10
60.0888645325
 20
24.6854453803
 30
0.0
 10
60.0908970373
 20
24.6869398902
 30
0.0
 10
60.0945835389
 20
24.6909519872
 30
0.0
 10
60.0974528712
 20
24.6992812929
 30
0.0
 10
60.0975696151
 20
24.7096892232
 30
0.0
 10
60.0935113679
 20
24.7283678769
 30
0.0
 10
60.079743129
 20
24.7567964729
 30
0.0
 10
60.0540607246
 20
24.7953235979
 30
0.0
 10
60.0182443462
 20
24.8388004433
 30
0.0
 10
59.9752061381
 20
24.8846276817
 30
0.0
 10
59.9278350604
 20
24.9296534938
 30
0.0
 10
59.8946706697
 20
24.9584061761
 30
0.0
 10
59.8779866
 20
24.9722319586
 30
0.0
  0
SPLINE
  5
249
100
AcDbEntity
  8
0
100
AcDbSpline
 62
7
  6
BYLAYER
 70
0
 71
3
 72
11
 73
7
 74
0
 42
0.0000001
 43
0.0000001
 44
0.0000000001
 40
0.0
 40
0.0
 40
0.0
 40
0.0
 40
0.1771565823
 40
0.4022483877
 40
0.6777607299
 40
1.0
 40
1.0
 40
1.0
 40
1.0
 10
60.5779834627
 20
25.6522273177
 30
0.0
 10
60.5779834951
 20
25.6379672122
 30
0.0
 10
60.5700297229
 20
25.6057637061
 30
0.0
 10
60.5444502957
 20
25.5574100563
 30
0.0
 10
60.5058089619
 20
25.5034253024
 30
0.0
 10
60.474597338
 20
25.4667668565
 30
0.0
 10
60.4572813059
 20
25.447454739
 30
0.0
  0
SPLINE
  5
24A
100
AcDbEntity
  8
0
100
AcDbSpline
 62
7
  6
BYLAYER
 70
0
 71
3
 72
13
 73
9
 74
0
 42
0.0000001
 43
0.0000001
 44
0.0000000001
 40
0.0
 40
0.0
 40
0.0
 40
0.0
 40
0.2157538785
 40
0.4608597919
 40
0.5912154973
 40
0.725263453
 40
0.8619253364
 40
1.0
 40
1.0
 40
1.0
 40
1.0
 10
60.4572813059
 20
25.447454739
 30
0.0
 10
60.4211973152
 20
25.4072112084
 30
0.0
 10
60.3396540622
 20
25.3252654543
 30
0.0
 10
60.2287758661
 20
25.2269565962
 30
0.0
 10
60.1297513647
 20
25.146386512
 30
0.0
 10
60.049921139
 20
25.0853392921
 30
0.0
 10
59.9660366966
 20
25.0265224449
 30
0.0
 10
59.907678085
 20
24.9899702039
 30
0.0
 10
59.8779834627
 20
24.9722281727
 30
0.0
  0
SPLINE
  5
24B
100
AcDbEntity
  8
0
100
AcDbSpline
 62
7
  6
BYLAYER
 70
0
 71
3
 72
9
 73
5
 74
0
 42
0.0000001
 43
0.0000001
 44
0.0000000001
 40
0.0
 40
0.0
 40
0.0
 40
0.0
 40
0.5000077892
 40
1.0
 40
1.0
 40
1.0
 40
1.0
 10
59.8779834627
 20
63.6456040271
 30
0.0
 10
59.9206248377
 20
63.7754180838
 30
0.0
 10
59.9866132839
 20
64.0418587792
 30
0.0
 10
60.0092243693
 20
64.315583455
 30
0.0
 10
60.0092334629
 20
64.4522173188
 30
0.0
  0
SPLINE
  5
24C
100
AcDbEntity
  8
0
100
AcDbSpline
 62
7
  6
BYLAYER
 70
0
 71
3
 72
9
 73
5
 74
0
 42
0.0000001
 43
0.0000001
 44
0.0000000001
 40
0.0
 40
0.0
 40
0.0
 40
0.0
 40
0.4999925862
 40
1.0
 40
1.0
 40
1.0
 40
1.0
 10
60.0092334629
 20
64.4522173188
 30
0.0
 10
60.0092239155
 20
64.5888512492
 30
0.0
 10
59.9866121449
 20
64.8625759496
 30
0.0
 10
59.9206222705
 20
65.1290158517
 30
0.0
 10
59.8779834627
 20
65.2588306059
 30
0.0
  0
SPLINE
  5
24D
100
AcDbEntity
  8
0
100
AcDbSpline
 62
7
  6
BYLAYER
 70
0
 71
3
 72
20
 73
16
 74
0
 42
0.0000001
 43
0.0000001
 44
0.0000000001
 40
0.0
 40
0.0
 40
0.0
 40
0.0
 40
0.0087441523
 40
0.0150975159
 40
0.0232737971
 40
0.0458709591
 40
0.0776814763
 40
0.1192948087
 40
0.1704172305
 40
0.2305103101
 40
0.2990142834
 40
0.4576639237
 40
0.6352248668
 40
0.819555271
 40
1.0
 40
1.0
 40
1.0
 40
1.0
 10
30.6922044938
 20
28.3895960919
 30
0.0
 10
30.6918295363
 20
28.3913201071
 30
0.0
 10
30.6931285664
 20
28.394555234
 30
0.0
 10
30.6964038325
 20
28.3978473341
 30
0.0
 10
30.7024232484
 20
28.4023910262
 30
0.0
 10
30.7136988318
 20
28.4081715198
 30
0.0
 10
30.7317012066
 20
28.4153617308
 30
0.0
 10
30.7556042354
 20
28.4231624338
 30
0.0
 10
30.7852766036
 20
28.4315696533
 30
0.0
 10
30.8204470215
 20
28.4404201836
 30
0.0
 10
30.8769709156
 20
28.4532518014
 30
0.0
 10
30.9571174861
 20
28.4689804149
 30
0.0
 10
31.0606482859
 20
28.4867055818
 30
0.0
 10
31.1688793898
 20
28.5028927205
 30
0.0
 10
31.2418502864
 20
28.5125323149
 30
0.0
 10
31.2779838515
 20
28.5169987692
 30
0.0
  0
SPLINE
  5
24E
100
AcDbEntity
  8
0
100
AcDbSpline
 62
7
  6
BYLAYER
 70
0
 71
3
 72
9
 73
5
 74
0
 42
0.0000001
 43
0.0000001
 44
0.0000000001
 40
0.0
 40
0.0
 40
0.0
 40
0.0
 40
0.5015835731
 40
1.0
 40
1.0
 40
1.0
 40
1.0
 10
59.3779834627
 20
24.7522202737
 30
0.0
 10
59.4422416695
 20
24.7522206228
 30
0.0
 10
59.570983483
 20
24.7656333575
 30
0.0
 10
59.6918683777
 20
24.8158702284
 30
0.0
 10
59.7452937997
 20
24.8508396599
 30
0.0
  0
SPLINE
  5
24F
100
AcDbEntity
  8
0
100
AcDbSpline
 62
7
  6
BYLAYER
 70
0
 71
3
 72
13
 73
9
 74
0
 42
0.0000001
 43
0.0000001
 44
0.0000000001
 40
0.0
 40
0.0
 40
0.0
 40
0.0
 40
0.1241069559
 40
0.2487266877
 40
0.3736992657
 40
0.498949705
 40
0.7493209866
 40
1.0
 40
1.0
 40
1.0
 40
1.0
 10
31.6778549088
 20
27.1381136532
 30
0.0
 10
31.7629853843
 20
26.9580966591
 30
0.0
 10
31.9617368586
 20
26.6099527681
 30
0.0
 10
32.3340024805
 20
26.1372894074
 30
0.0
 10
32.7728912136
 20
25.7228459873
 30
0.0
 10
33.431115533
 20
25.258508259
 30
0.0
 10
34.3678016652
 20
24.8586361021
 30
0.0
 10
35.1757653636
 20
24.7522177843
 30
0.0
 10
35.5779834627
 20
24.7522172946
 30
0.0
  0
SPLINE
  5
250
100
AcDbEntity
  8
0
100
AcDbSpline
 62
7
  6
BYLAYER
 70
0
 71
3
 72
9
 73
5
 74
0
 42
0.0000001
 43
0.0000001
 44
0.0000000001
 40
0.0
 40
0.0
 40
0.0
 40
0.0
 40
0.4999922152
 40
1.0
 40
1.0
 40
1.0
 40
1.0
 10
31.1467334625
 20
64.4522173162
 30
0.0
 10
31.1467425187
 20
64.3155834509
 30
0.0
 10
31.1693534376
 20
64.0418587129
 30
0.0
 10
31.235342419
 20
63.7754181917
 30
0.0
 10
31.2779834627
 20
63.6456040271
 30
0.0
  0
SPLINE
  5
251
100
AcDbEntity
  8
0
100
AcDbSpline
 62
7
  6
BYLAYER
 70
0
 71
3
 72
17
 73
13
 74
0
 42
0.0000001
 43
0.0000001
 44
0.0000000001
 40
0.0
 40
0.0
 40
0.0
 40
0.0
 40
0.025880618
 40
0.059992276
 40
0.1022378276
 40
0.1515737432
 40
0.2671623673
 40
0.3990663562
 40
0.5416583232
 40
0.6910763238
 40
0.8445765958
 40
1.0
 40
1.0
 40
1.0
 40
1.0
 10
30.5779834627
 20
29.4522173164
 30
0.0
 10
30.5779835127
 20
29.4420858802
 30
0.0
 10
30.5832737775
 20
29.4187584117
 30
0.0
 10
30.5992877026
 20
29.3820698504
 30
0.0
 10
30.6232765525
 20
29.3390194334
 30
0.0
 10
30.6670303581
 20
29.2707154371
 30
0.0
 10
30.735236669
 20
29.1765501017
 30
0.0
 10
30.8287958145
 20
29.0558620255
 30
0.0
 10
30.9330022768
 20
28.9266971972
 30
0.0
 10
31.0441476127
 20
28.7922962341
 30
0.0
 10
31.1596979339
 20
28.655027204
 30
0.0
 10
31.2383366917
 20
28.5631516031
 30
0.0
 10
31.2779834627
 20
28.5169992336
 30
0.0
  0
SPLINE
  5
252
100
AcDbEntity
  8
0
100
AcDbSpline
 62
7
  6
BYLAYER
 70
0
 71
3
 72
9
 73
5
 74
0
 42
0.0000001
 43
0.0000001
 44
0.0000000001
 40
0.0
 40
0.0
 40
0.0
 40
0.0
 40
0.5000049605
 40
1.0
 40
1.0
 40
1.0
 40
1.0
 10
31.2779834627
 20
65.2588306057
 30
0.0
 10
31.2353380843
 20
65.1290187283
 30
0.0
 10
31.1693605641
 20
64.8625753608
 30
0.0
 10
31.1467403129
 20
64.5888519051
 30
0.0
 10
31.1467334625
 20
64.4522173162
 30
0.0
  0
SPLINE
  5
253
100
AcDbEntity
  8
0
100
AcDbSpline
 62
7
  6
BYLAYER
 70
0
 71
3
 72
9
 73
5
 74
0
 42
0.0000001
 43
0.0000001
 44
0.0000000001
 40
0.0
 40
0.0
 40
0.0
 40
0.0
 40
0.2519547781
 40
1.0
 40
1.0
 40
1.0
 40
1.0
 10
59.7452957906
 20
24.8508366182
 30
0.0
 10
59.757961817
 20
24.8591272661
 30
0.0
 10
59.8067021947
 20
24.894377454
 30
0.0
 10
59.849305956
 20
24.9376215531
 30
0.0
 10
59.8779839116
 20
24.9722278007
 30
0.0
  0
SPLINE
  5
254
100
AcDbEntity
  8
0
100
AcDbSpline
 62
7
  6
BYLAYER
 70
0
 71
3
 72
19
 73
15
 74
0
 42
0.0000001
 43
0.0000001
 44
0.0000000001
 40
0.0
 40
0.0
 40
0.0
 40
0.0
 40
0.0089361992
 40
0.0235095963
 40
0.0461519932
 40
0.0779802546
 40
0.1195950531
 40
0.1707086129
 40
0.2307857233
 40
0.2992686437
 40
0.4578659503
 40
0.6353655235
 40
0.8196276649
 40
1.0
 40
1.0
 40
1.0
 40
1.0
 10
31.2779835857
 20
26.9007469371
 30
0.0
 10
31.2772695208
 20
26.9019501853
 30
0.0
 10
31.2774974857
 20
26.9060854919
 30
0.0
 10
31.2816534204
 20
26.9120567479
 30
0.0
 10
31.289046985
 20
26.9199747577
 30
0.0
 10
31.3005669471
 20
26.9296896147
 30
0.0
 10
31.3161965471
 20
26.9413588903
 30
0.0
 10
31.3359654636
 20
26.9548472868
 30
0.0
 10
31.3596679171
 20
26.9700050515
 30
0.0
 10
31.3981229949
 20
26.9933090203
 30
0.0
 10
31.4532767599
 20
27.0244929187
 30
0.0
 10
31.5251828515
 20
27.0628151333
 30
0.0
 10
31.6009462419
 20
27.1011060163
 30
0.0
 10
31.6523488267
 20
27.1259585827
 30
0.0
 10
31.677879281
 20
27.1380327257
 30
0.0
  0
SPLINE
  5
255
100
AcDbEntity
  8
0
100
AcDbSpline
 62
7
  6
BYLAYER
 70
0
 71
3
 72
18
 73
14
 74
0
 42
0.0000001
 43
0.0000001
 44
0.0000000001
 40
0.0
 40
0.0
 40
0.0
 40
0.0
 40
0.0131729687
 40
0.0302079431
 40
0.0540625997
 40
0.08636761
 40
0.1280082808
 40
0.1788590273
 40
0.3063348647
 40
0.4634627366
 40
0.6392581278
 40
0.8216336961
 40
1.0
 40
1.0
 40
1.0
 40
1.0
 10
59.8779840036
 20
24.5613464337
 30
0.0
 10
59.8792832937
 20
24.5619419602
 30
0.0
 10
59.8817864901
 20
24.5643990543
 30
0.0
 10
59.8833041072
 20
24.570220511
 30
0.0
 10
59.883266228
 20
24.5781935076
 30
0.0
 10
59.8815312321
 20
24.5886968539
 30
0.0
 10
59.8780057362
 20
24.6017813901
 30
0.0
 10
59.8702952408
 20
24.6243817287
 30
0.0
 10
59.8559828383
 20
24.6578927383
 30
0.0
 10
59.833674134
 20
24.7026036296
 30
0.0
 10
59.8067046886
 20
24.7515948491
 30
0.0
 10
59.7768832839
 20
24.8016010692
 30
0.0
 10
59.7558949319
 20
24.8346450543
 30
0.0
 10
59.7452961965
 20
24.8508375181
 30
0.0
  0
ENDSEC
  0
SECTION
  2
OBJECTS
  0
DICTIONARY
  5
C
100
AcDbDictionary
280
0
281
1
  3
ACAD_GROUP
350
D
  3
ACAD_MLINESTYLE
350
17
  3
ACAD_LAYOUT
350
1A
  3
ACAD_PLOTSETTINGS
350
19
  3
ACAD_PLOTSTYLENAME
350
E
  0
DICTIONARY
  5
D
102
{ACAD_REACTORS
330
C
102
}
100
AcDbDictionary
280
0
281
1
  0
ACDBDICTIONARYWDFLT
  5
E
102
{ACAD_REACTORS
330
C
102
}
100
AcDbDictionary
281
1
  3
Normal
350
F
100
AcDbDictionaryWithDefault
340
F
  0
DICTIONARY
  5
17
102
{ACAD_REACTORS
330
C
102
}
100
AcDbDictionary
280
0
281
1
  3
Standard
350
18
  0
DICTIONARY
  5
19
102
{ACAD_REACTORS
330
C
102
}
100
AcDbDictionary
281
1
  0
DICTIONARY
  5
1A
102
{ACAD_REACTORS
330
C
102
}
100
AcDbDictionary
281
1
  3
Model
350
256
  3
Layout1
350
257
  0
ACDBPLACEHOLDER
  5
F
102
{ACAD_REACTORS
330
E
102
}
  0
MLINESTYLE
  5
18
102
{ACAD_REACTORS
330
17
102
}
100
AcDbMlineStyle
  2
STANDARD
 70
0
  3

 62
256
 51
90.0
 52
90.0
 71
2
 49
0.5
 62
256
  6
BYLAYER
 49
-0.5
 62
256
  6
BYLAYER
  0
LAYOUT
  5
256
102
{ACAD_REACTORS
330
1A
102
}
100
AcDbPlotSettings
  1

  2
none_device
  4

  6

 40
0.0
 41
0.0
 42
0.0
 43
0.0
 44
210.0
 45
297.0
 46
0.0
 47
0.0
 48
0.0
 49
0.0
140
0.0
141
0.0
142
1.0
143
1.0
 70
1024
 72
1
 73
0
 74
0
  7

 75
0
147
1.0
148
0.0
149
0.0
100
AcDbLayout
  1
Model
 70
0
 71
0
 10
0.0
 20
0.0
 11
210.0
 21
297.0
 12
0.0
 22
0.0
 32
0.0
 14
0.0
 24
0.0
 34
0.0
 15
0.0
 25
0.0
 35
0.0
146
0.0
 13
0.0
 23
0.0
 33
0.0
 16
1.0
 26
0.0
 36
0.0
 17
0.0
 27
1.0
 37
0.0
 76
0
330
210
345
0
346
0
  0
LAYOUT
  5
257
102
{ACAD_REACTORS
330
1A
102
}
100
AcDbPlotSettings
  1

  2
none_device
  4

  6

 40
0.0
 41
0.0
 42
0.0
 43
0.0
 44
210.0
 45
297.0
 46
0.0
 47
0.0
 48
0.0
 49
0.0
140
0.0
141
0.0
142
1.0
143
1.0
 70
0
 72
1
 73
0
 74
0
  7

 75
0
147
1.0
148
0.0
149
0.0
100
AcDbLayout
  1
Layout1
 70
0
 71
1
 10
0.0
 20
0.0
 11
210.0
 21
297.0
 12
0.0
 22
0.0
 32
0.0
 14
0.0
 24
0.0
 34
0.0
 15
0.0
 25
0.0
 35
0.0
146
0.0
 13
0.0
 23
0.0
 33
0.0
 16
1.0
 26
0.0
 36
0.0
 17
0.0
 27
1.0
 37
0.0
 76
0
330
211
345
0
346
0
  0
ENDSEC
  0
EOF
