999
DXF file: C:\Users\sesa63760\Dev\_Creo\CAD\MCADID0003610_3D-CAD\drw0001_7.dxf
999
Pro/ENGINEER 2019471 by Parametric Technology Corporation
  0
SECTION
  2
HEADER
  9
$ACADVER
  1
AC1024
  9
$DWGCODEPAGE
  3
ANSI_1252
  9
$EXTMAX
 10
94.1099787394
 20
133.0983985028
 30
0.0
  9
$EXTMIN
 10
0.0
 20
0.0
 30
0.0
  9
$LIMMIN
 10
0.0
 20
0.0
  9
$LIMMAX
 10
94.1099787394
 20
133.0983985028
  9
$VIEWCTR
 10
47.0549893697
 20
66.5491992514
  9
$VIEWSIZE
 40
133.0983985028
  9
$CLAYER
  8
0
  9
$LTSCALE
 40
8.6760437543
  9
$CELTYPE
  6
BYLAYER
  9
$DIMSCALE
 40
1.0
  9
$DIMASZ
 40
1.1203568898
  9
$DIMEXO
 40
1.0
  9
$DIMDLI
 40
5.9943575029
  9
$DIMEXE
 40
1.0
  9
$DIMCEN
 40
1.4197162507
  9
$DIMLFAC
 40
1.0
  9
$DIMBLK
  1
_FILLED
  9
$DIMALT
 70
0
  9
$DIMALTF
 40
0.0393700787
  9
$DIMTXT
 40
1.5684996457
  9
$DIMTOL
 70
1
  9
$DIMLIM
 70
0
  9
$DIMTFAC
 40
1.0
  9
$DIMTP
 40
0.01
  9
$DIMTM
 40
0.01
  9
$DIMGAP
 40
0.625
  9
$DIMDSEP
 70
46
  9
$AUNITS
 70
0
  9
$PDMODE
 70
3
  9
$PDSIZE
 40
0.3125
  9
$HANDSEED
  5
24C
  9
$TILEMODE
 70
1
  9
$MEASUREMENT
 70
1
  9
$INSUNITS
 70
4
  0
ENDSEC
  0
SECTION
  2
CLASSES
  0
CLASS
  1
ACDBDICTIONARYWDFLT
  2
AcDbDictionaryWithDefault
  3
AutoCAD 2000
 90
0
 91
1
280
0
281
0
  0
CLASS
  1
ACDBPLACEHOLDER
  2
AcDbPlaceHolder
  3
AutoCAD 2000
 90
0
 91
1
280
0
281
0
  0
CLASS
  1
LAYOUT
  2
AcDbLayout
  3
AutoCAD 2000
 90
0
 91
0
280
0
281
0
  0
ENDSEC
  0
SECTION
  2
TABLES
  0
TABLE
  2
VPORT
  5
8
100
AcDbSymbolTable
 70
2
  0
VPORT
  5
1F4
100
AcDbSymbolTableRecord
100
AcDbViewportTableRecord
  2
*ACTIVE
 70
0
 10
0.0
 20
0.0
 11
1.0
 21
1.0
 12
47.0549893697
 22
66.5491992514
 13
0.0
 23
0.0
 14
1.0
 24
1.0
 15
0.0
 25
0.0
 16
0.0
 26
0.0
 36
1.0
 17
0.0
 27
0.0
 37
0.0
 40
133.0983985028
 41
0.7070707071
 42
50.0
 43
0.0
 44
0.0
 50
0.0
 51
0.0
 71
0
 72
100
 73
1
 74
1
 75
0
 76
0
 77
0
 78
0
  0
ENDTAB
  0
TABLE
  2
LTYPE
  5
5
100
AcDbSymbolTable
 70
6
  0
LTYPE
  5
14
100
AcDbSymbolTableRecord
100
AcDbLinetypeTableRecord
  2
BYBLOCK
 70
0
  3

 72
65
 73
0
 40
0.0
  0
LTYPE
  5
15
100
AcDbSymbolTableRecord
100
AcDbLinetypeTableRecord
  2
BYLAYER
 70
0
  3

 72
65
 73
0
 40
0.0
  0
LTYPE
  5
16
100
AcDbSymbolTableRecord
100
AcDbLinetypeTableRecord
  2
CONTINUOUS
 70
64
  3
Solid line
 72
65
 73
0
 40
0.0
  0
LTYPE
  5
1F5
100
AcDbSymbolTableRecord
100
AcDbLinetypeTableRecord
  2
CENTER
 70
64
  3
____ _ ____ _ ____ _ ____ _ ____ _ ____ _ ____
 72
65
 73
4
 40
0.6
 49
0.375
 74
0
 49
-0.075
 74
0
 49
0.075
 74
0
 49
-0.075
 74
0
  0
LTYPE
  5
1F6
100
AcDbSymbolTableRecord
100
AcDbLinetypeTableRecord
  2
HIDDEN
 70
64
  3
- - - - - - - - - - - - - - - - - - - -
 72
65
 73
2
 40
0.2
 49
0.1
 74
0
 49
-0.1
 74
0
  0
LTYPE
  5
1F7
100
AcDbSymbolTableRecord
100
AcDbLinetypeTableRecord
  2
PHANTOM
 70
64
  3
_____ _ _ _____ _ _ _____ _ _ _____
 72
65
 73
6
 40
0.8
 49
0.45
 74
0
 49
-0.05
 74
0
 49
0.1
 74
0
 49
-0.05
 74
0
 49
0.1
 74
0
 49
-0.05
 74
0
  0
LTYPE
  5
1F8
100
AcDbSymbolTableRecord
100
AcDbLinetypeTableRecord
  2
DOT
 70
64
  3
. . . . . . . . . . . . . . . . . . . .
 72
65
 73
2
 40
0.2
 49
0.1
 74
0
 49
-0.1
 74
0
  0
LTYPE
  5
1F9
100
AcDbSymbolTableRecord
100
AcDbLinetypeTableRecord
  2
DASHED
 70
64
  3
- - - - - - - - - - - - - - - - - - - -
 72
65
 73
2
 40
0.2
 49
0.1
 74
0
 49
-0.1
 74
0
  0
ENDTAB
  0
TABLE
  2
LAYER
  5
2
100
AcDbSymbolTable
 70
36
  0
LAYER
  5
10
100
AcDbSymbolTableRecord
100
AcDbLayerTableRecord
  2
0
 70
0
 62
7
  6
CONTINUOUS
370
-3
390
F
  0
LAYER
  5
1FA
100
AcDbSymbolTableRecord
100
AcDbLayerTableRecord
  2
DEFAULT_1
 70
0
 62
7
  6
CENTER
370
-3
390
F
  0
LAYER
  5
1FB
100
AcDbSymbolTableRecord
100
AcDbLayerTableRecord
  2
DEFAULT_2
 70
0
 62
7
  6
HIDDEN
370
-3
390
F
  0
LAYER
  5
1FC
100
AcDbSymbolTableRecord
100
AcDbLayerTableRecord
  2
DEFAULT_3
 70
0
 62
7
  6
PHANTOM
370
-3
390
F
  0
LAYER
  5
1FD
100
AcDbSymbolTableRecord
100
AcDbLayerTableRecord
  2
00_COMPONENTS
 70
0
 62
7
  6
CONTINUOUS
370
-3
390
F
  0
LAYER
  5
1FE
100
AcDbSymbolTableRecord
100
AcDbLayerTableRecord
  2
01_1_DEFAULT_DATUMS
 70
0
 62
7
  6
CONTINUOUS
370
-3
390
F
  0
LAYER
  5
1FF
100
AcDbSymbolTableRecord
100
AcDbLayerTableRecord
  2
01_PLANES
 70
0
 62
7
  6
CONTINUOUS
370
-3
390
F
  0
LAYER
  5
200
100
AcDbSymbolTableRecord
100
AcDbLayerTableRecord
  2
02_COORD_SYS
 70
0
 62
7
  6
CONTINUOUS
370
-3
390
F
  0
LAYER
  5
201
100
AcDbSymbolTableRecord
100
AcDbLayerTableRecord
  2
03_AXES
 70
0
 62
7
  6
CONTINUOUS
370
-3
390
F
  0
LAYER
  5
202
100
AcDbSymbolTableRecord
100
AcDbLayerTableRecord
  2
04_POINTS
 70
0
 62
7
  6
CONTINUOUS
370
-3
390
F
  0
LAYER
  5
203
100
AcDbSymbolTableRecord
100
AcDbLayerTableRecord
  2
05_CURVES
 70
0
 62
7
  6
CONTINUOUS
370
-3
390
F
  0
LAYER
  5
204
100
AcDbSymbolTableRecord
100
AcDbLayerTableRecord
  2
06_SURFS
 70
0
 62
7
  6
CONTINUOUS
370
-3
390
F
  0
LAYER
  5
205
100
AcDbSymbolTableRecord
100
AcDbLayerTableRecord
  2
07_COSMETICS
 70
0
 62
7
  6
CONTINUOUS
370
-3
390
F
  0
LAYER
  5
206
100
AcDbSymbolTableRecord
100
AcDbLayerTableRecord
  2
10_NOTES
 70
0
 62
7
  6
CONTINUOUS
370
-3
390
F
  0
LAYER
  5
207
100
AcDbSymbolTableRecord
100
AcDbLayerTableRecord
  2
11_NOTES_PUB
 70
0
 62
7
  6
CONTINUOUS
370
-3
390
F
  0
LAYER
  5
208
100
AcDbSymbolTableRecord
100
AcDbLayerTableRecord
  2
13_REF_GTOL
 70
0
 62
7
  6
CONTINUOUS
370
-3
390
F
  0
LAYER
  5
209
100
AcDbSymbolTableRecord
100
AcDbLayerTableRecord
  2
16_MISC
 70
0
 62
7
  6
CONTINUOUS
370
-3
390
F
  0
LAYER
  5
20A
100
AcDbSymbolTableRecord
100
AcDbLayerTableRecord
  2
17_NO_PRINT
 70
0
 62
7
  6
CONTINUOUS
370
-3
390
F
  0
LAYER
  5
20B
100
AcDbSymbolTableRecord
100
AcDbLayerTableRecord
  2
18_DATUM_CAMS_JOINTS
 70
0
 62
7
  6
CONTINUOUS
370
-3
390
F
  0
LAYER
  5
20C
100
AcDbSymbolTableRecord
100
AcDbLayerTableRecord
  2
19_DATUM_FUNCTIONAL
 70
0
 62
7
  6
CONTINUOUS
370
-3
390
F
  0
LAYER
  5
20D
100
AcDbSymbolTableRecord
100
AcDbLayerTableRecord
  2
20_DATUM_KINEMATIC_SCHEME
 70
0
 62
7
  6
CONTINUOUS
370
-3
390
F
  0
ENDTAB
  0
TABLE
  2
STYLE
  5
3
100
AcDbSymbolTable
 70
1
  0
STYLE
  5
11
100
AcDbSymbolTableRecord
100
AcDbTextStyleTableRecord
  2
STANDARD
 70
0
 40
0.0
 41
1.0
 50
0.0
 71
0
 42
0.2
  3
ARIAL.TTF
  4

  0
STYLE
  5
20E
100
AcDbSymbolTableRecord
100
AcDbTextStyleTableRecord
  2
TEXTSTYLE_1
 70
0
 40
0.0
 41
0.8
 50
0.0
 71
0
 42
0.2
  3
gdt
  4

  0
ENDTAB
  0
TABLE
  2
VIEW
  5
6
100
AcDbSymbolTable
 70
0
  0
ENDTAB
  0
TABLE
  2
UCS
  5
7
100
AcDbSymbolTable
 70
0
  0
ENDTAB
  0
TABLE
  2
APPID
  5
9
100
AcDbSymbolTable
 70
1
  0
APPID
  5
20F
100
AcDbSymbolTableRecord
100
AcDbRegAppTableRecord
  2
ACAD
 70
0
  0
ENDTAB
  0
TABLE
  2
BLOCK_RECORD
  5
1
100
AcDbSymbolTable
 70
0
  0
BLOCK_RECORD
  5
210
100
AcDbSymbolTableRecord
100
AcDbBlockTableRecord
  2
*Model_Space
  0
BLOCK_RECORD
  5
211
100
AcDbSymbolTableRecord
100
AcDbBlockTableRecord
  2
*Paper_Space
  0
BLOCK_RECORD
  5
212
100
AcDbSymbolTableRecord
100
AcDbBlockTableRecord
  2
_FILLED
  0
ENDTAB
  0
TABLE
  2
DIMSTYLE
  5
A
100
AcDbSymbolTable
 70
1
100
AcDbDimStyleTable
 71
0
  0
DIMSTYLE
105
213
100
AcDbSymbolTableRecord
100
AcDbDimStyleTableRecord
  2
STANDARD
 70
0
  3

  4

 40
1.0
 41
1.1203568898
 42
1.0
 43
0.38
 44
1.0
 45
0.0
 46
0.0
 47
0.01
 48
0.01
140
1.5684996457
141
0.09
142
0.0
143
25.4
144
1.0
145
0.0
146
1.0
147
0.625
 71
1
 72
0
 73
0
 74
0
 75
0
 76
0
 77
1
 78
8
 79
2
170
0
171
1
172
0
173
0
174
0
175
0
176
0
177
0
178
0
270
2
179
2
271
2
272
2
273
2
274
2
275
0
280
0
281
0
282
0
283
1
284
8
285
0
286
0
287
3
288
0
340
11
278
46
341
212
342
212
343
212
344
212
  0
ENDTAB
  0
ENDSEC
  0
SECTION
  2
BLOCKS
  0
BLOCK
  5
20
100
AcDbEntity
  8
0
100
AcDbBlockBegin
  2
*Model_Space
 70
0
 10
0.0
 20
0.0
 30
0.0
  3
*Model_Space
  1

  0
ENDBLK
  5
21
100
AcDbEntity
  8
0
100
AcDbBlockEnd
  0
BLOCK
  5
1C
100
AcDbEntity
  8
0
100
AcDbBlockBegin
  2
*Paper_Space
 70
0
 10
0.0
 20
0.0
 30
0.0
  3
*Paper_Space
  1

  0
ENDBLK
  5
1D
100
AcDbEntity
  8
0
100
AcDbBlockEnd
  0
BLOCK
  5
214
100
AcDbEntity
  8
0
100
AcDbBlockBegin
  2
_FILLED
 70
64
 10
0.0
 20
0.0
  3
_FILLED
  1

  0
SOLID
  5
215
100
AcDbEntity
  8
0
  6
BYBLOCK
 62
0
100
AcDbTrace
 10
0.0
 20
0.0
 11
-1.0
 21
0.25
 12
-1.0
 22
-0.25
 13
-1.0
 23
-0.25
  0
ENDBLK
  5
216
100
AcDbEntity
  8
0
  6
BYBLOCK
 62
0
100
AcDbBlockEnd
  0
ENDSEC
  0
SECTION
  2
ENTITIES
  0
LINE
  5
217
100
AcDbEntity
  8
0
100
AcDbLine
 62
7
  6
BYLAYER
 10
9.9927058209
 20
60.8614836838
 11
9.9927058209
 21
74.8614836838
  0
LINE
  5
218
100
AcDbEntity
  8
0
100
AcDbLine
 62
7
  6
BYLAYER
 10
11.9927058209
 20
72.8614836838
 11
11.9927058209
 21
74.8614836838
  0
LINE
  5
219
100
AcDbEntity
  8
0
100
AcDbLine
 62
7
  6
BYLAYER
 10
32.9927058209
 20
60.8614836838
 11
32.9927058209
 21
74.8614836838
  0
LINE
  5
21A
100
AcDbEntity
  8
0
100
AcDbLine
 62
7
  6
BYLAYER
 10
34.9927058209
 20
60.8614836838
 11
34.9927058209
 21
74.8614836838
  0
LINE
  5
21B
100
AcDbEntity
  8
0
100
AcDbLine
 62
7
  6
BYLAYER
 10
9.9927058209
 20
60.8614836838
 11
34.9927058209
 21
60.8614836838
  0
LINE
  5
21C
100
AcDbEntity
  8
0
100
AcDbLine
 62
7
  6
BYLAYER
 10
54.9927058209
 20
60.8614836838
 11
78.9371630446
 21
60.8614836838
  0
LINE
  5
21D
100
AcDbEntity
  8
0
100
AcDbLine
 62
7
  6
BYLAYER
 10
56.9927058209
 20
61.0079302932
 11
54.9927058209
 21
61.0079302932
  0
LINE
  5
21E
100
AcDbEntity
  8
0
100
AcDbLine
 62
7
  6
BYLAYER
 10
34.9927058209
 20
61.0079302932
 11
32.9927058209
 21
61.0079302932
  0
LINE
  5
21F
100
AcDbEntity
  8
0
100
AcDbLine
 62
7
  6
BYLAYER
 10
77.4429102289
 20
62.3614836838
 11
56.9927058209
 21
62.3614836838
  0
LINE
  5
220
100
AcDbEntity
  8
0
100
AcDbLine
 62
7
  6
BYLAYER
 10
32.9927058209
 20
62.3614836838
 11
9.9927058209
 21
62.3614836838
  0
LINE
  5
221
100
AcDbEntity
  8
0
100
AcDbLine
 62
7
  6
BYLAYER
 10
9.9927058209
 20
69.8614836838
 11
32.9927058209
 21
69.8614836838
  0
LINE
  5
222
100
AcDbEntity
  8
0
100
AcDbLine
 62
7
  6
BYLAYER
 10
56.9927058209
 20
69.8614836838
 11
72.381870744
 21
69.8614836838
  0
LINE
  5
223
100
AcDbEntity
  8
0
100
AcDbLine
 62
7
  6
BYLAYER
 10
77.7341225412
 20
69.8614836838
 11
79.9927058209
 21
69.8614836838
  0
LINE
  5
224
100
AcDbEntity
  8
0
100
AcDbLine
 62
7
  6
BYLAYER
 10
32.9927058209
 20
71.2150370744
 11
33.7439313717
 21
71.2150370744
  0
LINE
  5
225
100
AcDbEntity
  8
0
100
AcDbLine
 62
7
  6
BYLAYER
 10
56.24148027
 20
71.2150370744
 11
56.9927058209
 21
71.2150370744
  0
LINE
  5
226
100
AcDbEntity
  8
0
100
AcDbLine
 62
7
  6
BYLAYER
 10
9.9927058209
 20
71.3614836838
 11
32.9927058209
 21
71.3614836838
  0
LINE
  5
227
100
AcDbEntity
  8
0
100
AcDbLine
 62
7
  6
BYLAYER
 10
56.9927058209
 20
71.3614836838
 11
79.9927058209
 21
71.3614836838
  0
LINE
  5
228
100
AcDbEntity
  8
0
100
AcDbLine
 62
7
  6
BYLAYER
 10
54.9927058209
 20
60.8614836838
 11
54.9927058209
 21
74.8614836838
  0
LINE
  5
229
100
AcDbEntity
  8
0
100
AcDbLine
 62
7
  6
BYLAYER
 10
77.9927058209
 20
72.8614836838
 11
56.9927058209
 21
72.8614836838
  0
LINE
  5
22A
100
AcDbEntity
  8
0
100
AcDbLine
 62
7
  6
BYLAYER
 10
32.9927058209
 20
72.8614836838
 11
11.9927058209
 21
72.8614836838
  0
LINE
  5
22B
100
AcDbEntity
  8
0
100
AcDbLine
 62
7
  6
BYLAYER
 10
56.9927058209
 20
60.8614836838
 11
56.9927058209
 21
74.8614836838
  0
LINE
  5
22C
100
AcDbEntity
  8
0
100
AcDbLine
 62
7
  6
BYLAYER
 10
9.9927058209
 20
74.8614836838
 11
34.9927058209
 21
74.8614836838
  0
LINE
  5
22D
100
AcDbEntity
  8
0
100
AcDbLine
 62
7
  6
BYLAYER
 10
54.9927058209
 20
74.8614836838
 11
79.9927058209
 21
74.8614836838
  0
LINE
  5
22E
100
AcDbEntity
  8
0
100
AcDbLine
 62
7
  6
BYLAYER
 10
72.8692914753
 20
66.2422594114
 11
73.5586242599
 21
65.5515636966
  0
LINE
  5
22F
100
AcDbEntity
  8
0
100
AcDbLine
 62
7
  6
BYLAYER
 10
73.9110831415
 20
65.9062152488
 11
80.8828221951
 21
58.9082577466
  0
LINE
  5
230
100
AcDbEntity
  8
0
100
AcDbLine
 62
7
  6
BYLAYER
 10
77.4534420732
 20
69.4346361412
 11
77.4145097964
 21
69.4731536959
  0
LINE
  5
231
100
AcDbEntity
  8
0
100
AcDbLine
 62
7
  6
BYLAYER
 10
77.1243048059
 20
70.4725071344
 11
77.663046813
 21
69.9326999411
  0
LINE
  5
232
100
AcDbEntity
  8
0
100
AcDbLine
 62
7
  6
BYLAYER
 10
77.4535798493
 20
69.4347725862
 11
84.4253189029
 21
62.436815084
  0
LINE
  5
233
100
AcDbEntity
  8
0
100
AcDbLine
 62
7
  6
BYLAYER
 10
77.9927058209
 20
74.8614836838
 11
77.9927058209
 21
72.8614836838
  0
LINE
  5
234
100
AcDbEntity
  8
0
100
AcDbLine
 62
7
  6
BYLAYER
 10
79.9927058209
 20
66.8865278699
 11
79.9927058209
 21
74.8614836838
  0
ARC
  5
235
100
AcDbEntity
  8
0
100
AcDbCircle
 62
7
  6
BYLAYER
 10
74.9837655013
 20
68.3741704747
 40
2.9969913097
100
AcDbArc
 50
150.2465502856
 51
180.0155241014
  0
ARC
  5
236
100
AcDbEntity
  8
0
100
AcDbCircle
 62
7
  6
BYLAYER
 10
75.6701332314
 20
67.6574434181
 40
2.9821499781
100
AcDbArc
 50
179.7436161885
 51
224.9235231698
  0
ARC
  5
237
100
AcDbEntity
  8
0
100
AcDbCircle
 62
7
  6
BYLAYER
 10
75.6672977865
 20
67.6567270892
 40
2.9796164501
100
AcDbArc
 50
224.9522725807
 51
256.7621426472
  0
ARC
  5
238
100
AcDbEntity
  8
0
100
AcDbCircle
 62
7
  6
BYLAYER
 10
75.6962910674
 20
67.6855265212
 40
2.9794833849
100
AcDbArc
 50
13.9391960982
 51
44.9364150807
  0
ARC
  5
239
100
AcDbEntity
  8
0
100
AcDbCircle
 62
7
  6
BYLAYER
 10
75.7003614473
 20
67.6512428499
 40
2.5165957806
100
AcDbArc
 50
122.5954350864
 51
134.8681335647
  0
ARC
  5
23A
100
AcDbEntity
  8
0
100
AcDbCircle
 62
7
  6
BYLAYER
 10
32.9927137982
 20
69.3614890583
 40
1.9999920227
100
AcDbArc
 50
359.9998460324
 51
67.93796281
  0
SPLINE
  5
23B
100
AcDbEntity
  8
0
100
AcDbSpline
 62
7
  6
BYLAYER
 70
0
 71
3
 72
9
 73
5
 74
0
 42
0.0000001
 43
0.0000001
 44
0.0000000001
 40
0.0
 40
0.0
 40
0.0
 40
0.0
 40
0.5079619953
 40
1.0
 40
1.0
 40
1.0
 40
1.0
 10
32.9927058209
 20
71.568590465
 30
0.0
 10
33.1184676098
 20
71.5057095706
 30
0.0
 10
33.3659120976
 20
71.3817166114
 30
0.0
 10
33.6177052657
 20
71.2661923886
 30
0.0
 10
33.7439305404
 20
71.215034688
 30
0.0
  0
SPLINE
  5
23C
100
AcDbEntity
  8
0
100
AcDbSpline
 62
7
  6
BYLAYER
 70
0
 71
3
 72
18
 73
14
 74
0
 42
0.0000001
 43
0.0000001
 44
0.0000000001
 40
0.0
 40
0.0
 40
0.0
 40
0.0
 40
0.1567512948
 40
0.3116517719
 40
0.4622243339
 40
0.6056913069
 40
0.7379822635
 40
0.7982090164
 40
0.8532771961
 40
0.9021441047
 40
0.9435205025
 40
0.9762849362
 40
1.0
 40
1.0
 40
1.0
 40
1.0
 10
11.9927058209
 20
72.8614836838
 30
0.0
 10
11.8955004078
 20
72.7773013268
 30
0.0
 10
11.7022413535
 20
72.6099256856
 30
0.0
 10
11.4149902233
 20
72.3624014158
 30
0.0
 10
11.1346163995
 20
72.1235917036
 30
0.0
 10
10.8658160869
 20
71.8998319676
 30
0.0
 10
10.650887674
 20
71.7272218565
 30
0.0
 10
10.4894136762
 20
71.6040070368
 30
0.0
 10
10.3802990926
 20
71.525020549
 30
0.0
 10
10.2812434969
 20
71.4587060915
 30
0.0
 10
10.1941292147
 20
71.4073735307
 30
0.0
 10
10.1214658414
 20
71.3735184511
 30
0.0
 10
10.0756687625
 20
71.3614836838
 30
0.0
 10
10.0562141478
 20
71.3614836838
 30
0.0
  0
SPLINE
  5
23D
100
AcDbEntity
  8
0
100
AcDbSpline
 62
7
  6
BYLAYER
 70
0
 71
3
 72
19
 73
15
 74
0
 42
0.0000001
 43
0.0000001
 44
0.0000000001
 40
0.0
 40
0.0
 40
0.0
 40
0.0
 40
0.0168844778
 40
0.0381032732
 40
0.0659374768
 40
0.1012455299
 40
0.1442009915
 40
0.1947131803
 40
0.2524646945
 40
0.3170150505
 40
0.4643142075
 40
0.631375854
 40
0.8122657267
 40
1.0
 40
1.0
 40
1.0
 40
1.0
 10
80.8828325303
 20
58.9082680414
 30
0.0
 10
80.8931454363
 20
58.8979066049
 30
0.0
 10
80.9241653382
 20
58.8821766589
 30
0.0
 10
80.9821518222
 20
58.8807108661
 30
0.0
 10
81.0540001876
 20
58.8955412084
 30
0.0
 10
81.1405563572
 20
58.9269495844
 30
0.0
 10
81.2414769914
 20
58.9745829645
 30
0.0
 10
81.3559308773
 20
59.0383203
 30
0.0
 10
81.4829007936
 20
59.1175717066
 30
0.0
 10
81.6759093402
 20
59.2489428238
 30
0.0
 10
81.9377446603
 20
59.4469294039
 30
0.0
 10
82.2675360332
 20
59.7211576128
 30
0.0
 10
82.6124981292
 20
60.0313442084
 30
0.0
 10
82.8424042378
 20
60.2528250261
 30
0.0
 10
82.957567323
 20
60.3675349561
 30
0.0
  0
SPLINE
  5
23E
100
AcDbEntity
  8
0
100
AcDbSpline
 62
7
  6
BYLAYER
 70
0
 71
3
 72
19
 73
15
 74
0
 42
0.0000001
 43
0.0000001
 44
0.0000000001
 40
0.0
 40
0.0
 40
0.0
 40
0.0
 40
0.1877142576
 40
0.3685836013
 40
0.5356321457
 40
0.6829282404
 40
0.7474804336
 40
0.8052379972
 40
0.8557560767
 40
0.8987221314
 40
0.93404172
 40
0.9618848304
 40
0.9831131171
 40
1.0
 40
1.0
 40
1.0
 40
1.0
 10
82.957567323
 20
60.3675349561
 30
0.0
 10
83.0727345343
 20
60.4822489959
 30
0.0
 10
83.2951272039
 20
60.7112875934
 30
0.0
 10
83.606685569
 20
61.0550377543
 30
0.0
 10
83.8822323303
 20
61.3837663705
 30
0.0
 10
84.0812772722
 20
61.6448411914
 30
0.0
 10
84.2134350659
 20
61.8373572361
 30
0.0
 10
84.2932137929
 20
61.9640357594
 30
0.0
 10
84.3574268279
 20
62.0782672935
 30
0.0
 10
84.4054872795
 20
62.1790292227
 30
0.0
 10
84.4372713939
 20
62.2654909471
 30
0.0
 10
84.4524062032
 20
62.3373126962
 30
0.0
 10
84.4512060441
 20
62.3953276788
 30
0.0
 10
84.435624412
 20
62.4264404003
 30
0.0
 10
84.4253085676
 20
62.4368047891
 30
0.0
  0
SPLINE
  5
23F
100
AcDbEntity
  8
0
100
AcDbSpline
 62
7
  6
BYLAYER
 70
0
 71
3
 72
18
 73
14
 74
0
 42
0.0000001
 43
0.0000001
 44
0.0000000001
 40
0.0
 40
0.0
 40
0.0
 40
0.0
 40
0.0237184369
 40
0.0564865502
 40
0.0978622147
 40
0.146729777
 40
0.2018011439
 40
0.2620285485
 40
0.3943203471
 40
0.5377862415
 40
0.688355638
 40
0.8432514665
 40
1.0
 40
1.0
 40
1.0
 40
1.0
 10
79.929197494
 20
71.3614836838
 30
0.0
 10
79.9097401095
 20
71.3614836838
 30
0.0
 10
79.8639375746
 20
71.3735208628
 30
0.0
 10
79.791268339
 20
71.4073755443
 30
0.0
 10
79.704154105
 20
71.4587145452
 30
0.0
 10
79.6051001038
 20
71.5250357068
 30
0.0
 10
79.4959805182
 20
71.6040214613
 30
0.0
 10
79.3344969922
 20
71.7272302782
 30
0.0
 10
79.1195782624
 20
71.8998533602
 30
0.0
 10
78.8507838281
 20
72.1236155651
 30
0.0
 10
78.5704055624
 20
72.362408916
 30
0.0
 10
78.2831617804
 20
72.6099285351
 30
0.0
 10
78.0899095346
 20
72.7773027984
 30
0.0
 10
77.9927058209
 20
72.8614836838
 30
0.0
  0
SPLINE
  5
240
100
AcDbEntity
  8
0
100
AcDbSpline
 62
7
  6
BYLAYER
 70
0
 71
3
 72
15
 73
11
 74
0
 42
0.0000001
 43
0.0000001
 44
0.0000000001
 40
0.0
 40
0.0
 40
0.0
 40
0.0
 40
0.1252030206
 40
0.2504650167
 40
0.375578799
 40
0.5006324534
 40
0.6255861366
 40
0.750447563
 40
0.8752413876
 40
1.0
 40
1.0
 40
1.0
 40
1.0
 10
73.9249597445
 20
69.4348356053
 30
0.0
 10
73.8092571466
 20
69.3195882855
 30
0.0
 10
73.5998901551
 20
69.0656084848
 30
0.0
 10
73.366132236
 20
68.6316964689
 30
0.0
 10
73.2214016906
 20
68.1605594595
 30
0.0
 10
73.1711288549
 20
67.6707114639
 30
0.0
 10
73.2174451415
 20
67.1807848393
 30
0.0
 10
73.358525842
 20
66.7096432204
 30
0.0
 10
73.5887534518
 20
66.2755350972
 30
0.0
 10
73.7962457947
 20
66.0215080594
 30
0.0
 10
73.9110831415
 20
65.9062152488
 30
0.0
  0
SPLINE
  5
241
100
AcDbEntity
  8
0
100
AcDbSpline
 62
7
  6
BYLAYER
 70
0
 71
3
 72
9
 73
5
 74
0
 42
0.0000001
 43
0.0000001
 44
0.0000000001
 40
0.0
 40
0.0
 40
0.0
 40
0.0
 40
0.4920420447
 40
1.0
 40
1.0
 40
1.0
 40
1.0
 10
56.24148027
 20
71.2150370744
 30
0.0
 10
56.3677057002
 20
71.2661949039
 30
0.0
 10
56.6193774093
 20
71.3819793821
 30
0.0
 10
56.866945887
 20
71.5057104981
 30
0.0
 10
56.9927058209
 20
71.568590465
 30
0.0
  0
SPLINE
  5
242
100
AcDbEntity
  8
0
100
AcDbSpline
 62
7
  6
BYLAYER
 70
0
 71
3
 72
15
 73
11
 74
0
 42
0.0000001
 43
0.0000001
 44
0.0000000001
 40
0.0
 40
0.0
 40
0.0
 40
0.0
 40
0.1247036413
 40
0.2494920035
 40
0.3744126934
 40
0.4994736979
 40
0.6246352664
 40
0.7498318928
 40
0.874965186
 40
1.0
 40
1.0
 40
1.0
 40
1.0
 10
77.8054407452
 20
69.7900000605
 30
0.0
 10
77.5990163198
 20
69.9967928374
 30
0.0
 10
77.1216676659
 20
70.3514317353
 30
0.0
 10
76.283888704
 20
70.650464302
 30
0.0
 10
75.3939117223
 20
70.6935901768
 30
0.0
 10
74.5290447042
 20
70.4764725219
 30
0.0
 10
73.7633943066
 20
70.0182014434
 30
0.0
 10
73.1628169172
 20
69.3578520826
 30
0.0
 10
72.7786944977
 20
68.5531777236
 30
0.0
 10
72.6891157522
 20
67.9637504443
 30
0.0
 10
72.6879584202
 20
67.670787969
 30
0.0
  0
SPLINE
  5
243
100
AcDbEntity
  8
0
100
AcDbSpline
 62
7
  6
BYLAYER
 70
0
 71
3
 72
11
 73
7
 74
0
 42
0.0000001
 43
0.0000001
 44
0.0000000001
 40
0.0
 40
0.0
 40
0.0
 40
0.0
 40
0.2496344093
 40
0.4994337825
 40
0.7495502457
 40
1.0
 40
1.0
 40
1.0
 40
1.0
 10
77.4145097964
 20
69.4731536959
 30
0.0
 10
77.2158716659
 20
69.6639625538
 30
0.0
 10
76.75054507
 20
69.981351919
 30
0.0
 10
75.9374358667
 20
70.2000565266
 30
0.0
 10
75.0966038336
 20
70.1417678574
 30
0.0
 10
74.5775165609
 20
69.9202591963
 30
0.0
 10
74.3446620825
 20
69.7714630167
 30
0.0
  0
SPLINE
  5
244
100
AcDbEntity
  8
0
100
AcDbSpline
 62
7
  6
BYLAYER
 70
0
 71
3
 72
11
 73
7
 74
0
 42
0.0000001
 43
0.0000001
 44
0.0000000001
 40
0.0
 40
0.0
 40
0.0
 40
0.0
 40
0.2586643638
 40
0.5084455835
 40
0.7533327467
 40
1.0
 40
1.0
 40
1.0
 40
1.0
 10
77.1243038777
 20
70.4725059385
 30
0.0
 10
77.0259401766
 20
70.5710701748
 30
0.0
 10
76.8180442649
 20
70.7509443627
 30
0.0
 10
76.4743824958
 20
70.9688975197
 30
0.0
 10
76.1086951995
 20
71.1320469532
 30
0.0
 10
75.8531290552
 20
71.2045297386
 30
0.0
 10
75.723206511
 20
71.2319794389
 30
0.0
  0
SPLINE
  5
245
100
AcDbEntity
  8
0
100
AcDbSpline
 62
7
  6
BYLAYER
 70
0
 71
3
 72
15
 73
11
 74
0
 42
0.0000001
 43
0.0000001
 44
0.0000000001
 40
0.0
 40
0.0
 40
0.0
 40
0.0
 40
0.1251532857
 40
0.2567190047
 40
0.3806762455
 40
0.4998138372
 40
0.6190821853
 40
0.741382989
 40
0.8684436976
 40
1.0
 40
1.0
 40
1.0
 40
1.0
 10
75.723206511
 20
71.2319794389
 30
0.0
 10
75.5659769228
 20
71.265198501
 30
0.0
 10
75.2374246427
 20
71.3064713271
 30
0.0
 10
74.7472571681
 20
71.2983951502
 30
0.0
 10
74.2700927577
 20
71.2262120947
 30
0.0
 10
73.8230782906
 20
71.0913171319
 30
0.0
 10
73.40281965
 20
70.8924080372
 30
0.0
 10
73.0106122327
 20
70.6235732742
 30
0.0
 10
72.6583455726
 20
70.2807527715
 30
0.0
 10
72.4653807346
 20
70.0075856236
 30
0.0
 10
72.3815546306
 20
69.8609299736
 30
0.0
  0
SPLINE
  5
246
100
AcDbEntity
  8
0
100
AcDbSpline
 62
7
  6
BYLAYER
 70
0
 71
3
 72
19
 73
15
 74
0
 42
0.0000001
 43
0.0000001
 44
0.0000000001
 40
0.0
 40
0.0
 40
0.0
 40
0.0
 40
0.1877142576
 40
0.3685836013
 40
0.5356321457
 40
0.6829282404
 40
0.7474804336
 40
0.8052379972
 40
0.8557560767
 40
0.8987221314
 40
0.93404172
 40
0.9618848304
 40
0.9831131171
 40
1.0
 40
1.0
 40
1.0
 40
1.0
 10
82.3505737749
 20
60.9775378745
 30
0.0
 10
82.2354065637
 20
60.8628238347
 30
0.0
 10
82.0130138941
 20
60.6337852372
 30
0.0
 10
81.7014555289
 20
60.2900350763
 30
0.0
 10
81.4259087676
 20
59.9613064601
 30
0.0
 10
81.2268638257
 20
59.7002316392
 30
0.0
 10
81.094706032
 20
59.5077155945
 30
0.0
 10
81.0149273051
 20
59.3810370712
 30
0.0
 10
80.9507142701
 20
59.2668055371
 30
0.0
 10
80.9026538185
 20
59.1660436079
 30
0.0
 10
80.870869704
 20
59.0795818835
 30
0.0
 10
80.8557348948
 20
59.0077601344
 30
0.0
 10
80.8569350539
 20
58.9497451518
 30
0.0
 10
80.8725166859
 20
58.9186324302
 30
0.0
 10
80.8828325303
 20
58.9082680414
 30
0.0
  0
SPLINE
  5
247
100
AcDbEntity
  8
0
100
AcDbSpline
 62
7
  6
BYLAYER
 70
0
 71
3
 72
19
 73
15
 74
0
 42
0.0000001
 43
0.0000001
 44
0.0000000001
 40
0.0
 40
0.0
 40
0.0
 40
0.0
 40
0.0168844778
 40
0.0381032732
 40
0.0659374768
 40
0.1012455299
 40
0.1442009915
 40
0.1947131803
 40
0.2524646945
 40
0.3170150505
 40
0.4643142075
 40
0.631375854
 40
0.8122657267
 40
1.0
 40
1.0
 40
1.0
 40
1.0
 10
84.4253085676
 20
62.4368047891
 30
0.0
 10
84.4149956616
 20
62.4471662257
 30
0.0
 10
84.3839757597
 20
62.4628961717
 30
0.0
 10
84.3259892757
 20
62.4643619645
 30
0.0
 10
84.2541409103
 20
62.4495316222
 30
0.0
 10
84.1675847407
 20
62.4181232462
 30
0.0
 10
84.0666641066
 20
62.3704898661
 30
0.0
 10
83.9522102207
 20
62.3067525306
 30
0.0
 10
83.8252403043
 20
62.227501124
 30
0.0
 10
83.6322317578
 20
62.0961300067
 30
0.0
 10
83.3703964376
 20
61.8981434266
 30
0.0
 10
83.0406050647
 20
61.6239152178
 30
0.0
 10
82.6956429687
 20
61.3137286222
 30
0.0
 10
82.4657368602
 20
61.0922478045
 30
0.0
 10
82.3505737749
 20
60.9775378745
 30
0.0
  0
ELLIPSE
  5
248
100
AcDbEntity
  8
0
100
AcDbEllipse
 62
7
  6
BYLAYER
 10
56.9927058209
 20
69.3614836838
 30
0.0
 11
2.0
 21
-0.0
 31
0.0
 40
1.0
 41
1.9558542027
 42
3.1415926536
  0
ELLIPSE
  5
249
100
AcDbEntity
  8
0
100
AcDbEllipse
 62
7
  6
BYLAYER
 10
74.9927058209
 20
68.3614836838
 30
0.0
 11
-2.1276127033
 21
2.1318193618
 31
0.0
 40
0.9960573507
 41
0.7844105535
 42
1.57079633
  0
ENDSEC
  0
SECTION
  2
OBJECTS
  0
DICTIONARY
  5
C
100
AcDbDictionary
280
0
281
1
  3
ACAD_GROUP
350
D
  3
ACAD_MLINESTYLE
350
17
  3
ACAD_LAYOUT
350
1A
  3
ACAD_PLOTSETTINGS
350
19
  3
ACAD_PLOTSTYLENAME
350
E
  0
DICTIONARY
  5
D
102
{ACAD_REACTORS
330
C
102
}
100
AcDbDictionary
280
0
281
1
  0
ACDBDICTIONARYWDFLT
  5
E
102
{ACAD_REACTORS
330
C
102
}
100
AcDbDictionary
281
1
  3
Normal
350
F
100
AcDbDictionaryWithDefault
340
F
  0
DICTIONARY
  5
17
102
{ACAD_REACTORS
330
C
102
}
100
AcDbDictionary
280
0
281
1
  3
Standard
350
18
  0
DICTIONARY
  5
19
102
{ACAD_REACTORS
330
C
102
}
100
AcDbDictionary
281
1
  0
DICTIONARY
  5
1A
102
{ACAD_REACTORS
330
C
102
}
100
AcDbDictionary
281
1
  3
Model
350
24A
  3
Layout1
350
24B
  0
ACDBPLACEHOLDER
  5
F
102
{ACAD_REACTORS
330
E
102
}
  0
MLINESTYLE
  5
18
102
{ACAD_REACTORS
330
17
102
}
100
AcDbMlineStyle
  2
STANDARD
 70
0
  3

 62
256
 51
90.0
 52
90.0
 71
2
 49
0.5
 62
256
  6
BYLAYER
 49
-0.5
 62
256
  6
BYLAYER
  0
LAYOUT
  5
24A
102
{ACAD_REACTORS
330
1A
102
}
100
AcDbPlotSettings
  1

  2
none_device
  4

  6

 40
0.0
 41
0.0
 42
0.0
 43
0.0
 44
210.0
 45
297.0
 46
0.0
 47
0.0
 48
0.0
 49
0.0
140
0.0
141
0.0
142
1.0
143
1.0
 70
1024
 72
1
 73
0
 74
0
  7

 75
0
147
1.0
148
0.0
149
0.0
100
AcDbLayout
  1
Model
 70
0
 71
0
 10
0.0
 20
0.0
 11
210.0
 21
297.0
 12
0.0
 22
0.0
 32
0.0
 14
0.0
 24
0.0
 34
0.0
 15
0.0
 25
0.0
 35
0.0
146
0.0
 13
0.0
 23
0.0
 33
0.0
 16
1.0
 26
0.0
 36
0.0
 17
0.0
 27
1.0
 37
0.0
 76
0
330
210
345
0
346
0
  0
LAYOUT
  5
24B
102
{ACAD_REACTORS
330
1A
102
}
100
AcDbPlotSettings
  1

  2
none_device
  4

  6

 40
0.0
 41
0.0
 42
0.0
 43
0.0
 44
210.0
 45
297.0
 46
0.0
 47
0.0
 48
0.0
 49
0.0
140
0.0
141
0.0
142
1.0
143
1.0
 70
0
 72
1
 73
0
 74
0
  7

 75
0
147
1.0
148
0.0
149
0.0
100
AcDbLayout
  1
Layout1
 70
0
 71
1
 10
0.0
 20
0.0
 11
210.0
 21
297.0
 12
0.0
 22
0.0
 32
0.0
 14
0.0
 24
0.0
 34
0.0
 15
0.0
 25
0.0
 35
0.0
146
0.0
 13
0.0
 23
0.0
 33
0.0
 16
1.0
 26
0.0
 36
0.0
 17
0.0
 27
1.0
 37
0.0
 76
0
330
211
345
0
346
0
  0
ENDSEC
  0
EOF
