999
DXF file: C:\Users\sesa63760\Dev\_Creo\CAD\MCADID0003705_3D-CAD\drw0001_5.dxf
999
Pro/ENGINEER 2019471 by Parametric Technology Corporation
  0
SECTION
  2
HEADER
  9
$ACADVER
  1
AC1024
  9
$DWGCODEPAGE
  3
ANSI_1252
  9
$EXTMAX
 10
29.768037518
 20
42.1005102041
 30
0.0
  9
$EXTMIN
 10
0.0
 20
0.0
 30
0.0
  9
$LIMMIN
 10
0.0
 20
0.0
  9
$LIMMAX
 10
29.768037518
 20
42.1005102041
  9
$VIEWCTR
 10
14.884018759
 20
21.050255102
  9
$VIEWSIZE
 40
42.1005102041
  9
$CLAYER
  8
0
  9
$LTSCALE
 40
2.744329554
  9
$CELTYPE
  6
BYLAYER
  9
$DIMSCALE
 40
1.0
  9
$DIMASZ
 40
0.354381399
  9
$DIMEXO
 40
1.0
  9
$DIMDLI
 40
1.8960822373
  9
$DIMEXE
 40
1.0
  9
$DIMCEN
 40
0.4490721088
  9
$DIMLFAC
 40
1.0
  9
$DIMBLK
  1
_FILLED
  9
$DIMALT
 70
0
  9
$DIMALTF
 40
0.0393700787
  9
$DIMTXT
 40
0.4961339586
  9
$DIMTOL
 70
1
  9
$DIMLIM
 70
0
  9
$DIMTFAC
 40
1.0
  9
$DIMTP
 40
0.01
  9
$DIMTM
 40
0.01
  9
$DIMGAP
 40
0.625
  9
$DIMDSEP
 70
46
  9
$AUNITS
 70
0
  9
$PDMODE
 70
3
  9
$PDSIZE
 40
0.3125
  9
$HANDSEED
  5
248
  9
$TILEMODE
 70
1
  9
$MEASUREMENT
 70
1
  9
$INSUNITS
 70
4
  0
ENDSEC
  0
SECTION
  2
CLASSES
  0
CLASS
  1
ACDBDICTIONARYWDFLT
  2
AcDbDictionaryWithDefault
  3
AutoCAD 2000
 90
0
 91
1
280
0
281
0
  0
CLASS
  1
ACDBPLACEHOLDER
  2
AcDbPlaceHolder
  3
AutoCAD 2000
 90
0
 91
1
280
0
281
0
  0
CLASS
  1
LAYOUT
  2
AcDbLayout
  3
AutoCAD 2000
 90
0
 91
0
280
0
281
0
  0
ENDSEC
  0
SECTION
  2
TABLES
  0
TABLE
  2
VPORT
  5
8
100
AcDbSymbolTable
 70
2
  0
VPORT
  5
1F4
100
AcDbSymbolTableRecord
100
AcDbViewportTableRecord
  2
*ACTIVE
 70
0
 10
0.0
 20
0.0
 11
1.0
 21
1.0
 12
14.884018759
 22
21.050255102
 13
0.0
 23
0.0
 14
1.0
 24
1.0
 15
0.0
 25
0.0
 16
0.0
 26
0.0
 36
1.0
 17
0.0
 27
0.0
 37
0.0
 40
42.1005102041
 41
0.7070707071
 42
50.0
 43
0.0
 44
0.0
 50
0.0
 51
0.0
 71
0
 72
100
 73
1
 74
1
 75
0
 76
0
 77
0
 78
0
  0
ENDTAB
  0
TABLE
  2
LTYPE
  5
5
100
AcDbSymbolTable
 70
6
  0
LTYPE
  5
14
100
AcDbSymbolTableRecord
100
AcDbLinetypeTableRecord
  2
BYBLOCK
 70
0
  3

 72
65
 73
0
 40
0.0
  0
LTYPE
  5
15
100
AcDbSymbolTableRecord
100
AcDbLinetypeTableRecord
  2
BYLAYER
 70
0
  3

 72
65
 73
0
 40
0.0
  0
LTYPE
  5
16
100
AcDbSymbolTableRecord
100
AcDbLinetypeTableRecord
  2
CONTINUOUS
 70
64
  3
Solid line
 72
65
 73
0
 40
0.0
  0
LTYPE
  5
1F5
100
AcDbSymbolTableRecord
100
AcDbLinetypeTableRecord
  2
CENTER
 70
64
  3
____ _ ____ _ ____ _ ____ _ ____ _ ____ _ ____
 72
65
 73
4
 40
0.6
 49
0.375
 74
0
 49
-0.075
 74
0
 49
0.075
 74
0
 49
-0.075
 74
0
  0
LTYPE
  5
1F6
100
AcDbSymbolTableRecord
100
AcDbLinetypeTableRecord
  2
HIDDEN
 70
64
  3
- - - - - - - - - - - - - - - - - - - -
 72
65
 73
2
 40
0.2
 49
0.1
 74
0
 49
-0.1
 74
0
  0
LTYPE
  5
1F7
100
AcDbSymbolTableRecord
100
AcDbLinetypeTableRecord
  2
PHANTOM
 70
64
  3
_____ _ _ _____ _ _ _____ _ _ _____
 72
65
 73
6
 40
0.8
 49
0.45
 74
0
 49
-0.05
 74
0
 49
0.1
 74
0
 49
-0.05
 74
0
 49
0.1
 74
0
 49
-0.05
 74
0
  0
LTYPE
  5
1F8
100
AcDbSymbolTableRecord
100
AcDbLinetypeTableRecord
  2
DOT
 70
64
  3
. . . . . . . . . . . . . . . . . . . .
 72
65
 73
2
 40
0.2
 49
0.1
 74
0
 49
-0.1
 74
0
  0
LTYPE
  5
1F9
100
AcDbSymbolTableRecord
100
AcDbLinetypeTableRecord
  2
DASHED
 70
64
  3
- - - - - - - - - - - - - - - - - - - -
 72
65
 73
2
 40
0.2
 49
0.1
 74
0
 49
-0.1
 74
0
  0
ENDTAB
  0
TABLE
  2
LAYER
  5
2
100
AcDbSymbolTable
 70
36
  0
LAYER
  5
10
100
AcDbSymbolTableRecord
100
AcDbLayerTableRecord
  2
0
 70
0
 62
7
  6
CONTINUOUS
370
-3
390
F
  0
LAYER
  5
1FA
100
AcDbSymbolTableRecord
100
AcDbLayerTableRecord
  2
DEFAULT_1
 70
0
 62
7
  6
CENTER
370
-3
390
F
  0
LAYER
  5
1FB
100
AcDbSymbolTableRecord
100
AcDbLayerTableRecord
  2
DEFAULT_2
 70
0
 62
7
  6
HIDDEN
370
-3
390
F
  0
LAYER
  5
1FC
100
AcDbSymbolTableRecord
100
AcDbLayerTableRecord
  2
DEFAULT_3
 70
0
 62
7
  6
PHANTOM
370
-3
390
F
  0
LAYER
  5
1FD
100
AcDbSymbolTableRecord
100
AcDbLayerTableRecord
  2
00_COMPONENTS
 70
0
 62
7
  6
CONTINUOUS
370
-3
390
F
  0
LAYER
  5
1FE
100
AcDbSymbolTableRecord
100
AcDbLayerTableRecord
  2
01_1_DEFAULT_DATUMS
 70
0
 62
7
  6
CONTINUOUS
370
-3
390
F
  0
LAYER
  5
1FF
100
AcDbSymbolTableRecord
100
AcDbLayerTableRecord
  2
01_PLANES
 70
0
 62
7
  6
CONTINUOUS
370
-3
390
F
  0
LAYER
  5
200
100
AcDbSymbolTableRecord
100
AcDbLayerTableRecord
  2
02_COORD_SYS
 70
0
 62
7
  6
CONTINUOUS
370
-3
390
F
  0
LAYER
  5
201
100
AcDbSymbolTableRecord
100
AcDbLayerTableRecord
  2
03_AXES
 70
0
 62
7
  6
CONTINUOUS
370
-3
390
F
  0
LAYER
  5
202
100
AcDbSymbolTableRecord
100
AcDbLayerTableRecord
  2
04_POINTS
 70
0
 62
7
  6
CONTINUOUS
370
-3
390
F
  0
LAYER
  5
203
100
AcDbSymbolTableRecord
100
AcDbLayerTableRecord
  2
05_CURVES
 70
0
 62
7
  6
CONTINUOUS
370
-3
390
F
  0
LAYER
  5
204
100
AcDbSymbolTableRecord
100
AcDbLayerTableRecord
  2
06_SURFS
 70
0
 62
7
  6
CONTINUOUS
370
-3
390
F
  0
LAYER
  5
205
100
AcDbSymbolTableRecord
100
AcDbLayerTableRecord
  2
07_COSMETICS
 70
0
 62
7
  6
CONTINUOUS
370
-3
390
F
  0
LAYER
  5
206
100
AcDbSymbolTableRecord
100
AcDbLayerTableRecord
  2
10_NOTES
 70
0
 62
7
  6
CONTINUOUS
370
-3
390
F
  0
LAYER
  5
207
100
AcDbSymbolTableRecord
100
AcDbLayerTableRecord
  2
11_NOTES_PUB
 70
0
 62
7
  6
CONTINUOUS
370
-3
390
F
  0
LAYER
  5
208
100
AcDbSymbolTableRecord
100
AcDbLayerTableRecord
  2
13_REF_GTOL
 70
0
 62
7
  6
CONTINUOUS
370
-3
390
F
  0
LAYER
  5
209
100
AcDbSymbolTableRecord
100
AcDbLayerTableRecord
  2
16_MISC
 70
0
 62
7
  6
CONTINUOUS
370
-3
390
F
  0
LAYER
  5
20A
100
AcDbSymbolTableRecord
100
AcDbLayerTableRecord
  2
17_NO_PRINT
 70
0
 62
7
  6
CONTINUOUS
370
-3
390
F
  0
LAYER
  5
20B
100
AcDbSymbolTableRecord
100
AcDbLayerTableRecord
  2
18_DATUM_CAMS_JOINTS
 70
0
 62
7
  6
CONTINUOUS
370
-3
390
F
  0
LAYER
  5
20C
100
AcDbSymbolTableRecord
100
AcDbLayerTableRecord
  2
19_DATUM_FUNCTIONAL
 70
0
 62
7
  6
CONTINUOUS
370
-3
390
F
  0
LAYER
  5
20D
100
AcDbSymbolTableRecord
100
AcDbLayerTableRecord
  2
20_DATUM_KINEMATIC_SCHEME
 70
0
 62
7
  6
CONTINUOUS
370
-3
390
F
  0
ENDTAB
  0
TABLE
  2
STYLE
  5
3
100
AcDbSymbolTable
 70
1
  0
STYLE
  5
11
100
AcDbSymbolTableRecord
100
AcDbTextStyleTableRecord
  2
STANDARD
 70
0
 40
0.0
 41
1.0
 50
0.0
 71
0
 42
0.2
  3
ARIAL.TTF
  4

  0
STYLE
  5
20E
100
AcDbSymbolTableRecord
100
AcDbTextStyleTableRecord
  2
TEXTSTYLE_1
 70
0
 40
0.0
 41
0.8
 50
0.0
 71
0
 42
0.2
  3
gdt
  4

  0
ENDTAB
  0
TABLE
  2
VIEW
  5
6
100
AcDbSymbolTable
 70
0
  0
ENDTAB
  0
TABLE
  2
UCS
  5
7
100
AcDbSymbolTable
 70
0
  0
ENDTAB
  0
TABLE
  2
APPID
  5
9
100
AcDbSymbolTable
 70
1
  0
APPID
  5
20F
100
AcDbSymbolTableRecord
100
AcDbRegAppTableRecord
  2
ACAD
 70
0
  0
ENDTAB
  0
TABLE
  2
BLOCK_RECORD
  5
1
100
AcDbSymbolTable
 70
0
  0
BLOCK_RECORD
  5
210
100
AcDbSymbolTableRecord
100
AcDbBlockTableRecord
  2
*Model_Space
  0
BLOCK_RECORD
  5
211
100
AcDbSymbolTableRecord
100
AcDbBlockTableRecord
  2
*Paper_Space
  0
BLOCK_RECORD
  5
212
100
AcDbSymbolTableRecord
100
AcDbBlockTableRecord
  2
_FILLED
  0
ENDTAB
  0
TABLE
  2
DIMSTYLE
  5
A
100
AcDbSymbolTable
 70
1
100
AcDbDimStyleTable
 71
0
  0
DIMSTYLE
105
213
100
AcDbSymbolTableRecord
100
AcDbDimStyleTableRecord
  2
STANDARD
 70
0
  3

  4

 40
1.0
 41
0.354381399
 42
1.0
 43
0.38
 44
1.0
 45
0.0
 46
0.0
 47
0.01
 48
0.01
140
0.4961339586
141
0.09
142
0.0
143
25.4
144
1.0
145
0.0
146
1.0
147
0.625
 71
1
 72
0
 73
0
 74
0
 75
0
 76
0
 77
1
 78
8
 79
2
170
0
171
1
172
0
173
0
174
0
175
0
176
0
177
0
178
0
270
2
179
2
271
2
272
2
273
2
274
2
275
0
280
0
281
0
282
0
283
1
284
8
285
0
286
0
287
3
288
0
340
11
278
46
341
212
342
212
343
212
344
212
  0
ENDTAB
  0
ENDSEC
  0
SECTION
  2
BLOCKS
  0
BLOCK
  5
20
100
AcDbEntity
  8
0
100
AcDbBlockBegin
  2
*Model_Space
 70
0
 10
0.0
 20
0.0
 30
0.0
  3
*Model_Space
  1

  0
ENDBLK
  5
21
100
AcDbEntity
  8
0
100
AcDbBlockEnd
  0
BLOCK
  5
1C
100
AcDbEntity
  8
0
100
AcDbBlockBegin
  2
*Paper_Space
 70
0
 10
0.0
 20
0.0
 30
0.0
  3
*Paper_Space
  1

  0
ENDBLK
  5
1D
100
AcDbEntity
  8
0
100
AcDbBlockEnd
  0
BLOCK
  5
214
100
AcDbEntity
  8
0
100
AcDbBlockBegin
  2
_FILLED
 70
64
 10
0.0
 20
0.0
  3
_FILLED
  1

  0
SOLID
  5
215
100
AcDbEntity
  8
0
  6
BYBLOCK
 62
0
100
AcDbTrace
 10
0.0
 20
0.0
 11
-1.0
 21
0.25
 12
-1.0
 22
-0.25
 13
-1.0
 23
-0.25
  0
ENDBLK
  5
216
100
AcDbEntity
  8
0
  6
BYBLOCK
 62
0
100
AcDbBlockEnd
  0
ENDSEC
  0
SECTION
  2
ENTITIES
  0
LINE
  5
217
100
AcDbEntity
  8
0
100
AcDbLine
 62
7
  6
BYLAYER
 10
6.1962849168
 20
3.4267857143
 11
23.8962849168
 21
3.4267857143
  0
LINE
  5
218
100
AcDbEntity
  8
0
100
AcDbLine
 62
7
  6
BYLAYER
 10
24.3962849168
 20
3.9267857143
 11
6.1962849168
 21
3.9267857143
  0
LINE
  5
219
100
AcDbEntity
  8
0
100
AcDbLine
 62
7
  6
BYLAYER
 10
18.3962849168
 20
8.9267857143
 11
6.1962849168
 21
8.8203179272
  0
LINE
  5
21A
100
AcDbEntity
  8
0
100
AcDbLine
 62
7
  6
BYLAYER
 10
20.1962849168
 20
8.9267857143
 11
18.3962849168
 21
8.9267857143
  0
LINE
  5
21B
100
AcDbEntity
  8
0
100
AcDbLine
 62
7
  6
BYLAYER
 10
22.1962849168
 20
9.8368108401
 11
23.8962849168
 21
9.8368108401
  0
LINE
  5
21C
100
AcDbEntity
  8
0
100
AcDbLine
 62
7
  6
BYLAYER
 10
18.8683011344
 20
10.2032630999
 11
20.1962849168
 21
10.1288264949
  0
LINE
  5
21D
100
AcDbEntity
  8
0
100
AcDbLine
 62
7
  6
BYLAYER
 10
18.8788351684
 20
10.34916146
 11
20.1962849168
 21
10.275306545
  0
LINE
  5
21E
100
AcDbEntity
  8
0
100
AcDbLine
 62
7
  6
BYLAYER
 10
6.1962849168
 20
3.4267857143
 11
6.1962849168
 21
8.8203179272
  0
LINE
  5
21F
100
AcDbEntity
  8
0
100
AcDbLine
 62
7
  6
BYLAYER
 10
20.1962849168
 20
14.0209085973
 11
18.8788351684
 21
13.9624683338
  0
LINE
  5
220
100
AcDbEntity
  8
0
100
AcDbLine
 62
7
  6
BYLAYER
 10
18.8741293947
 20
14.4620224963
 11
20.1962849168
 21
14.5206608868
  0
LINE
  5
221
100
AcDbEntity
  8
0
100
AcDbLine
 62
7
  6
BYLAYER
 10
23.8962849168
 20
13.8167605885
 11
22.1962849168
 21
13.8167605885
  0
LINE
  5
222
100
AcDbEntity
  8
0
100
AcDbLine
 62
7
  6
BYLAYER
 10
18.8788351684
 20
13.9345689656
 11
18.3962849168
 21
13.9345689656
  0
LINE
  5
223
100
AcDbEntity
  8
0
100
AcDbLine
 62
7
  6
BYLAYER
 10
18.8788351684
 20
13.9624683338
 11
18.3962849168
 21
13.9624683338
  0
LINE
  5
224
100
AcDbEntity
  8
0
100
AcDbLine
 62
7
  6
BYLAYER
 10
18.3962849168
 20
10.7025002928
 11
18.3962849168
 21
13.9624683338
  0
LINE
  5
225
100
AcDbEntity
  8
0
100
AcDbLine
 62
7
  6
BYLAYER
 10
18.6462926563
 20
10.94190192
 11
18.6462926563
 21
13.5153735599
  0
LINE
  5
226
100
AcDbEntity
  8
0
100
AcDbLine
 62
7
  6
BYLAYER
 10
18.8788351684
 20
10.34916146
 11
18.8788351684
 21
10.3689010233
  0
LINE
  5
227
100
AcDbEntity
  8
0
100
AcDbLine
 62
7
  6
BYLAYER
 10
18.8788351684
 20
13.9345525175
 11
18.8788351684
 21
13.9624683338
  0
LINE
  5
228
100
AcDbEntity
  8
0
100
AcDbLine
 62
7
  6
BYLAYER
 10
18.8961705224
 20
11.0344187902
 11
18.8961705224
 21
13.3699660527
  0
LINE
  5
229
100
AcDbEntity
  8
0
100
AcDbLine
 62
7
  6
BYLAYER
 10
20.1962849168
 20
8.9267857143
 11
20.1962849168
 21
38.7767857143
  0
LINE
  5
22A
100
AcDbEntity
  8
0
100
AcDbLine
 62
7
  6
BYLAYER
 10
22.1962849168
 20
13.8167605885
 11
22.1962849168
 21
9.8368108401
  0
LINE
  5
22B
100
AcDbEntity
  8
0
100
AcDbLine
 62
7
  6
BYLAYER
 10
23.8962849168
 20
38.7767857143
 11
23.8962849168
 21
13.8167605885
  0
LINE
  5
22C
100
AcDbEntity
  8
0
100
AcDbLine
 62
7
  6
BYLAYER
 10
23.8962849168
 20
9.8368108401
 11
23.8962849168
 21
3.4267857143
  0
LINE
  5
22D
100
AcDbEntity
  8
0
100
AcDbLine
 62
7
  6
BYLAYER
 10
24.3962849168
 20
3.9267857143
 11
24.3962849168
 21
14.3586373078
  0
LINE
  5
22E
100
AcDbEntity
  8
0
100
AcDbLine
 62
7
  6
BYLAYER
 10
24.3962849168
 20
14.4171524837
 11
24.3962849168
 21
38.7767857143
  0
LINE
  5
22F
100
AcDbEntity
  8
0
100
AcDbLine
 62
7
  6
BYLAYER
 10
20.1962849168
 20
38.7767857143
 11
24.3962849168
 21
38.7767857143
  0
ARC
  5
230
100
AcDbEntity
  8
0
100
AcDbCircle
 62
7
  6
BYLAYER
 10
-51.1240280375
 20
189.7491740089
 40
192.5556600621
100
AcDbArc
 50
291.3181355437
 51
291.5929876129
  0
ARC
  5
231
100
AcDbEntity
  8
0
100
AcDbCircle
 62
7
  6
BYLAYER
 10
-65.9324584326
 20
-130.6181691501
 40
167.596071174
100
AcDbArc
 50
59.2578476469
 51
59.5991992848
  0
ARC
  5
232
100
AcDbEntity
  8
0
100
AcDbCircle
 62
7
  6
BYLAYER
 10
18.8962849168
 20
13.9624683338
 40
0.5
100
AcDbArc
 50
92.5394383587
 51
180.0000392957
  0
ARC
  5
233
100
AcDbEntity
  8
0
100
AcDbCircle
 62
7
  6
BYLAYER
 10
18.8962849168
 20
10.7024994754
 40
0.5
100
AcDbArc
 50
180.0009171141
 51
266.7918416844
  0
ARC
  5
234
100
AcDbEntity
  8
0
100
AcDbCircle
 62
7
  6
BYLAYER
 10
23.8962849168
 20
3.9267857143
 40
0.5
100
AcDbArc
 50
270.0
 51
360.0
  0
ARC
  5
235
100
AcDbEntity
  8
0
100
AcDbCircle
 62
7
  6
BYLAYER
 10
18.6442178731
 20
10.7222505734
 40
0.2479329575
100
AcDbArc
 50
180.005376517
 51
183.8580052988
  0
SPLINE
  5
236
100
AcDbEntity
  8
0
100
AcDbSpline
 62
7
  6
BYLAYER
 70
0
 71
3
 72
16
 73
12
 74
0
 42
0.0000001
 43
0.0000001
 44
0.0000000001
 40
0.0
 40
0.0
 40
0.0
 40
0.0
 40
0.0740090336
 40
0.1469848994
 40
0.2183289575
 40
0.2878448628
 40
0.4214307721
 40
0.5486433814
 40
0.6699226812
 40
0.7854896415
 40
1.0
 40
1.0
 40
1.0
 40
1.0
 10
23.8962849168
 20
13.8167605885
 30
0.0
 10
23.9172713972
 20
13.8167605885
 30
0.0
 10
23.9590547167
 20
13.8207703472
 30
0.0
 10
24.0188675763
 20
13.8378318777
 30
0.0
 10
24.0740077851
 20
13.8635914165
 30
0.0
 10
24.1396193202
 20
13.9057730914
 30
0.0
 10
24.2094694886
 20
13.9691610278
 30
0.0
 10
24.2767397217
 20
14.0545433828
 30
0.0
 10
24.3288573047
 20
14.1440897572
 30
0.0
 10
24.3780805706
 20
14.2623630298
 30
0.0
 10
24.3962849168
 20
14.3563245385
 30
0.0
 10
24.3962849168
 20
14.4171524837
 30
0.0
  0
SPLINE
  5
237
100
AcDbEntity
  8
0
100
AcDbSpline
 62
7
  6
BYLAYER
 70
0
 71
3
 72
16
 73
12
 74
0
 42
0.0000001
 43
0.0000001
 44
0.0000000001
 40
0.0
 40
0.0
 40
0.0
 40
0.0
 40
0.2145104104
 40
0.3300773508
 40
0.4513566299
 40
0.5785692132
 40
0.7121550389
 40
0.7816709003
 40
0.8530149387
 40
0.9259908774
 40
1.0
 40
1.0
 40
1.0
 40
1.0
 10
24.3962849168
 20
9.2364189449
 30
0.0
 10
24.3962849168
 20
9.2972469048
 30
0.0
 10
24.3780805695
 20
9.3912084239
 30
0.0
 10
24.3288572924
 20
9.5094816954
 30
0.0
 10
24.2767397165
 20
9.5990280516
 30
0.0
 10
24.2094695055
 20
9.6844103771
 30
0.0
 10
24.1396193709
 20
9.7477982842
 30
0.0
 10
24.0740078822
 20
9.7899799517
 30
0.0
 10
24.0188676846
 20
9.8157395212
 30
0.0
 10
23.9590547878
 20
9.8328010732
 30
0.0
 10
23.9172714224
 20
9.8368108401
 30
0.0
 10
23.8962849168
 20
9.8368108401
 30
0.0
  0
LINE
  5
238
100
AcDbEntity
  8
0
100
AcDbLine
 62
7
  6
BYLAYER
 10
19.73852596
 20
10.7067746428
 11
20.1962849168
 21
10.6954148644
  0
SPLINE
  5
239
100
AcDbEntity
  8
0
100
AcDbSpline
 62
7
  6
BYLAYER
 70
0
 71
3
 72
20
 73
16
 74
0
 42
0.0000001
 43
0.0000001
 44
0.0000000001
 40
0.0
 40
0.0
 40
0.0
 40
0.0
 40
0.0282571065
 40
0.0564558962
 40
0.1133646549
 40
0.1719126661
 40
0.2320157028
 40
0.2933337358
 40
0.3555697611
 40
0.4185058361
 40
0.4819878131
 40
0.6101463436
 40
0.7394567653
 40
0.8695129008
 40
1.0
 40
1.0
 40
1.0
 40
1.0
 10
18.8961705224
 20
11.0344187902
 30
0.0
 10
18.8961705146
 20
11.0253355297
 30
0.0
 10
18.8978510724
 20
11.0071389038
 30
0.0
 10
18.9079446795
 20
10.9719280453
 30
0.0
 10
18.9322456578
 20
10.93171011
 30
0.0
 10
18.9729019453
 20
10.8920570788
 30
0.0
 10
19.0206358675
 20
10.8590431418
 30
0.0
 10
19.0728817578
 20
10.8313508994
 30
0.0
 10
19.1281121071
 20
10.8079013123
 30
0.0
 10
19.1854068474
 20
10.7879235687
 30
0.0
 10
19.2640241695
 20
10.76510187
 30
0.0
 10
19.3648850584
 20
10.7428736324
 30
0.0
 10
19.4880899865
 20
10.7240444517
 30
0.0
 10
19.612870087
 20
10.7118740317
 30
0.0
 10
19.6965605256
 20
10.7078207501
 30
0.0
 10
19.7384926405
 20
10.7067754719
 30
0.0
  0
LINE
  5
23A
100
AcDbEntity
  8
0
100
AcDbLine
 62
7
  6
BYLAYER
 10
20.1962849168
 20
13.4267857143
 11
19.7385262295
 21
13.4267058567
  0
LINE
  5
23B
100
AcDbEntity
  8
0
100
AcDbLine
 62
7
  6
BYLAYER
 10
18.6462926739
 20
10.9419017869
 11
18.896170545
 21
11.0344186474
  0
LINE
  5
23C
100
AcDbEntity
  8
0
100
AcDbLine
 62
7
  6
BYLAYER
 10
18.8961705641
 20
13.3699662118
 11
18.6462925333
 21
13.5153731559
  0
SPLINE
  5
23D
100
AcDbEntity
  8
0
100
AcDbSpline
 62
7
  6
BYLAYER
 70
0
 71
3
 72
14
 73
10
 74
0
 42
0.0000001
 43
0.0000001
 44
0.0000000001
 40
0.0
 40
0.0
 40
0.0
 40
0.0
 40
0.0488555717
 40
0.1254349092
 40
0.2298639392
 40
0.35884249
 40
0.5076136405
 40
0.6690272871
 40
1.0
 40
1.0
 40
1.0
 40
1.0
 10
18.6462936301
 20
13.5153752547
 30
0.0
 10
18.6493099148
 20
13.5225779602
 30
0.0
 10
18.6579818617
 20
13.5406703855
 30
0.0
 10
18.6747190394
 20
13.5733721102
 30
0.0
 10
18.6981123416
 20
13.6170534393
 30
0.0
 10
18.7275251803
 20
13.6705906626
 30
0.0
 10
18.761859119
 20
13.7318149696
 30
0.0
 10
18.812558506
 20
13.8208739879
 30
0.0
 10
18.8520687492
 20
13.8889396198
 30
0.0
 10
18.8788351494
 20
13.934568966
 30
0.0
  0
SPLINE
  5
23E
100
AcDbEntity
  8
0
100
AcDbSpline
 62
7
  6
BYLAYER
 70
0
 71
3
 72
11
 73
7
 74
0
 42
0.0000001
 43
0.0000001
 44
0.0000000001
 40
0.0
 40
0.0
 40
0.0
 40
0.0
 40
0.2477457446
 40
0.4965629192
 40
0.7472248935
 40
1.0
 40
1.0
 40
1.0
 40
1.0
 10
18.3962849168
 20
13.9345689656
 30
0.0
 10
18.3962849168
 20
13.8924146647
 30
0.0
 10
18.4078362462
 20
13.8074867182
 30
0.0
 10
18.4585819931
 20
13.6893001524
 30
0.0
 10
18.5390888633
 20
13.587936332
 30
0.0
 10
18.6088465907
 20
13.5362899398
 30
0.0
 10
18.6463956323
 20
13.5153153305
 30
0.0
  0
SPLINE
  5
23F
100
AcDbEntity
  8
0
100
AcDbSpline
 62
7
  6
BYLAYER
 70
0
 71
3
 72
25
 73
21
 74
0
 42
0.0000001
 43
0.0000001
 44
0.0000000001
 40
0.0
 40
0.0
 40
0.0
 40
0.0
 40
0.0048303278
 40
0.0099102262
 40
0.0155888259
 40
0.0220915516
 40
0.0378649104
 40
0.0572758665
 40
0.0798105039
 40
0.1048958237
 40
0.1320113956
 40
0.1607466156
 40
0.2218563071
 40
0.2864440984
 40
0.3534333167
 40
0.4221502621
 40
0.5631304021
 40
0.707183984
 40
0.8530835001
 40
1.0
 40
1.0
 40
1.0
 40
1.0
 10
18.8961705224
 20
13.3699660527
 30
0.0
 10
18.8961705211
 20
13.3713434902
 30
0.0
 10
18.8966174026
 20
13.3741887408
 30
0.0
 10
18.8986254219
 20
13.3782177143
 30
0.0
 10
18.901876244
 20
13.3819666872
 30
0.0
 10
18.9081586173
 20
13.3869259222
 30
0.0
 10
18.9188854725
 20
13.3922683931
 30
0.0
 10
18.9345032918
 20
13.3975122276
 30
0.0
 10
18.9530966204
 20
13.4020298843
 30
0.0
 10
18.9740619424
 20
13.4058903926
 30
0.0
 10
18.9969113115
 20
13.4091786282
 30
0.0
 10
19.0300499164
 20
13.4129811099
 30
0.0
 10
19.0739510993
 20
13.4165822391
 30
0.0
 10
19.1288145062
 20
13.4196699512
 30
0.0
 10
19.1858898238
 20
13.4218994077
 30
0.0
 10
19.2647629002
 20
13.4240441116
 30
0.0
 10
19.365632053
 20
13.4255305891
 30
0.0
 10
19.4885165225
 20
13.4263324375
 30
0.0
 10
19.6130960361
 20
13.4266342428
 30
0.0
 10
19.6965967067
 20
13.4266912349
 30
0.0
 10
19.7384920574
 20
13.4267058474
 30
0.0
  0
SPLINE
  5
240
100
AcDbEntity
  8
0
100
AcDbSpline
 62
7
  6
BYLAYER
 70
0
 71
3
 72
15
 73
11
 74
0
 42
0.0000001
 43
0.0000001
 44
0.0000000001
 40
0.0
 40
0.0
 40
0.0
 40
0.0
 40
0.0941366896
 40
0.1928627712
 40
0.2995896839
 40
0.4166839138
 40
0.5454117283
 40
0.6860486448
 40
0.8380999986
 40
1.0
 40
1.0
 40
1.0
 40
1.0
 10
18.3962849168
 20
10.7222197943
 30
0.0
 10
18.3962849168
 20
10.7333382207
 30
0.0
 10
18.3993322001
 20
10.7562103517
 30
0.0
 10
18.4125967535
 20
10.7893456217
 30
0.0
 10
18.4342211199
 20
10.8210193266
 30
0.0
 10
18.4636044959
 20
10.8507789813
 30
0.0
 10
18.5002454543
 20
10.8782291249
 30
0.0
 10
18.5435345458
 20
10.903009064
 30
0.0
 10
18.5927487401
 20
10.9246758535
 30
0.0
 10
18.6279416639
 20
10.936521097
 30
0.0
 10
18.6462926563
 20
10.941895899
 30
0.0
  0
SPLINE
  5
241
100
AcDbEntity
  8
0
100
AcDbSpline
 62
7
  6
BYLAYER
 70
0
 71
3
 72
14
 73
10
 74
0
 42
0.0000001
 43
0.0000001
 44
0.0000000001
 40
0.0
 40
0.0
 40
0.0
 40
0.0
 40
0.1037083399
 40
0.2116131923
 40
0.3259521958
 40
0.4480464706
 40
0.7136352791
 40
0.855499003
 40
1.0
 40
1.0
 40
1.0
 40
1.0
 10
18.3968467659
 20
10.7055686463
 30
0.0
 10
18.398333169
 20
10.6835026423
 30
0.0
 10
18.4074248144
 20
10.6386907202
 30
0.0
 10
18.4380954983
 20
10.575608353
 30
0.0
 10
18.4845720374
 20
10.518020601
 30
0.0
 10
18.5673338612
 20
10.4492593692
 30
0.0
 10
18.672019771
 20
10.401268485
 30
0.0
 10
18.7869726542
 20
10.3751930874
 30
0.0
 10
18.8480294323
 20
10.3696499699
 30
0.0
 10
18.8788351684
 20
10.3688892924
 30
0.0
  0
SPLINE
  5
242
100
AcDbEntity
  8
0
100
AcDbSpline
 62
7
  6
BYLAYER
 70
0
 71
3
 72
15
 73
11
 74
0
 42
0.0000001
 43
0.0000001
 44
0.0000000001
 40
0.0
 40
0.0
 40
0.0
 40
0.0
 40
0.1066873835
 40
0.2269656933
 40
0.3579976621
 40
0.4950127774
 40
0.6327393887
 40
0.7658111264
 40
0.8892762856
 40
1.0
 40
1.0
 40
1.0
 40
1.0
 10
18.8788351567
 20
10.3688892853
 30
0.0
 10
18.8647997263
 20
10.3861544693
 30
0.0
 10
18.8367290345
 20
10.4243518042
 30
0.0
 10
18.7972703381
 20
10.4878113162
 30
0.0
 10
18.7595706978
 20
10.5595632887
 30
0.0
 10
18.7251325104
 20
10.6369324771
 30
0.0
 10
18.6957802758
 20
10.716823383
 30
0.0
 10
18.6723756234
 20
10.7957131312
 30
0.0
 10
18.6557398742
 20
10.8705407863
 30
0.0
 10
18.6486282693
 20
10.9189222288
 30
0.0
 10
18.6462932596
 20
10.9418960664
 30
0.0
  0
SPLINE
  5
243
100
AcDbEntity
  8
0
100
AcDbSpline
 62
7
  6
BYLAYER
 70
0
 71
3
 72
22
 73
18
 74
0
 42
0.0000001
 43
0.0000001
 44
0.0000000001
 40
0.0
 40
0.0
 40
0.0
 40
0.0
 40
0.1945401522
 40
0.381889595
 40
0.554340206
 40
0.6329581601
 40
0.7055143575
 40
0.7713119563
 40
0.8296708103
 40
0.8800596489
 40
0.9220313422
 40
0.9551566503
 40
0.9791614019
 40
0.9877040346
 40
0.9939387084
 40
0.9979208212
 40
1.0
 40
1.0
 40
1.0
 40
1.0
 10
18.8788366391
 20
13.9624683412
 30
0.0
 10
18.8774001856
 20
13.9948919669
 30
0.0
 10
18.874750705
 20
14.0585485387
 30
0.0
 10
18.8715328651
 20
14.1509747591
 30
0.0
 10
18.8695872828
 20
14.2240919375
 30
0.0
 10
18.8685510182
 20
14.2780730093
 30
0.0
 10
18.8680599602
 20
14.3142676648
 30
0.0
 10
18.8678334133
 20
14.347084942
 30
0.0
 10
18.8678765308
 20
14.3762053386
 30
0.0
 10
18.8681846121
 20
14.4013477991
 30
0.0
 10
18.8687478052
 20
14.4222791707
 30
0.0
 10
18.8695470464
 20
14.438787357
 30
0.0
 10
18.870474253
 20
14.4497245781
 30
0.0
 10
18.8713832304
 20
14.4561136079
 30
0.0
 10
18.8721010572
 20
14.4592016335
 30
0.0
 10
18.8726892812
 20
14.4610918702
 30
0.0
 10
18.8734783096
 20
14.4619866744
 30
0.0
 10
18.8738250273
 20
14.4619970361
 30
0.0
  0
SPLINE
  5
244
100
AcDbEntity
  8
0
100
AcDbSpline
 62
7
  6
BYLAYER
 70
0
 71
3
 72
14
 73
10
 74
0
 42
0.0000001
 43
0.0000001
 44
0.0000000001
 40
0.0
 40
0.0
 40
0.0
 40
0.0
 40
0.1036657249
 40
0.2111162262
 40
0.3248500497
 40
0.4464992325
 40
0.7122205459
 40
0.8546906667
 40
1.0
 40
1.0
 40
1.0
 40
1.0
 10
18.3962849168
 20
10.7024994754
 30
0.0
 10
18.3962849168
 20
10.6798223605
 30
0.0
 10
18.4027537957
 20
10.6334228839
 30
0.0
 10
18.4308590737
 20
10.5673745042
 30
0.0
 10
18.4761672274
 20
10.5067938921
 30
0.0
 10
18.5590765466
 20
10.4341473118
 30
0.0
 10
18.6660323916
 20
10.3833702374
 30
0.0
 10
18.7841113765
 20
10.3557894269
 30
0.0
 10
18.847058105
 20
10.3499461218
 30
0.0
 10
18.8788351684
 20
10.34916146
 30
0.0
  0
SPLINE
  5
245
100
AcDbEntity
  8
0
100
AcDbSpline
 62
7
  6
BYLAYER
 70
0
 71
3
 72
23
 73
19
 74
0
 42
0.0000001
 43
0.0000001
 44
0.0000000001
 40
0.0
 40
0.0
 40
0.0
 40
0.0
 40
0.0012040666
 40
0.0043529992
 40
0.009523081
 40
0.0167249817
 40
0.0259610184
 40
0.0372311773
 40
0.0658688273
 40
0.1025866228
 40
0.1472741951
 40
0.1998158717
 40
0.2600955263
 40
0.3279967946
 40
0.4034029995
 40
0.5759607047
 40
0.7756059453
 40
1.0
 40
1.0
 40
1.0
 40
1.0
 10
18.8680862682
 20
10.2032882399
 30
0.0
 10
18.8681449936
 20
10.2032872214
 30
0.0
 10
18.8682145153
 20
10.2035721485
 30
0.0
 10
18.868320812
 20
10.2039500778
 30
0.0
 10
18.8684414911
 20
10.2047392438
 30
0.0
 10
18.8685852768
 20
10.2057652398
 30
0.0
 10
18.8687450147
 20
10.2071144627
 30
0.0
 10
18.8690027353
 20
10.2094944764
 30
0.0
 10
18.8693585351
 20
10.2132175997
 30
0.0
 10
18.8698251296
 20
10.2185642353
 30
0.0
 10
18.8703564373
 20
10.2250768972
 30
0.0
 10
18.8709515632
 20
10.2327369786
 30
0.0
 10
18.871609146
 20
10.2415281006
 30
0.0
 10
18.8723281888
 20
10.251432992
 30
0.0
 10
18.8734171874
 20
10.2668023468
 30
0.0
 10
18.874912293
 20
10.2885854604
 30
0.0
 10
18.87683355
 20
10.3176239488
 30
0.0
 10
18.8781511995
 20
10.3382665603
 30
0.0
 10
18.8788366326
 20
10.3491910012
 30
0.0
  0
ENDSEC
  0
SECTION
  2
OBJECTS
  0
DICTIONARY
  5
C
100
AcDbDictionary
280
0
281
1
  3
ACAD_GROUP
350
D
  3
ACAD_MLINESTYLE
350
17
  3
ACAD_LAYOUT
350
1A
  3
ACAD_PLOTSETTINGS
350
19
  3
ACAD_PLOTSTYLENAME
350
E
  0
DICTIONARY
  5
D
102
{ACAD_REACTORS
330
C
102
}
100
AcDbDictionary
280
0
281
1
  0
ACDBDICTIONARYWDFLT
  5
E
102
{ACAD_REACTORS
330
C
102
}
100
AcDbDictionary
281
1
  3
Normal
350
F
100
AcDbDictionaryWithDefault
340
F
  0
DICTIONARY
  5
17
102
{ACAD_REACTORS
330
C
102
}
100
AcDbDictionary
280
0
281
1
  3
Standard
350
18
  0
DICTIONARY
  5
19
102
{ACAD_REACTORS
330
C
102
}
100
AcDbDictionary
281
1
  0
DICTIONARY
  5
1A
102
{ACAD_REACTORS
330
C
102
}
100
AcDbDictionary
281
1
  3
Model
350
246
  3
Layout1
350
247
  0
ACDBPLACEHOLDER
  5
F
102
{ACAD_REACTORS
330
E
102
}
  0
MLINESTYLE
  5
18
102
{ACAD_REACTORS
330
17
102
}
100
AcDbMlineStyle
  2
STANDARD
 70
0
  3

 62
256
 51
90.0
 52
90.0
 71
2
 49
0.5
 62
256
  6
BYLAYER
 49
-0.5
 62
256
  6
BYLAYER
  0
LAYOUT
  5
246
102
{ACAD_REACTORS
330
1A
102
}
100
AcDbPlotSettings
  1

  2
none_device
  4

  6

 40
0.0
 41
0.0
 42
0.0
 43
0.0
 44
210.0
 45
297.0
 46
0.0
 47
0.0
 48
0.0
 49
0.0
140
0.0
141
0.0
142
1.0
143
1.0
 70
1024
 72
1
 73
0
 74
0
  7

 75
0
147
1.0
148
0.0
149
0.0
100
AcDbLayout
  1
Model
 70
0
 71
0
 10
0.0
 20
0.0
 11
210.0
 21
297.0
 12
0.0
 22
0.0
 32
0.0
 14
0.0
 24
0.0
 34
0.0
 15
0.0
 25
0.0
 35
0.0
146
0.0
 13
0.0
 23
0.0
 33
0.0
 16
1.0
 26
0.0
 36
0.0
 17
0.0
 27
1.0
 37
0.0
 76
0
330
210
345
0
346
0
  0
LAYOUT
  5
247
102
{ACAD_REACTORS
330
1A
102
}
100
AcDbPlotSettings
  1

  2
none_device
  4

  6

 40
0.0
 41
0.0
 42
0.0
 43
0.0
 44
210.0
 45
297.0
 46
0.0
 47
0.0
 48
0.0
 49
0.0
140
0.0
141
0.0
142
1.0
143
1.0
 70
0
 72
1
 73
0
 74
0
  7

 75
0
147
1.0
148
0.0
149
0.0
100
AcDbLayout
  1
Layout1
 70
0
 71
1
 10
0.0
 20
0.0
 11
210.0
 21
297.0
 12
0.0
 22
0.0
 32
0.0
 14
0.0
 24
0.0
 34
0.0
 15
0.0
 25
0.0
 35
0.0
146
0.0
 13
0.0
 23
0.0
 33
0.0
 16
1.0
 26
0.0
 36
0.0
 17
0.0
 27
1.0
 37
0.0
 76
0
330
211
345
0
346
0
  0
ENDSEC
  0
EOF
