999
DXF file: C:\Users\sesa63760\Dev\_Creo\CAD\MCADID0003705_3D-CAD\drw0001_6.dxf
999
Pro/ENGINEER 2019471 by Parametric Technology Corporation
  0
SECTION
  2
HEADER
  9
$ACADVER
  1
AC1024
  9
$DWGCODEPAGE
  3
ANSI_1252
  9
$EXTMAX
 10
29.9426301135
 20
42.3474340176
 30
0.0
  9
$EXTMIN
 10
0.0
 20
0.0
 30
0.0
  9
$LIMMIN
 10
0.0
 20
0.0
  9
$LIMMAX
 10
29.9426301135
 20
42.3474340176
  9
$VIEWCTR
 10
14.9713150567
 20
21.1737170088
  9
$VIEWSIZE
 40
42.3474340176
  9
$CLAYER
  8
0
  9
$LTSCALE
 40
2.7604253286
  9
$CELTYPE
  6
BYLAYER
  9
$DIMSCALE
 40
1.0
  9
$DIMASZ
 40
0.3564598823
  9
$DIMEXO
 40
1.0
  9
$DIMDLI
 40
1.9072029543
  9
$DIMEXE
 40
1.0
  9
$DIMCEN
 40
0.4517059629
  9
$DIMLFAC
 40
1.0
  9
$DIMBLK
  1
_FILLED
  9
$DIMALT
 70
0
  9
$DIMALTF
 40
0.0393700787
  9
$DIMTXT
 40
0.4990438352
  9
$DIMTOL
 70
1
  9
$DIMLIM
 70
0
  9
$DIMTFAC
 40
1.0
  9
$DIMTP
 40
0.01
  9
$DIMTM
 40
0.01
  9
$DIMGAP
 40
0.625
  9
$DIMDSEP
 70
46
  9
$AUNITS
 70
0
  9
$PDMODE
 70
3
  9
$PDSIZE
 40
0.3125
  9
$HANDSEED
  5
248
  9
$TILEMODE
 70
1
  9
$MEASUREMENT
 70
1
  9
$INSUNITS
 70
4
  0
ENDSEC
  0
SECTION
  2
CLASSES
  0
CLASS
  1
ACDBDICTIONARYWDFLT
  2
AcDbDictionaryWithDefault
  3
AutoCAD 2000
 90
0
 91
1
280
0
281
0
  0
CLASS
  1
ACDBPLACEHOLDER
  2
AcDbPlaceHolder
  3
AutoCAD 2000
 90
0
 91
1
280
0
281
0
  0
CLASS
  1
LAYOUT
  2
AcDbLayout
  3
AutoCAD 2000
 90
0
 91
0
280
0
281
0
  0
ENDSEC
  0
SECTION
  2
TABLES
  0
TABLE
  2
VPORT
  5
8
100
AcDbSymbolTable
 70
2
  0
VPORT
  5
1F4
100
AcDbSymbolTableRecord
100
AcDbViewportTableRecord
  2
*ACTIVE
 70
0
 10
0.0
 20
0.0
 11
1.0
 21
1.0
 12
14.9713150567
 22
21.1737170088
 13
0.0
 23
0.0
 14
1.0
 24
1.0
 15
0.0
 25
0.0
 16
0.0
 26
0.0
 36
1.0
 17
0.0
 27
0.0
 37
0.0
 40
42.3474340176
 41
0.7070707071
 42
50.0
 43
0.0
 44
0.0
 50
0.0
 51
0.0
 71
0
 72
100
 73
1
 74
1
 75
0
 76
0
 77
0
 78
0
  0
ENDTAB
  0
TABLE
  2
LTYPE
  5
5
100
AcDbSymbolTable
 70
6
  0
LTYPE
  5
14
100
AcDbSymbolTableRecord
100
AcDbLinetypeTableRecord
  2
BYBLOCK
 70
0
  3

 72
65
 73
0
 40
0.0
  0
LTYPE
  5
15
100
AcDbSymbolTableRecord
100
AcDbLinetypeTableRecord
  2
BYLAYER
 70
0
  3

 72
65
 73
0
 40
0.0
  0
LTYPE
  5
16
100
AcDbSymbolTableRecord
100
AcDbLinetypeTableRecord
  2
CONTINUOUS
 70
64
  3
Solid line
 72
65
 73
0
 40
0.0
  0
LTYPE
  5
1F5
100
AcDbSymbolTableRecord
100
AcDbLinetypeTableRecord
  2
CENTER
 70
64
  3
____ _ ____ _ ____ _ ____ _ ____ _ ____ _ ____
 72
65
 73
4
 40
0.6
 49
0.375
 74
0
 49
-0.075
 74
0
 49
0.075
 74
0
 49
-0.075
 74
0
  0
LTYPE
  5
1F6
100
AcDbSymbolTableRecord
100
AcDbLinetypeTableRecord
  2
HIDDEN
 70
64
  3
- - - - - - - - - - - - - - - - - - - -
 72
65
 73
2
 40
0.2
 49
0.1
 74
0
 49
-0.1
 74
0
  0
LTYPE
  5
1F7
100
AcDbSymbolTableRecord
100
AcDbLinetypeTableRecord
  2
PHANTOM
 70
64
  3
_____ _ _ _____ _ _ _____ _ _ _____
 72
65
 73
6
 40
0.8
 49
0.45
 74
0
 49
-0.05
 74
0
 49
0.1
 74
0
 49
-0.05
 74
0
 49
0.1
 74
0
 49
-0.05
 74
0
  0
LTYPE
  5
1F8
100
AcDbSymbolTableRecord
100
AcDbLinetypeTableRecord
  2
DOT
 70
64
  3
. . . . . . . . . . . . . . . . . . . .
 72
65
 73
2
 40
0.2
 49
0.1
 74
0
 49
-0.1
 74
0
  0
LTYPE
  5
1F9
100
AcDbSymbolTableRecord
100
AcDbLinetypeTableRecord
  2
DASHED
 70
64
  3
- - - - - - - - - - - - - - - - - - - -
 72
65
 73
2
 40
0.2
 49
0.1
 74
0
 49
-0.1
 74
0
  0
ENDTAB
  0
TABLE
  2
LAYER
  5
2
100
AcDbSymbolTable
 70
36
  0
LAYER
  5
10
100
AcDbSymbolTableRecord
100
AcDbLayerTableRecord
  2
0
 70
0
 62
7
  6
CONTINUOUS
370
-3
390
F
  0
LAYER
  5
1FA
100
AcDbSymbolTableRecord
100
AcDbLayerTableRecord
  2
DEFAULT_1
 70
0
 62
7
  6
CENTER
370
-3
390
F
  0
LAYER
  5
1FB
100
AcDbSymbolTableRecord
100
AcDbLayerTableRecord
  2
DEFAULT_2
 70
0
 62
7
  6
HIDDEN
370
-3
390
F
  0
LAYER
  5
1FC
100
AcDbSymbolTableRecord
100
AcDbLayerTableRecord
  2
DEFAULT_3
 70
0
 62
7
  6
PHANTOM
370
-3
390
F
  0
LAYER
  5
1FD
100
AcDbSymbolTableRecord
100
AcDbLayerTableRecord
  2
00_COMPONENTS
 70
0
 62
7
  6
CONTINUOUS
370
-3
390
F
  0
LAYER
  5
1FE
100
AcDbSymbolTableRecord
100
AcDbLayerTableRecord
  2
01_1_DEFAULT_DATUMS
 70
0
 62
7
  6
CONTINUOUS
370
-3
390
F
  0
LAYER
  5
1FF
100
AcDbSymbolTableRecord
100
AcDbLayerTableRecord
  2
01_PLANES
 70
0
 62
7
  6
CONTINUOUS
370
-3
390
F
  0
LAYER
  5
200
100
AcDbSymbolTableRecord
100
AcDbLayerTableRecord
  2
02_COORD_SYS
 70
0
 62
7
  6
CONTINUOUS
370
-3
390
F
  0
LAYER
  5
201
100
AcDbSymbolTableRecord
100
AcDbLayerTableRecord
  2
03_AXES
 70
0
 62
7
  6
CONTINUOUS
370
-3
390
F
  0
LAYER
  5
202
100
AcDbSymbolTableRecord
100
AcDbLayerTableRecord
  2
04_POINTS
 70
0
 62
7
  6
CONTINUOUS
370
-3
390
F
  0
LAYER
  5
203
100
AcDbSymbolTableRecord
100
AcDbLayerTableRecord
  2
05_CURVES
 70
0
 62
7
  6
CONTINUOUS
370
-3
390
F
  0
LAYER
  5
204
100
AcDbSymbolTableRecord
100
AcDbLayerTableRecord
  2
06_SURFS
 70
0
 62
7
  6
CONTINUOUS
370
-3
390
F
  0
LAYER
  5
205
100
AcDbSymbolTableRecord
100
AcDbLayerTableRecord
  2
07_COSMETICS
 70
0
 62
7
  6
CONTINUOUS
370
-3
390
F
  0
LAYER
  5
206
100
AcDbSymbolTableRecord
100
AcDbLayerTableRecord
  2
10_NOTES
 70
0
 62
7
  6
CONTINUOUS
370
-3
390
F
  0
LAYER
  5
207
100
AcDbSymbolTableRecord
100
AcDbLayerTableRecord
  2
11_NOTES_PUB
 70
0
 62
7
  6
CONTINUOUS
370
-3
390
F
  0
LAYER
  5
208
100
AcDbSymbolTableRecord
100
AcDbLayerTableRecord
  2
13_REF_GTOL
 70
0
 62
7
  6
CONTINUOUS
370
-3
390
F
  0
LAYER
  5
209
100
AcDbSymbolTableRecord
100
AcDbLayerTableRecord
  2
16_MISC
 70
0
 62
7
  6
CONTINUOUS
370
-3
390
F
  0
LAYER
  5
20A
100
AcDbSymbolTableRecord
100
AcDbLayerTableRecord
  2
17_NO_PRINT
 70
0
 62
7
  6
CONTINUOUS
370
-3
390
F
  0
LAYER
  5
20B
100
AcDbSymbolTableRecord
100
AcDbLayerTableRecord
  2
18_DATUM_CAMS_JOINTS
 70
0
 62
7
  6
CONTINUOUS
370
-3
390
F
  0
LAYER
  5
20C
100
AcDbSymbolTableRecord
100
AcDbLayerTableRecord
  2
19_DATUM_FUNCTIONAL
 70
0
 62
7
  6
CONTINUOUS
370
-3
390
F
  0
LAYER
  5
20D
100
AcDbSymbolTableRecord
100
AcDbLayerTableRecord
  2
20_DATUM_KINEMATIC_SCHEME
 70
0
 62
7
  6
CONTINUOUS
370
-3
390
F
  0
ENDTAB
  0
TABLE
  2
STYLE
  5
3
100
AcDbSymbolTable
 70
1
  0
STYLE
  5
11
100
AcDbSymbolTableRecord
100
AcDbTextStyleTableRecord
  2
STANDARD
 70
0
 40
0.0
 41
1.0
 50
0.0
 71
0
 42
0.2
  3
ARIAL.TTF
  4

  0
STYLE
  5
20E
100
AcDbSymbolTableRecord
100
AcDbTextStyleTableRecord
  2
TEXTSTYLE_1
 70
0
 40
0.0
 41
0.8
 50
0.0
 71
0
 42
0.2
  3
gdt
  4

  0
ENDTAB
  0
TABLE
  2
VIEW
  5
6
100
AcDbSymbolTable
 70
0
  0
ENDTAB
  0
TABLE
  2
UCS
  5
7
100
AcDbSymbolTable
 70
0
  0
ENDTAB
  0
TABLE
  2
APPID
  5
9
100
AcDbSymbolTable
 70
1
  0
APPID
  5
20F
100
AcDbSymbolTableRecord
100
AcDbRegAppTableRecord
  2
ACAD
 70
0
  0
ENDTAB
  0
TABLE
  2
BLOCK_RECORD
  5
1
100
AcDbSymbolTable
 70
0
  0
BLOCK_RECORD
  5
210
100
AcDbSymbolTableRecord
100
AcDbBlockTableRecord
  2
*Model_Space
  0
BLOCK_RECORD
  5
211
100
AcDbSymbolTableRecord
100
AcDbBlockTableRecord
  2
*Paper_Space
  0
BLOCK_RECORD
  5
212
100
AcDbSymbolTableRecord
100
AcDbBlockTableRecord
  2
_FILLED
  0
ENDTAB
  0
TABLE
  2
DIMSTYLE
  5
A
100
AcDbSymbolTable
 70
1
100
AcDbDimStyleTable
 71
0
  0
DIMSTYLE
105
213
100
AcDbSymbolTableRecord
100
AcDbDimStyleTableRecord
  2
STANDARD
 70
0
  3

  4

 40
1.0
 41
0.3564598823
 42
1.0
 43
0.38
 44
1.0
 45
0.0
 46
0.0
 47
0.01
 48
0.01
140
0.4990438352
141
0.09
142
0.0
143
25.4
144
1.0
145
0.0
146
1.0
147
0.625
 71
1
 72
0
 73
0
 74
0
 75
0
 76
0
 77
1
 78
8
 79
2
170
0
171
1
172
0
173
0
174
0
175
0
176
0
177
0
178
0
270
2
179
2
271
2
272
2
273
2
274
2
275
0
280
0
281
0
282
0
283
1
284
8
285
0
286
0
287
3
288
0
340
11
278
46
341
212
342
212
343
212
344
212
  0
ENDTAB
  0
ENDSEC
  0
SECTION
  2
BLOCKS
  0
BLOCK
  5
20
100
AcDbEntity
  8
0
100
AcDbBlockBegin
  2
*Model_Space
 70
0
 10
0.0
 20
0.0
 30
0.0
  3
*Model_Space
  1

  0
ENDBLK
  5
21
100
AcDbEntity
  8
0
100
AcDbBlockEnd
  0
BLOCK
  5
1C
100
AcDbEntity
  8
0
100
AcDbBlockBegin
  2
*Paper_Space
 70
0
 10
0.0
 20
0.0
 30
0.0
  3
*Paper_Space
  1

  0
ENDBLK
  5
1D
100
AcDbEntity
  8
0
100
AcDbBlockEnd
  0
BLOCK
  5
214
100
AcDbEntity
  8
0
100
AcDbBlockBegin
  2
_FILLED
 70
64
 10
0.0
 20
0.0
  3
_FILLED
  1

  0
SOLID
  5
215
100
AcDbEntity
  8
0
  6
BYBLOCK
 62
0
100
AcDbTrace
 10
0.0
 20
0.0
 11
-1.0
 21
0.25
 12
-1.0
 22
-0.25
 13
-1.0
 23
-0.25
  0
ENDBLK
  5
216
100
AcDbEntity
  8
0
  6
BYBLOCK
 62
0
100
AcDbBlockEnd
  0
ENDSEC
  0
SECTION
  2
ENTITIES
  0
LINE
  5
217
100
AcDbEntity
  8
0
100
AcDbLine
 62
7
  6
BYLAYER
 10
6.6304580198
 20
3.4987170088
 11
24.3304580198
 21
3.4987170088
  0
LINE
  5
218
100
AcDbEntity
  8
0
100
AcDbLine
 62
7
  6
BYLAYER
 10
24.3304580198
 20
3.9987170088
 11
6.1304580198
 21
3.9987170088
  0
LINE
  5
219
100
AcDbEntity
  8
0
100
AcDbLine
 62
7
  6
BYLAYER
 10
10.3304580198
 20
8.9987170088
 11
12.1304580198
 21
8.9987170088
  0
LINE
  5
21A
100
AcDbEntity
  8
0
100
AcDbLine
 62
7
  6
BYLAYER
 10
24.3304580198
 20
8.8922492218
 11
12.1304580198
 21
8.9987170088
  0
LINE
  5
21B
100
AcDbEntity
  8
0
100
AcDbLine
 62
7
  6
BYLAYER
 10
11.658442263
 20
10.2751948707
 11
10.3304580198
 21
10.2007569413
  0
LINE
  5
21C
100
AcDbEntity
  8
0
100
AcDbLine
 62
7
  6
BYLAYER
 10
10.3304580198
 20
10.3472378395
 11
11.6479077682
 21
10.4210927545
  0
LINE
  5
21D
100
AcDbEntity
  8
0
100
AcDbLine
 62
7
  6
BYLAYER
 10
6.6304580198
 20
9.9087421346
 11
8.3304580198
 21
9.9087421346
  0
LINE
  5
21E
100
AcDbEntity
  8
0
100
AcDbLine
 62
7
  6
BYLAYER
 10
6.1304580198
 20
9.3083502394
 11
6.1304580198
 21
3.9987170088
  0
LINE
  5
21F
100
AcDbEntity
  8
0
100
AcDbLine
 62
7
  6
BYLAYER
 10
6.1304580198
 20
9.3668654153
 11
6.1304580198
 21
38.8487170088
  0
LINE
  5
220
100
AcDbEntity
  8
0
100
AcDbLine
 62
7
  6
BYLAYER
 10
6.6304580198
 20
3.4987170088
 11
6.6304580198
 21
9.9087421346
  0
LINE
  5
221
100
AcDbEntity
  8
0
100
AcDbLine
 62
7
  6
BYLAYER
 10
6.6304580198
 20
13.888691883
 11
6.6304580198
 21
38.8487170088
  0
LINE
  5
222
100
AcDbEntity
  8
0
100
AcDbLine
 62
7
  6
BYLAYER
 10
8.3304580198
 20
13.888691883
 11
8.3304580198
 21
9.9087421346
  0
LINE
  5
223
100
AcDbEntity
  8
0
100
AcDbLine
 62
7
  6
BYLAYER
 10
8.3304580198
 20
13.888691883
 11
6.6304580198
 21
13.888691883
  0
LINE
  5
224
100
AcDbEntity
  8
0
100
AcDbLine
 62
7
  6
BYLAYER
 10
12.1304580198
 20
14.0065006171
 11
11.6479077682
 21
14.0065006171
  0
LINE
  5
225
100
AcDbEntity
  8
0
100
AcDbLine
 62
7
  6
BYLAYER
 10
12.1304580198
 20
14.0343996283
 11
11.6479077682
 21
14.0343996283
  0
LINE
  5
226
100
AcDbEntity
  8
0
100
AcDbLine
 62
7
  6
BYLAYER
 10
11.6479077682
 20
14.0343996283
 11
10.3304580198
 21
14.0928398918
  0
LINE
  5
227
100
AcDbEntity
  8
0
100
AcDbLine
 62
7
  6
BYLAYER
 10
11.6526128638
 20
14.533954323
 11
10.3304580198
 21
14.5925908263
  0
LINE
  5
228
100
AcDbEntity
  8
0
100
AcDbLine
 62
7
  6
BYLAYER
 10
10.3304580198
 20
38.8487170088
 11
10.3304580198
 21
8.9987170088
  0
LINE
  5
229
100
AcDbEntity
  8
0
100
AcDbLine
 62
7
  6
BYLAYER
 10
11.630571865
 20
13.4418973654
 11
11.630571865
 21
11.1063501235
  0
LINE
  5
22A
100
AcDbEntity
  8
0
100
AcDbLine
 62
7
  6
BYLAYER
 10
11.6479077682
 20
14.0343996283
 11
11.6479077682
 21
14.006484028
  0
LINE
  5
22B
100
AcDbEntity
  8
0
100
AcDbLine
 62
7
  6
BYLAYER
 10
11.6479077682
 20
10.4210927545
 11
11.6479077682
 21
10.4408319648
  0
LINE
  5
22C
100
AcDbEntity
  8
0
100
AcDbLine
 62
7
  6
BYLAYER
 10
11.8804503175
 20
13.5873046339
 11
11.8804503175
 21
11.0138329667
  0
LINE
  5
22D
100
AcDbEntity
  8
0
100
AcDbLine
 62
7
  6
BYLAYER
 10
12.1304580198
 20
10.7744307699
 11
12.1304580198
 21
14.0343984723
  0
LINE
  5
22E
100
AcDbEntity
  8
0
100
AcDbLine
 62
7
  6
BYLAYER
 10
24.3304580198
 20
8.8922492218
 11
24.3304580198
 21
3.4987170088
  0
LINE
  5
22F
100
AcDbEntity
  8
0
100
AcDbLine
 62
7
  6
BYLAYER
 10
6.1304580198
 20
38.8487170088
 11
10.3304580198
 21
38.8487170088
  0
ARC
  5
230
100
AcDbEntity
  8
0
100
AcDbCircle
 62
7
  6
BYLAYER
 10
81.687211005
 20
189.9137097395
 40
192.6551762779
100
AcDbArc
 50
248.4070706941
 51
248.6817810193
  0
ARC
  5
231
100
AcDbEntity
  8
0
100
AcDbCircle
 62
7
  6
BYLAYER
 10
96.4542136747
 20
-130.5377499945
 40
167.5862265711
100
AcDbArc
 50
120.4007983965
 51
120.7421701732
  0
ARC
  5
232
100
AcDbEntity
  8
0
100
AcDbCircle
 62
7
  6
BYLAYER
 10
11.6304580198
 20
10.7744307699
 40
0.5
100
AcDbArc
 50
273.2082143982
 51
0.0001365315
  0
ARC
  5
233
100
AcDbEntity
  8
0
100
AcDbCircle
 62
7
  6
BYLAYER
 10
11.6304580198
 20
14.0343996283
 40
0.5
100
AcDbArc
 50
0.0002639542
 51
87.4606401204
  0
ARC
  5
234
100
AcDbEntity
  8
0
100
AcDbCircle
 62
7
  6
BYLAYER
 10
6.6304580198
 20
3.9987170088
 40
0.5
100
AcDbArc
 50
180.0
 51
270.0
  0
ARC
  5
235
100
AcDbEntity
  8
0
100
AcDbCircle
 62
7
  6
BYLAYER
 10
11.8825260634
 20
10.7941815907
 40
0.2479319575
100
AcDbArc
 50
356.1438553463
 51
359.9946291706
  0
SPLINE
  5
236
100
AcDbEntity
  8
0
100
AcDbSpline
 62
7
  6
BYLAYER
 70
0
 71
3
 72
16
 73
12
 74
0
 42
0.0000001
 43
0.0000001
 44
0.0000000001
 40
0.0
 40
0.0
 40
0.0
 40
0.0
 40
0.2145104246
 40
0.3300773407
 40
0.4513566047
 40
0.5785691747
 40
0.7121549688
 40
0.781670822
 40
0.8530148493
 40
0.9259908229
 40
1.0
 40
1.0
 40
1.0
 40
1.0
 10
6.1304580198
 20
9.3083502394
 30
0.0
 10
6.1304580198
 20
9.3691782033
 30
0.0
 10
6.1486623653
 20
9.4631397204
 30
0.0
 10
6.1978856435
 20
9.5814129836
 30
0.0
 10
6.2500032086
 20
9.6709593284
 30
0.0
 10
6.3172734045
 20
9.7563416446
 30
0.0
 10
6.3871235272
 20
9.8197295415
 30
0.0
 10
6.4527349966
 20
9.8619112115
 30
0.0
 10
6.507875191
 20
9.8876707981
 30
0.0
 10
6.5676881078
 20
9.9047323637
 30
0.0
 10
6.6094714987
 20
9.9087421346
 30
0.0
 10
6.6304580198
 20
9.9087421346
 30
0.0
  0
SPLINE
  5
237
100
AcDbEntity
  8
0
100
AcDbSpline
 62
7
  6
BYLAYER
 70
0
 71
3
 72
16
 73
12
 74
0
 42
0.0000001
 43
0.0000001
 44
0.0000000001
 40
0.0
 40
0.0
 40
0.0
 40
0.0
 40
0.2145104104
 40
0.3300773508
 40
0.4513566299
 40
0.5785692132
 40
0.7121550389
 40
0.7816709003
 40
0.8530149387
 40
0.9259908774
 40
1.0
 40
1.0
 40
1.0
 40
1.0
 10
6.1304580198
 20
14.4890837782
 30
0.0
 10
6.1304580198
 20
14.4282558183
 30
0.0
 10
6.1486623671
 20
14.3342942992
 30
0.0
 10
6.1978856442
 20
14.2160210277
 30
0.0
 10
6.25000322
 20
14.1264746715
 30
0.0
 10
6.3172734311
 20
14.0410923459
 30
0.0
 10
6.3871235657
 20
13.9777044389
 30
0.0
 10
6.4527350544
 20
13.9355227714
 30
0.0
 10
6.5078752519
 20
13.9097632019
 30
0.0
 10
6.5676881487
 20
13.8927016499
 30
0.0
 10
6.6094715142
 20
13.888691883
 30
0.0
 10
6.6304580198
 20
13.888691883
 30
0.0
  0
LINE
  5
238
100
AcDbEntity
  8
0
100
AcDbLine
 62
7
  6
BYLAYER
 10
11.6305718426
 20
11.1063500139
 11
11.8804502982
 21
11.0138328917
  0
LINE
  5
239
100
AcDbEntity
  8
0
100
AcDbLine
 62
7
  6
BYLAYER
 10
11.8804502998
 20
13.5873046783
 11
11.6305718424
 21
13.4418974594
  0
SPLINE
  5
23A
100
AcDbEntity
  8
0
100
AcDbSpline
 62
7
  6
BYLAYER
 70
0
 71
3
 72
11
 73
7
 74
0
 42
0.0000001
 43
0.0000001
 44
0.0000000001
 40
0.0
 40
0.0
 40
0.0
 40
0.0
 40
0.2477465792
 40
0.4965641073
 40
0.7472257386
 40
1.0
 40
1.0
 40
1.0
 40
1.0
 10
12.1304580198
 20
14.0065028023
 30
0.0
 10
12.1304580198
 20
13.9643579973
 30
0.0
 10
12.1189119939
 20
13.8794494616
 30
0.0
 10
12.0681889629
 20
13.761285713
 30
0.0
 10
11.987716254
 20
13.6599335501
 30
0.0
 10
11.9179857345
 20
13.6082849235
 30
0.0
 10
11.8804503175
 20
13.587306385
 30
0.0
  0
SPLINE
  5
23B
100
AcDbEntity
  8
0
100
AcDbSpline
 62
7
  6
BYLAYER
 70
0
 71
3
 72
22
 73
18
 74
0
 42
0.0000001
 43
0.0000001
 44
0.0000000001
 40
0.0
 40
0.0
 40
0.0
 40
0.0
 40
0.0020792446
 40
0.0060614318
 40
0.0122961571
 40
0.0208388209
 40
0.0448435975
 40
0.0779689218
 40
0.1199406425
 40
0.17032951
 40
0.2286883842
 40
0.2944859846
 40
0.3670421678
 40
0.4456600975
 40
0.6181106371
 40
0.8054599772
 40
1.0
 40
1.0
 40
1.0
 40
1.0
 10
11.6529179412
 20
14.5339288671
 30
0.0
 10
11.6532646696
 20
14.5339184819
 30
0.0
 10
11.6540536727
 20
14.5330236367
 30
0.0
 10
11.654641917
 20
14.5311333729
 30
0.0
 10
11.6553597353
 20
14.5280453138
 30
0.0
 10
11.6562687172
 20
14.5216562611
 30
0.0
 10
11.6571959181
 20
14.5107190153
 30
0.0
 10
11.6579951589
 20
14.4942108011
 30
0.0
 10
11.6585583501
 20
14.4732793957
 30
0.0
 10
11.6588664304
 20
14.4481368969
 30
0.0
 10
11.6589095452
 20
14.419016462
 30
0.0
 10
11.6586829945
 20
14.3861991501
 30
0.0
 10
11.6581919342
 20
14.3500044638
 30
0.0
 10
11.6571556718
 20
14.2960233552
 30
0.0
 10
11.6552101077
 20
14.2229061347
 30
0.0
 10
11.6519922102
 20
14.1304798723
 30
0.0
 10
11.649342713
 20
14.0668232751
 30
0.0
 10
11.6479063039
 20
14.0343996359
 30
0.0
  0
SPLINE
  5
23C
100
AcDbEntity
  8
0
100
AcDbSpline
 62
7
  6
BYLAYER
 70
0
 71
3
 72
25
 73
21
 74
0
 42
0.0000001
 43
0.0000001
 44
0.0000000001
 40
0.0
 40
0.0
 40
0.0
 40
0.0
 40
0.0048303269
 40
0.0099102279
 40
0.0155888311
 40
0.0220915734
 40
0.037864958
 40
0.0572759318
 40
0.0798105744
 40
0.1048959119
 40
0.1320114725
 40
0.1607467009
 40
0.2218563969
 40
0.286444186
 40
0.3534333963
 40
0.4221503364
 40
0.563130468
 40
0.7071840318
 40
0.8530835114
 40
1.0
 40
1.0
 40
1.0
 40
1.0
 10
11.630571865
 20
13.4418973654
 30
0.0
 10
11.6305718689
 20
13.4432748033
 30
0.0
 10
11.6301249881
 20
13.4461200569
 30
0.0
 10
11.6281169679
 20
13.4501490333
 30
0.0
 10
11.6248661488
 20
13.453898022
 30
0.0
 10
11.6185837439
 20
13.4588572473
 30
0.0
 10
11.6078568721
 20
13.4641997313
 30
0.0
 10
11.5922390215
 20
13.4694435507
 30
0.0
 10
11.5736456733
 20
13.4739612158
 30
0.0
 10
11.5526803328
 20
13.4778217101
 30
0.0
 10
11.5298309475
 20
13.481109951
 30
0.0
 10
11.4966923221
 20
13.4849124209
 30
0.0
 10
11.4527911119
 20
13.4885135501
 30
0.0
 10
11.3979276759
 20
13.4916012574
 30
0.0
 10
11.340852331
 20
13.4938307132
 30
0.0
 10
11.261979217
 20
13.4959754129
 30
0.0
 10
11.1611100175
 20
13.4974618871
 30
0.0
 10
11.0382254979
 20
13.4982637332
 30
0.0
 10
10.9136459342
 20
13.4985655408
 30
0.0
 10
10.830145231
 20
13.4986225306
 30
0.0
 10
10.7882498604
 20
13.4986371423
 30
0.0
  0
LINE
  5
23D
100
AcDbEntity
  8
0
100
AcDbLine
 62
7
  6
BYLAYER
 10
10.788216541
 20
13.4986371513
 11
10.3304580198
 21
13.4987170088
  0
LINE
  5
23E
100
AcDbEntity
  8
0
100
AcDbLine
 62
7
  6
BYLAYER
 10
10.3304580198
 20
10.7673461589
 11
10.7882162729
 21
10.7787059191
  0
SPLINE
  5
23F
100
AcDbEntity
  8
0
100
AcDbSpline
 62
7
  6
BYLAYER
 70
0
 71
3
 72
20
 73
16
 74
0
 42
0.0000001
 43
0.0000001
 44
0.0000000001
 40
0.0
 40
0.0
 40
0.0
 40
0.0
 40
0.0282570958
 40
0.0564558577
 40
0.1133645809
 40
0.1719125908
 40
0.2320156316
 40
0.2933336703
 40
0.3555697064
 40
0.4185057899
 40
0.4819877721
 40
0.6101463115
 40
0.739456744
 40
0.8695128963
 40
1.0
 40
1.0
 40
1.0
 40
1.0
 10
11.630571865
 20
11.1063501235
 30
0.0
 10
11.6305718789
 20
11.0972668726
 30
0.0
 10
11.628891305
 20
11.0790702724
 30
0.0
 10
11.6187977285
 20
11.04385946
 30
0.0
 10
11.5944968255
 20
11.0036415421
 30
0.0
 10
11.5538406041
 20
10.9639885115
 30
0.0
 10
11.506106737
 20
10.9309745604
 30
0.0
 10
11.453860895
 20
10.9032822982
 30
0.0
 10
11.3986305868
 20
10.8798326981
 30
0.0
 10
11.3413358833
 20
10.859854951
 30
0.0
 10
11.2627186158
 20
10.8370332394
 30
0.0
 10
11.1618577979
 20
10.8148049744
 30
0.0
 10
11.0386529474
 20
10.7959757552
 30
0.0
 10
10.9138729105
 20
10.7838054643
 30
0.0
 10
10.8301825293
 20
10.779752102
 30
0.0
 10
10.7882504432
 20
10.7787067701
 30
0.0
  0
SPLINE
  5
240
100
AcDbEntity
  8
0
100
AcDbSpline
 62
7
  6
BYLAYER
 70
0
 71
3
 72
14
 73
10
 74
0
 42
0.0000001
 43
0.0000001
 44
0.0000000001
 40
0.0
 40
0.0
 40
0.0
 40
0.0
 40
0.1445013959
 40
0.2863654223
 40
0.5519543174
 40
0.6740483858
 40
0.7883870942
 40
0.8962917102
 40
1.0
 40
1.0
 40
1.0
 40
1.0
 10
11.6479077682
 20
10.4408203345
 30
0.0
 10
11.6787139753
 20
10.4415810238
 30
0.0
 10
11.7397716704
 20
10.447124285
 30
0.0
 10
11.8547260795
 20
10.4732004033
 30
0.0
 10
11.9594131078
 20
10.5211926231
 30
0.0
 10
12.042175055
 20
10.5899557196
 30
0.0
 10
12.0886510789
 20
10.6475449157
 30
0.0
 10
12.1193205872
 20
10.7106287287
 30
0.0
 10
12.1284110086
 20
10.7554414462
 30
0.0
 10
12.1298967146
 20
10.7775077642
 30
0.0
  0
SPLINE
  5
241
100
AcDbEntity
  8
0
100
AcDbSpline
 62
7
  6
BYLAYER
 70
0
 71
3
 72
15
 73
11
 74
0
 42
0.0000001
 43
0.0000001
 44
0.0000000001
 40
0.0
 40
0.0
 40
0.0
 40
0.0
 40
0.0941366776
 40
0.1928630022
 40
0.2995897445
 40
0.41668367
 40
0.5454113494
 40
0.6860483271
 40
0.8380998723
 40
1.0
 40
1.0
 40
1.0
 40
1.0
 10
12.1304580198
 20
10.7941583499
 30
0.0
 10
12.1304580198
 20
10.8052767502
 30
0.0
 10
12.1274107177
 20
10.828148852
 30
0.0
 10
12.1141462315
 20
10.8612840732
 30
0.0
 10
12.0925218446
 20
10.892957641
 30
0.0
 10
12.0631384387
 20
10.9227170343
 30
0.0
 10
12.0264974965
 20
10.9501669499
 30
0.0
 10
11.9832084288
 20
10.9749467307
 30
0.0
 10
11.9339942771
 20
10.9966134299
 30
0.0
 10
11.898801363
 20
11.0084585727
 30
0.0
 10
11.8804503738
 20
11.0138332877
 30
0.0
  0
SPLINE
  5
242
100
AcDbEntity
  8
0
100
AcDbSpline
 62
7
  6
BYLAYER
 70
0
 71
3
 72
15
 73
11
 74
0
 42
0.0000001
 43
0.0000001
 44
0.0000000001
 40
0.0
 40
0.0
 40
0.0
 40
0.0
 40
0.11072267
 40
0.2341871914
 40
0.3672587115
 40
0.5049854961
 40
0.6420010299
 40
0.7730335242
 40
0.8933123058
 40
1.0
 40
1.0
 40
1.0
 40
1.0
 10
11.8804503278
 20
11.0138332876
 30
0.0
 10
11.8781155056
 20
10.990859419
 30
0.0
 10
11.8710042069
 20
10.9424777921
 30
0.0
 10
11.854368792
 20
10.8676496862
 30
0.0
 10
11.8309642851
 20
10.7887591875
 30
0.0
 10
11.8016120096
 20
10.7088673104
 30
0.0
 10
11.7671735973
 20
10.6314970434
 30
0.0
 10
11.7294735905
 20
10.5597440176
 30
0.0
 10
11.6900144459
 20
10.4962835863
 30
0.0
 10
11.6619433988
 20
10.4580857228
 30
0.0
 10
11.6479077876
 20
10.4408203171
 30
0.0
  0
SPLINE
  5
243
100
AcDbEntity
  8
0
100
AcDbSpline
 62
7
  6
BYLAYER
 70
0
 71
3
 72
14
 73
10
 74
0
 42
0.0000001
 43
0.0000001
 44
0.0000000001
 40
0.0
 40
0.0
 40
0.0
 40
0.0
 40
0.1453093402
 40
0.2877794797
 40
0.5535008104
 40
0.6751500066
 40
0.7888838371
 40
0.8963343024
 40
1.0
 40
1.0
 40
1.0
 40
1.0
 10
11.6479077682
 20
10.4210927545
 30
0.0
 10
11.6796848331
 20
10.4218774164
 30
0.0
 10
11.7426315671
 20
10.4277207238
 30
0.0
 10
11.8607105615
 20
10.4553015361
 30
0.0
 10
11.9676664146
 20
10.5060786197
 30
0.0
 10
12.0505757358
 20
10.5787252131
 30
0.0
 10
12.095883871
 20
10.6393058326
 30
0.0
 10
12.1239891598
 20
10.7053541951
 30
0.0
 10
12.1304580198
 20
10.751753661
 30
0.0
 10
12.1304580198
 20
10.7744307699
 30
0.0
  0
SPLINE
  5
244
100
AcDbEntity
  8
0
100
AcDbSpline
 62
7
  6
BYLAYER
 70
0
 71
3
 72
23
 73
19
 74
0
 42
0.0000001
 43
0.0000001
 44
0.0000000001
 40
0.0
 40
0.0
 40
0.0
 40
0.0
 40
0.2243943086
 40
0.4240397144
 40
0.5965975072
 40
0.6720037313
 40
0.7399050052
 40
0.8001846506
 40
0.8527263024
 40
0.8974138336
 40
0.9341315702
 40
0.9627691438
 40
0.9740392586
 40
0.983275247
 40
0.9904770951
 40
0.9956471201
 40
0.9987959919
 40
1.0
 40
1.0
 40
1.0
 40
1.0
 10
11.6479062975
 20
10.4211225356
 30
0.0
 10
11.6485917516
 20
10.4101980991
 30
0.0
 10
11.6499094208
 20
10.3895554977
 30
0.0
 10
11.6518306637
 20
10.3605170248
 30
0.0
 10
11.6533257433
 20
10.3387339271
 30
0.0
 10
11.6544147299
 20
10.3233645877
 30
0.0
 10
11.6551337686
 20
10.3134597093
 30
0.0
 10
11.6557913504
 20
10.3046686012
 30
0.0
 10
11.6563864775
 20
10.2970085344
 30
0.0
 10
11.6569177876
 20
10.290495888
 30
0.0
 10
11.6573843846
 20
10.2851492691
 30
0.0
 10
11.6577401861
 20
10.2814261597
 30
0.0
 10
11.6579979071
 20
10.2790461582
 30
0.0
 10
11.6581576456
 20
10.2776969434
 30
0.0
 10
11.6583014295
 20
10.2766709589
 30
0.0
 10
11.6584221117
 20
10.2758817974
 30
0.0
 10
11.6585284008
 20
10.2755038853
 30
0.0
 10
11.6585979294
 20
10.2752189572
 30
0.0
 10
11.6586566518
 20
10.2752199825
 30
0.0
  0
SPLINE
  5
245
100
AcDbEntity
  8
0
100
AcDbSpline
 62
7
  6
BYLAYER
 70
0
 71
3
 72
14
 73
10
 74
0
 42
0.0000001
 43
0.0000001
 44
0.0000000001
 40
0.0
 40
0.0
 40
0.0
 40
0.0
 40
0.3309743281
 40
0.4923886119
 40
0.6411600937
 40
0.770138584
 40
0.8745671235
 40
0.9511455837
 40
1.0
 40
1.0
 40
1.0
 40
1.0
 10
11.6479077799
 20
14.0065006166
 30
0.0
 10
11.6746743686
 20
13.9608709613
 30
0.0
 10
11.7141848761
 20
13.8928048878
 30
0.0
 10
11.7648845685
 20
13.8037453365
 30
0.0
 10
11.7992186428
 20
13.742520781
 30
0.0
 10
11.8286315123
 20
13.6889834782
 30
0.0
 10
11.8520247393
 20
13.6453022567
 30
0.0
 10
11.8687617342
 20
13.6126008115
 30
0.0
 10
11.8774335329
 20
13.5945086299
 30
0.0
 10
11.8804497141
 20
13.5873060646
 30
0.0
  0
ENDSEC
  0
SECTION
  2
OBJECTS
  0
DICTIONARY
  5
C
100
AcDbDictionary
280
0
281
1
  3
ACAD_GROUP
350
D
  3
ACAD_MLINESTYLE
350
17
  3
ACAD_LAYOUT
350
1A
  3
ACAD_PLOTSETTINGS
350
19
  3
ACAD_PLOTSTYLENAME
350
E
  0
DICTIONARY
  5
D
102
{ACAD_REACTORS
330
C
102
}
100
AcDbDictionary
280
0
281
1
  0
ACDBDICTIONARYWDFLT
  5
E
102
{ACAD_REACTORS
330
C
102
}
100
AcDbDictionary
281
1
  3
Normal
350
F
100
AcDbDictionaryWithDefault
340
F
  0
DICTIONARY
  5
17
102
{ACAD_REACTORS
330
C
102
}
100
AcDbDictionary
280
0
281
1
  3
Standard
350
18
  0
DICTIONARY
  5
19
102
{ACAD_REACTORS
330
C
102
}
100
AcDbDictionary
281
1
  0
DICTIONARY
  5
1A
102
{ACAD_REACTORS
330
C
102
}
100
AcDbDictionary
281
1
  3
Model
350
246
  3
Layout1
350
247
  0
ACDBPLACEHOLDER
  5
F
102
{ACAD_REACTORS
330
E
102
}
  0
MLINESTYLE
  5
18
102
{ACAD_REACTORS
330
17
102
}
100
AcDbMlineStyle
  2
STANDARD
 70
0
  3

 62
256
 51
90.0
 52
90.0
 71
2
 49
0.5
 62
256
  6
BYLAYER
 49
-0.5
 62
256
  6
BYLAYER
  0
LAYOUT
  5
246
102
{ACAD_REACTORS
330
1A
102
}
100
AcDbPlotSettings
  1

  2
none_device
  4

  6

 40
0.0
 41
0.0
 42
0.0
 43
0.0
 44
210.0
 45
297.0
 46
0.0
 47
0.0
 48
0.0
 49
0.0
140
0.0
141
0.0
142
1.0
143
1.0
 70
1024
 72
1
 73
0
 74
0
  7

 75
0
147
1.0
148
0.0
149
0.0
100
AcDbLayout
  1
Model
 70
0
 71
0
 10
0.0
 20
0.0
 11
210.0
 21
297.0
 12
0.0
 22
0.0
 32
0.0
 14
0.0
 24
0.0
 34
0.0
 15
0.0
 25
0.0
 35
0.0
146
0.0
 13
0.0
 23
0.0
 33
0.0
 16
1.0
 26
0.0
 36
0.0
 17
0.0
 27
1.0
 37
0.0
 76
0
330
210
345
0
346
0
  0
LAYOUT
  5
247
102
{ACAD_REACTORS
330
1A
102
}
100
AcDbPlotSettings
  1

  2
none_device
  4

  6

 40
0.0
 41
0.0
 42
0.0
 43
0.0
 44
210.0
 45
297.0
 46
0.0
 47
0.0
 48
0.0
 49
0.0
140
0.0
141
0.0
142
1.0
143
1.0
 70
0
 72
1
 73
0
 74
0
  7

 75
0
147
1.0
148
0.0
149
0.0
100
AcDbLayout
  1
Layout1
 70
0
 71
1
 10
0.0
 20
0.0
 11
210.0
 21
297.0
 12
0.0
 22
0.0
 32
0.0
 14
0.0
 24
0.0
 34
0.0
 15
0.0
 25
0.0
 35
0.0
146
0.0
 13
0.0
 23
0.0
 33
0.0
 16
1.0
 26
0.0
 36
0.0
 17
0.0
 27
1.0
 37
0.0
 76
0
330
211
345
0
346
0
  0
ENDSEC
  0
EOF
