999
DXF file: C:\Users\sesa63760\Dev\_Creo\CAD\MCADID0004742_3D-CAD\drw0001_5.dxf
999
Pro/ENGINEER 2019471 by Parametric Technology Corporation
  0
SECTION
  2
HEADER
  9
$ACADVER
  1
AC1024
  9
$DWGCODEPAGE
  3
ANSI_1252
  9
$EXTMAX
 10
31.91531045
 20
45.1373676365
 30
0.0
  9
$EXTMIN
 10
0.0
 20
0.0
 30
0.0
  9
$LIMMIN
 10
0.0
 20
0.0
  9
$LIMMAX
 10
31.91531045
 20
45.1373676365
  9
$VIEWCTR
 10
15.957655225
 20
22.5686838182
  9
$VIEWSIZE
 40
45.1373676365
  9
$CLAYER
  8
0
  9
$LTSCALE
 40
2.9422876682
  9
$CELTYPE
  6
BYLAYER
  9
$DIMSCALE
 40
1.0
  9
$DIMASZ
 40
0.379944172
  9
$DIMEXO
 40
1.0
  9
$DIMDLI
 40
2.032853298
  9
$DIMEXE
 40
1.0
  9
$DIMCEN
 40
0.4814652548
  9
$DIMLFAC
 40
1.0
  9
$DIMBLK
  1
_FILLED
  9
$DIMALT
 70
0
  9
$DIMALTF
 40
0.0393700787
  9
$DIMTXT
 40
0.5319218408
  9
$DIMTOL
 70
1
  9
$DIMLIM
 70
0
  9
$DIMTFAC
 40
1.0
  9
$DIMTP
 40
0.01
  9
$DIMTM
 40
0.01
  9
$DIMGAP
 40
0.625
  9
$DIMDSEP
 70
46
  9
$AUNITS
 70
0
  9
$PDMODE
 70
3
  9
$PDSIZE
 40
0.3125
  9
$HANDSEED
  5
23A
  9
$TILEMODE
 70
1
  9
$MEASUREMENT
 70
1
  9
$INSUNITS
 70
4
  0
ENDSEC
  0
SECTION
  2
CLASSES
  0
CLASS
  1
ACDBDICTIONARYWDFLT
  2
AcDbDictionaryWithDefault
  3
AutoCAD 2000
 90
0
 91
1
280
0
281
0
  0
CLASS
  1
ACDBPLACEHOLDER
  2
AcDbPlaceHolder
  3
AutoCAD 2000
 90
0
 91
1
280
0
281
0
  0
CLASS
  1
LAYOUT
  2
AcDbLayout
  3
AutoCAD 2000
 90
0
 91
0
280
0
281
0
  0
ENDSEC
  0
SECTION
  2
TABLES
  0
TABLE
  2
VPORT
  5
8
100
AcDbSymbolTable
 70
2
  0
VPORT
  5
1F4
100
AcDbSymbolTableRecord
100
AcDbViewportTableRecord
  2
*ACTIVE
 70
0
 10
0.0
 20
0.0
 11
1.0
 21
1.0
 12
15.957655225
 22
22.5686838182
 13
0.0
 23
0.0
 14
1.0
 24
1.0
 15
0.0
 25
0.0
 16
0.0
 26
0.0
 36
1.0
 17
0.0
 27
0.0
 37
0.0
 40
45.1373676365
 41
0.7070707071
 42
50.0
 43
0.0
 44
0.0
 50
0.0
 51
0.0
 71
0
 72
100
 73
1
 74
1
 75
0
 76
0
 77
0
 78
0
  0
ENDTAB
  0
TABLE
  2
LTYPE
  5
5
100
AcDbSymbolTable
 70
6
  0
LTYPE
  5
14
100
AcDbSymbolTableRecord
100
AcDbLinetypeTableRecord
  2
BYBLOCK
 70
0
  3

 72
65
 73
0
 40
0.0
  0
LTYPE
  5
15
100
AcDbSymbolTableRecord
100
AcDbLinetypeTableRecord
  2
BYLAYER
 70
0
  3

 72
65
 73
0
 40
0.0
  0
LTYPE
  5
16
100
AcDbSymbolTableRecord
100
AcDbLinetypeTableRecord
  2
CONTINUOUS
 70
64
  3
Solid line
 72
65
 73
0
 40
0.0
  0
LTYPE
  5
1F5
100
AcDbSymbolTableRecord
100
AcDbLinetypeTableRecord
  2
CENTER
 70
64
  3
____ _ ____ _ ____ _ ____ _ ____ _ ____ _ ____
 72
65
 73
4
 40
0.6
 49
0.375
 74
0
 49
-0.075
 74
0
 49
0.075
 74
0
 49
-0.075
 74
0
  0
LTYPE
  5
1F6
100
AcDbSymbolTableRecord
100
AcDbLinetypeTableRecord
  2
HIDDEN
 70
64
  3
- - - - - - - - - - - - - - - - - - - -
 72
65
 73
2
 40
0.2
 49
0.1
 74
0
 49
-0.1
 74
0
  0
LTYPE
  5
1F7
100
AcDbSymbolTableRecord
100
AcDbLinetypeTableRecord
  2
PHANTOM
 70
64
  3
_____ _ _ _____ _ _ _____ _ _ _____
 72
65
 73
6
 40
0.8
 49
0.45
 74
0
 49
-0.05
 74
0
 49
0.1
 74
0
 49
-0.05
 74
0
 49
0.1
 74
0
 49
-0.05
 74
0
  0
LTYPE
  5
1F8
100
AcDbSymbolTableRecord
100
AcDbLinetypeTableRecord
  2
DOT
 70
64
  3
. . . . . . . . . . . . . . . . . . . .
 72
65
 73
2
 40
0.2
 49
0.1
 74
0
 49
-0.1
 74
0
  0
LTYPE
  5
1F9
100
AcDbSymbolTableRecord
100
AcDbLinetypeTableRecord
  2
DASHED
 70
64
  3
- - - - - - - - - - - - - - - - - - - -
 72
65
 73
2
 40
0.2
 49
0.1
 74
0
 49
-0.1
 74
0
  0
ENDTAB
  0
TABLE
  2
LAYER
  5
2
100
AcDbSymbolTable
 70
36
  0
LAYER
  5
10
100
AcDbSymbolTableRecord
100
AcDbLayerTableRecord
  2
0
 70
0
 62
7
  6
CONTINUOUS
370
-3
390
F
  0
LAYER
  5
1FA
100
AcDbSymbolTableRecord
100
AcDbLayerTableRecord
  2
DEFAULT_1
 70
0
 62
7
  6
CENTER
370
-3
390
F
  0
LAYER
  5
1FB
100
AcDbSymbolTableRecord
100
AcDbLayerTableRecord
  2
DEFAULT_2
 70
0
 62
7
  6
HIDDEN
370
-3
390
F
  0
LAYER
  5
1FC
100
AcDbSymbolTableRecord
100
AcDbLayerTableRecord
  2
DEFAULT_3
 70
0
 62
7
  6
PHANTOM
370
-3
390
F
  0
LAYER
  5
1FD
100
AcDbSymbolTableRecord
100
AcDbLayerTableRecord
  2
00_COMPONENTS
 70
0
 62
7
  6
CONTINUOUS
370
-3
390
F
  0
LAYER
  5
1FE
100
AcDbSymbolTableRecord
100
AcDbLayerTableRecord
  2
01_1_DEFAULT_DATUMS
 70
0
 62
7
  6
CONTINUOUS
370
-3
390
F
  0
LAYER
  5
1FF
100
AcDbSymbolTableRecord
100
AcDbLayerTableRecord
  2
01_PLANES
 70
0
 62
7
  6
CONTINUOUS
370
-3
390
F
  0
LAYER
  5
200
100
AcDbSymbolTableRecord
100
AcDbLayerTableRecord
  2
02_COORD_SYS
 70
0
 62
7
  6
CONTINUOUS
370
-3
390
F
  0
LAYER
  5
201
100
AcDbSymbolTableRecord
100
AcDbLayerTableRecord
  2
03_AXES
 70
0
 62
7
  6
CONTINUOUS
370
-3
390
F
  0
LAYER
  5
202
100
AcDbSymbolTableRecord
100
AcDbLayerTableRecord
  2
04_POINTS
 70
0
 62
7
  6
CONTINUOUS
370
-3
390
F
  0
LAYER
  5
203
100
AcDbSymbolTableRecord
100
AcDbLayerTableRecord
  2
05_CURVES
 70
0
 62
7
  6
CONTINUOUS
370
-3
390
F
  0
LAYER
  5
204
100
AcDbSymbolTableRecord
100
AcDbLayerTableRecord
  2
06_SURFS
 70
0
 62
7
  6
CONTINUOUS
370
-3
390
F
  0
LAYER
  5
205
100
AcDbSymbolTableRecord
100
AcDbLayerTableRecord
  2
07_COSMETICS
 70
0
 62
7
  6
CONTINUOUS
370
-3
390
F
  0
LAYER
  5
206
100
AcDbSymbolTableRecord
100
AcDbLayerTableRecord
  2
10_NOTES
 70
0
 62
7
  6
CONTINUOUS
370
-3
390
F
  0
LAYER
  5
207
100
AcDbSymbolTableRecord
100
AcDbLayerTableRecord
  2
11_NOTES_PUB
 70
0
 62
7
  6
CONTINUOUS
370
-3
390
F
  0
LAYER
  5
208
100
AcDbSymbolTableRecord
100
AcDbLayerTableRecord
  2
13_REF_GTOL
 70
0
 62
7
  6
CONTINUOUS
370
-3
390
F
  0
LAYER
  5
209
100
AcDbSymbolTableRecord
100
AcDbLayerTableRecord
  2
16_MISC
 70
0
 62
7
  6
CONTINUOUS
370
-3
390
F
  0
LAYER
  5
20A
100
AcDbSymbolTableRecord
100
AcDbLayerTableRecord
  2
17_NO_PRINT
 70
0
 62
7
  6
CONTINUOUS
370
-3
390
F
  0
LAYER
  5
20B
100
AcDbSymbolTableRecord
100
AcDbLayerTableRecord
  2
18_DATUM_CAMS_JOINTS
 70
0
 62
7
  6
CONTINUOUS
370
-3
390
F
  0
LAYER
  5
20C
100
AcDbSymbolTableRecord
100
AcDbLayerTableRecord
  2
19_DATUM_FUNCTIONAL
 70
0
 62
7
  6
CONTINUOUS
370
-3
390
F
  0
LAYER
  5
20D
100
AcDbSymbolTableRecord
100
AcDbLayerTableRecord
  2
20_DATUM_KINEMATIC_SCHEME
 70
0
 62
7
  6
CONTINUOUS
370
-3
390
F
  0
ENDTAB
  0
TABLE
  2
STYLE
  5
3
100
AcDbSymbolTable
 70
1
  0
STYLE
  5
11
100
AcDbSymbolTableRecord
100
AcDbTextStyleTableRecord
  2
STANDARD
 70
0
 40
0.0
 41
1.0
 50
0.0
 71
0
 42
0.2
  3
ARIAL.TTF
  4

  0
STYLE
  5
20E
100
AcDbSymbolTableRecord
100
AcDbTextStyleTableRecord
  2
TEXTSTYLE_1
 70
0
 40
0.0
 41
0.8
 50
0.0
 71
0
 42
0.2
  3
gdt
  4

  0
ENDTAB
  0
TABLE
  2
VIEW
  5
6
100
AcDbSymbolTable
 70
0
  0
ENDTAB
  0
TABLE
  2
UCS
  5
7
100
AcDbSymbolTable
 70
0
  0
ENDTAB
  0
TABLE
  2
APPID
  5
9
100
AcDbSymbolTable
 70
1
  0
APPID
  5
20F
100
AcDbSymbolTableRecord
100
AcDbRegAppTableRecord
  2
ACAD
 70
0
  0
ENDTAB
  0
TABLE
  2
BLOCK_RECORD
  5
1
100
AcDbSymbolTable
 70
0
  0
BLOCK_RECORD
  5
210
100
AcDbSymbolTableRecord
100
AcDbBlockTableRecord
  2
*Model_Space
  0
BLOCK_RECORD
  5
211
100
AcDbSymbolTableRecord
100
AcDbBlockTableRecord
  2
*Paper_Space
  0
BLOCK_RECORD
  5
212
100
AcDbSymbolTableRecord
100
AcDbBlockTableRecord
  2
_FILLED
  0
ENDTAB
  0
TABLE
  2
DIMSTYLE
  5
A
100
AcDbSymbolTable
 70
1
100
AcDbDimStyleTable
 71
0
  0
DIMSTYLE
105
213
100
AcDbSymbolTableRecord
100
AcDbDimStyleTableRecord
  2
STANDARD
 70
0
  3

  4

 40
1.0
 41
0.379944172
 42
1.0
 43
0.38
 44
1.0
 45
0.0
 46
0.0
 47
0.01
 48
0.01
140
0.5319218408
141
0.09
142
0.0
143
25.4
144
1.0
145
0.0
146
1.0
147
0.625
 71
1
 72
0
 73
0
 74
0
 75
0
 76
0
 77
1
 78
8
 79
2
170
0
171
1
172
0
173
0
174
0
175
0
176
0
177
0
178
0
270
2
179
2
271
2
272
2
273
2
274
2
275
0
280
0
281
0
282
0
283
1
284
8
285
0
286
0
287
3
288
0
340
11
278
46
341
212
342
212
343
212
344
212
  0
ENDTAB
  0
ENDSEC
  0
SECTION
  2
BLOCKS
  0
BLOCK
  5
20
100
AcDbEntity
  8
0
100
AcDbBlockBegin
  2
*Model_Space
 70
0
 10
0.0
 20
0.0
 30
0.0
  3
*Model_Space
  1

  0
ENDBLK
  5
21
100
AcDbEntity
  8
0
100
AcDbBlockEnd
  0
BLOCK
  5
1C
100
AcDbEntity
  8
0
100
AcDbBlockBegin
  2
*Paper_Space
 70
0
 10
0.0
 20
0.0
 30
0.0
  3
*Paper_Space
  1

  0
ENDBLK
  5
1D
100
AcDbEntity
  8
0
100
AcDbBlockEnd
  0
BLOCK
  5
214
100
AcDbEntity
  8
0
100
AcDbBlockBegin
  2
_FILLED
 70
64
 10
0.0
 20
0.0
  3
_FILLED
  1

  0
SOLID
  5
215
100
AcDbEntity
  8
0
  6
BYBLOCK
 62
0
100
AcDbTrace
 10
0.0
 20
0.0
 11
-1.0
 21
0.25
 12
-1.0
 22
-0.25
 13
-1.0
 23
-0.25
  0
ENDBLK
  5
216
100
AcDbEntity
  8
0
  6
BYBLOCK
 62
0
100
AcDbBlockEnd
  0
ENDSEC
  0
SECTION
  2
ENTITIES
  0
LINE
  5
217
100
AcDbEntity
  8
0
100
AcDbLine
 62
7
  6
BYLAYER
 10
22.7496367931
 20
3.6739717844
 11
10.0496367931
 21
3.6739717844
  0
LINE
  5
218
100
AcDbEntity
  8
0
100
AcDbLine
 62
7
  6
BYLAYER
 10
10.0496367931
 20
6.0739717844
 11
22.7496367931
 21
6.0739717844
  0
LINE
  5
219
100
AcDbEntity
  8
0
100
AcDbLine
 62
7
  6
BYLAYER
 10
22.7496367931
 20
7.2739717844
 11
10.0496367931
 21
7.2739717844
  0
LINE
  5
21A
100
AcDbEntity
  8
0
100
AcDbLine
 62
7
  6
BYLAYER
 10
10.0496367931
 20
8.4239717844
 11
22.7496367931
 21
8.4239717844
  0
LINE
  5
21B
100
AcDbEntity
  8
0
100
AcDbLine
 62
7
  6
BYLAYER
 10
23.0996274365
 20
9.7239717844
 11
9.6996461496
 21
9.7239717844
  0
LINE
  5
21C
100
AcDbEntity
  8
0
100
AcDbLine
 62
7
  6
BYLAYER
 10
24.3996367931
 20
11.3739717844
 11
8.3996367931
 21
11.3739717844
  0
LINE
  5
21D
100
AcDbEntity
  8
0
100
AcDbLine
 62
7
  6
BYLAYER
 10
8.4240343275
 20
28.0730380589
 11
10.1228133089
 21
38.8492197865
  0
LINE
  5
21E
100
AcDbEntity
  8
0
100
AcDbLine
 62
7
  6
BYLAYER
 10
8.3996367931
 20
11.3739717844
 11
8.3996367931
 21
27.7615980196
  0
LINE
  5
21F
100
AcDbEntity
  8
0
100
AcDbLine
 62
7
  6
BYLAYER
 10
9.6996367931
 20
9.7239717844
 11
9.6996367931
 21
11.3739717844
  0
LINE
  5
220
100
AcDbEntity
  8
0
100
AcDbLine
 62
7
  6
BYLAYER
 10
10.0496367931
 20
6.0739717844
 11
10.0496367931
 21
3.6739717844
  0
LINE
  5
221
100
AcDbEntity
  8
0
100
AcDbLine
 62
7
  6
BYLAYER
 10
10.0496367931
 20
7.2739717844
 11
10.0496367931
 21
8.4239717844
  0
LINE
  5
222
100
AcDbEntity
  8
0
100
AcDbLine
 62
7
  6
BYLAYER
 10
10.7996367931
 20
6.0739717844
 11
10.7996367931
 21
7.2739717844
  0
LINE
  5
223
100
AcDbEntity
  8
0
100
AcDbLine
 62
7
  6
BYLAYER
 10
10.8996367931
 20
8.4239717844
 11
10.8996367931
 21
9.7239717844
  0
LINE
  5
224
100
AcDbEntity
  8
0
100
AcDbLine
 62
7
  6
BYLAYER
 10
21.8996367931
 20
8.4239717844
 11
21.8996367931
 21
9.7239717844
  0
LINE
  5
225
100
AcDbEntity
  8
0
100
AcDbLine
 62
7
  6
BYLAYER
 10
21.9996367931
 20
6.0739717844
 11
21.9996367931
 21
7.2739717844
  0
LINE
  5
226
100
AcDbEntity
  8
0
100
AcDbLine
 62
7
  6
BYLAYER
 10
23.313220596
 20
27.9183082264
 11
9.4853869979
 21
27.9183067056
  0
LINE
  5
227
100
AcDbEntity
  8
0
100
AcDbLine
 62
7
  6
BYLAYER
 10
8.4242523619
 20
28.0730474223
 11
8.4240358036
 21
28.0730474223
  0
LINE
  5
228
100
AcDbEntity
  8
0
100
AcDbLine
 62
7
  6
BYLAYER
 10
22.7496367931
 20
3.6739717844
 11
22.7496367931
 21
6.0739717844
  0
LINE
  5
229
100
AcDbEntity
  8
0
100
AcDbLine
 62
7
  6
BYLAYER
 10
22.7496367931
 20
7.2739717844
 11
22.7496367931
 21
8.4239717844
  0
LINE
  5
22A
100
AcDbEntity
  8
0
100
AcDbLine
 62
7
  6
BYLAYER
 10
23.0996367931
 20
9.7239717844
 11
23.0996367931
 21
11.3739717844
  0
LINE
  5
22B
100
AcDbEntity
  8
0
100
AcDbLine
 62
7
  6
BYLAYER
 10
24.3996367931
 20
27.7615980196
 11
24.3996367931
 21
11.3739717844
  0
LINE
  5
22C
100
AcDbEntity
  8
0
100
AcDbLine
 62
7
  6
BYLAYER
 10
24.375239184
 20
28.073038532
 11
22.6764602773
 21
38.849219786
  0
ARC
  5
22D
100
AcDbEntity
  8
0
100
AcDbCircle
 62
7
  6
BYLAYER
 10
16.3996367931
 20
9.8739717844
 40
31.7
100
AcDbArc
 50
83.3704103184
 51
96.6295896816
  0
ARC
  5
22E
100
AcDbEntity
  8
0
100
AcDbCircle
 62
7
  6
BYLAYER
 10
10.3996367931
 20
27.7615980196
 40
2.0
100
AcDbArc
 50
171.041441844
 51
180.0
  0
ARC
  5
22F
100
AcDbEntity
  8
0
100
AcDbCircle
 62
7
  6
BYLAYER
 10
22.3996367931
 20
27.7615980196
 40
2.0
100
AcDbArc
 50
0.0
 51
8.9585693275
  0
SPLINE
  5
230
100
AcDbEntity
  8
0
100
AcDbSpline
 62
7
  6
BYLAYER
 70
0
 71
3
 72
15
 73
11
 74
0
 42
0.0000001
 43
0.0000001
 44
0.0000000001
 40
0.0
 40
0.0
 40
0.0
 40
0.0
 40
0.1172954187
 40
0.2397612988
 40
0.3663401355
 40
0.4952987632
 40
0.6249722788
 40
0.6895865441
 40
0.7536733108
 40
1.0
 40
1.0
 40
1.0
 40
1.0
 10
12.7398670193
 20
41.3620027836
 30
0.0
 10
12.5888253843
 20
41.3444475334
 30
0.0
 10
12.2823872288
 20
41.2847065589
 30
0.0
 10
11.8338531129
 20
41.1227882184
 30
0.0
 10
11.4044237588
 20
40.8821648902
 30
0.0
 10
11.0120891316
 20
40.5695193207
 30
0.0
 10
10.7324393264
 20
40.2545364581
 30
0.0
 10
10.542355723
 20
39.978295562
 30
0.0
 10
10.3006520489
 20
39.5563217424
 30
0.0
 10
10.1725415417
 20
39.1646548818
 30
0.0
 10
10.1228158257
 20
38.8492193905
 30
0.0
  0
SPLINE
  5
231
100
AcDbEntity
  8
0
100
AcDbSpline
 62
7
  6
BYLAYER
 70
0
 71
3
 72
15
 73
11
 74
0
 42
0.0000001
 43
0.0000001
 44
0.0000000001
 40
0.0
 40
0.0
 40
0.0
 40
0.0
 40
0.1172954187
 40
0.2397612988
 40
0.3663401355
 40
0.4952987632
 40
0.6249722788
 40
0.6895865441
 40
0.7536733108
 40
1.0
 40
1.0
 40
1.0
 40
1.0
 10
20.0594065668
 20
41.3620027836
 30
0.0
 10
20.2104482018
 20
41.3444475334
 30
0.0
 10
20.5168863573
 20
41.2847065589
 30
0.0
 10
20.9654204732
 20
41.1227882184
 30
0.0
 10
21.3948498273
 20
40.8821648902
 30
0.0
 10
21.7871844545
 20
40.5695193207
 30
0.0
 10
22.0668342598
 20
40.2545364581
 30
0.0
 10
22.2569178632
 20
39.978295562
 30
0.0
 10
22.4986215372
 20
39.5563217424
 30
0.0
 10
22.6267320445
 20
39.1646548818
 30
0.0
 10
22.6764577605
 20
38.8492193905
 30
0.0
  0
SPLINE
  5
232
100
AcDbEntity
  8
0
100
AcDbSpline
 62
7
  6
BYLAYER
 70
0
 71
3
 72
19
 73
15
 74
0
 42
0.0000001
 43
0.0000001
 44
0.0000000001
 40
0.0
 40
0.0
 40
0.0
 40
0.0
 40
0.0175464426
 40
0.0375894432
 40
0.061995567
 40
0.0919337001
 40
0.1281836072
 40
0.171309185
 40
0.2216039872
 40
0.2791948684
 40
0.4163388739
 40
0.5825804299
 40
0.7774479518
 40
1.0
 40
1.0
 40
1.0
 40
1.0
 10
8.4242523619
 20
28.0730474223
 30
0.0
 10
8.423872606
 20
28.0665853843
 30
0.0
 10
8.4263624281
 20
28.0524279203
 30
0.0
 10
8.4390763125
 20
28.032906447
 30
0.0
 10
8.46008089
 20
28.014854378
 30
0.0
 10
8.4894592279
 20
27.9985666913
 30
0.0
 10
8.5273688456
 20
27.9845170219
 30
0.0
 10
8.573685597
 20
27.9723649451
 30
0.0
 10
8.6284151093
 20
27.9618081128
 30
0.0
 10
8.7178771543
 20
27.9487169791
 30
0.0
 10
8.8504826163
 20
27.9357664977
 30
0.0
 10
9.0340242865
 20
27.9252430033
 30
0.0
 10
9.2492911459
 20
27.9193681311
 30
0.0
 10
9.4032883386
 20
27.9183101794
 30
0.0
 10
9.4853916491
 20
27.9183067637
 30
0.0
  0
SPLINE
  5
233
100
AcDbEntity
  8
0
100
AcDbSpline
 62
7
  6
BYLAYER
 70
0
 71
3
 72
19
 73
15
 74
0
 42
0.0000001
 43
0.0000001
 44
0.0000000001
 40
0.0
 40
0.0
 40
0.0
 40
0.0
 40
0.2220762499
 40
0.4165957541
 40
0.5826197554
 40
0.7196835776
 40
0.7772836137
 40
0.8276164665
 40
0.8708100821
 40
0.9071693863
 40
0.9372825752
 40
0.9619342322
 40
0.9822533581
 40
1.0
 40
1.0
 40
1.0
 40
1.0
 10
23.313215738
 20
27.9183082847
 30
0.0
 10
23.3951970561
 20
27.9183118894
 30
0.0
 10
23.5489906904
 20
27.9193548356
 30
0.0
 10
23.7640148616
 20
27.9251861745
 30
0.0
 10
23.9474395838
 20
27.9356925482
 30
0.0
 10
24.0800288062
 20
27.9485757759
 30
0.0
 10
24.1695607934
 20
27.9615050348
 30
0.0
 10
24.2243923887
 20
27.9719486804
 30
0.0
 10
24.2708415765
 20
27.9840347172
 30
0.0
 10
24.3089115447
 20
27.9981153774
 30
0.0
 10
24.338448658
 20
28.0145766807
 30
0.0
 10
24.3596066683
 20
28.0328753785
 30
0.0
 10
24.3724813525
 20
28.0526083578
 30
0.0
 10
24.3751709167
 20
28.06690185
 30
0.0
 10
24.3748838555
 20
28.0734468802
 30
0.0
  0
SPLINE
  5
234
100
AcDbEntity
  8
0
100
AcDbSpline
 62
7
  6
BYLAYER
 70
0
 71
3
 72
9
 73
5
 74
0
 42
0.0000001
 43
0.0000001
 44
0.0000000001
 40
0.0
 40
0.0
 40
0.0
 40
0.0
 40
0.8752174158
 40
1.0
 40
1.0
 40
1.0
 40
1.0
 10
24.3748838555
 20
28.0734468802
 30
0.0
 10
24.3750574342
 20
28.0734196419
 30
0.0
 10
24.3750015512
 20
28.0727935227
 30
0.0
 10
24.3752226161
 20
28.0730573211
 30
0.0
 10
24.375239184
 20
28.073038532
 30
0.0
  0
SPLINE
  5
235
100
AcDbEntity
  8
0
100
AcDbSpline
 62
7
  6
BYLAYER
 70
0
 71
3
 72
32
 73
28
 74
0
 42
0.0000001
 43
0.0000001
 44
0.0000000001
 40
0.0
 40
0.0
 40
0.0
 40
0.0
 40
0.000063673
 40
0.0002527483
 40
0.0005671948
 40
0.001006979
 40
0.0022624265
 40
0.0040188213
 40
0.0062758941
 40
0.0090333753
 40
0.0122909954
 40
0.0160484847
 40
0.0250619929
 40
0.0360717434
 40
0.0490755801
 40
0.0640713468
 40
0.0810558724
 40
0.1000221688
 40
0.1438685483
 40
0.1955474754
 40
0.25499601
 40
0.3221475785
 40
0.3969197148
 40
0.4792256967
 40
0.5689788321
 40
0.7703888123
 40
1.0
 40
1.0
 40
1.0
 40
1.0
 10
24.3996367931
 20
27.7615980196
 30
0.0
 10
24.3996210725
 20
27.7616152137
 30
0.0
 10
24.3995123147
 20
27.7615982685
 30
0.0
 10
24.3993240839
 20
27.7616610615
 30
0.0
 10
24.3989736427
 20
27.7616973783
 30
0.0
 10
24.3982528671
 20
27.7618212544
 30
0.0
 10
24.3970006735
 20
27.7620075966
 30
0.0
 10
24.3950976706
 20
27.7623069222
 30
0.0
 10
24.3926486199
 20
27.7626846708
 30
0.0
 10
24.3896577554
 20
27.7631478847
 30
0.0
 10
24.3861238719
 20
27.763693729
 30
0.0
 10
24.3803278109
 20
27.7645885333
 30
0.0
 10
24.3717281633
 20
27.7659141752
 30
0.0
 10
24.359784465
 20
27.7677526543
 30
0.0
 10
24.3456769114
 20
27.7699211542
 30
0.0
 10
24.3294081219
 20
27.7724185969
 30
0.0
 10
24.3109824053
 20
27.7752433825
 30
0.0
 10
24.2821208039
 20
27.7796576238
 30
0.0
 10
24.2407060881
 20
27.7859609739
 30
0.0
 10
24.1846376043
 20
27.794425518
 30
0.0
 10
24.1201241478
 20
27.8040744063
 30
0.0
 10
24.0472378661
 20
27.8148647314
 30
0.0
 10
23.9660615082
 20
27.8267653189
 30
0.0
 10
23.8766849831
 20
27.8397429511
 30
0.0
 10
23.7414276663
 20
27.8592002554
 30
0.0
 10
23.5527636138
 20
27.8859286019
 30
0.0
 10
23.3965002903
 20
27.9072317425
 30
0.0
 10
23.313220596
 20
27.9183082264
 30
0.0
  0
SPLINE
  5
236
100
AcDbEntity
  8
0
100
AcDbSpline
 62
7
  6
BYLAYER
 70
0
 71
3
 72
32
 73
28
 74
0
 42
0.0000001
 43
0.0000001
 44
0.0000000001
 40
0.0
 40
0.0
 40
0.0
 40
0.0
 40
0.2296155145
 40
0.4310298874
 40
0.5207834777
 40
0.603088774
 40
0.677859527
 40
0.7450094733
 40
0.8044565452
 40
0.856134286
 40
0.8999798011
 40
0.9189457993
 40
0.9359301224
 40
0.9509257815
 40
0.9639295729
 40
0.9749392987
 40
0.9839527604
 40
0.9877102053
 40
0.9909677597
 40
0.9937251488
 40
0.9959820979
 40
0.9977383321
 40
0.9989935765
 40
0.9994332417
 40
0.9997475566
 40
0.9999364869
 40
1.0
 40
1.0
 40
1.0
 40
1.0
 10
9.4853869979
 20
27.9183067056
 30
0.0
 10
9.4021559588
 20
27.9072354581
 30
0.0
 10
9.2459871034
 20
27.8859168667
 30
0.0
 10
9.0574411682
 20
27.8591477324
 30
0.0
 10
8.9222659617
 20
27.8396859136
 30
0.0
 10
8.8329439477
 20
27.8267148135
 30
0.0
 10
8.7518171038
 20
27.8148258138
 30
0.0
 10
8.6789754088
 20
27.8040479137
 30
0.0
 10
8.6145018569
 20
27.7944078653
 30
0.0
 10
8.5584682535
 20
27.7859492223
 30
0.0
 10
8.5170793831
 20
27.7796491278
 30
0.0
 10
8.48823576
 20
27.7752367312
 30
0.0
 10
8.4698214428
 20
27.7724130042
 30
0.0
 10
8.453562656
 20
27.7699164665
 30
0.0
 10
8.439463729
 20
27.7677487479
 30
0.0
 10
8.4275273177
 20
27.7659109558
 30
0.0
 10
8.4189329221
 20
27.7645858563
 30
0.0
 10
8.4131404202
 20
27.7636914761
 30
0.0
 10
8.4096087425
 20
27.7631459266
 30
0.0
 10
8.406619773
 20
27.7626830077
 30
0.0
 10
8.404172336
 20
27.7623055511
 30
0.0
 10
8.402270606
 20
27.7620065333
 30
0.0
 10
8.4010193878
 20
27.7618204431
 30
0.0
 10
8.4002990954
 20
27.7616968283
 30
0.0
 10
8.3999491443
 20
27.7616606302
 30
0.0
 10
8.3997608878
 20
27.7615980787
 30
0.0
 10
8.3996525981
 20
27.7616150246
 30
0.0
 10
8.3996367931
 20
27.7615980069
 30
0.0
  0
SPLINE
  5
237
100
AcDbEntity
  8
0
100
AcDbSpline
 62
7
  6
BYLAYER
 70
0
 71
3
 72
77
 73
73
 74
0
 42
0.0000001
 43
0.0000001
 44
0.0000000001
 40
0.0
 40
0.0
 40
0.0
 40
0.0
 40
0.0000096046
 40
0.000038187
 40
0.0000857371
 40
0.000152245
 40
0.0002377004
 40
0.0003420932
 40
0.0006076507
 40
0.0009488363
 40
0.0013655689
 40
0.0018577676
 40
0.0024253511
 40
0.0037863486
 40
0.0054479127
 40
0.007409395
 40
0.0096699335
 40
0.0122277396
 40
0.0150807731
 40
0.0182269937
 40
0.0216643617
 40
0.0294043822
 40
0.0382830806
 40
0.0482761116
 40
0.0593572547
 40
0.0715001979
 40
0.0846749822
 40
0.0988470981
 40
0.1139817674
 40
0.1469911818
 40
0.1833763307
 40
0.2227861147
 40
0.2648380165
 40
0.3091297367
 40
0.3552369808
 40
0.4027202665
 40
0.4999992971
 40
0.5972780464
 40
0.6447610331
 40
0.6908678825
 40
0.7351592697
 40
0.7772108484
 40
0.8166205245
 40
0.853005721
 40
0.8860153647
 40
0.9011502186
 40
0.9153226581
 40
0.9284977316
 40
0.9406408609
 40
0.9517223268
 40
0.9617157045
 40
0.9705946212
 40
0.9783348445
 40
0.9817723449
 40
0.9849186991
 40
0.9877718529
 40
0.9903297516
 40
0.9925903405
 40
0.9945518545
 40
0.9962134568
 40
0.9975744962
 40
0.9981421013
 40
0.9986343215
 40
0.9990510753
 40
0.9993922813
 40
0.9996578581
 40
0.9997622602
 40
0.9998477244
 40
0.9999142406
 40
0.9999617987
 40
0.9999903885
 40
1.0
 40
1.0
 40
1.0
 40
1.0
 10
10.1228133087
 20
38.8492197855
 30
0.0
 10
10.1228431241
 20
38.849246774
 30
0.0
 10
10.1230275589
 20
38.8491998479
 30
0.0
 10
10.1233618739
 20
38.8492783008
 30
0.0
 10
10.1239715463
 20
38.8492846541
 30
0.0
 10
10.124799278
 20
38.8493510743
 30
0.0
 10
10.1258729063
 20
38.8494128402
 30
0.0
 10
10.1277749461
 20
38.849534271
 30
0.0
 10
10.1307475696
 20
38.8497174378
 30
0.0
 10
10.1350245008
 20
38.8499833024
 30
0.0
 10
10.1402490832
 20
38.850305998
 30
0.0
 10
10.1464197243
 20
38.8506866653
 30
0.0
 10
10.1565367903
 20
38.8513093149
 30
0.0
 10
10.1715410696
 20
38.8522301058
 30
0.0
 10
10.1923711399
 20
38.8535041559
 30
0.0
 10
10.2169609865
 20
38.8550035061
 30
0.0
 10
10.245296906
 20
38.8567260202
 30
0.0
 10
10.2773595673
 20
38.8586659422
 30
0.0
 10
10.3131247084
 20
38.8608173142
 30
0.0
 10
10.3525670171
 20
38.8631740569
 30
0.0
 10
10.4124370547
 20
38.8667251197
 30
0.0
 10
10.4962714009
 20
38.8716362911
 30
0.0
 10
10.6075149956
 20
38.8780390091
 30
0.0
 10
10.7327339988
 20
38.8850929475
 30
0.0
 10
10.8716098501
 20
38.8927259624
 30
0.0
 10
11.0238003415
 20
38.9008652702
 30
0.0
 10
11.1889286759
 20
38.9094319669
 30
0.0
 10
11.3665827788
 20
38.9183393331
 30
0.0
 10
11.6272072625
 20
38.9309226668
 30
0.0
 10
11.9807840308
 20
38.9469222916
 30
0.0
 10
12.435986115
 20
38.9655444453
 30
0.0
 10
12.9291089818
 20
38.9833887107
 30
0.0
 10
13.4554056186
 20
38.9997883477
 30
0.0
 10
14.0098160027
 20
39.0141267975
 30
0.0
 10
14.5870350204
 20
39.0258638092
 30
0.0
 10
15.3861544434
 20
39.0375739914
 30
0.0
 10
16.3996267736
 20
39.0435291407
 30
0.0
 10
17.4130978438
 20
39.0375735011
 30
0.0
 10
18.2122131909
 20
39.0258637149
 30
0.0
 10
18.7894278984
 20
39.0141262704
 30
0.0
 10
19.3438339044
 20
38.9997887029
 30
0.0
 10
19.8701273231
 20
38.9833884908
 30
0.0
 10
20.3632485974
 20
38.965544643
 30
0.0
 10
20.8184514048
 20
38.9469228876
 30
0.0
 10
21.1720301597
 20
38.9309244034
 30
0.0
 10
21.4326577347
 20
38.9183410548
 30
0.0
 10
21.6103151726
 20
38.9094335325
 30
0.0
 10
21.7754468521
 20
38.9008667538
 30
0.0
 10
21.9276407015
 20
38.8927276574
 30
0.0
 10
22.0665201414
 20
38.8850946544
 30
0.0
 10
22.191742864
 20
38.8780406461
 30
0.0
 10
22.302989686
 20
38.8716380492
 30
0.0
 10
22.386826346
 20
38.8667267439
 30
0.0
 10
22.4466983303
 20
38.8631753502
 30
0.0
 10
22.4861422427
 20
38.8608183342
 30
0.0
 10
22.5219088224
 20
38.8586667153
 30
0.0
 10
22.5539725777
 20
38.8567266173
 30
0.0
 10
22.5823092286
 20
38.8550040756
 30
0.0
 10
22.606899583
 20
38.8535047733
 30
0.0
 10
22.6277301234
 20
38.8522307365
 30
0.0
 10
22.6427348284
 20
38.8513099332
 30
0.0
 10
22.6528522487
 20
38.8506872482
 30
0.0
 10
22.6590231568
 20
38.8503065435
 30
0.0
 10
22.6642480004
 20
38.8499837976
 30
0.0
 10
22.6685251836
 20
38.8497178715
 30
0.0
 10
22.6714980078
 20
38.8495346346
 30
0.0
 10
22.6734002014
 20
38.8494131441
 30
0.0
 10
22.6744739354
 20
38.8493513182
 30
0.0
 10
22.6753017743
 20
38.8492848741
 30
0.0
 10
22.6759115322
 20
38.8492784041
 30
0.0
 10
22.6762459527
 20
38.8491999989
 30
0.0
 10
22.6764304351
 20
38.849246788
 30
0.0
 10
22.6764602773
 20
38.849219786
 30
0.0
  0
ENDSEC
  0
SECTION
  2
OBJECTS
  0
DICTIONARY
  5
C
100
AcDbDictionary
280
0
281
1
  3
ACAD_GROUP
350
D
  3
ACAD_MLINESTYLE
350
17
  3
ACAD_LAYOUT
350
1A
  3
ACAD_PLOTSETTINGS
350
19
  3
ACAD_PLOTSTYLENAME
350
E
  0
DICTIONARY
  5
D
102
{ACAD_REACTORS
330
C
102
}
100
AcDbDictionary
280
0
281
1
  0
ACDBDICTIONARYWDFLT
  5
E
102
{ACAD_REACTORS
330
C
102
}
100
AcDbDictionary
281
1
  3
Normal
350
F
100
AcDbDictionaryWithDefault
340
F
  0
DICTIONARY
  5
17
102
{ACAD_REACTORS
330
C
102
}
100
AcDbDictionary
280
0
281
1
  3
Standard
350
18
  0
DICTIONARY
  5
19
102
{ACAD_REACTORS
330
C
102
}
100
AcDbDictionary
281
1
  0
DICTIONARY
  5
1A
102
{ACAD_REACTORS
330
C
102
}
100
AcDbDictionary
281
1
  3
Model
350
238
  3
Layout1
350
239
  0
ACDBPLACEHOLDER
  5
F
102
{ACAD_REACTORS
330
E
102
}
  0
MLINESTYLE
  5
18
102
{ACAD_REACTORS
330
17
102
}
100
AcDbMlineStyle
  2
STANDARD
 70
0
  3

 62
256
 51
90.0
 52
90.0
 71
2
 49
0.5
 62
256
  6
BYLAYER
 49
-0.5
 62
256
  6
BYLAYER
  0
LAYOUT
  5
238
102
{ACAD_REACTORS
330
1A
102
}
100
AcDbPlotSettings
  1

  2
none_device
  4

  6

 40
0.0
 41
0.0
 42
0.0
 43
0.0
 44
210.0
 45
297.0
 46
0.0
 47
0.0
 48
0.0
 49
0.0
140
0.0
141
0.0
142
1.0
143
1.0
 70
1024
 72
1
 73
0
 74
0
  7

 75
0
147
1.0
148
0.0
149
0.0
100
AcDbLayout
  1
Model
 70
0
 71
0
 10
0.0
 20
0.0
 11
210.0
 21
297.0
 12
0.0
 22
0.0
 32
0.0
 14
0.0
 24
0.0
 34
0.0
 15
0.0
 25
0.0
 35
0.0
146
0.0
 13
0.0
 23
0.0
 33
0.0
 16
1.0
 26
0.0
 36
0.0
 17
0.0
 27
1.0
 37
0.0
 76
0
330
210
345
0
346
0
  0
LAYOUT
  5
239
102
{ACAD_REACTORS
330
1A
102
}
100
AcDbPlotSettings
  1

  2
none_device
  4

  6

 40
0.0
 41
0.0
 42
0.0
 43
0.0
 44
210.0
 45
297.0
 46
0.0
 47
0.0
 48
0.0
 49
0.0
140
0.0
141
0.0
142
1.0
143
1.0
 70
0
 72
1
 73
0
 74
0
  7

 75
0
147
1.0
148
0.0
149
0.0
100
AcDbLayout
  1
Layout1
 70
0
 71
1
 10
0.0
 20
0.0
 11
210.0
 21
297.0
 12
0.0
 22
0.0
 32
0.0
 14
0.0
 24
0.0
 34
0.0
 15
0.0
 25
0.0
 35
0.0
146
0.0
 13
0.0
 23
0.0
 33
0.0
 16
1.0
 26
0.0
 36
0.0
 17
0.0
 27
1.0
 37
0.0
 76
0
330
211
345
0
346
0
  0
ENDSEC
  0
EOF
