999
DXF file: C:\Users\sesa63760\Dev\_Creo\CAD\MCADID0003703_3D-CAD\drw0001_7.dxf
999
Pro/ENGINEER 2019471 by Parametric Technology Corporation
  0
SECTION
  2
HEADER
  9
$ACADVER
  1
AC1024
  9
$DWGCODEPAGE
  3
ANSI_1252
  9
$EXTMAX
 10
69.523462193
 20
98.3260393873
 30
0.0
  9
$EXTMIN
 10
0.0
 20
0.0
 30
0.0
  9
$LIMMIN
 10
0.0
 20
0.0
  9
$LIMMAX
 10
69.523462193
 20
98.3260393873
  9
$VIEWCTR
 10
34.7617310965
 20
49.1630196937
  9
$VIEWSIZE
 40
98.3260393873
  9
$CLAYER
  8
0
  9
$LTSCALE
 40
6.409401086
  9
$CELTYPE
  6
BYLAYER
  9
$DIMSCALE
 40
1.0
  9
$DIMASZ
 40
0.8276602642
  9
$DIMEXO
 40
1.0
  9
$DIMDLI
 40
4.4283134776
  9
$DIMEXE
 40
1.0
  9
$DIMCEN
 40
1.0488110868
  9
$DIMLFAC
 40
1.0
  9
$DIMBLK
  1
_FILLED
  9
$DIMALT
 70
0
  9
$DIMALTF
 40
0.0393700787
  9
$DIMTXT
 40
1.1587243699
  9
$DIMTOL
 70
1
  9
$DIMLIM
 70
0
  9
$DIMTFAC
 40
1.0
  9
$DIMTP
 40
0.01
  9
$DIMTM
 40
0.01
  9
$DIMGAP
 40
0.625
  9
$DIMDSEP
 70
46
  9
$AUNITS
 70
0
  9
$PDMODE
 70
3
  9
$PDSIZE
 40
0.3125
  9
$HANDSEED
  5
252
  9
$TILEMODE
 70
1
  9
$MEASUREMENT
 70
1
  9
$INSUNITS
 70
4
  0
ENDSEC
  0
SECTION
  2
CLASSES
  0
CLASS
  1
ACDBDICTIONARYWDFLT
  2
AcDbDictionaryWithDefault
  3
AutoCAD 2000
 90
0
 91
1
280
0
281
0
  0
CLASS
  1
ACDBPLACEHOLDER
  2
AcDbPlaceHolder
  3
AutoCAD 2000
 90
0
 91
1
280
0
281
0
  0
CLASS
  1
LAYOUT
  2
AcDbLayout
  3
AutoCAD 2000
 90
0
 91
0
280
0
281
0
  0
ENDSEC
  0
SECTION
  2
TABLES
  0
TABLE
  2
VPORT
  5
8
100
AcDbSymbolTable
 70
2
  0
VPORT
  5
1F4
100
AcDbSymbolTableRecord
100
AcDbViewportTableRecord
  2
*ACTIVE
 70
0
 10
0.0
 20
0.0
 11
1.0
 21
1.0
 12
34.7617310965
 22
49.1630196937
 13
0.0
 23
0.0
 14
1.0
 24
1.0
 15
0.0
 25
0.0
 16
0.0
 26
0.0
 36
1.0
 17
0.0
 27
0.0
 37
0.0
 40
98.3260393873
 41
0.7070707071
 42
50.0
 43
0.0
 44
0.0
 50
0.0
 51
0.0
 71
0
 72
100
 73
1
 74
1
 75
0
 76
0
 77
0
 78
0
  0
ENDTAB
  0
TABLE
  2
LTYPE
  5
5
100
AcDbSymbolTable
 70
6
  0
LTYPE
  5
14
100
AcDbSymbolTableRecord
100
AcDbLinetypeTableRecord
  2
BYBLOCK
 70
0
  3

 72
65
 73
0
 40
0.0
  0
LTYPE
  5
15
100
AcDbSymbolTableRecord
100
AcDbLinetypeTableRecord
  2
BYLAYER
 70
0
  3

 72
65
 73
0
 40
0.0
  0
LTYPE
  5
16
100
AcDbSymbolTableRecord
100
AcDbLinetypeTableRecord
  2
CONTINUOUS
 70
64
  3
Solid line
 72
65
 73
0
 40
0.0
  0
LTYPE
  5
1F5
100
AcDbSymbolTableRecord
100
AcDbLinetypeTableRecord
  2
CENTER
 70
64
  3
____ _ ____ _ ____ _ ____ _ ____ _ ____ _ ____
 72
65
 73
4
 40
0.6
 49
0.375
 74
0
 49
-0.075
 74
0
 49
0.075
 74
0
 49
-0.075
 74
0
  0
LTYPE
  5
1F6
100
AcDbSymbolTableRecord
100
AcDbLinetypeTableRecord
  2
HIDDEN
 70
64
  3
- - - - - - - - - - - - - - - - - - - -
 72
65
 73
2
 40
0.2
 49
0.1
 74
0
 49
-0.1
 74
0
  0
LTYPE
  5
1F7
100
AcDbSymbolTableRecord
100
AcDbLinetypeTableRecord
  2
PHANTOM
 70
64
  3
_____ _ _ _____ _ _ _____ _ _ _____
 72
65
 73
6
 40
0.8
 49
0.45
 74
0
 49
-0.05
 74
0
 49
0.1
 74
0
 49
-0.05
 74
0
 49
0.1
 74
0
 49
-0.05
 74
0
  0
LTYPE
  5
1F8
100
AcDbSymbolTableRecord
100
AcDbLinetypeTableRecord
  2
DOT
 70
64
  3
. . . . . . . . . . . . . . . . . . . .
 72
65
 73
2
 40
0.2
 49
0.1
 74
0
 49
-0.1
 74
0
  0
LTYPE
  5
1F9
100
AcDbSymbolTableRecord
100
AcDbLinetypeTableRecord
  2
DASHED
 70
64
  3
- - - - - - - - - - - - - - - - - - - -
 72
65
 73
2
 40
0.2
 49
0.1
 74
0
 49
-0.1
 74
0
  0
ENDTAB
  0
TABLE
  2
LAYER
  5
2
100
AcDbSymbolTable
 70
36
  0
LAYER
  5
10
100
AcDbSymbolTableRecord
100
AcDbLayerTableRecord
  2
0
 70
0
 62
7
  6
CONTINUOUS
370
-3
390
F
  0
LAYER
  5
1FA
100
AcDbSymbolTableRecord
100
AcDbLayerTableRecord
  2
DEFAULT_1
 70
0
 62
7
  6
CENTER
370
-3
390
F
  0
LAYER
  5
1FB
100
AcDbSymbolTableRecord
100
AcDbLayerTableRecord
  2
DEFAULT_2
 70
0
 62
7
  6
HIDDEN
370
-3
390
F
  0
LAYER
  5
1FC
100
AcDbSymbolTableRecord
100
AcDbLayerTableRecord
  2
DEFAULT_3
 70
0
 62
7
  6
PHANTOM
370
-3
390
F
  0
LAYER
  5
1FD
100
AcDbSymbolTableRecord
100
AcDbLayerTableRecord
  2
00_COMPONENTS
 70
0
 62
7
  6
CONTINUOUS
370
-3
390
F
  0
LAYER
  5
1FE
100
AcDbSymbolTableRecord
100
AcDbLayerTableRecord
  2
01_1_DEFAULT_DATUMS
 70
0
 62
7
  6
CONTINUOUS
370
-3
390
F
  0
LAYER
  5
1FF
100
AcDbSymbolTableRecord
100
AcDbLayerTableRecord
  2
01_PLANES
 70
0
 62
7
  6
CONTINUOUS
370
-3
390
F
  0
LAYER
  5
200
100
AcDbSymbolTableRecord
100
AcDbLayerTableRecord
  2
02_COORD_SYS
 70
0
 62
7
  6
CONTINUOUS
370
-3
390
F
  0
LAYER
  5
201
100
AcDbSymbolTableRecord
100
AcDbLayerTableRecord
  2
03_AXES
 70
0
 62
7
  6
CONTINUOUS
370
-3
390
F
  0
LAYER
  5
202
100
AcDbSymbolTableRecord
100
AcDbLayerTableRecord
  2
04_POINTS
 70
0
 62
7
  6
CONTINUOUS
370
-3
390
F
  0
LAYER
  5
203
100
AcDbSymbolTableRecord
100
AcDbLayerTableRecord
  2
05_CURVES
 70
0
 62
7
  6
CONTINUOUS
370
-3
390
F
  0
LAYER
  5
204
100
AcDbSymbolTableRecord
100
AcDbLayerTableRecord
  2
06_SURFS
 70
0
 62
7
  6
CONTINUOUS
370
-3
390
F
  0
LAYER
  5
205
100
AcDbSymbolTableRecord
100
AcDbLayerTableRecord
  2
07_COSMETICS
 70
0
 62
7
  6
CONTINUOUS
370
-3
390
F
  0
LAYER
  5
206
100
AcDbSymbolTableRecord
100
AcDbLayerTableRecord
  2
10_NOTES
 70
0
 62
7
  6
CONTINUOUS
370
-3
390
F
  0
LAYER
  5
207
100
AcDbSymbolTableRecord
100
AcDbLayerTableRecord
  2
11_NOTES_PUB
 70
0
 62
7
  6
CONTINUOUS
370
-3
390
F
  0
LAYER
  5
208
100
AcDbSymbolTableRecord
100
AcDbLayerTableRecord
  2
13_REF_GTOL
 70
0
 62
7
  6
CONTINUOUS
370
-3
390
F
  0
LAYER
  5
209
100
AcDbSymbolTableRecord
100
AcDbLayerTableRecord
  2
16_MISC
 70
0
 62
7
  6
CONTINUOUS
370
-3
390
F
  0
LAYER
  5
20A
100
AcDbSymbolTableRecord
100
AcDbLayerTableRecord
  2
17_NO_PRINT
 70
0
 62
7
  6
CONTINUOUS
370
-3
390
F
  0
LAYER
  5
20B
100
AcDbSymbolTableRecord
100
AcDbLayerTableRecord
  2
18_DATUM_CAMS_JOINTS
 70
0
 62
7
  6
CONTINUOUS
370
-3
390
F
  0
LAYER
  5
20C
100
AcDbSymbolTableRecord
100
AcDbLayerTableRecord
  2
19_DATUM_FUNCTIONAL
 70
0
 62
7
  6
CONTINUOUS
370
-3
390
F
  0
LAYER
  5
20D
100
AcDbSymbolTableRecord
100
AcDbLayerTableRecord
  2
20_DATUM_KINEMATIC_SCHEME
 70
0
 62
7
  6
CONTINUOUS
370
-3
390
F
  0
ENDTAB
  0
TABLE
  2
STYLE
  5
3
100
AcDbSymbolTable
 70
1
  0
STYLE
  5
11
100
AcDbSymbolTableRecord
100
AcDbTextStyleTableRecord
  2
STANDARD
 70
0
 40
0.0
 41
1.0
 50
0.0
 71
0
 42
0.2
  3
ARIAL.TTF
  4

  0
STYLE
  5
20E
100
AcDbSymbolTableRecord
100
AcDbTextStyleTableRecord
  2
TEXTSTYLE_1
 70
0
 40
0.0
 41
0.8
 50
0.0
 71
0
 42
0.2
  3
gdt
  4

  0
ENDTAB
  0
TABLE
  2
VIEW
  5
6
100
AcDbSymbolTable
 70
0
  0
ENDTAB
  0
TABLE
  2
UCS
  5
7
100
AcDbSymbolTable
 70
0
  0
ENDTAB
  0
TABLE
  2
APPID
  5
9
100
AcDbSymbolTable
 70
1
  0
APPID
  5
20F
100
AcDbSymbolTableRecord
100
AcDbRegAppTableRecord
  2
ACAD
 70
0
  0
ENDTAB
  0
TABLE
  2
BLOCK_RECORD
  5
1
100
AcDbSymbolTable
 70
0
  0
BLOCK_RECORD
  5
210
100
AcDbSymbolTableRecord
100
AcDbBlockTableRecord
  2
*Model_Space
  0
BLOCK_RECORD
  5
211
100
AcDbSymbolTableRecord
100
AcDbBlockTableRecord
  2
*Paper_Space
  0
BLOCK_RECORD
  5
212
100
AcDbSymbolTableRecord
100
AcDbBlockTableRecord
  2
_FILLED
  0
ENDTAB
  0
TABLE
  2
DIMSTYLE
  5
A
100
AcDbSymbolTable
 70
1
100
AcDbDimStyleTable
 71
0
  0
DIMSTYLE
105
213
100
AcDbSymbolTableRecord
100
AcDbDimStyleTableRecord
  2
STANDARD
 70
0
  3

  4

 40
1.0
 41
0.8276602642
 42
1.0
 43
0.38
 44
1.0
 45
0.0
 46
0.0
 47
0.01
 48
0.01
140
1.1587243699
141
0.09
142
0.0
143
25.4
144
1.0
145
0.0
146
1.0
147
0.625
 71
1
 72
0
 73
0
 74
0
 75
0
 76
0
 77
1
 78
8
 79
2
170
0
171
1
172
0
173
0
174
0
175
0
176
0
177
0
178
0
270
2
179
2
271
2
272
2
273
2
274
2
275
0
280
0
281
0
282
0
283
1
284
8
285
0
286
0
287
3
288
0
340
11
278
46
341
212
342
212
343
212
344
212
  0
ENDTAB
  0
ENDSEC
  0
SECTION
  2
BLOCKS
  0
BLOCK
  5
20
100
AcDbEntity
  8
0
100
AcDbBlockBegin
  2
*Model_Space
 70
0
 10
0.0
 20
0.0
 30
0.0
  3
*Model_Space
  1

  0
ENDBLK
  5
21
100
AcDbEntity
  8
0
100
AcDbBlockEnd
  0
BLOCK
  5
1C
100
AcDbEntity
  8
0
100
AcDbBlockBegin
  2
*Paper_Space
 70
0
 10
0.0
 20
0.0
 30
0.0
  3
*Paper_Space
  1

  0
ENDBLK
  5
1D
100
AcDbEntity
  8
0
100
AcDbBlockEnd
  0
BLOCK
  5
214
100
AcDbEntity
  8
0
100
AcDbBlockBegin
  2
_FILLED
 70
64
 10
0.0
 20
0.0
  3
_FILLED
  1

  0
SOLID
  5
215
100
AcDbEntity
  8
0
  6
BYBLOCK
 62
0
100
AcDbTrace
 10
0.0
 20
0.0
 11
-1.0
 21
0.25
 12
-1.0
 22
-0.25
 13
-1.0
 23
-0.25
  0
ENDBLK
  5
216
100
AcDbEntity
  8
0
  6
BYBLOCK
 62
0
100
AcDbBlockEnd
  0
ENDSEC
  0
SECTION
  2
ENTITIES
  0
LINE
  5
217
100
AcDbEntity
  8
0
100
AcDbLine
 62
7
  6
BYLAYER
 10
7.3820812059
 20
31.6537201254
 11
7.3820812059
 21
29.6537201254
  0
LINE
  5
218
100
AcDbEntity
  8
0
100
AcDbLine
 62
7
  6
BYLAYER
 10
12.3820812059
 20
29.6537201254
 11
12.3820812059
 21
31.6537201254
  0
LINE
  5
219
100
AcDbEntity
  8
0
100
AcDbLine
 62
7
  6
BYLAYER
 10
7.3820812059
 20
29.6537201254
 11
62.3820812059
 21
29.6537201254
  0
LINE
  5
21A
100
AcDbEntity
  8
0
100
AcDbLine
 62
7
  6
BYLAYER
 10
33.0314715405
 20
29.7537201254
 11
34.7406598497
 21
29.7537201254
  0
LINE
  5
21B
100
AcDbEntity
  8
0
100
AcDbLine
 62
7
  6
BYLAYER
 10
35.0235025622
 20
29.7537201254
 11
36.7326908714
 21
29.7537201254
  0
LINE
  5
21C
100
AcDbEntity
  8
0
100
AcDbLine
 62
7
  6
BYLAYER
 10
7.3820812059
 20
31.6537201254
 11
28.8820812059
 21
31.6537201254
  0
LINE
  5
21D
100
AcDbEntity
  8
0
100
AcDbLine
 62
7
  6
BYLAYER
 10
40.8820812059
 20
31.6537201254
 11
62.3820812059
 21
31.6537201254
  0
LINE
  5
21E
100
AcDbEntity
  8
0
100
AcDbLine
 62
7
  6
BYLAYER
 10
40.8820812059
 20
32.1537201254
 11
36.8741122276
 21
32.1537201254
  0
LINE
  5
21F
100
AcDbEntity
  8
0
100
AcDbLine
 62
7
  6
BYLAYER
 10
32.8900501842
 20
32.1537201254
 11
28.8820812059
 21
32.1537201254
  0
LINE
  5
220
100
AcDbEntity
  8
0
100
AcDbLine
 62
7
  6
BYLAYER
 10
33.0314715405
 20
32.0537201254
 11
32.8900501842
 21
32.1537201254
  0
LINE
  5
221
100
AcDbEntity
  8
0
100
AcDbLine
 62
7
  6
BYLAYER
 10
34.5992384806
 20
34.5708773948
 11
34.7406598369
 21
34.4708773948
  0
LINE
  5
222
100
AcDbEntity
  8
0
100
AcDbLine
 62
7
  6
BYLAYER
 10
25.8820812059
 20
31.6537201254
 11
25.8820812059
 21
29.6537201254
  0
LINE
  5
223
100
AcDbEntity
  8
0
100
AcDbLine
 62
7
  6
BYLAYER
 10
29.0701674646
 20
68.8231793965
 11
28.2820812059
 21
64.3537201254
  0
LINE
  5
224
100
AcDbEntity
  8
0
100
AcDbLine
 62
7
  6
BYLAYER
 10
28.2820812059
 20
43.2037201254
 11
28.8820812059
 21
42.2037201254
  0
LINE
  5
225
100
AcDbEntity
  8
0
100
AcDbLine
 62
7
  6
BYLAYER
 10
28.2820812059
 20
43.2037201254
 11
28.2820812059
 21
64.3537201254
  0
LINE
  5
226
100
AcDbEntity
  8
0
100
AcDbLine
 62
7
  6
BYLAYER
 10
36.7326908714
 20
32.0537201255
 11
35.0235025622
 21
34.470877413
  0
LINE
  5
227
100
AcDbEntity
  8
0
100
AcDbLine
 62
7
  6
BYLAYER
 10
35.1649239184
 20
34.570877413
 11
36.8741122276
 21
32.1537201254
  0
LINE
  5
228
100
AcDbEntity
  8
0
100
AcDbLine
 62
7
  6
BYLAYER
 10
28.8820812059
 20
29.6537201254
 11
28.8820812059
 21
42.2037201254
  0
LINE
  5
229
100
AcDbEntity
  8
0
100
AcDbLine
 62
7
  6
BYLAYER
 10
30.9820812059
 20
49.8537201254
 11
30.9820812059
 21
64.3537201254
  0
LINE
  5
22A
100
AcDbEntity
  8
0
100
AcDbLine
 62
7
  6
BYLAYER
 10
32.8468460826
 20
67.4648801397
 11
32.7175073303
 21
68.7906023504
  0
LINE
  5
22B
100
AcDbEntity
  8
0
100
AcDbLine
 62
7
  6
BYLAYER
 10
34.7406598497
 20
29.7537201254
 11
34.7406598497
 21
34.470877413
  0
LINE
  5
22C
100
AcDbEntity
  8
0
100
AcDbLine
 62
7
  6
BYLAYER
 10
35.0235025622
 20
29.7537201254
 11
35.0235025622
 21
34.470877413
  0
LINE
  5
22D
100
AcDbEntity
  8
0
100
AcDbLine
 62
7
  6
BYLAYER
 10
37.0466550815
 20
68.7906023504
 11
36.9175073303
 21
67.4668379005
  0
LINE
  5
22E
100
AcDbEntity
  8
0
100
AcDbLine
 62
7
  6
BYLAYER
 10
38.7820812059
 20
49.8537201254
 11
30.9820812059
 21
49.8537201254
  0
LINE
  5
22F
100
AcDbEntity
  8
0
100
AcDbLine
 62
7
  6
BYLAYER
 10
38.7820812059
 20
64.3537201254
 11
38.7820812059
 21
49.8537201254
  0
LINE
  5
230
100
AcDbEntity
  8
0
100
AcDbLine
 62
7
  6
BYLAYER
 10
40.8820812059
 20
29.6537201254
 11
40.8820812059
 21
42.2037201254
  0
LINE
  5
231
100
AcDbEntity
  8
0
100
AcDbLine
 62
7
  6
BYLAYER
 10
41.4820812059
 20
43.2037201254
 11
41.4820812059
 21
64.3537201254
  0
LINE
  5
232
100
AcDbEntity
  8
0
100
AcDbLine
 62
7
  6
BYLAYER
 10
43.8820812059
 20
31.6537201254
 11
43.8820812059
 21
29.6537201254
  0
LINE
  5
233
100
AcDbEntity
  8
0
100
AcDbLine
 62
7
  6
BYLAYER
 10
40.8820812059
 20
42.2037201254
 11
41.4820812059
 21
43.2037201254
  0
LINE
  5
234
100
AcDbEntity
  8
0
100
AcDbLine
 62
7
  6
BYLAYER
 10
32.8900501842
 20
32.1537201254
 11
34.5992384934
 21
34.5708774129
  0
LINE
  5
235
100
AcDbEntity
  8
0
100
AcDbLine
 62
7
  6
BYLAYER
 10
33.0314715405
 20
32.0537201254
 11
34.7406598497
 21
34.470877413
  0
LINE
  5
236
100
AcDbEntity
  8
0
100
AcDbLine
 62
7
  6
BYLAYER
 10
41.4820812059
 20
64.3537201254
 11
40.6939949473
 21
68.8231793965
  0
LINE
  5
237
100
AcDbEntity
  8
0
100
AcDbLine
 62
7
  6
BYLAYER
 10
35.0235025622
 20
34.470877413
 11
35.1649239184
 21
34.570877413
  0
LINE
  5
238
100
AcDbEntity
  8
0
100
AcDbLine
 62
7
  6
BYLAYER
 10
36.8741122659
 20
32.1537200713
 11
36.7326909096
 21
32.0537200713
  0
LINE
  5
239
100
AcDbEntity
  8
0
100
AcDbLine
 62
7
  6
BYLAYER
 10
30.9820812059
 20
64.3537201254
 11
38.7820812059
 21
64.3537201254
  0
LINE
  5
23A
100
AcDbEntity
  8
0
100
AcDbLine
 62
7
  6
BYLAYER
 10
33.2449559362
 20
67.1037201254
 11
36.5192064757
 21
67.1037201254
  0
LINE
  5
23B
100
AcDbEntity
  8
0
100
AcDbLine
 62
7
  6
BYLAYER
 10
40.3000718461
 20
69.1537201254
 11
37.4449559362
 21
69.1537201254
  0
LINE
  5
23C
100
AcDbEntity
  8
0
100
AcDbLine
 62
7
  6
BYLAYER
 10
32.3192064757
 20
69.1537201254
 11
29.4640905658
 21
69.1537201254
  0
LINE
  5
23D
100
AcDbEntity
  8
0
100
AcDbLine
 62
7
  6
BYLAYER
 10
57.3820812059
 20
31.6537201254
 11
57.3820812059
 21
29.6537201254
  0
LINE
  5
23E
100
AcDbEntity
  8
0
100
AcDbLine
 62
7
  6
BYLAYER
 10
62.3820812059
 20
29.6537201254
 11
62.3820812059
 21
31.6537201254
  0
ARC
  5
23F
100
AcDbEntity
  8
0
100
AcDbCircle
 62
7
  6
BYLAYER
 10
40.3000718461
 20
68.7537201254
 40
0.4
100
AcDbArc
 50
9.9999999996
 51
90.0
  0
ARC
  5
240
100
AcDbEntity
  8
0
100
AcDbCircle
 62
7
  6
BYLAYER
 10
37.4449559362
 20
68.7537201254
 40
0.4
100
AcDbArc
 50
90.0
 51
174.4278021961
  0
ARC
  5
241
100
AcDbEntity
  8
0
100
AcDbCircle
 62
7
  6
BYLAYER
 10
36.5192064757
 20
67.5037201254
 40
0.4
100
AcDbArc
 50
270.0
 51
354.427802196
  0
ARC
  5
242
100
AcDbEntity
  8
0
100
AcDbCircle
 62
7
  6
BYLAYER
 10
33.2449559362
 20
67.5037201254
 40
0.4
100
AcDbArc
 50
185.572197804
 51
270.0
  0
ARC
  5
243
100
AcDbEntity
  8
0
100
AcDbCircle
 62
7
  6
BYLAYER
 10
32.3192064757
 20
68.7537201254
 40
0.4
100
AcDbArc
 50
5.5721978039
 51
90.0
  0
ARC
  5
244
100
AcDbEntity
  8
0
100
AcDbCircle
 62
7
  6
BYLAYER
 10
29.4640905658
 20
68.7537201254
 40
0.4
100
AcDbArc
 50
90.0
 51
170.0000000001
  0
SPLINE
  5
245
100
AcDbEntity
  8
0
100
AcDbSpline
 62
7
  6
BYLAYER
 70
0
 71
3
 72
21
 73
17
 74
0
 42
0.0000001
 43
0.0000001
 44
0.0000000001
 40
0.0
 40
0.0
 40
0.0
 40
0.0
 40
0.0481468036
 40
0.0936758814
 40
0.137166414
 40
0.1798157605
 40
0.2233969836
 40
0.2698046295
 40
0.3208918728
 40
0.3778173278
 40
0.4411051301
 40
0.5104285541
 40
0.5849827307
 40
0.6636657411
 40
0.8290161661
 40
1.0
 40
1.0
 40
1.0
 40
1.0
 10
36.7326896259
 20
29.7537227675
 30
0.0
 10
36.7787060767
 20
29.7537224413
 30
0.0
 10
36.868395333
 20
29.7590838161
 30
0.0
 10
36.9971732662
 20
29.7866010031
 30
0.0
 10
37.1141137814
 20
29.8353804463
 30
0.0
 10
37.2162816595
 20
29.9075923865
 30
0.0
 10
37.300011594
 20
30.004449474
 30
0.0
 10
37.3619109362
 20
30.1256090579
 30
0.0
 10
37.3989182551
 20
30.2695100421
 30
0.0
 10
37.4106366611
 20
30.4335422148
 30
0.0
 10
37.3962895951
 20
30.6146649674
 30
0.0
 10
37.3575186497
 20
30.8092074596
 30
0.0
 10
37.2956045655
 20
31.0130046512
 30
0.0
 10
37.1842048837
 20
31.2966545538
 30
0.0
 10
37.0020640013
 20
31.6501426947
 30
0.0
 10
36.827039754
 20
31.9202891255
 30
0.0
 10
36.7326895335
 20
32.0537191794
 30
0.0
  0
SPLINE
  5
246
100
AcDbEntity
  8
0
100
AcDbSpline
 62
7
  6
BYLAYER
 70
0
 71
3
 72
15
 73
11
 74
0
 42
0.0000001
 43
0.0000001
 44
0.0000000001
 40
0.0
 40
0.0
 40
0.0
 40
0.0
 40
0.1387244273
 40
0.2688616285
 40
0.3892476067
 40
0.4999932881
 40
0.6107418689
 40
0.7311319234
 40
0.8612712633
 40
1.0
 40
1.0
 40
1.0
 40
1.0
 10
35.0235026079
 20
34.4708774197
 30
0.0
 10
35.0157157094
 20
34.4873954407
 30
0.0
 10
34.9987308645
 20
34.5185999767
 30
0.0
 10
34.9662849689
 20
34.5588037164
 30
0.0
 10
34.927181973
 20
34.5870789453
 30
0.0
 10
34.8820836115
 20
34.5990027635
 30
0.0
 10
34.8369845649
 20
34.5870798068
 30
0.0
 10
34.7978791318
 20
34.5588059389
 30
0.0
 10
34.765431306
 20
34.5186017409
 30
0.0
 10
34.7484464212
 20
34.4873961945
 30
0.0
 10
34.7406596784
 20
34.470877473
 30
0.0
  0
SPLINE
  5
247
100
AcDbEntity
  8
0
100
AcDbSpline
 62
7
  6
BYLAYER
 70
0
 71
3
 72
13
 73
9
 74
0
 42
0.0000001
 43
0.0000001
 44
0.0000000001
 40
0.0
 40
0.0
 40
0.0
 40
0.0
 40
0.2224779381
 40
0.3569901915
 40
0.5000179411
 40
0.6430416243
 40
0.777543769
 40
1.0
 40
1.0
 40
1.0
 40
1.0
 10
34.740659633
 20
29.7537200489
 30
0.0
 10
34.7587372547
 20
29.7409367467
 30
0.0
 10
34.791545489
 20
29.7254614897
 30
0.0
 10
34.8401927184
 20
29.7145678917
 30
0.0
 10
34.8820861515
 20
29.7111296572
 30
0.0
 10
34.9239784456
 20
29.7145691544
 30
0.0
 10
34.9726219052
 20
29.7254635279
 30
0.0
 10
35.0054264636
 20
29.740938411
 30
0.0
 10
35.0235025983
 20
29.7537200744
 30
0.0
  0
SPLINE
  5
248
100
AcDbEntity
  8
0
100
AcDbSpline
 62
7
  6
BYLAYER
 70
0
 71
3
 72
21
 73
17
 74
0
 42
0.0000001
 43
0.0000001
 44
0.0000000001
 40
0.0
 40
0.0
 40
0.0
 40
0.0
 40
0.1709674655
 40
0.3363253393
 40
0.4150088944
 40
0.4895645472
 40
0.5588941246
 40
0.6221883994
 40
0.6791168687
 40
0.7302050973
 40
0.776612338
 40
0.82019251
 40
0.8628421222
 40
0.9063334352
 40
0.951860873
 40
1.0
 40
1.0
 40
1.0
 40
1.0
 10
33.0314735882
 20
32.0537186774
 30
0.0
 10
32.9371315019
 20
31.9202998122
 30
0.0
 10
32.762110418
 20
31.6501577588
 30
0.0
 10
32.5799577475
 20
31.2966797976
 30
0.0
 10
32.4685485182
 20
31.0130200833
 30
0.0
 10
32.406630364
 20
30.8092135517
 30
0.0
 10
32.3678496444
 20
30.6146572586
 30
0.0
 10
32.3534943509
 20
30.4335176754
 30
0.0
 10
32.3652223186
 20
30.2694734099
 30
0.0
 10
32.4022449605
 20
30.1255713338
 30
0.0
 10
32.4641495572
 20
30.0044137136
 30
0.0
 10
32.5478856274
 20
29.9075607105
 30
0.0
 10
32.6500643021
 20
29.8353610076
 30
0.0
 10
32.7670107281
 20
29.7865946535
 30
0.0
 10
32.8957832378
 20
29.7590863008
 30
0.0
 10
32.9854643526
 20
29.7537254903
 30
0.0
 10
33.0314739768
 20
29.7537252936
 30
0.0
  0
SPLINE
  5
249
100
AcDbEntity
  8
0
100
AcDbSpline
 62
7
  6
BYLAYER
 70
0
 71
3
 72
10
 73
6
 74
0
 42
0.0000001
 43
0.0000001
 44
0.0000000001
 40
0.0
 40
0.0
 40
0.0
 40
0.0
 40
0.4742605923
 40
0.734488033
 40
1.0
 40
1.0
 40
1.0
 40
1.0
 10
35.1649239184
 20
29.6537201255
 30
0.0
 10
35.1362793058
 20
29.6537201255
 30
0.0
 10
35.0908909772
 20
29.669469796
 30
0.0
 10
35.0474136128
 20
29.7119939521
 30
0.0
 10
35.0303405554
 20
29.7392145512
 30
0.0
 10
35.0235025622
 20
29.7537201254
 30
0.0
  0
SPLINE
  5
24A
100
AcDbEntity
  8
0
100
AcDbSpline
 62
7
  6
BYLAYER
 70
0
 71
3
 72
10
 73
6
 74
0
 42
0.0000001
 43
0.0000001
 44
0.0000000001
 40
0.0
 40
0.0
 40
0.0
 40
0.0
 40
0.2655118668
 40
0.5257393336
 40
1.0
 40
1.0
 40
1.0
 40
1.0
 10
34.7406597444
 20
29.7537202021
 30
0.0
 10
34.7338217417
 20
29.7392146276
 30
0.0
 10
34.7167486832
 20
29.7119940146
 30
0.0
 10
34.673271368
 20
29.6694697674
 30
0.0
 10
34.6278831186
 20
29.6537198695
 30
0.0
 10
34.5992384832
 20
29.6537196995
 30
0.0
  0
SPLINE
  5
24B
100
AcDbEntity
  8
0
100
AcDbSpline
 62
7
  6
BYLAYER
 70
0
 71
3
 72
21
 73
17
 74
0
 42
0.0000001
 43
0.0000001
 44
0.0000000001
 40
0.0
 40
0.0
 40
0.0
 40
0.0
 40
0.0456915389
 40
0.0889447968
 40
0.1306236084
 40
0.1721014886
 40
0.2151775334
 40
0.2617710294
 40
0.3135017607
 40
0.3713686755
 40
0.4356312874
 40
0.5058945778
 40
0.5813141409
 40
0.6608324418
 40
0.8278909076
 40
1.0
 40
1.0
 40
1.0
 40
1.0
 10
36.8741122276
 20
29.6537201254
 30
0.0
 10
36.920489473
 20
29.6537186911
 30
0.0
 10
37.010962739
 20
29.6596336208
 30
0.0
 10
37.1407241393
 20
29.6901203951
 30
0.0
 10
37.2582277635
 20
29.7441057167
 30
0.0
 10
37.3603196074
 20
29.8235445809
 30
0.0
 10
37.4433244447
 20
29.9292555792
 30
0.0
 10
37.5040869886
 20
30.0605432205
 30
0.0
 10
37.5405826608
 20
30.215741292
 30
0.0
 10
37.5519417208
 20
30.3925066774
 30
0.0
 10
37.537986545
 20
30.5877680481
 30
0.0
 10
37.499622598
 20
30.7977323887
 30
0.0
 10
37.4384369595
 20
31.018239313
 30
0.0
 10
37.3276506947
 20
31.3259751822
 30
0.0
 10
37.1457099401
 20
31.7110977261
 30
0.0
 10
36.9693788551
 20
32.0072907595
 30
0.0
 10
36.8741122276
 20
32.1537201254
 30
0.0
  0
SPLINE
  5
24C
100
AcDbEntity
  8
0
100
AcDbSpline
 62
7
  6
BYLAYER
 70
0
 71
3
 72
10
 73
6
 74
0
 42
0.0000001
 43
0.0000001
 44
0.0000000001
 40
0.0
 40
0.0
 40
0.0
 40
0.0
 40
0.265512847
 40
0.5257407412
 40
1.0
 40
1.0
 40
1.0
 40
1.0
 10
36.7326906
 20
29.7537201255
 30
0.0
 10
36.7395288489
 20
29.7392146202
 30
0.0
 10
36.7566022886
 20
29.711994199
 30
0.0
 10
36.8000798949
 20
29.6694703895
 30
0.0
 10
36.8454679248
 20
29.6537205097
 30
0.0
 10
36.8741124451
 20
29.6537202721
 30
0.0
  0
SPLINE
  5
24D
100
AcDbEntity
  8
0
100
AcDbSpline
 62
7
  6
BYLAYER
 70
0
 71
3
 72
15
 73
11
 74
0
 42
0.0000001
 43
0.0000001
 44
0.0000000001
 40
0.0
 40
0.0
 40
0.0
 40
0.0
 40
0.1250993851
 40
0.2501469536
 40
0.3751161424
 40
0.4999958117
 40
0.6248744354
 40
0.7498431041
 40
0.8748944758
 40
1.0
 40
1.0
 40
1.0
 40
1.0
 10
35.1649239184
 20
34.570877413
 30
0.0
 10
35.1485538056
 20
34.5940268146
 30
0.0
 10
35.1119461827
 20
34.6377704496
 30
0.0
 10
35.045180172
 20
34.6914427339
 30
0.0
 10
34.9673001475
 20
34.7278282271
 30
0.0
 10
34.8820843301
 20
34.7409248708
 30
0.0
 10
34.7968694966
 20
34.7278277506
 30
0.0
 10
34.7189859426
 20
34.691447888
 30
0.0
 10
34.6522204562
 20
34.6377715389
 30
0.0
 10
34.6156079602
 20
34.5940289755
 30
0.0
 10
34.5992384934
 20
34.5708774129
 30
0.0
  0
SPLINE
  5
24E
100
AcDbEntity
  8
0
100
AcDbSpline
 62
7
  6
BYLAYER
 70
0
 71
3
 72
21
 73
17
 74
0
 42
0.0000001
 43
0.0000001
 44
0.0000000001
 40
0.0
 40
0.0
 40
0.0
 40
0.0
 40
0.1721089439
 40
0.3391677217
 40
0.4186865381
 40
0.4941059427
 40
0.5643695887
 40
0.6286321918
 40
0.6864994645
 40
0.7382296632
 40
0.7848239561
 40
0.8278967009
 40
0.8693746116
 40
0.9110559349
 40
0.9543061095
 40
1.0
 40
1.0
 40
1.0
 40
1.0
 10
32.8900501842
 20
32.1537201254
 30
0.0
 10
32.7947815136
 20
32.007293052
 30
0.0
 10
32.6184703193
 20
31.7110916714
 30
0.0
 10
32.4364872707
 20
31.325986851
 30
0.0
 10
32.3257520455
 20
31.0182342123
 30
0.0
 10
32.2645350158
 20
30.7977354998
 30
0.0
 10
32.2262067909
 20
30.587765963
 30
0.0
 10
32.2122233407
 20
30.3925057836
 30
0.0
 10
32.2236096927
 20
30.2157443813
 30
0.0
 10
32.2600744
 20
30.0605377466
 30
0.0
 10
32.3208594502
 20
29.9292651995
 30
0.0
 10
32.4038354785
 20
29.8235374864
 30
0.0
 10
32.5059324521
 20
29.7441023095
 30
0.0
 10
32.6234373869
 20
29.6901255834
 30
0.0
 10
32.7531978811
 20
29.6596298302
 30
0.0
 10
32.8436707263
 20
29.6537184015
 30
0.0
 10
32.8900501842
 20
29.6537201254
 30
0.0
  0
SPLINE
  5
24F
100
AcDbEntity
  8
0
100
AcDbSpline
 62
7
  6
BYLAYER
 70
0
 71
3
 72
10
 73
6
 74
0
 42
0.0000001
 43
0.0000001
 44
0.0000000001
 40
0.0
 40
0.0
 40
0.0
 40
0.0
 40
0.2655133573
 40
0.5257413826
 40
1.0
 40
1.0
 40
1.0
 40
1.0
 10
33.0314719563
 20
29.7537201255
 30
0.0
 10
33.0246335095
 20
29.7392147643
 30
0.0
 10
33.0075597585
 20
29.7119946806
 30
0.0
 10
32.9640818799
 20
29.6694715866
 30
0.0
 10
32.9186940886
 20
29.6537220767
 30
0.0
 10
32.8900497441
 20
29.6537219164
 30
0.0
  0
ENDSEC
  0
SECTION
  2
OBJECTS
  0
DICTIONARY
  5
C
100
AcDbDictionary
280
0
281
1
  3
ACAD_GROUP
350
D
  3
ACAD_MLINESTYLE
350
17
  3
ACAD_LAYOUT
350
1A
  3
ACAD_PLOTSETTINGS
350
19
  3
ACAD_PLOTSTYLENAME
350
E
  0
DICTIONARY
  5
D
102
{ACAD_REACTORS
330
C
102
}
100
AcDbDictionary
280
0
281
1
  0
ACDBDICTIONARYWDFLT
  5
E
102
{ACAD_REACTORS
330
C
102
}
100
AcDbDictionary
281
1
  3
Normal
350
F
100
AcDbDictionaryWithDefault
340
F
  0
DICTIONARY
  5
17
102
{ACAD_REACTORS
330
C
102
}
100
AcDbDictionary
280
0
281
1
  3
Standard
350
18
  0
DICTIONARY
  5
19
102
{ACAD_REACTORS
330
C
102
}
100
AcDbDictionary
281
1
  0
DICTIONARY
  5
1A
102
{ACAD_REACTORS
330
C
102
}
100
AcDbDictionary
281
1
  3
Model
350
250
  3
Layout1
350
251
  0
ACDBPLACEHOLDER
  5
F
102
{ACAD_REACTORS
330
E
102
}
  0
MLINESTYLE
  5
18
102
{ACAD_REACTORS
330
17
102
}
100
AcDbMlineStyle
  2
STANDARD
 70
0
  3

 62
256
 51
90.0
 52
90.0
 71
2
 49
0.5
 62
256
  6
BYLAYER
 49
-0.5
 62
256
  6
BYLAYER
  0
LAYOUT
  5
250
102
{ACAD_REACTORS
330
1A
102
}
100
AcDbPlotSettings
  1

  2
none_device
  4

  6

 40
0.0
 41
0.0
 42
0.0
 43
0.0
 44
210.0
 45
297.0
 46
0.0
 47
0.0
 48
0.0
 49
0.0
140
0.0
141
0.0
142
1.0
143
1.0
 70
1024
 72
1
 73
0
 74
0
  7

 75
0
147
1.0
148
0.0
149
0.0
100
AcDbLayout
  1
Model
 70
0
 71
0
 10
0.0
 20
0.0
 11
210.0
 21
297.0
 12
0.0
 22
0.0
 32
0.0
 14
0.0
 24
0.0
 34
0.0
 15
0.0
 25
0.0
 35
0.0
146
0.0
 13
0.0
 23
0.0
 33
0.0
 16
1.0
 26
0.0
 36
0.0
 17
0.0
 27
1.0
 37
0.0
 76
0
330
210
345
0
346
0
  0
LAYOUT
  5
251
102
{ACAD_REACTORS
330
1A
102
}
100
AcDbPlotSettings
  1

  2
none_device
  4

  6

 40
0.0
 41
0.0
 42
0.0
 43
0.0
 44
210.0
 45
297.0
 46
0.0
 47
0.0
 48
0.0
 49
0.0
140
0.0
141
0.0
142
1.0
143
1.0
 70
0
 72
1
 73
0
 74
0
  7

 75
0
147
1.0
148
0.0
149
0.0
100
AcDbLayout
  1
Layout1
 70
0
 71
1
 10
0.0
 20
0.0
 11
210.0
 21
297.0
 12
0.0
 22
0.0
 32
0.0
 14
0.0
 24
0.0
 34
0.0
 15
0.0
 25
0.0
 35
0.0
146
0.0
 13
0.0
 23
0.0
 33
0.0
 16
1.0
 26
0.0
 36
0.0
 17
0.0
 27
1.0
 37
0.0
 76
0
330
211
345
0
346
0
  0
ENDSEC
  0
EOF
