999
DXF file: C:\Users\sesa63760\Dev\_Creo\CAD\MCADID0004479_3D-CAD\drw0001_5.dxf
999
Pro/ENGINEER 2019471 by Parametric Technology Corporation
  0
SECTION
  2
HEADER
  9
$ACADVER
  1
AC1024
  9
$DWGCODEPAGE
  3
ANSI_1252
  9
$EXTMAX
 10
111.156462585
 20
157.2069970845
 30
0.0
  9
$EXTMIN
 10
0.0
 20
0.0
 30
0.0
  9
$LIMMIN
 10
0.0
 20
0.0
  9
$LIMMAX
 10
111.156462585
 20
157.2069970845
  9
$VIEWCTR
 10
55.5782312925
 20
78.6034985423
  9
$VIEWSIZE
 40
157.2069970845
  9
$CLAYER
  8
0
  9
$LTSCALE
 40
10.2475672174
  9
$CELTYPE
  6
BYLAYER
  9
$DIMSCALE
 40
1.0
  9
$DIMASZ
 40
1.3232912213
  9
$DIMEXO
 40
1.0
  9
$DIMDLI
 40
7.0801373502
  9
$DIMEXE
 40
1.0
  9
$DIMCEN
 40
1.6768746356
  9
$DIMLFAC
 40
1.0
  9
$DIMBLK
  1
_FILLED
  9
$DIMALT
 70
0
  9
$DIMALTF
 40
0.0393700787
  9
$DIMTXT
 40
1.8526077098
  9
$DIMTOL
 70
1
  9
$DIMLIM
 70
0
  9
$DIMTFAC
 40
1.0
  9
$DIMTP
 40
0.01
  9
$DIMTM
 40
0.01
  9
$DIMGAP
 40
0.625
  9
$DIMDSEP
 70
46
  9
$AUNITS
 70
0
  9
$PDMODE
 70
3
  9
$PDSIZE
 40
0.3125
  9
$HANDSEED
  5
253
  9
$TILEMODE
 70
1
  9
$MEASUREMENT
 70
1
  9
$INSUNITS
 70
4
  0
ENDSEC
  0
SECTION
  2
CLASSES
  0
CLASS
  1
ACDBDICTIONARYWDFLT
  2
AcDbDictionaryWithDefault
  3
AutoCAD 2000
 90
0
 91
1
280
0
281
0
  0
CLASS
  1
ACDBPLACEHOLDER
  2
AcDbPlaceHolder
  3
AutoCAD 2000
 90
0
 91
1
280
0
281
0
  0
CLASS
  1
LAYOUT
  2
AcDbLayout
  3
AutoCAD 2000
 90
0
 91
0
280
0
281
0
  0
ENDSEC
  0
SECTION
  2
TABLES
  0
TABLE
  2
VPORT
  5
8
100
AcDbSymbolTable
 70
2
  0
VPORT
  5
1F4
100
AcDbSymbolTableRecord
100
AcDbViewportTableRecord
  2
*ACTIVE
 70
0
 10
0.0
 20
0.0
 11
1.0
 21
1.0
 12
55.5782312925
 22
78.6034985423
 13
0.0
 23
0.0
 14
1.0
 24
1.0
 15
0.0
 25
0.0
 16
0.0
 26
0.0
 36
1.0
 17
0.0
 27
0.0
 37
0.0
 40
157.2069970845
 41
0.7070707071
 42
50.0
 43
0.0
 44
0.0
 50
0.0
 51
0.0
 71
0
 72
100
 73
1
 74
1
 75
0
 76
0
 77
0
 78
0
  0
ENDTAB
  0
TABLE
  2
LTYPE
  5
5
100
AcDbSymbolTable
 70
6
  0
LTYPE
  5
14
100
AcDbSymbolTableRecord
100
AcDbLinetypeTableRecord
  2
BYBLOCK
 70
0
  3

 72
65
 73
0
 40
0.0
  0
LTYPE
  5
15
100
AcDbSymbolTableRecord
100
AcDbLinetypeTableRecord
  2
BYLAYER
 70
0
  3

 72
65
 73
0
 40
0.0
  0
LTYPE
  5
16
100
AcDbSymbolTableRecord
100
AcDbLinetypeTableRecord
  2
CONTINUOUS
 70
64
  3
Solid line
 72
65
 73
0
 40
0.0
  0
LTYPE
  5
1F5
100
AcDbSymbolTableRecord
100
AcDbLinetypeTableRecord
  2
CENTER
 70
64
  3
____ _ ____ _ ____ _ ____ _ ____ _ ____ _ ____
 72
65
 73
4
 40
0.6
 49
0.375
 74
0
 49
-0.075
 74
0
 49
0.075
 74
0
 49
-0.075
 74
0
  0
LTYPE
  5
1F6
100
AcDbSymbolTableRecord
100
AcDbLinetypeTableRecord
  2
HIDDEN
 70
64
  3
- - - - - - - - - - - - - - - - - - - -
 72
65
 73
2
 40
0.2
 49
0.1
 74
0
 49
-0.1
 74
0
  0
LTYPE
  5
1F7
100
AcDbSymbolTableRecord
100
AcDbLinetypeTableRecord
  2
PHANTOM
 70
64
  3
_____ _ _ _____ _ _ _____ _ _ _____
 72
65
 73
6
 40
0.8
 49
0.45
 74
0
 49
-0.05
 74
0
 49
0.1
 74
0
 49
-0.05
 74
0
 49
0.1
 74
0
 49
-0.05
 74
0
  0
LTYPE
  5
1F8
100
AcDbSymbolTableRecord
100
AcDbLinetypeTableRecord
  2
DOT
 70
64
  3
. . . . . . . . . . . . . . . . . . . .
 72
65
 73
2
 40
0.2
 49
0.1
 74
0
 49
-0.1
 74
0
  0
LTYPE
  5
1F9
100
AcDbSymbolTableRecord
100
AcDbLinetypeTableRecord
  2
DASHED
 70
64
  3
- - - - - - - - - - - - - - - - - - - -
 72
65
 73
2
 40
0.2
 49
0.1
 74
0
 49
-0.1
 74
0
  0
ENDTAB
  0
TABLE
  2
LAYER
  5
2
100
AcDbSymbolTable
 70
36
  0
LAYER
  5
10
100
AcDbSymbolTableRecord
100
AcDbLayerTableRecord
  2
0
 70
0
 62
7
  6
CONTINUOUS
370
-3
390
F
  0
LAYER
  5
1FA
100
AcDbSymbolTableRecord
100
AcDbLayerTableRecord
  2
DEFAULT_1
 70
0
 62
7
  6
CENTER
370
-3
390
F
  0
LAYER
  5
1FB
100
AcDbSymbolTableRecord
100
AcDbLayerTableRecord
  2
DEFAULT_2
 70
0
 62
7
  6
HIDDEN
370
-3
390
F
  0
LAYER
  5
1FC
100
AcDbSymbolTableRecord
100
AcDbLayerTableRecord
  2
DEFAULT_3
 70
0
 62
7
  6
PHANTOM
370
-3
390
F
  0
LAYER
  5
1FD
100
AcDbSymbolTableRecord
100
AcDbLayerTableRecord
  2
00_COMPONENTS
 70
0
 62
7
  6
CONTINUOUS
370
-3
390
F
  0
LAYER
  5
1FE
100
AcDbSymbolTableRecord
100
AcDbLayerTableRecord
  2
01_1_DEFAULT_DATUMS
 70
0
 62
7
  6
CONTINUOUS
370
-3
390
F
  0
LAYER
  5
1FF
100
AcDbSymbolTableRecord
100
AcDbLayerTableRecord
  2
01_PLANES
 70
0
 62
7
  6
CONTINUOUS
370
-3
390
F
  0
LAYER
  5
200
100
AcDbSymbolTableRecord
100
AcDbLayerTableRecord
  2
02_COORD_SYS
 70
0
 62
7
  6
CONTINUOUS
370
-3
390
F
  0
LAYER
  5
201
100
AcDbSymbolTableRecord
100
AcDbLayerTableRecord
  2
03_AXES
 70
0
 62
7
  6
CONTINUOUS
370
-3
390
F
  0
LAYER
  5
202
100
AcDbSymbolTableRecord
100
AcDbLayerTableRecord
  2
04_POINTS
 70
0
 62
7
  6
CONTINUOUS
370
-3
390
F
  0
LAYER
  5
203
100
AcDbSymbolTableRecord
100
AcDbLayerTableRecord
  2
05_CURVES
 70
0
 62
7
  6
CONTINUOUS
370
-3
390
F
  0
LAYER
  5
204
100
AcDbSymbolTableRecord
100
AcDbLayerTableRecord
  2
06_SURFS
 70
0
 62
7
  6
CONTINUOUS
370
-3
390
F
  0
LAYER
  5
205
100
AcDbSymbolTableRecord
100
AcDbLayerTableRecord
  2
07_COSMETICS
 70
0
 62
7
  6
CONTINUOUS
370
-3
390
F
  0
LAYER
  5
206
100
AcDbSymbolTableRecord
100
AcDbLayerTableRecord
  2
10_NOTES
 70
0
 62
7
  6
CONTINUOUS
370
-3
390
F
  0
LAYER
  5
207
100
AcDbSymbolTableRecord
100
AcDbLayerTableRecord
  2
11_NOTES_PUB
 70
0
 62
7
  6
CONTINUOUS
370
-3
390
F
  0
LAYER
  5
208
100
AcDbSymbolTableRecord
100
AcDbLayerTableRecord
  2
13_REF_GTOL
 70
0
 62
7
  6
CONTINUOUS
370
-3
390
F
  0
LAYER
  5
209
100
AcDbSymbolTableRecord
100
AcDbLayerTableRecord
  2
16_MISC
 70
0
 62
7
  6
CONTINUOUS
370
-3
390
F
  0
LAYER
  5
20A
100
AcDbSymbolTableRecord
100
AcDbLayerTableRecord
  2
17_NO_PRINT
 70
0
 62
7
  6
CONTINUOUS
370
-3
390
F
  0
LAYER
  5
20B
100
AcDbSymbolTableRecord
100
AcDbLayerTableRecord
  2
18_DATUM_CAMS_JOINTS
 70
0
 62
7
  6
CONTINUOUS
370
-3
390
F
  0
LAYER
  5
20C
100
AcDbSymbolTableRecord
100
AcDbLayerTableRecord
  2
19_DATUM_FUNCTIONAL
 70
0
 62
7
  6
CONTINUOUS
370
-3
390
F
  0
LAYER
  5
20D
100
AcDbSymbolTableRecord
100
AcDbLayerTableRecord
  2
20_DATUM_KINEMATIC_SCHEME
 70
0
 62
7
  6
CONTINUOUS
370
-3
390
F
  0
ENDTAB
  0
TABLE
  2
STYLE
  5
3
100
AcDbSymbolTable
 70
1
  0
STYLE
  5
11
100
AcDbSymbolTableRecord
100
AcDbTextStyleTableRecord
  2
STANDARD
 70
0
 40
0.0
 41
1.0
 50
0.0
 71
0
 42
0.2
  3
ARIAL.TTF
  4

  0
STYLE
  5
20E
100
AcDbSymbolTableRecord
100
AcDbTextStyleTableRecord
  2
TEXTSTYLE_1
 70
0
 40
0.0
 41
0.8
 50
0.0
 71
0
 42
0.2
  3
gdt
  4

  0
ENDTAB
  0
TABLE
  2
VIEW
  5
6
100
AcDbSymbolTable
 70
0
  0
ENDTAB
  0
TABLE
  2
UCS
  5
7
100
AcDbSymbolTable
 70
0
  0
ENDTAB
  0
TABLE
  2
APPID
  5
9
100
AcDbSymbolTable
 70
1
  0
APPID
  5
20F
100
AcDbSymbolTableRecord
100
AcDbRegAppTableRecord
  2
ACAD
 70
0
  0
ENDTAB
  0
TABLE
  2
BLOCK_RECORD
  5
1
100
AcDbSymbolTable
 70
0
  0
BLOCK_RECORD
  5
210
100
AcDbSymbolTableRecord
100
AcDbBlockTableRecord
  2
*Model_Space
  0
BLOCK_RECORD
  5
211
100
AcDbSymbolTableRecord
100
AcDbBlockTableRecord
  2
*Paper_Space
  0
BLOCK_RECORD
  5
212
100
AcDbSymbolTableRecord
100
AcDbBlockTableRecord
  2
_FILLED
  0
ENDTAB
  0
TABLE
  2
DIMSTYLE
  5
A
100
AcDbSymbolTable
 70
1
100
AcDbDimStyleTable
 71
0
  0
DIMSTYLE
105
213
100
AcDbSymbolTableRecord
100
AcDbDimStyleTableRecord
  2
STANDARD
 70
0
  3

  4

 40
1.0
 41
1.3232912213
 42
1.0
 43
0.38
 44
1.0
 45
0.0
 46
0.0
 47
0.01
 48
0.01
140
1.8526077098
141
0.09
142
0.0
143
25.4
144
1.0
145
0.0
146
1.0
147
0.625
 71
1
 72
0
 73
0
 74
0
 75
0
 76
0
 77
1
 78
8
 79
2
170
0
171
1
172
0
173
0
174
0
175
0
176
0
177
0
178
0
270
2
179
2
271
2
272
2
273
2
274
2
275
0
280
0
281
0
282
0
283
1
284
8
285
0
286
0
287
3
288
0
340
11
278
46
341
212
342
212
343
212
344
212
  0
ENDTAB
  0
ENDSEC
  0
SECTION
  2
BLOCKS
  0
BLOCK
  5
20
100
AcDbEntity
  8
0
100
AcDbBlockBegin
  2
*Model_Space
 70
0
 10
0.0
 20
0.0
 30
0.0
  3
*Model_Space
  1

  0
ENDBLK
  5
21
100
AcDbEntity
  8
0
100
AcDbBlockEnd
  0
BLOCK
  5
1C
100
AcDbEntity
  8
0
100
AcDbBlockBegin
  2
*Paper_Space
 70
0
 10
0.0
 20
0.0
 30
0.0
  3
*Paper_Space
  1

  0
ENDBLK
  5
1D
100
AcDbEntity
  8
0
100
AcDbBlockEnd
  0
BLOCK
  5
214
100
AcDbEntity
  8
0
100
AcDbBlockBegin
  2
_FILLED
 70
64
 10
0.0
 20
0.0
  3
_FILLED
  1

  0
SOLID
  5
215
100
AcDbEntity
  8
0
  6
BYBLOCK
 62
0
100
AcDbTrace
 10
0.0
 20
0.0
 11
-1.0
 21
0.25
 12
-1.0
 22
-0.25
 13
-1.0
 23
-0.25
  0
ENDBLK
  5
216
100
AcDbEntity
  8
0
  6
BYBLOCK
 62
0
100
AcDbBlockEnd
  0
ENDSEC
  0
SECTION
  2
ENTITIES
  0
LINE
  5
217
100
AcDbEntity
  8
0
100
AcDbLine
 62
7
  6
BYLAYER
 10
62.1704744288
 20
12.7959183673
 11
52.0647053574
 21
12.7959183673
  0
LINE
  5
218
100
AcDbEntity
  8
0
100
AcDbLine
 62
7
  6
BYLAYER
 10
63.1175898931
 20
13.7430183673
 11
51.1175898931
 21
13.7430183673
  0
LINE
  5
219
100
AcDbEntity
  8
0
100
AcDbLine
 62
7
  6
BYLAYER
 10
66.1675898931
 20
16.4459183673
 11
48.0675898931
 21
16.4459183673
  0
LINE
  5
21A
100
AcDbEntity
  8
0
100
AcDbLine
 62
7
  6
BYLAYER
 10
48.5875898931
 20
144.7959183673
 11
48.1175898931
 21
144.3259183673
  0
LINE
  5
21B
100
AcDbEntity
  8
0
100
AcDbLine
 62
7
  6
BYLAYER
 10
68.9174923087
 20
27.2459183673
 11
45.3176874775
 21
27.2459183673
  0
LINE
  5
21C
100
AcDbEntity
  8
0
100
AcDbLine
 62
7
  6
BYLAYER
 10
45.3176874775
 20
29.8459183673
 11
68.9174923087
 21
29.8459183673
  0
LINE
  5
21D
100
AcDbEntity
  8
0
100
AcDbLine
 62
7
  6
BYLAYER
 10
52.0646898931
 20
12.7959183673
 11
51.1175898931
 21
13.7430183673
  0
LINE
  5
21E
100
AcDbEntity
  8
0
100
AcDbLine
 62
7
  6
BYLAYER
 10
68.9174923087
 20
32.9459183673
 11
45.3176874775
 21
32.9459183673
  0
LINE
  5
21F
100
AcDbEntity
  8
0
100
AcDbLine
 62
7
  6
BYLAYER
 10
45.3176874775
 20
35.5459183673
 11
68.9174923087
 21
35.5459183673
  0
LINE
  5
220
100
AcDbEntity
  8
0
100
AcDbLine
 62
7
  6
BYLAYER
 10
48.0675898931
 20
46.3459183673
 11
66.1675898931
 21
46.3459183673
  0
LINE
  5
221
100
AcDbEntity
  8
0
100
AcDbLine
 62
7
  6
BYLAYER
 10
51.1176080944
 20
52.7959183673
 11
63.1175716918
 21
52.7959183673
  0
LINE
  5
222
100
AcDbEntity
  8
0
100
AcDbLine
 62
7
  6
BYLAYER
 10
63.1175898931
 20
53.7430183673
 11
51.1175898931
 21
53.7430183673
  0
LINE
  5
223
100
AcDbEntity
  8
0
100
AcDbLine
 62
7
  6
BYLAYER
 10
52.0646898931
 20
52.7959183673
 11
51.1175898931
 21
53.7430183673
  0
LINE
  5
224
100
AcDbEntity
  8
0
100
AcDbLine
 62
7
  6
BYLAYER
 10
45.3175898931
 20
27.2459183673
 11
45.3175898931
 21
29.8459183673
  0
LINE
  5
225
100
AcDbEntity
  8
0
100
AcDbLine
 62
7
  6
BYLAYER
 10
45.3175898931
 20
32.9459183673
 11
45.3175898931
 21
35.5459183673
  0
LINE
  5
226
100
AcDbEntity
  8
0
100
AcDbLine
 62
7
  6
BYLAYER
 10
48.0675898931
 20
46.3459183673
 11
48.0675898931
 21
35.5459183673
  0
LINE
  5
227
100
AcDbEntity
  8
0
100
AcDbLine
 62
7
  6
BYLAYER
 10
48.0675898931
 20
27.2459183673
 11
48.0675898931
 21
16.4459183673
  0
LINE
  5
228
100
AcDbEntity
  8
0
100
AcDbLine
 62
7
  6
BYLAYER
 10
48.1175898931
 20
133.1959183673
 11
48.1175898931
 21
144.3259183673
  0
LINE
  5
229
100
AcDbEntity
  8
0
100
AcDbLine
 62
7
  6
BYLAYER
 10
51.1175898931
 20
13.7430183673
 11
51.1175898931
 21
16.4459183673
  0
LINE
  5
22A
100
AcDbEntity
  8
0
100
AcDbLine
 62
7
  6
BYLAYER
 10
51.1175898931
 20
29.8459183673
 11
51.1175898931
 21
32.9459183673
  0
LINE
  5
22B
100
AcDbEntity
  8
0
100
AcDbLine
 62
7
  6
BYLAYER
 10
51.1175898931
 20
46.3459183673
 11
51.1175898931
 21
52.7959183673
  0
LINE
  5
22C
100
AcDbEntity
  8
0
100
AcDbLine
 62
7
  6
BYLAYER
 10
51.1175898931
 20
53.7430183673
 11
51.1175898931
 21
132.6159183673
  0
LINE
  5
22D
100
AcDbEntity
  8
0
100
AcDbLine
 62
7
  6
BYLAYER
 10
57.1175898931
 20
45.5376049702
 11
57.1175898931
 21
36.3542317645
  0
LINE
  5
22E
100
AcDbEntity
  8
0
100
AcDbLine
 62
7
  6
BYLAYER
 10
57.1175898931
 20
26.4376049702
 11
57.1175898931
 21
17.2542317645
  0
LINE
  5
22F
100
AcDbEntity
  8
0
100
AcDbLine
 62
7
  6
BYLAYER
 10
63.1175898931
 20
13.7430183673
 11
63.1175898931
 21
16.4459183673
  0
LINE
  5
230
100
AcDbEntity
  8
0
100
AcDbLine
 62
7
  6
BYLAYER
 10
63.1175898931
 20
29.8459183673
 11
63.1175898931
 21
32.9459183673
  0
LINE
  5
231
100
AcDbEntity
  8
0
100
AcDbLine
 62
7
  6
BYLAYER
 10
63.1175898931
 20
46.3459183673
 11
63.1175898931
 21
52.7959183673
  0
LINE
  5
232
100
AcDbEntity
  8
0
100
AcDbLine
 62
7
  6
BYLAYER
 10
63.1175898931
 20
53.7430183673
 11
63.1175898931
 21
132.6159183673
  0
LINE
  5
233
100
AcDbEntity
  8
0
100
AcDbLine
 62
7
  6
BYLAYER
 10
66.1175898931
 20
133.1959183673
 11
66.1175898931
 21
144.3259183673
  0
LINE
  5
234
100
AcDbEntity
  8
0
100
AcDbLine
 62
7
  6
BYLAYER
 10
66.1675898931
 20
16.4459183673
 11
66.1675898931
 21
27.2459183673
  0
LINE
  5
235
100
AcDbEntity
  8
0
100
AcDbLine
 62
7
  6
BYLAYER
 10
66.1675898931
 20
35.5459183673
 11
66.1675898931
 21
46.3459183673
  0
LINE
  5
236
100
AcDbEntity
  8
0
100
AcDbLine
 62
7
  6
BYLAYER
 10
68.9175898931
 20
27.2459183673
 11
68.9175898931
 21
29.8459183673
  0
LINE
  5
237
100
AcDbEntity
  8
0
100
AcDbLine
 62
7
  6
BYLAYER
 10
68.9175898931
 20
32.9459183673
 11
68.9175898931
 21
35.5459183673
  0
LINE
  5
238
100
AcDbEntity
  8
0
100
AcDbLine
 62
7
  6
BYLAYER
 10
62.1704898931
 20
52.7959183673
 11
63.1175898931
 21
53.7430183673
  0
LINE
  5
239
100
AcDbEntity
  8
0
100
AcDbLine
 62
7
  6
BYLAYER
 10
62.1704898931
 20
12.7959183673
 11
63.1175898931
 21
13.7430183673
  0
LINE
  5
23A
100
AcDbEntity
  8
0
100
AcDbLine
 62
7
  6
BYLAYER
 10
51.1175898931
 20
132.6159183673
 11
63.1175898931
 21
132.6159183673
  0
LINE
  5
23B
100
AcDbEntity
  8
0
100
AcDbLine
 62
7
  6
BYLAYER
 10
65.6475898931
 20
144.7959183673
 11
66.1175898931
 21
144.3259183673
  0
LINE
  5
23C
100
AcDbEntity
  8
0
100
AcDbLine
 62
7
  6
BYLAYER
 10
66.1175731966
 20
133.1959183673
 11
48.1176065896
 21
133.1959183673
  0
LINE
  5
23D
100
AcDbEntity
  8
0
100
AcDbLine
 62
7
  6
BYLAYER
 10
48.1175898931
 20
144.3259183673
 11
66.1175898931
 21
144.3259183673
  0
LINE
  5
23E
100
AcDbEntity
  8
0
100
AcDbLine
 62
7
  6
BYLAYER
 10
48.587918747
 20
144.7959183673
 11
65.6472610392
 21
144.7959183673
  0
ARC
  5
23F
100
AcDbEntity
  8
0
100
AcDbCircle
 62
7
  6
BYLAYER
 10
50.5375898931
 20
132.6159183673
 40
0.58
100
AcDbArc
 50
0.0
 51
90.0
  0
ARC
  5
240
100
AcDbEntity
  8
0
100
AcDbCircle
 62
7
  6
BYLAYER
 10
63.6975898931
 20
132.6159183673
 40
0.58
100
AcDbArc
 50
90.0
 51
180.0
  0
SPLINE
  5
241
100
AcDbEntity
  8
0
100
AcDbSpline
 62
7
  6
BYLAYER
 70
0
 71
3
 72
11
 73
7
 74
0
 42
0.0000001
 43
0.0000001
 44
0.0000000001
 40
0.0
 40
0.0
 40
0.0
 40
0.0
 40
0.2514191113
 40
0.5017500961
 40
0.7511504184
 40
1.0
 40
1.0
 40
1.0
 40
1.0
 10
48.0675898931
 20
45.5376049702
 30
0.0
 10
48.4345703072
 20
45.6599317749
 30
0.0
 10
49.173821682
 20
45.8842676661
 30
0.0
 10
50.3012474801
 20
46.1433135355
 30
0.0
 10
51.4426018375
 20
46.3082333679
 30
0.0
 10
52.2097120281
 20
46.3459183673
 30
0.0
 10
52.5925898931
 20
46.3459183673
 30
0.0
  0
SPLINE
  5
242
100
AcDbEntity
  8
0
100
AcDbSpline
 62
7
  6
BYLAYER
 70
0
 71
3
 72
11
 73
7
 74
0
 42
0.0000001
 43
0.0000001
 44
0.0000000001
 40
0.0
 40
0.0
 40
0.0
 40
0.0
 40
0.2488497021
 40
0.4982500382
 40
0.7485809689
 40
1.0
 40
1.0
 40
1.0
 40
1.0
 10
61.6425898931
 20
46.3459183673
 30
0.0
 10
62.0254679455
 20
46.3459183673
 30
0.0
 10
62.7925783462
 20
46.3082332961
 30
0.0
 10
63.933932825
 20
46.1433134916
 30
0.0
 10
65.0613585347
 20
45.8842679779
 30
0.0
 10
65.8006095943
 20
45.6599317365
 30
0.0
 10
66.1675898931
 20
45.5376049702
 30
0.0
  0
SPLINE
  5
243
100
AcDbEntity
  8
0
100
AcDbSpline
 62
7
  6
BYLAYER
 70
0
 71
3
 72
11
 73
7
 74
0
 42
0.0000001
 43
0.0000001
 44
0.0000000001
 40
0.0
 40
0.0
 40
0.0
 40
0.0
 40
0.2488497021
 40
0.4982500382
 40
0.7485809689
 40
1.0
 40
1.0
 40
1.0
 40
1.0
 10
52.5925898931
 20
35.5459183673
 30
0.0
 10
52.2097118407
 20
35.5459183673
 30
0.0
 10
51.44260144
 20
35.5836034385
 30
0.0
 10
50.3012469612
 20
35.7485232431
 30
0.0
 10
49.1738212515
 20
36.0075687568
 30
0.0
 10
48.4345701919
 20
36.2319049982
 30
0.0
 10
48.0675898931
 20
36.3542317645
 30
0.0
  0
SPLINE
  5
244
100
AcDbEntity
  8
0
100
AcDbSpline
 62
7
  6
BYLAYER
 70
0
 71
3
 72
11
 73
7
 74
0
 42
0.0000001
 43
0.0000001
 44
0.0000000001
 40
0.0
 40
0.0
 40
0.0
 40
0.0
 40
0.2514191113
 40
0.5017500961
 40
0.7511504184
 40
1.0
 40
1.0
 40
1.0
 40
1.0
 10
57.1175898931
 20
36.3542317645
 30
0.0
 10
56.750609479
 20
36.2319049598
 30
0.0
 10
56.0113581042
 20
36.0075690686
 30
0.0
 10
54.8839323061
 20
35.7485231992
 30
0.0
 10
53.7425779487
 20
35.5836033668
 30
0.0
 10
52.9754677581
 20
35.5459183673
 30
0.0
 10
52.5925898931
 20
35.5459183673
 30
0.0
  0
SPLINE
  5
245
100
AcDbEntity
  8
0
100
AcDbSpline
 62
7
  6
BYLAYER
 70
0
 71
3
 72
11
 73
7
 74
0
 42
0.0000001
 43
0.0000001
 44
0.0000000001
 40
0.0
 40
0.0
 40
0.0
 40
0.0
 40
0.2488497021
 40
0.4982500382
 40
0.7485809689
 40
1.0
 40
1.0
 40
1.0
 40
1.0
 10
61.6425898931
 20
35.5459183673
 30
0.0
 10
61.2597118407
 20
35.5459183673
 30
0.0
 10
60.49260144
 20
35.5836034385
 30
0.0
 10
59.3512469612
 20
35.7485232431
 30
0.0
 10
58.2238212515
 20
36.0075687568
 30
0.0
 10
57.4845701919
 20
36.2319049982
 30
0.0
 10
57.1175898931
 20
36.3542317645
 30
0.0
  0
SPLINE
  5
246
100
AcDbEntity
  8
0
100
AcDbSpline
 62
7
  6
BYLAYER
 70
0
 71
3
 72
11
 73
7
 74
0
 42
0.0000001
 43
0.0000001
 44
0.0000000001
 40
0.0
 40
0.0
 40
0.0
 40
0.0
 40
0.2514191113
 40
0.5017500961
 40
0.7511504184
 40
1.0
 40
1.0
 40
1.0
 40
1.0
 10
57.1175898931
 20
45.5376049702
 30
0.0
 10
57.4845703072
 20
45.6599317749
 30
0.0
 10
58.223821682
 20
45.8842676661
 30
0.0
 10
59.3512474801
 20
46.1433135355
 30
0.0
 10
60.4926018375
 20
46.3082333679
 30
0.0
 10
61.2597120281
 20
46.3459183673
 30
0.0
 10
61.6425898931
 20
46.3459183673
 30
0.0
  0
SPLINE
  5
247
100
AcDbEntity
  8
0
100
AcDbSpline
 62
7
  6
BYLAYER
 70
0
 71
3
 72
11
 73
7
 74
0
 42
0.0000001
 43
0.0000001
 44
0.0000000001
 40
0.0
 40
0.0
 40
0.0
 40
0.0
 40
0.2488497021
 40
0.4982500382
 40
0.7485809689
 40
1.0
 40
1.0
 40
1.0
 40
1.0
 10
52.5925898931
 20
46.3459183673
 30
0.0
 10
52.9754679455
 20
46.3459183673
 30
0.0
 10
53.7425783462
 20
46.3082332961
 30
0.0
 10
54.883932825
 20
46.1433134916
 30
0.0
 10
56.0113585347
 20
45.8842679779
 30
0.0
 10
56.7506095943
 20
45.6599317365
 30
0.0
 10
57.1175898931
 20
45.5376049702
 30
0.0
  0
SPLINE
  5
248
100
AcDbEntity
  8
0
100
AcDbSpline
 62
7
  6
BYLAYER
 70
0
 71
3
 72
11
 73
7
 74
0
 42
0.0000001
 43
0.0000001
 44
0.0000000001
 40
0.0
 40
0.0
 40
0.0
 40
0.0
 40
0.2514191113
 40
0.5017500961
 40
0.7511504184
 40
1.0
 40
1.0
 40
1.0
 40
1.0
 10
66.1675898931
 20
36.3542317645
 30
0.0
 10
65.800609479
 20
36.2319049598
 30
0.0
 10
65.0613581042
 20
36.0075690686
 30
0.0
 10
63.9339323061
 20
35.7485231992
 30
0.0
 10
62.7925779487
 20
35.5836033668
 30
0.0
 10
62.0254677581
 20
35.5459183673
 30
0.0
 10
61.6425898931
 20
35.5459183673
 30
0.0
  0
SPLINE
  5
249
100
AcDbEntity
  8
0
100
AcDbSpline
 62
7
  6
BYLAYER
 70
0
 71
3
 72
11
 73
7
 74
0
 42
0.0000001
 43
0.0000001
 44
0.0000000001
 40
0.0
 40
0.0
 40
0.0
 40
0.0
 40
0.2514191113
 40
0.5017500961
 40
0.7511504184
 40
1.0
 40
1.0
 40
1.0
 40
1.0
 10
48.0675898931
 20
26.4376049702
 30
0.0
 10
48.4345703072
 20
26.5599317749
 30
0.0
 10
49.173821682
 20
26.7842676661
 30
0.0
 10
50.3012474801
 20
27.0433135355
 30
0.0
 10
51.4426018375
 20
27.2082333679
 30
0.0
 10
52.2097120281
 20
27.2459183673
 30
0.0
 10
52.5925898931
 20
27.2459183673
 30
0.0
  0
SPLINE
  5
24A
100
AcDbEntity
  8
0
100
AcDbSpline
 62
7
  6
BYLAYER
 70
0
 71
3
 72
11
 73
7
 74
0
 42
0.0000001
 43
0.0000001
 44
0.0000000001
 40
0.0
 40
0.0
 40
0.0
 40
0.0
 40
0.2488497021
 40
0.4982500382
 40
0.7485809689
 40
1.0
 40
1.0
 40
1.0
 40
1.0
 10
61.6425898931
 20
27.2459183673
 30
0.0
 10
62.0254679455
 20
27.2459183673
 30
0.0
 10
62.7925783462
 20
27.2082332961
 30
0.0
 10
63.933932825
 20
27.0433134916
 30
0.0
 10
65.0613585347
 20
26.7842679779
 30
0.0
 10
65.8006095943
 20
26.5599317365
 30
0.0
 10
66.1675898931
 20
26.4376049702
 30
0.0
  0
SPLINE
  5
24B
100
AcDbEntity
  8
0
100
AcDbSpline
 62
7
  6
BYLAYER
 70
0
 71
3
 72
11
 73
7
 74
0
 42
0.0000001
 43
0.0000001
 44
0.0000000001
 40
0.0
 40
0.0
 40
0.0
 40
0.0
 40
0.2488497021
 40
0.4982500382
 40
0.7485809689
 40
1.0
 40
1.0
 40
1.0
 40
1.0
 10
52.5925898931
 20
16.4459183673
 30
0.0
 10
52.2097118407
 20
16.4459183673
 30
0.0
 10
51.44260144
 20
16.4836034385
 30
0.0
 10
50.3012469612
 20
16.6485232431
 30
0.0
 10
49.1738212515
 20
16.9075687568
 30
0.0
 10
48.4345701919
 20
17.1319049982
 30
0.0
 10
48.0675898931
 20
17.2542317645
 30
0.0
  0
SPLINE
  5
24C
100
AcDbEntity
  8
0
100
AcDbSpline
 62
7
  6
BYLAYER
 70
0
 71
3
 72
11
 73
7
 74
0
 42
0.0000001
 43
0.0000001
 44
0.0000000001
 40
0.0
 40
0.0
 40
0.0
 40
0.0
 40
0.2514191113
 40
0.5017500961
 40
0.7511504184
 40
1.0
 40
1.0
 40
1.0
 40
1.0
 10
57.1175898931
 20
17.2542317645
 30
0.0
 10
56.750609479
 20
17.1319049598
 30
0.0
 10
56.0113581042
 20
16.9075690686
 30
0.0
 10
54.8839323061
 20
16.6485231992
 30
0.0
 10
53.7425779487
 20
16.4836033668
 30
0.0
 10
52.9754677581
 20
16.4459183673
 30
0.0
 10
52.5925898931
 20
16.4459183673
 30
0.0
  0
SPLINE
  5
24D
100
AcDbEntity
  8
0
100
AcDbSpline
 62
7
  6
BYLAYER
 70
0
 71
3
 72
11
 73
7
 74
0
 42
0.0000001
 43
0.0000001
 44
0.0000000001
 40
0.0
 40
0.0
 40
0.0
 40
0.0
 40
0.2488497021
 40
0.4982500382
 40
0.7485809689
 40
1.0
 40
1.0
 40
1.0
 40
1.0
 10
61.6425898931
 20
16.4459183673
 30
0.0
 10
61.2597118407
 20
16.4459183673
 30
0.0
 10
60.49260144
 20
16.4836034385
 30
0.0
 10
59.3512469612
 20
16.6485232431
 30
0.0
 10
58.2238212515
 20
16.9075687568
 30
0.0
 10
57.4845701919
 20
17.1319049982
 30
0.0
 10
57.1175898931
 20
17.2542317645
 30
0.0
  0
SPLINE
  5
24E
100
AcDbEntity
  8
0
100
AcDbSpline
 62
7
  6
BYLAYER
 70
0
 71
3
 72
11
 73
7
 74
0
 42
0.0000001
 43
0.0000001
 44
0.0000000001
 40
0.0
 40
0.0
 40
0.0
 40
0.0
 40
0.2514191113
 40
0.5017500961
 40
0.7511504184
 40
1.0
 40
1.0
 40
1.0
 40
1.0
 10
57.1175898931
 20
26.4376049702
 30
0.0
 10
57.4845703072
 20
26.5599317749
 30
0.0
 10
58.223821682
 20
26.7842676661
 30
0.0
 10
59.3512474801
 20
27.0433135355
 30
0.0
 10
60.4926018375
 20
27.2082333679
 30
0.0
 10
61.2597120281
 20
27.2459183673
 30
0.0
 10
61.6425898931
 20
27.2459183673
 30
0.0
  0
SPLINE
  5
24F
100
AcDbEntity
  8
0
100
AcDbSpline
 62
7
  6
BYLAYER
 70
0
 71
3
 72
11
 73
7
 74
0
 42
0.0000001
 43
0.0000001
 44
0.0000000001
 40
0.0
 40
0.0
 40
0.0
 40
0.0
 40
0.2488497021
 40
0.4982500382
 40
0.7485809689
 40
1.0
 40
1.0
 40
1.0
 40
1.0
 10
52.5925898931
 20
27.2459183673
 30
0.0
 10
52.9754679455
 20
27.2459183673
 30
0.0
 10
53.7425783462
 20
27.2082332961
 30
0.0
 10
54.883932825
 20
27.0433134916
 30
0.0
 10
56.0113585347
 20
26.7842679779
 30
0.0
 10
56.7506095943
 20
26.5599317365
 30
0.0
 10
57.1175898931
 20
26.4376049702
 30
0.0
  0
SPLINE
  5
250
100
AcDbEntity
  8
0
100
AcDbSpline
 62
7
  6
BYLAYER
 70
0
 71
3
 72
11
 73
7
 74
0
 42
0.0000001
 43
0.0000001
 44
0.0000000001
 40
0.0
 40
0.0
 40
0.0
 40
0.0
 40
0.2514191113
 40
0.5017500961
 40
0.7511504184
 40
1.0
 40
1.0
 40
1.0
 40
1.0
 10
66.1675898931
 20
17.2542317645
 30
0.0
 10
65.800609479
 20
17.1319049598
 30
0.0
 10
65.0613581042
 20
16.9075690686
 30
0.0
 10
63.9339323061
 20
16.6485231992
 30
0.0
 10
62.7925779487
 20
16.4836033668
 30
0.0
 10
62.0254677581
 20
16.4459183673
 30
0.0
 10
61.6425898931
 20
16.4459183673
 30
0.0
  0
ENDSEC
  0
SECTION
  2
OBJECTS
  0
DICTIONARY
  5
C
100
AcDbDictionary
280
0
281
1
  3
ACAD_GROUP
350
D
  3
ACAD_MLINESTYLE
350
17
  3
ACAD_LAYOUT
350
1A
  3
ACAD_PLOTSETTINGS
350
19
  3
ACAD_PLOTSTYLENAME
350
E
  0
DICTIONARY
  5
D
102
{ACAD_REACTORS
330
C
102
}
100
AcDbDictionary
280
0
281
1
  0
ACDBDICTIONARYWDFLT
  5
E
102
{ACAD_REACTORS
330
C
102
}
100
AcDbDictionary
281
1
  3
Normal
350
F
100
AcDbDictionaryWithDefault
340
F
  0
DICTIONARY
  5
17
102
{ACAD_REACTORS
330
C
102
}
100
AcDbDictionary
280
0
281
1
  3
Standard
350
18
  0
DICTIONARY
  5
19
102
{ACAD_REACTORS
330
C
102
}
100
AcDbDictionary
281
1
  0
DICTIONARY
  5
1A
102
{ACAD_REACTORS
330
C
102
}
100
AcDbDictionary
281
1
  3
Model
350
251
  3
Layout1
350
252
  0
ACDBPLACEHOLDER
  5
F
102
{ACAD_REACTORS
330
E
102
}
  0
MLINESTYLE
  5
18
102
{ACAD_REACTORS
330
17
102
}
100
AcDbMlineStyle
  2
STANDARD
 70
0
  3

 62
256
 51
90.0
 52
90.0
 71
2
 49
0.5
 62
256
  6
BYLAYER
 49
-0.5
 62
256
  6
BYLAYER
  0
LAYOUT
  5
251
102
{ACAD_REACTORS
330
1A
102
}
100
AcDbPlotSettings
  1

  2
none_device
  4

  6

 40
0.0
 41
0.0
 42
0.0
 43
0.0
 44
210.0
 45
297.0
 46
0.0
 47
0.0
 48
0.0
 49
0.0
140
0.0
141
0.0
142
1.0
143
1.0
 70
1024
 72
1
 73
0
 74
0
  7

 75
0
147
1.0
148
0.0
149
0.0
100
AcDbLayout
  1
Model
 70
0
 71
0
 10
0.0
 20
0.0
 11
210.0
 21
297.0
 12
0.0
 22
0.0
 32
0.0
 14
0.0
 24
0.0
 34
0.0
 15
0.0
 25
0.0
 35
0.0
146
0.0
 13
0.0
 23
0.0
 33
0.0
 16
1.0
 26
0.0
 36
0.0
 17
0.0
 27
1.0
 37
0.0
 76
0
330
210
345
0
346
0
  0
LAYOUT
  5
252
102
{ACAD_REACTORS
330
1A
102
}
100
AcDbPlotSettings
  1

  2
none_device
  4

  6

 40
0.0
 41
0.0
 42
0.0
 43
0.0
 44
210.0
 45
297.0
 46
0.0
 47
0.0
 48
0.0
 49
0.0
140
0.0
141
0.0
142
1.0
143
1.0
 70
0
 72
1
 73
0
 74
0
  7

 75
0
147
1.0
148
0.0
149
0.0
100
AcDbLayout
  1
Layout1
 70
0
 71
1
 10
0.0
 20
0.0
 11
210.0
 21
297.0
 12
0.0
 22
0.0
 32
0.0
 14
0.0
 24
0.0
 34
0.0
 15
0.0
 25
0.0
 35
0.0
146
0.0
 13
0.0
 23
0.0
 33
0.0
 16
1.0
 26
0.0
 36
0.0
 17
0.0
 27
1.0
 37
0.0
 76
0
330
211
345
0
346
0
  0
ENDSEC
  0
EOF
