999
DXF file: C:\Users\sesa63760\Dev\_Creo\CAD\MCADID0004786_3D-CAD\drw0001_4.dxf
999
Pro/ENGINEER 2019471 by Parametric Technology Corporation
  0
SECTION
  2
HEADER
  9
$ACADVER
  1
AC1024
  9
$DWGCODEPAGE
  3
ANSI_1252
  9
$EXTMAX
 10
110.5498195431
 20
156.3490304966
 30
0.0
  9
$EXTMIN
 10
0.0
 20
0.0
 30
0.0
  9
$LIMMIN
 10
0.0
 20
0.0
  9
$LIMMAX
 10
110.5498195431
 20
156.3490304966
  9
$VIEWCTR
 10
55.2749097715
 20
78.1745152483
  9
$VIEWSIZE
 40
156.3490304966
  9
$CLAYER
  8
0
  9
$LTSCALE
 40
10.1916405064
  9
$CELTYPE
  6
BYLAYER
  9
$DIMSCALE
 40
1.0
  9
$DIMASZ
 40
1.3160692803
  9
$DIMEXO
 40
1.0
  9
$DIMDLI
 40
7.0414970772
  9
$DIMEXE
 40
1.0
  9
$DIMCEN
 40
1.667722992
  9
$DIMLFAC
 40
1.0
  9
$DIMBLK
  1
_FILLED
  9
$DIMALT
 70
0
  9
$DIMALTF
 40
0.0393700787
  9
$DIMTXT
 40
1.8424969924
  9
$DIMTOL
 70
1
  9
$DIMLIM
 70
0
  9
$DIMTFAC
 40
1.0
  9
$DIMTP
 40
0.01
  9
$DIMTM
 40
0.01
  9
$DIMGAP
 40
0.625
  9
$DIMDSEP
 70
46
  9
$AUNITS
 70
0
  9
$PDMODE
 70
3
  9
$PDSIZE
 40
0.3125
  9
$HANDSEED
  5
25A
  9
$TILEMODE
 70
1
  9
$MEASUREMENT
 70
1
  9
$INSUNITS
 70
4
  0
ENDSEC
  0
SECTION
  2
CLASSES
  0
CLASS
  1
ACDBDICTIONARYWDFLT
  2
AcDbDictionaryWithDefault
  3
AutoCAD 2000
 90
0
 91
1
280
0
281
0
  0
CLASS
  1
ACDBPLACEHOLDER
  2
AcDbPlaceHolder
  3
AutoCAD 2000
 90
0
 91
1
280
0
281
0
  0
CLASS
  1
LAYOUT
  2
AcDbLayout
  3
AutoCAD 2000
 90
0
 91
0
280
0
281
0
  0
ENDSEC
  0
SECTION
  2
TABLES
  0
TABLE
  2
VPORT
  5
8
100
AcDbSymbolTable
 70
2
  0
VPORT
  5
1F4
100
AcDbSymbolTableRecord
100
AcDbViewportTableRecord
  2
*ACTIVE
 70
0
 10
0.0
 20
0.0
 11
1.0
 21
1.0
 12
55.2749097715
 22
78.1745152483
 13
0.0
 23
0.0
 14
1.0
 24
1.0
 15
0.0
 25
0.0
 16
0.0
 26
0.0
 36
1.0
 17
0.0
 27
0.0
 37
0.0
 40
156.3490304966
 41
0.7070707071
 42
50.0
 43
0.0
 44
0.0
 50
0.0
 51
0.0
 71
0
 72
100
 73
1
 74
1
 75
0
 76
0
 77
0
 78
0
  0
ENDTAB
  0
TABLE
  2
LTYPE
  5
5
100
AcDbSymbolTable
 70
6
  0
LTYPE
  5
14
100
AcDbSymbolTableRecord
100
AcDbLinetypeTableRecord
  2
BYBLOCK
 70
0
  3

 72
65
 73
0
 40
0.0
  0
LTYPE
  5
15
100
AcDbSymbolTableRecord
100
AcDbLinetypeTableRecord
  2
BYLAYER
 70
0
  3

 72
65
 73
0
 40
0.0
  0
LTYPE
  5
16
100
AcDbSymbolTableRecord
100
AcDbLinetypeTableRecord
  2
CONTINUOUS
 70
64
  3
Solid line
 72
65
 73
0
 40
0.0
  0
LTYPE
  5
1F5
100
AcDbSymbolTableRecord
100
AcDbLinetypeTableRecord
  2
CENTER
 70
64
  3
____ _ ____ _ ____ _ ____ _ ____ _ ____ _ ____
 72
65
 73
4
 40
0.6
 49
0.375
 74
0
 49
-0.075
 74
0
 49
0.075
 74
0
 49
-0.075
 74
0
  0
LTYPE
  5
1F6
100
AcDbSymbolTableRecord
100
AcDbLinetypeTableRecord
  2
HIDDEN
 70
64
  3
- - - - - - - - - - - - - - - - - - - -
 72
65
 73
2
 40
0.2
 49
0.1
 74
0
 49
-0.1
 74
0
  0
LTYPE
  5
1F7
100
AcDbSymbolTableRecord
100
AcDbLinetypeTableRecord
  2
PHANTOM
 70
64
  3
_____ _ _ _____ _ _ _____ _ _ _____
 72
65
 73
6
 40
0.8
 49
0.45
 74
0
 49
-0.05
 74
0
 49
0.1
 74
0
 49
-0.05
 74
0
 49
0.1
 74
0
 49
-0.05
 74
0
  0
LTYPE
  5
1F8
100
AcDbSymbolTableRecord
100
AcDbLinetypeTableRecord
  2
DOT
 70
64
  3
. . . . . . . . . . . . . . . . . . . .
 72
65
 73
2
 40
0.2
 49
0.1
 74
0
 49
-0.1
 74
0
  0
LTYPE
  5
1F9
100
AcDbSymbolTableRecord
100
AcDbLinetypeTableRecord
  2
DASHED
 70
64
  3
- - - - - - - - - - - - - - - - - - - -
 72
65
 73
2
 40
0.2
 49
0.1
 74
0
 49
-0.1
 74
0
  0
ENDTAB
  0
TABLE
  2
LAYER
  5
2
100
AcDbSymbolTable
 70
36
  0
LAYER
  5
10
100
AcDbSymbolTableRecord
100
AcDbLayerTableRecord
  2
0
 70
0
 62
7
  6
CONTINUOUS
370
-3
390
F
  0
LAYER
  5
1FA
100
AcDbSymbolTableRecord
100
AcDbLayerTableRecord
  2
DEFAULT_1
 70
0
 62
7
  6
CENTER
370
-3
390
F
  0
LAYER
  5
1FB
100
AcDbSymbolTableRecord
100
AcDbLayerTableRecord
  2
DEFAULT_2
 70
0
 62
7
  6
HIDDEN
370
-3
390
F
  0
LAYER
  5
1FC
100
AcDbSymbolTableRecord
100
AcDbLayerTableRecord
  2
DEFAULT_3
 70
0
 62
7
  6
PHANTOM
370
-3
390
F
  0
LAYER
  5
1FD
100
AcDbSymbolTableRecord
100
AcDbLayerTableRecord
  2
00_COMPONENTS
 70
0
 62
7
  6
CONTINUOUS
370
-3
390
F
  0
LAYER
  5
1FE
100
AcDbSymbolTableRecord
100
AcDbLayerTableRecord
  2
01_1_DEFAULT_DATUMS
 70
0
 62
7
  6
CONTINUOUS
370
-3
390
F
  0
LAYER
  5
1FF
100
AcDbSymbolTableRecord
100
AcDbLayerTableRecord
  2
01_PLANES
 70
0
 62
7
  6
CONTINUOUS
370
-3
390
F
  0
LAYER
  5
200
100
AcDbSymbolTableRecord
100
AcDbLayerTableRecord
  2
02_COORD_SYS
 70
0
 62
7
  6
CONTINUOUS
370
-3
390
F
  0
LAYER
  5
201
100
AcDbSymbolTableRecord
100
AcDbLayerTableRecord
  2
03_AXES
 70
0
 62
7
  6
CONTINUOUS
370
-3
390
F
  0
LAYER
  5
202
100
AcDbSymbolTableRecord
100
AcDbLayerTableRecord
  2
04_POINTS
 70
0
 62
7
  6
CONTINUOUS
370
-3
390
F
  0
LAYER
  5
203
100
AcDbSymbolTableRecord
100
AcDbLayerTableRecord
  2
05_CURVES
 70
0
 62
7
  6
CONTINUOUS
370
-3
390
F
  0
LAYER
  5
204
100
AcDbSymbolTableRecord
100
AcDbLayerTableRecord
  2
06_SURFS
 70
0
 62
7
  6
CONTINUOUS
370
-3
390
F
  0
LAYER
  5
205
100
AcDbSymbolTableRecord
100
AcDbLayerTableRecord
  2
07_COSMETICS
 70
0
 62
7
  6
CONTINUOUS
370
-3
390
F
  0
LAYER
  5
206
100
AcDbSymbolTableRecord
100
AcDbLayerTableRecord
  2
10_NOTES
 70
0
 62
7
  6
CONTINUOUS
370
-3
390
F
  0
LAYER
  5
207
100
AcDbSymbolTableRecord
100
AcDbLayerTableRecord
  2
11_NOTES_PUB
 70
0
 62
7
  6
CONTINUOUS
370
-3
390
F
  0
LAYER
  5
208
100
AcDbSymbolTableRecord
100
AcDbLayerTableRecord
  2
13_REF_GTOL
 70
0
 62
7
  6
CONTINUOUS
370
-3
390
F
  0
LAYER
  5
209
100
AcDbSymbolTableRecord
100
AcDbLayerTableRecord
  2
16_MISC
 70
0
 62
7
  6
CONTINUOUS
370
-3
390
F
  0
LAYER
  5
20A
100
AcDbSymbolTableRecord
100
AcDbLayerTableRecord
  2
17_NO_PRINT
 70
0
 62
7
  6
CONTINUOUS
370
-3
390
F
  0
LAYER
  5
20B
100
AcDbSymbolTableRecord
100
AcDbLayerTableRecord
  2
18_DATUM_CAMS_JOINTS
 70
0
 62
7
  6
CONTINUOUS
370
-3
390
F
  0
LAYER
  5
20C
100
AcDbSymbolTableRecord
100
AcDbLayerTableRecord
  2
19_DATUM_FUNCTIONAL
 70
0
 62
7
  6
CONTINUOUS
370
-3
390
F
  0
LAYER
  5
20D
100
AcDbSymbolTableRecord
100
AcDbLayerTableRecord
  2
20_DATUM_KINEMATIC_SCHEME
 70
0
 62
7
  6
CONTINUOUS
370
-3
390
F
  0
ENDTAB
  0
TABLE
  2
STYLE
  5
3
100
AcDbSymbolTable
 70
1
  0
STYLE
  5
11
100
AcDbSymbolTableRecord
100
AcDbTextStyleTableRecord
  2
STANDARD
 70
0
 40
0.0
 41
1.0
 50
0.0
 71
0
 42
0.2
  3
ARIAL.TTF
  4

  0
STYLE
  5
20E
100
AcDbSymbolTableRecord
100
AcDbTextStyleTableRecord
  2
TEXTSTYLE_1
 70
0
 40
0.0
 41
0.8
 50
0.0
 71
0
 42
0.2
  3
gdt
  4

  0
ENDTAB
  0
TABLE
  2
VIEW
  5
6
100
AcDbSymbolTable
 70
0
  0
ENDTAB
  0
TABLE
  2
UCS
  5
7
100
AcDbSymbolTable
 70
0
  0
ENDTAB
  0
TABLE
  2
APPID
  5
9
100
AcDbSymbolTable
 70
1
  0
APPID
  5
20F
100
AcDbSymbolTableRecord
100
AcDbRegAppTableRecord
  2
ACAD
 70
0
  0
ENDTAB
  0
TABLE
  2
BLOCK_RECORD
  5
1
100
AcDbSymbolTable
 70
0
  0
BLOCK_RECORD
  5
210
100
AcDbSymbolTableRecord
100
AcDbBlockTableRecord
  2
*Model_Space
  0
BLOCK_RECORD
  5
211
100
AcDbSymbolTableRecord
100
AcDbBlockTableRecord
  2
*Paper_Space
  0
BLOCK_RECORD
  5
212
100
AcDbSymbolTableRecord
100
AcDbBlockTableRecord
  2
_FILLED
  0
ENDTAB
  0
TABLE
  2
DIMSTYLE
  5
A
100
AcDbSymbolTable
 70
1
100
AcDbDimStyleTable
 71
0
  0
DIMSTYLE
105
213
100
AcDbSymbolTableRecord
100
AcDbDimStyleTableRecord
  2
STANDARD
 70
0
  3

  4

 40
1.0
 41
1.3160692803
 42
1.0
 43
0.38
 44
1.0
 45
0.0
 46
0.0
 47
0.01
 48
0.01
140
1.8424969924
141
0.09
142
0.0
143
25.4
144
1.0
145
0.0
146
1.0
147
0.625
 71
1
 72
0
 73
0
 74
0
 75
0
 76
0
 77
1
 78
8
 79
2
170
0
171
1
172
0
173
0
174
0
175
0
176
0
177
0
178
0
270
2
179
2
271
2
272
2
273
2
274
2
275
0
280
0
281
0
282
0
283
1
284
8
285
0
286
0
287
3
288
0
340
11
278
46
341
212
342
212
343
212
344
212
  0
ENDTAB
  0
ENDSEC
  0
SECTION
  2
BLOCKS
  0
BLOCK
  5
20
100
AcDbEntity
  8
0
100
AcDbBlockBegin
  2
*Model_Space
 70
0
 10
0.0
 20
0.0
 30
0.0
  3
*Model_Space
  1

  0
ENDBLK
  5
21
100
AcDbEntity
  8
0
100
AcDbBlockEnd
  0
BLOCK
  5
1C
100
AcDbEntity
  8
0
100
AcDbBlockBegin
  2
*Paper_Space
 70
0
 10
0.0
 20
0.0
 30
0.0
  3
*Paper_Space
  1

  0
ENDBLK
  5
1D
100
AcDbEntity
  8
0
100
AcDbBlockEnd
  0
BLOCK
  5
214
100
AcDbEntity
  8
0
100
AcDbBlockBegin
  2
_FILLED
 70
64
 10
0.0
 20
0.0
  3
_FILLED
  1

  0
SOLID
  5
215
100
AcDbEntity
  8
0
  6
BYBLOCK
 62
0
100
AcDbTrace
 10
0.0
 20
0.0
 11
-1.0
 21
0.25
 12
-1.0
 22
-0.25
 13
-1.0
 23
-0.25
  0
ENDBLK
  5
216
100
AcDbEntity
  8
0
  6
BYBLOCK
 62
0
100
AcDbBlockEnd
  0
ENDSEC
  0
SECTION
  2
ENTITIES
  0
LINE
  5
217
100
AcDbEntity
  8
0
100
AcDbLine
 62
7
  6
BYLAYER
 10
12.3124160794
 20
60.7210910424
 11
12.3124160794
 21
68.7210910424
  0
LINE
  5
218
100
AcDbEntity
  8
0
100
AcDbLine
 62
7
  6
BYLAYER
 10
12.3124160794
 20
85.7210910424
 11
12.3124160794
 21
93.7210910424
  0
LINE
  5
219
100
AcDbEntity
  8
0
100
AcDbLine
 62
7
  6
BYLAYER
 10
17.3121346687
 20
68.7210910424
 11
17.3121346687
 21
85.7210910424
  0
LINE
  5
21A
100
AcDbEntity
  8
0
100
AcDbLine
 62
7
  6
BYLAYER
 10
19.0620361749
 20
90.8210910424
 11
19.0620361749
 21
93.7210910424
  0
LINE
  5
21B
100
AcDbEntity
  8
0
100
AcDbLine
 62
7
  6
BYLAYER
 10
19.1161445352
 20
93.7210910424
 11
19.1161445352
 21
90.8210910424
  0
LINE
  5
21C
100
AcDbEntity
  8
0
100
AcDbLine
 62
7
  6
BYLAYER
 10
19.66160455
 20
75.6210910424
 11
19.66160455
 21
90.8210910424
  0
LINE
  5
21D
100
AcDbEntity
  8
0
100
AcDbLine
 62
7
  6
BYLAYER
 10
19.7119995915
 20
75.6210910424
 11
19.7119995915
 21
60.7210910424
  0
LINE
  5
21E
100
AcDbEntity
  8
0
100
AcDbLine
 62
7
  6
BYLAYER
 10
19.7767174343
 20
60.7210910424
 11
19.7767174343
 21
75.6210910424
  0
LINE
  5
21F
100
AcDbEntity
  8
0
100
AcDbLine
 62
7
  6
BYLAYER
 10
19.8191954724
 20
90.8210910424
 11
19.8191954724
 21
92.5210910424
  0
LINE
  5
220
100
AcDbEntity
  8
0
100
AcDbLine
 62
7
  6
BYLAYER
 10
19.8901370611
 20
94.0210910424
 11
19.8901370611
 21
92.5210910424
  0
LINE
  5
221
100
AcDbEntity
  8
0
100
AcDbLine
 62
7
  6
BYLAYER
 10
20.2425906024
 20
59.2210910424
 11
20.2425906024
 21
75.6210910424
  0
LINE
  5
222
100
AcDbEntity
  8
0
100
AcDbLine
 62
7
  6
BYLAYER
 10
27.7482538838
 20
92.5210910424
 11
27.7482538838
 21
94.0210910424
  0
LINE
  5
223
100
AcDbEntity
  8
0
100
AcDbLine
 62
7
  6
BYLAYER
 10
27.8191954724
 20
92.5210910424
 11
27.8191954724
 21
90.8210910424
  0
LINE
  5
224
100
AcDbEntity
  8
0
100
AcDbLine
 62
7
  6
BYLAYER
 10
28.694822306
 20
95.8210910424
 11
28.5111064531
 21
93.7210910424
  0
LINE
  5
225
100
AcDbEntity
  8
0
100
AcDbLine
 62
7
  6
BYLAYER
 10
28.5111064531
 20
90.8210910424
 11
28.5111064531
 21
93.7210910424
  0
LINE
  5
226
100
AcDbEntity
  8
0
100
AcDbLine
 62
7
  6
BYLAYER
 10
29.1425906024
 20
59.2210910424
 11
29.1425906024
 21
59.5210910424
  0
LINE
  5
227
100
AcDbEntity
  8
0
100
AcDbLine
 62
7
  6
BYLAYER
 10
29.961024844
 20
76.8210910424
 11
29.961024844
 21
75.6210910424
  0
LINE
  5
228
100
AcDbEntity
  8
0
100
AcDbLine
 62
7
  6
BYLAYER
 10
33.2608391129
 20
96.1710910424
 11
32.6546554495
 21
95.8210910424
  0
LINE
  5
229
100
AcDbEntity
  8
0
100
AcDbLine
 62
7
  6
BYLAYER
 10
88.5425906024
 20
59.2210910424
 11
79.1425906024
 21
59.2210910424
  0
LINE
  5
22A
100
AcDbEntity
  8
0
100
AcDbLine
 62
7
  6
BYLAYER
 10
29.1425906024
 20
59.2210910424
 11
20.2425906024
 21
59.2210910424
  0
LINE
  5
22B
100
AcDbEntity
  8
0
100
AcDbLine
 62
7
  6
BYLAYER
 10
101.0425906024
 20
59.5210910424
 11
20.2425906024
 21
59.5210910424
  0
LINE
  5
22C
100
AcDbEntity
  8
0
100
AcDbLine
 62
7
  6
BYLAYER
 10
20.2425906024
 20
60.7210910424
 11
12.3124160794
 21
60.7210910424
  0
LINE
  5
22D
100
AcDbEntity
  8
0
100
AcDbLine
 62
7
  6
BYLAYER
 10
12.3124160794
 20
68.7210910424
 11
17.3121346687
 21
68.7210910424
  0
LINE
  5
22E
100
AcDbEntity
  8
0
100
AcDbLine
 62
7
  6
BYLAYER
 10
19.66160455
 20
75.6210910424
 11
79.6425906024
 21
75.6210910424
  0
LINE
  5
22F
100
AcDbEntity
  8
0
100
AcDbLine
 62
7
  6
BYLAYER
 10
88.5077295245
 20
75.6210910424
 11
101.1079486993
 21
75.6210910424
  0
LINE
  5
230
100
AcDbEntity
  8
0
100
AcDbLine
 62
7
  6
BYLAYER
 10
79.6425906024
 20
76.8210910424
 11
29.961024844
 21
76.8210910424
  0
LINE
  5
231
100
AcDbEntity
  8
0
100
AcDbLine
 62
7
  6
BYLAYER
 10
79.6425906024
 20
84.2210910424
 11
88.5077295245
 21
84.2210910424
  0
LINE
  5
232
100
AcDbEntity
  8
0
100
AcDbLine
 62
7
  6
BYLAYER
 10
88.5077295245
 20
85.2210910424
 11
81.8701288214
 21
85.2210910424
  0
LINE
  5
233
100
AcDbEntity
  8
0
100
AcDbLine
 62
7
  6
BYLAYER
 10
12.3124160794
 20
85.7210910424
 11
17.3121346687
 21
85.7210910424
  0
LINE
  5
234
100
AcDbEntity
  8
0
100
AcDbLine
 62
7
  6
BYLAYER
 10
100.8201134413
 20
87.2210910424
 11
101.0425906024
 21
87.2210910424
  0
LINE
  5
235
100
AcDbEntity
  8
0
100
AcDbLine
 62
7
  6
BYLAYER
 10
100.8254181825
 20
87.7210910424
 11
100.9395762133
 21
87.7210910424
  0
LINE
  5
236
100
AcDbEntity
  8
0
100
AcDbLine
 62
7
  6
BYLAYER
 10
19.0620361749
 20
90.8210910424
 11
28.5111064531
 21
90.8210910424
  0
LINE
  5
237
100
AcDbEntity
  8
0
100
AcDbLine
 62
7
  6
BYLAYER
 10
19.8191954724
 20
92.5210910424
 11
19.8901370611
 21
92.5210910424
  0
LINE
  5
238
100
AcDbEntity
  8
0
100
AcDbLine
 62
7
  6
BYLAYER
 10
27.7482538838
 20
92.5210910424
 11
27.8191954724
 21
92.5210910424
  0
LINE
  5
239
100
AcDbEntity
  8
0
100
AcDbLine
 62
7
  6
BYLAYER
 10
12.3124160794
 20
93.7210910424
 11
19.8901370611
 21
93.7210910424
  0
LINE
  5
23A
100
AcDbEntity
  8
0
100
AcDbLine
 62
7
  6
BYLAYER
 10
27.7482538838
 20
93.7210910424
 11
28.5111064531
 21
93.7210910424
  0
LINE
  5
23B
100
AcDbEntity
  8
0
100
AcDbLine
 62
7
  6
BYLAYER
 10
19.8901370611
 20
94.0210910424
 11
27.7482538838
 21
94.0210910424
  0
LINE
  5
23C
100
AcDbEntity
  8
0
100
AcDbLine
 62
7
  6
BYLAYER
 10
32.6546554495
 20
95.8210910424
 11
28.694822306
 21
95.8210910424
  0
LINE
  5
23D
100
AcDbEntity
  8
0
100
AcDbLine
 62
7
  6
BYLAYER
 10
74.8647152085
 20
95.8210910424
 11
101.1079486993
 21
95.8210910424
  0
LINE
  5
23E
100
AcDbEntity
  8
0
100
AcDbLine
 62
7
  6
BYLAYER
 10
33.2608391129
 20
96.1710910424
 11
74.7094345478
 21
96.1710910424
  0
LINE
  5
23F
100
AcDbEntity
  8
0
100
AcDbLine
 62
7
  6
BYLAYER
 10
79.0082642049
 20
76.8210910424
 11
79.0082642049
 21
95.8210910424
  0
LINE
  5
240
100
AcDbEntity
  8
0
100
AcDbLine
 62
7
  6
BYLAYER
 10
79.07457347
 20
95.8210910424
 11
79.07457347
 21
76.8210910424
  0
LINE
  5
241
100
AcDbEntity
  8
0
100
AcDbLine
 62
7
  6
BYLAYER
 10
79.1425906024
 20
59.5210910424
 11
79.1425906024
 21
59.2210910424
  0
LINE
  5
242
100
AcDbEntity
  8
0
100
AcDbLine
 62
7
  6
BYLAYER
 10
79.6425906024
 20
84.2210910424
 11
79.6425906024
 21
75.6210910424
  0
LINE
  5
243
100
AcDbEntity
  8
0
100
AcDbLine
 62
7
  6
BYLAYER
 10
81.8701288214
 20
84.2210910424
 11
81.8701288214
 21
85.2210910424
  0
LINE
  5
244
100
AcDbEntity
  8
0
100
AcDbLine
 62
7
  6
BYLAYER
 10
82.0949604958
 20
85.2210910424
 11
82.0949604958
 21
84.2210910424
  0
LINE
  5
245
100
AcDbEntity
  8
0
100
AcDbLine
 62
7
  6
BYLAYER
 10
82.1580869161
 20
76.8210910424
 11
82.1580869161
 21
75.6210910424
  0
LINE
  5
246
100
AcDbEntity
  8
0
100
AcDbLine
 62
7
  6
BYLAYER
 10
82.3425906024
 20
84.2210910424
 11
82.3425906024
 21
85.2210910424
  0
LINE
  5
247
100
AcDbEntity
  8
0
100
AcDbLine
 62
7
  6
BYLAYER
 10
74.8647152085
 20
95.8210910424
 11
74.2585315451
 21
96.1710910424
  0
LINE
  5
248
100
AcDbEntity
  8
0
100
AcDbLine
 62
7
  6
BYLAYER
 10
74.7094345478
 20
96.1710910424
 11
75.3156182112
 21
95.8210910424
  0
LINE
  5
249
100
AcDbEntity
  8
0
100
AcDbLine
 62
7
  6
BYLAYER
 10
88.5077295245
 20
75.6210910424
 11
88.5077295245
 21
95.8210910424
  0
LINE
  5
24A
100
AcDbEntity
  8
0
100
AcDbLine
 62
7
  6
BYLAYER
 10
88.5425906024
 20
59.2210910424
 11
88.5425906024
 21
59.5210910424
  0
LINE
  5
24B
100
AcDbEntity
  8
0
100
AcDbLine
 62
7
  6
BYLAYER
 10
100.9395762133
 20
87.7210910424
 11
100.9448919516
 21
87.2200545103
  0
LINE
  5
24C
100
AcDbEntity
  8
0
100
AcDbLine
 62
7
  6
BYLAYER
 10
101.0425906024
 20
78.0114383926
 11
101.0679509505
 21
75.6210910424
  0
LINE
  5
24D
100
AcDbEntity
  8
0
100
AcDbLine
 62
7
  6
BYLAYER
 10
100.6570456965
 20
75.6210910424
 11
100.6570456965
 21
95.8210910424
  0
LINE
  5
24E
100
AcDbEntity
  8
0
100
AcDbLine
 62
7
  6
BYLAYER
 10
101.0425906024
 20
87.2210910424
 11
101.0425906024
 21
59.5210910424
  0
LINE
  5
24F
100
AcDbEntity
  8
0
100
AcDbLine
 62
7
  6
BYLAYER
 10
101.1079486993
 20
75.6210910424
 11
101.1079486993
 21
95.8210910424
  0
LINE
  5
250
100
AcDbEntity
  8
0
100
AcDbLine
 62
7
  6
BYLAYER
 10
100.6970434452
 20
75.6210910424
 11
100.8254181825
 21
87.7210910424
  0
SPLINE
  5
251
100
AcDbEntity
  8
0
100
AcDbSpline
 62
7
  6
BYLAYER
 70
0
 71
3
 72
24
 73
20
 74
0
 42
0.0000001
 43
0.0000001
 44
0.0000000001
 40
0.0
 40
0.0
 40
0.0
 40
0.0
 40
0.0013095089
 40
0.0049481129
 40
0.0109704604
 40
0.0193794697
 40
0.0301504066
 40
0.0432503778
 40
0.0586458832
 40
0.0763031423
 40
0.1182587496
 40
0.1687092748
 40
0.2271466207
 40
0.2930464982
 40
0.3657542666
 40
0.4445413254
 40
0.6173477531
 40
0.8050478986
 40
1.0
 40
1.0
 40
1.0
 40
1.0
 10
19.7597422631
 20
63.5461327468
 30
0.0
 10
19.7590109532
 20
63.5461347998
 30
0.0
 10
19.7587816536
 20
63.5501811908
 30
0.0
 10
19.757663164
 20
63.5550192123
 30
0.0
 10
19.7570638653
 20
63.5657796187
 30
0.0
 10
19.7561459565
 20
63.5795222819
 30
0.0
 10
19.7553514616
 20
63.5976501785
 30
0.0
 10
19.7545123736
 20
63.6195206928
 30
0.0
 10
19.753698724
 20
63.6452969976
 30
0.0
 10
19.7525556181
 20
63.6871648079
 30
0.0
 10
19.7512152065
 20
63.7486206635
 30
0.0
 10
19.7497493716
 20
63.832847124
 30
0.0
 10
19.748371088
 20
63.9304506001
 30
0.0
 10
19.7470970286
 20
64.0404855664
 30
0.0
 10
19.7459398977
 20
64.1618871581
 30
0.0
 10
19.7445249533
 20
64.342992061
 30
0.0
 10
19.7431684909
 20
64.5883180683
 30
0.0
 10
19.7421913441
 20
64.8985200836
 30
0.0
 10
19.7419713794
 20
65.1122174306
 30
0.0
 10
19.7419713794
 20
65.2210910424
 30
0.0
  0
SPLINE
  5
252
100
AcDbEntity
  8
0
100
AcDbSpline
 62
7
  6
BYLAYER
 70
0
 71
3
 72
9
 73
5
 74
0
 42
0.0000001
 43
0.0000001
 44
0.0000000001
 40
0.0
 40
0.0
 40
0.0
 40
0.0
 40
0.341051732
 40
1.0
 40
1.0
 40
1.0
 40
1.0
 10
19.1045207259
 20
90.8210910424
 30
0.0
 10
19.1047797841
 20
90.8286544813
 30
0.0
 10
19.1056627598
 20
90.8508211652
 30
0.0
 10
19.1064638985
 20
90.8730241826
 30
0.0
 10
19.1079884115
 20
90.8875664297
 30
0.0
  0
SPLINE
  5
253
100
AcDbEntity
  8
0
100
AcDbSpline
 62
7
  6
BYLAYER
 70
0
 71
3
 72
9
 73
5
 74
0
 42
0.0000001
 43
0.0000001
 44
0.0000000001
 40
0.0
 40
0.0
 40
0.0
 40
0.0
 40
0.7371791104
 40
1.0
 40
1.0
 40
1.0
 40
1.0
 10
19.1079884115
 20
90.8875664297
 30
0.0
 10
19.1082121608
 20
90.8897007621
 30
0.0
 10
19.108818075
 20
90.8917202813
 30
0.0
 10
19.1090138073
 20
90.8960654975
 30
0.0
 10
19.1097788457
 20
90.8960552257
 30
0.0
  0
SPLINE
  5
254
100
AcDbEntity
  8
0
100
AcDbSpline
 62
7
  6
BYLAYER
 70
0
 71
3
 72
24
 73
20
 74
0
 42
0.0000001
 43
0.0000001
 44
0.0000000001
 40
0.0
 40
0.0
 40
0.0
 40
0.0
 40
0.1949521496
 40
0.3826523383
 40
0.5554588017
 40
0.6342458749
 40
0.7069536533
 40
0.7728535342
 40
0.831290878
 40
0.8817414014
 40
0.9236970132
 40
0.9413542758
 40
0.9567497817
 40
0.9698497475
 40
0.9806206697
 40
0.9890296519
 40
0.99505196
 40
0.998690522
 40
1.0
 40
1.0
 40
1.0
 40
1.0
 10
19.7419713794
 20
65.2210910424
 30
0.0
 10
19.7419713794
 20
65.3299646724
 30
0.0
 10
19.7421913442
 20
65.5436620536
 30
0.0
 10
19.7431684913
 20
65.8538641153
 30
0.0
 10
19.7445249541
 20
66.0991901553
 30
0.0
 10
19.7459398991
 20
66.2802950773
 30
0.0
 10
19.7470970303
 20
66.401696675
 30
0.0
 10
19.74837109
 20
66.511731639
 30
0.0
 10
19.7497493737
 20
66.6093351071
 30
0.0
 10
19.751215209
 20
66.6935615611
 30
0.0
 10
19.7525556215
 20
66.7550174154
 30
0.0
 10
19.7536987282
 20
66.7968852269
 30
0.0
 10
19.7545123786
 20
66.8226615296
 30
0.0
 10
19.7553514657
 20
66.8445320289
 30
0.0
 10
19.7561459632
 20
66.862659904
 30
0.0
 10
19.7570638626
 20
66.8764025053
 30
0.0
 10
19.7576631787
 20
66.8871628824
 30
0.0
 10
19.7587816295
 20
66.8920007914
 30
0.0
 10
19.7590109705
 20
66.8960471828
 30
0.0
 10
19.7597422631
 20
66.8960492003
 30
0.0
  0
SPLINE
  5
255
100
AcDbEntity
  8
0
100
AcDbSpline
 62
7
  6
BYLAYER
 70
0
 71
3
 72
14
 73
10
 74
0
 42
0.0000001
 43
0.0000001
 44
0.0000000001
 40
0.0
 40
0.0
 40
0.0
 40
0.0
 40
0.0182631438
 40
0.0662648783
 40
0.1451321148
 40
0.254921159
 40
0.3954916592
 40
0.5666608689
 40
1.0
 40
1.0
 40
1.0
 40
1.0
 10
19.1097788457
 20
90.8960552257
 30
0.0
 10
19.1102124087
 20
90.8960494045
 30
0.0
 10
19.1106243304
 20
90.8938982404
 30
0.0
 10
19.1112457238
 20
90.8910703126
 30
0.0
 10
19.11181965
 20
90.885164527
 30
0.0
 10
19.1124561387
 20
90.8775119292
 30
0.0
 10
19.1130784858
 20
90.8674696004
 30
0.0
 10
19.1139917092
 20
90.849829219
 30
0.0
 10
19.1145506056
 20
90.8354756434
 30
0.0
 10
19.1149151769
 20
90.8251938028
 30
0.0
  0
SPLINE
  5
256
100
AcDbEntity
  8
0
100
AcDbSpline
 62
7
  6
BYLAYER
 70
0
 71
3
 72
23
 73
19
 74
0
 42
0.0000001
 43
0.0000001
 44
0.0000000001
 40
0.0
 40
0.0
 40
0.0
 40
0.0
 40
0.2090019349
 40
0.4025569173
 40
0.5751973903
 40
0.6523557609
 40
0.7227481181
 40
0.7859569431
 40
0.8415979976
 40
0.8892877922
 40
0.9287013113
 40
0.9596352038
 40
0.971864087
 40
0.9819037266
 40
0.9897323552
 40
0.995339387
 40
0.9987362626
 40
1.0
 40
1.0
 40
1.0
 40
1.0
 10
19.7767174343
 20
64.7254853523
 30
0.0
 10
19.7764484499
 20
64.6432922967
 30
0.0
 10
19.7757865824
 20
64.4849813412
 30
0.0
 10
19.7743764304
 20
64.2587796022
 30
0.0
 10
19.7728593512
 20
64.0844296702
 30
0.0
 10
19.7714483336
 20
63.9585169405
 30
0.0
 10
19.7703576802
 20
63.8756394595
 30
0.0
 10
19.7692034964
 20
63.8012252956
 30
0.0
 10
19.7679944309
 20
63.7357429575
 30
0.0
 10
19.7667423607
 20
63.6796168068
 30
0.0
 10
19.7654513106
 20
63.6332236541
 30
0.0
 10
19.7642977035
 20
63.6007476472
 30
0.0
 10
19.7633113829
 20
63.5798804658
 30
0.0
 10
19.7626442883
 20
63.5679941934
 30
0.0
 10
19.7619450364
 20
63.5589653106
 30
0.0
 10
19.7613507573
 20
63.5519694859
 30
0.0
 10
19.7606324881
 20
63.5487039787
 30
0.0
 10
19.760239247
 20
63.5461313516
 30
0.0
 10
19.7597422631
 20
63.5461327468
 30
0.0
  0
SPLINE
  5
257
100
AcDbEntity
  8
0
100
AcDbSpline
 62
7
  6
BYLAYER
 70
0
 71
3
 72
23
 73
19
 74
0
 42
0.0000001
 43
0.0000001
 44
0.0000000001
 40
0.0
 40
0.0
 40
0.0
 40
0.0
 40
0.0012637525
 40
0.0046606165
 40
0.0102675989
 40
0.0180961336
 40
0.0281356515
 40
0.0403644176
 40
0.0712982189
 40
0.1107120539
 40
0.1584027361
 40
0.2140446545
 40
0.277253359
 40
0.347643654
 40
0.4247983521
 40
0.5974397817
 40
0.7910188769
 40
1.0
 40
1.0
 40
1.0
 40
1.0
 10
19.7597422631
 20
66.8960492003
 30
0.0
 10
19.7602392529
 20
66.8960505714
 30
0.0
 10
19.7606324742
 20
66.8934779853
 30
0.0
 10
19.7613507631
 20
66.8902124516
 30
0.0
 10
19.7619450357
 20
66.8832167176
 30
0.0
 10
19.7626442972
 20
66.8741879276
 30
0.0
 10
19.7633113965
 20
66.8623017931
 30
0.0
 10
19.7642977282
 20
66.8414347424
 30
0.0
 10
19.7654513416
 20
66.8089586984
 30
0.0
 10
19.7667423795
 20
66.7625651128
 30
0.0
 10
19.7679943978
 20
66.7064381544
 30
0.0
 10
19.769203416
 20
66.6409551816
 30
0.0
 10
19.770357595
 20
66.5665415453
 30
0.0
 10
19.7714483415
 20
66.4836663783
 30
0.0
 10
19.7728596573
 20
66.3577555461
 30
0.0
 10
19.774376929
 20
66.1833972202
 30
0.0
 10
19.7757852484
 20
65.9571938216
 30
0.0
 10
19.7764473481
 20
65.7988815901
 30
0.0
 10
19.7767174343
 20
65.7166967324
 30
0.0
  0
ENDSEC
  0
SECTION
  2
OBJECTS
  0
DICTIONARY
  5
C
100
AcDbDictionary
280
0
281
1
  3
ACAD_GROUP
350
D
  3
ACAD_MLINESTYLE
350
17
  3
ACAD_LAYOUT
350
1A
  3
ACAD_PLOTSETTINGS
350
19
  3
ACAD_PLOTSTYLENAME
350
E
  0
DICTIONARY
  5
D
102
{ACAD_REACTORS
330
C
102
}
100
AcDbDictionary
280
0
281
1
  0
ACDBDICTIONARYWDFLT
  5
E
102
{ACAD_REACTORS
330
C
102
}
100
AcDbDictionary
281
1
  3
Normal
350
F
100
AcDbDictionaryWithDefault
340
F
  0
DICTIONARY
  5
17
102
{ACAD_REACTORS
330
C
102
}
100
AcDbDictionary
280
0
281
1
  3
Standard
350
18
  0
DICTIONARY
  5
19
102
{ACAD_REACTORS
330
C
102
}
100
AcDbDictionary
281
1
  0
DICTIONARY
  5
1A
102
{ACAD_REACTORS
330
C
102
}
100
AcDbDictionary
281
1
  3
Model
350
258
  3
Layout1
350
259
  0
ACDBPLACEHOLDER
  5
F
102
{ACAD_REACTORS
330
E
102
}
  0
MLINESTYLE
  5
18
102
{ACAD_REACTORS
330
17
102
}
100
AcDbMlineStyle
  2
STANDARD
 70
0
  3

 62
256
 51
90.0
 52
90.0
 71
2
 49
0.5
 62
256
  6
BYLAYER
 49
-0.5
 62
256
  6
BYLAYER
  0
LAYOUT
  5
258
102
{ACAD_REACTORS
330
1A
102
}
100
AcDbPlotSettings
  1

  2
none_device
  4

  6

 40
0.0
 41
0.0
 42
0.0
 43
0.0
 44
210.0
 45
297.0
 46
0.0
 47
0.0
 48
0.0
 49
0.0
140
0.0
141
0.0
142
1.0
143
1.0
 70
1024
 72
1
 73
0
 74
0
  7

 75
0
147
1.0
148
0.0
149
0.0
100
AcDbLayout
  1
Model
 70
0
 71
0
 10
0.0
 20
0.0
 11
210.0
 21
297.0
 12
0.0
 22
0.0
 32
0.0
 14
0.0
 24
0.0
 34
0.0
 15
0.0
 25
0.0
 35
0.0
146
0.0
 13
0.0
 23
0.0
 33
0.0
 16
1.0
 26
0.0
 36
0.0
 17
0.0
 27
1.0
 37
0.0
 76
0
330
210
345
0
346
0
  0
LAYOUT
  5
259
102
{ACAD_REACTORS
330
1A
102
}
100
AcDbPlotSettings
  1

  2
none_device
  4

  6

 40
0.0
 41
0.0
 42
0.0
 43
0.0
 44
210.0
 45
297.0
 46
0.0
 47
0.0
 48
0.0
 49
0.0
140
0.0
141
0.0
142
1.0
143
1.0
 70
0
 72
1
 73
0
 74
0
  7

 75
0
147
1.0
148
0.0
149
0.0
100
AcDbLayout
  1
Layout1
 70
0
 71
1
 10
0.0
 20
0.0
 11
210.0
 21
297.0
 12
0.0
 22
0.0
 32
0.0
 14
0.0
 24
0.0
 34
0.0
 15
0.0
 25
0.0
 35
0.0
146
0.0
 13
0.0
 23
0.0
 33
0.0
 16
1.0
 26
0.0
 36
0.0
 17
0.0
 27
1.0
 37
0.0
 76
0
330
211
345
0
346
0
  0
ENDSEC
  0
EOF
