999
DXF file: C:\Users\sesa63760\Dev\_Creo\CAD\MCADID0003610_3D-CAD\drw0001_6.dxf
999
Pro/ENGINEER 2019471 by Parametric Technology Corporation
  0
SECTION
  2
HEADER
  9
$ACADVER
  1
AC1024
  9
$DWGCODEPAGE
  3
ANSI_1252
  9
$EXTMAX
 10
86.038359264
 20
121.6828223876
 30
0.0
  9
$EXTMIN
 10
0.0
 20
0.0
 30
0.0
  9
$LIMMIN
 10
0.0
 20
0.0
  9
$LIMMAX
 10
86.038359264
 20
121.6828223876
  9
$VIEWCTR
 10
43.019179632
 20
60.8414111938
  9
$VIEWSIZE
 40
121.6828223876
  9
$CLAYER
  8
0
  9
$LTSCALE
 40
7.9319173112
  9
$CELTYPE
  6
BYLAYER
  9
$DIMSCALE
 40
1.0
  9
$DIMASZ
 40
1.0242661817
  9
$DIMEXO
 40
1.0
  9
$DIMDLI
 40
5.4802337786
  9
$DIMEXE
 40
1.0
  9
$DIMCEN
 40
1.2979501055
  9
$DIMLFAC
 40
1.0
  9
$DIMBLK
  1
_FILLED
  9
$DIMALT
 70
0
  9
$DIMALTF
 40
0.0393700787
  9
$DIMTXT
 40
1.4339726544
  9
$DIMTOL
 70
1
  9
$DIMLIM
 70
0
  9
$DIMTFAC
 40
1.0
  9
$DIMTP
 40
0.01
  9
$DIMTM
 40
0.01
  9
$DIMGAP
 40
0.625
  9
$DIMDSEP
 70
46
  9
$AUNITS
 70
0
  9
$PDMODE
 70
3
  9
$PDSIZE
 40
0.3125
  9
$HANDSEED
  5
244
  9
$TILEMODE
 70
1
  9
$MEASUREMENT
 70
1
  9
$INSUNITS
 70
4
  0
ENDSEC
  0
SECTION
  2
CLASSES
  0
CLASS
  1
ACDBDICTIONARYWDFLT
  2
AcDbDictionaryWithDefault
  3
AutoCAD 2000
 90
0
 91
1
280
0
281
0
  0
CLASS
  1
ACDBPLACEHOLDER
  2
AcDbPlaceHolder
  3
AutoCAD 2000
 90
0
 91
1
280
0
281
0
  0
CLASS
  1
LAYOUT
  2
AcDbLayout
  3
AutoCAD 2000
 90
0
 91
0
280
0
281
0
  0
ENDSEC
  0
SECTION
  2
TABLES
  0
TABLE
  2
VPORT
  5
8
100
AcDbSymbolTable
 70
2
  0
VPORT
  5
1F4
100
AcDbSymbolTableRecord
100
AcDbViewportTableRecord
  2
*ACTIVE
 70
0
 10
0.0
 20
0.0
 11
1.0
 21
1.0
 12
43.019179632
 22
60.8414111938
 13
0.0
 23
0.0
 14
1.0
 24
1.0
 15
0.0
 25
0.0
 16
0.0
 26
0.0
 36
1.0
 17
0.0
 27
0.0
 37
0.0
 40
121.6828223876
 41
0.7070707071
 42
50.0
 43
0.0
 44
0.0
 50
0.0
 51
0.0
 71
0
 72
100
 73
1
 74
1
 75
0
 76
0
 77
0
 78
0
  0
ENDTAB
  0
TABLE
  2
LTYPE
  5
5
100
AcDbSymbolTable
 70
6
  0
LTYPE
  5
14
100
AcDbSymbolTableRecord
100
AcDbLinetypeTableRecord
  2
BYBLOCK
 70
0
  3

 72
65
 73
0
 40
0.0
  0
LTYPE
  5
15
100
AcDbSymbolTableRecord
100
AcDbLinetypeTableRecord
  2
BYLAYER
 70
0
  3

 72
65
 73
0
 40
0.0
  0
LTYPE
  5
16
100
AcDbSymbolTableRecord
100
AcDbLinetypeTableRecord
  2
CONTINUOUS
 70
64
  3
Solid line
 72
65
 73
0
 40
0.0
  0
LTYPE
  5
1F5
100
AcDbSymbolTableRecord
100
AcDbLinetypeTableRecord
  2
CENTER
 70
64
  3
____ _ ____ _ ____ _ ____ _ ____ _ ____ _ ____
 72
65
 73
4
 40
0.6
 49
0.375
 74
0
 49
-0.075
 74
0
 49
0.075
 74
0
 49
-0.075
 74
0
  0
LTYPE
  5
1F6
100
AcDbSymbolTableRecord
100
AcDbLinetypeTableRecord
  2
HIDDEN
 70
64
  3
- - - - - - - - - - - - - - - - - - - -
 72
65
 73
2
 40
0.2
 49
0.1
 74
0
 49
-0.1
 74
0
  0
LTYPE
  5
1F7
100
AcDbSymbolTableRecord
100
AcDbLinetypeTableRecord
  2
PHANTOM
 70
64
  3
_____ _ _ _____ _ _ _____ _ _ _____
 72
65
 73
6
 40
0.8
 49
0.45
 74
0
 49
-0.05
 74
0
 49
0.1
 74
0
 49
-0.05
 74
0
 49
0.1
 74
0
 49
-0.05
 74
0
  0
LTYPE
  5
1F8
100
AcDbSymbolTableRecord
100
AcDbLinetypeTableRecord
  2
DOT
 70
64
  3
. . . . . . . . . . . . . . . . . . . .
 72
65
 73
2
 40
0.2
 49
0.1
 74
0
 49
-0.1
 74
0
  0
LTYPE
  5
1F9
100
AcDbSymbolTableRecord
100
AcDbLinetypeTableRecord
  2
DASHED
 70
64
  3
- - - - - - - - - - - - - - - - - - - -
 72
65
 73
2
 40
0.2
 49
0.1
 74
0
 49
-0.1
 74
0
  0
ENDTAB
  0
TABLE
  2
LAYER
  5
2
100
AcDbSymbolTable
 70
36
  0
LAYER
  5
10
100
AcDbSymbolTableRecord
100
AcDbLayerTableRecord
  2
0
 70
0
 62
7
  6
CONTINUOUS
370
-3
390
F
  0
LAYER
  5
1FA
100
AcDbSymbolTableRecord
100
AcDbLayerTableRecord
  2
DEFAULT_1
 70
0
 62
7
  6
CENTER
370
-3
390
F
  0
LAYER
  5
1FB
100
AcDbSymbolTableRecord
100
AcDbLayerTableRecord
  2
DEFAULT_2
 70
0
 62
7
  6
HIDDEN
370
-3
390
F
  0
LAYER
  5
1FC
100
AcDbSymbolTableRecord
100
AcDbLayerTableRecord
  2
DEFAULT_3
 70
0
 62
7
  6
PHANTOM
370
-3
390
F
  0
LAYER
  5
1FD
100
AcDbSymbolTableRecord
100
AcDbLayerTableRecord
  2
00_COMPONENTS
 70
0
 62
7
  6
CONTINUOUS
370
-3
390
F
  0
LAYER
  5
1FE
100
AcDbSymbolTableRecord
100
AcDbLayerTableRecord
  2
01_1_DEFAULT_DATUMS
 70
0
 62
7
  6
CONTINUOUS
370
-3
390
F
  0
LAYER
  5
1FF
100
AcDbSymbolTableRecord
100
AcDbLayerTableRecord
  2
01_PLANES
 70
0
 62
7
  6
CONTINUOUS
370
-3
390
F
  0
LAYER
  5
200
100
AcDbSymbolTableRecord
100
AcDbLayerTableRecord
  2
02_COORD_SYS
 70
0
 62
7
  6
CONTINUOUS
370
-3
390
F
  0
LAYER
  5
201
100
AcDbSymbolTableRecord
100
AcDbLayerTableRecord
  2
03_AXES
 70
0
 62
7
  6
CONTINUOUS
370
-3
390
F
  0
LAYER
  5
202
100
AcDbSymbolTableRecord
100
AcDbLayerTableRecord
  2
04_POINTS
 70
0
 62
7
  6
CONTINUOUS
370
-3
390
F
  0
LAYER
  5
203
100
AcDbSymbolTableRecord
100
AcDbLayerTableRecord
  2
05_CURVES
 70
0
 62
7
  6
CONTINUOUS
370
-3
390
F
  0
LAYER
  5
204
100
AcDbSymbolTableRecord
100
AcDbLayerTableRecord
  2
06_SURFS
 70
0
 62
7
  6
CONTINUOUS
370
-3
390
F
  0
LAYER
  5
205
100
AcDbSymbolTableRecord
100
AcDbLayerTableRecord
  2
07_COSMETICS
 70
0
 62
7
  6
CONTINUOUS
370
-3
390
F
  0
LAYER
  5
206
100
AcDbSymbolTableRecord
100
AcDbLayerTableRecord
  2
10_NOTES
 70
0
 62
7
  6
CONTINUOUS
370
-3
390
F
  0
LAYER
  5
207
100
AcDbSymbolTableRecord
100
AcDbLayerTableRecord
  2
11_NOTES_PUB
 70
0
 62
7
  6
CONTINUOUS
370
-3
390
F
  0
LAYER
  5
208
100
AcDbSymbolTableRecord
100
AcDbLayerTableRecord
  2
13_REF_GTOL
 70
0
 62
7
  6
CONTINUOUS
370
-3
390
F
  0
LAYER
  5
209
100
AcDbSymbolTableRecord
100
AcDbLayerTableRecord
  2
16_MISC
 70
0
 62
7
  6
CONTINUOUS
370
-3
390
F
  0
LAYER
  5
20A
100
AcDbSymbolTableRecord
100
AcDbLayerTableRecord
  2
17_NO_PRINT
 70
0
 62
7
  6
CONTINUOUS
370
-3
390
F
  0
LAYER
  5
20B
100
AcDbSymbolTableRecord
100
AcDbLayerTableRecord
  2
18_DATUM_CAMS_JOINTS
 70
0
 62
7
  6
CONTINUOUS
370
-3
390
F
  0
LAYER
  5
20C
100
AcDbSymbolTableRecord
100
AcDbLayerTableRecord
  2
19_DATUM_FUNCTIONAL
 70
0
 62
7
  6
CONTINUOUS
370
-3
390
F
  0
LAYER
  5
20D
100
AcDbSymbolTableRecord
100
AcDbLayerTableRecord
  2
20_DATUM_KINEMATIC_SCHEME
 70
0
 62
7
  6
CONTINUOUS
370
-3
390
F
  0
ENDTAB
  0
TABLE
  2
STYLE
  5
3
100
AcDbSymbolTable
 70
1
  0
STYLE
  5
11
100
AcDbSymbolTableRecord
100
AcDbTextStyleTableRecord
  2
STANDARD
 70
0
 40
0.0
 41
1.0
 50
0.0
 71
0
 42
0.2
  3
ARIAL.TTF
  4

  0
STYLE
  5
20E
100
AcDbSymbolTableRecord
100
AcDbTextStyleTableRecord
  2
TEXTSTYLE_1
 70
0
 40
0.0
 41
0.8
 50
0.0
 71
0
 42
0.2
  3
gdt
  4

  0
ENDTAB
  0
TABLE
  2
VIEW
  5
6
100
AcDbSymbolTable
 70
0
  0
ENDTAB
  0
TABLE
  2
UCS
  5
7
100
AcDbSymbolTable
 70
0
  0
ENDTAB
  0
TABLE
  2
APPID
  5
9
100
AcDbSymbolTable
 70
1
  0
APPID
  5
20F
100
AcDbSymbolTableRecord
100
AcDbRegAppTableRecord
  2
ACAD
 70
0
  0
ENDTAB
  0
TABLE
  2
BLOCK_RECORD
  5
1
100
AcDbSymbolTable
 70
0
  0
BLOCK_RECORD
  5
210
100
AcDbSymbolTableRecord
100
AcDbBlockTableRecord
  2
*Model_Space
  0
BLOCK_RECORD
  5
211
100
AcDbSymbolTableRecord
100
AcDbBlockTableRecord
  2
*Paper_Space
  0
BLOCK_RECORD
  5
212
100
AcDbSymbolTableRecord
100
AcDbBlockTableRecord
  2
_FILLED
  0
ENDTAB
  0
TABLE
  2
DIMSTYLE
  5
A
100
AcDbSymbolTable
 70
1
100
AcDbDimStyleTable
 71
0
  0
DIMSTYLE
105
213
100
AcDbSymbolTableRecord
100
AcDbDimStyleTableRecord
  2
STANDARD
 70
0
  3

  4

 40
1.0
 41
1.0242661817
 42
1.0
 43
0.38
 44
1.0
 45
0.0
 46
0.0
 47
0.01
 48
0.01
140
1.4339726544
141
0.09
142
0.0
143
25.4
144
1.0
145
0.0
146
1.0
147
0.625
 71
1
 72
0
 73
0
 74
0
 75
0
 76
0
 77
1
 78
8
 79
2
170
0
171
1
172
0
173
0
174
0
175
0
176
0
177
0
178
0
270
2
179
2
271
2
272
2
273
2
274
2
275
0
280
0
281
0
282
0
283
1
284
8
285
0
286
0
287
3
288
0
340
11
278
46
341
212
342
212
343
212
344
212
  0
ENDTAB
  0
ENDSEC
  0
SECTION
  2
BLOCKS
  0
BLOCK
  5
20
100
AcDbEntity
  8
0
100
AcDbBlockBegin
  2
*Model_Space
 70
0
 10
0.0
 20
0.0
 30
0.0
  3
*Model_Space
  1

  0
ENDBLK
  5
21
100
AcDbEntity
  8
0
100
AcDbBlockEnd
  0
BLOCK
  5
1C
100
AcDbEntity
  8
0
100
AcDbBlockBegin
  2
*Paper_Space
 70
0
 10
0.0
 20
0.0
 30
0.0
  3
*Paper_Space
  1

  0
ENDBLK
  5
1D
100
AcDbEntity
  8
0
100
AcDbBlockEnd
  0
BLOCK
  5
214
100
AcDbEntity
  8
0
100
AcDbBlockBegin
  2
_FILLED
 70
64
 10
0.0
 20
0.0
  3
_FILLED
  1

  0
SOLID
  5
215
100
AcDbEntity
  8
0
  6
BYBLOCK
 62
0
100
AcDbTrace
 10
0.0
 20
0.0
 11
-1.0
 21
0.25
 12
-1.0
 22
-0.25
 13
-1.0
 23
-0.25
  0
ENDBLK
  5
216
100
AcDbEntity
  8
0
  6
BYBLOCK
 62
0
100
AcDbBlockEnd
  0
ENDSEC
  0
SECTION
  2
ENTITIES
  0
LINE
  5
217
100
AcDbEntity
  8
0
100
AcDbLine
 62
7
  6
BYLAYER
 10
48.4574414881
 20
10.0533543588
 11
51.7503347069
 21
10.0533543588
  0
LINE
  5
218
100
AcDbEntity
  8
0
100
AcDbLine
 62
7
  6
BYLAYER
 10
51.7503347069
 20
12.0533543588
 11
48.2503347069
 21
12.0533543588
  0
LINE
  5
219
100
AcDbEntity
  8
0
100
AcDbLine
 62
7
  6
BYLAYER
 10
46.7503347069
 20
20.5533543588
 11
39.2503347069
 21
20.5533543588
  0
LINE
  5
21A
100
AcDbEntity
  8
0
100
AcDbLine
 62
7
  6
BYLAYER
 10
37.8967813163
 20
20.4069077494
 11
48.1038880975
 21
10.1998009682
  0
LINE
  5
21B
100
AcDbEntity
  8
0
100
AcDbLine
 62
7
  6
BYLAYER
 10
48.1038880975
 20
97.9069077494
 11
47.6332782086
 21
97.4362978605
  0
LINE
  5
21C
100
AcDbEntity
  8
0
100
AcDbLine
 62
7
  6
BYLAYER
 10
41.9778792938
 20
91.7808989457
 11
37.8967813163
 21
87.6998009682
  0
LINE
  5
21D
100
AcDbEntity
  8
0
100
AcDbLine
 62
7
  6
BYLAYER
 10
37.7503347069
 20
87.3462475776
 11
37.7503347069
 21
20.76046114
  0
LINE
  5
21E
100
AcDbEntity
  8
0
100
AcDbLine
 62
7
  6
BYLAYER
 10
42.2443797325
 20
87.5533543588
 11
41.5655821694
 21
98.3212426871
  0
LINE
  5
21F
100
AcDbEntity
  8
0
100
AcDbLine
 62
7
  6
BYLAYER
 10
48.1785901839
 20
88.7859155192
 11
47.5536958149
 21
98.6987277451
  0
LINE
  5
220
100
AcDbEntity
  8
0
100
AcDbLine
 62
7
  6
BYLAYER
 10
48.2503347069
 20
11.5533543588
 11
48.2503347069
 21
19.0533543588
  0
LINE
  5
221
100
AcDbEntity
  8
0
100
AcDbLine
 62
7
  6
BYLAYER
 10
48.2503347069
 20
89.0533543588
 11
48.2503347069
 21
96.5533543588
  0
LINE
  5
222
100
AcDbEntity
  8
0
100
AcDbLine
 62
7
  6
BYLAYER
 10
51.7503347069
 20
10.0533543588
 11
51.7503347069
 21
98.0533543588
  0
LINE
  5
223
100
AcDbEntity
  8
0
100
AcDbLine
 62
7
  6
BYLAYER
 10
39.2503347069
 20
87.5533543588
 11
46.7503347069
 21
87.5533543588
  0
LINE
  5
224
100
AcDbEntity
  8
0
100
AcDbLine
 62
7
  6
BYLAYER
 10
48.2503347069
 20
96.0533543588
 11
51.7503347069
 21
96.0533543588
  0
LINE
  5
225
100
AcDbEntity
  8
0
100
AcDbLine
 62
7
  6
BYLAYER
 10
48.4574414881
 20
98.0533543588
 11
51.7503347069
 21
98.0533543588
  0
LINE
  5
226
100
AcDbEntity
  8
0
100
AcDbLine
 62
7
  6
BYLAYER
 10
36.9628148346
 20
106.7395231825
 11
37.2563859792
 21
106.704079184
  0
LINE
  5
227
100
AcDbEntity
  8
0
100
AcDbLine
 62
7
  6
BYLAYER
 10
38.1599600422
 20
111.5940240303
 11
37.8663888976
 21
111.6294680288
  0
ARC
  5
228
100
AcDbEntity
  8
0
100
AcDbCircle
 62
7
  6
BYLAYER
 10
42.3163284699
 20
106.0928841224
 40
7.8477300712
100
AcDbArc
 50
267.9576915775
 51
268.3104533152
  0
ARC
  5
229
100
AcDbEntity
  8
0
100
AcDbCircle
 62
7
  6
BYLAYER
 10
36.0282568106
 20
102.9563462102
 40
3.8968663834
100
AcDbArc
 50
72.1399058197
 51
76.1240288173
  0
ARC
  5
22A
100
AcDbEntity
  8
0
100
AcDbCircle
 62
7
  6
BYLAYER
 10
44.7503347069
 20
20.5533543588
 40
1.5
100
AcDbArc
 50
180.0
 51
360.0
  0
ARC
  5
22B
100
AcDbEntity
  8
0
100
AcDbCircle
 62
7
  6
BYLAYER
 10
39.2503347069
 20
22.0533543588
 40
1.5
100
AcDbArc
 50
180.0
 51
270.0
  0
ARC
  5
22C
100
AcDbEntity
  8
0
100
AcDbCircle
 62
7
  6
BYLAYER
 10
39.2503347069
 20
86.0533543588
 40
1.5
100
AcDbArc
 50
90.0
 51
180.0
  0
ARC
  5
22D
100
AcDbEntity
  8
0
100
AcDbCircle
 62
7
  6
BYLAYER
 10
46.7503347069
 20
89.0533543588
 40
1.5
100
AcDbArc
 50
270.0
 51
360.0
  0
ARC
  5
22E
100
AcDbEntity
  8
0
100
AcDbCircle
 62
7
  6
BYLAYER
 10
46.7503347069
 20
19.0533543588
 40
1.5
100
AcDbArc
 50
0.0
 51
90.0
  0
ARC
  5
22F
100
AcDbEntity
  8
0
100
AcDbCircle
 62
7
  6
BYLAYER
 10
49.7503347069
 20
96.5533543588
 40
1.5
100
AcDbArc
 50
90.0
 51
180.0
  0
ARC
  5
230
100
AcDbEntity
  8
0
100
AcDbCircle
 62
7
  6
BYLAYER
 10
49.7503347069
 20
11.5533543588
 40
1.5
100
AcDbArc
 50
180.0
 51
270.0
  0
ARC
  5
231
100
AcDbEntity
  8
0
100
AcDbCircle
 62
7
  6
BYLAYER
 10
38.2503347069
 20
87.3462475776
 40
0.5
100
AcDbArc
 50
135.0
 51
180.0
  0
ARC
  5
232
100
AcDbEntity
  8
0
100
AcDbCircle
 62
7
  6
BYLAYER
 10
48.4574414881
 20
97.5533543588
 40
0.5
100
AcDbArc
 50
90.0
 51
135.0
  0
ARC
  5
233
100
AcDbEntity
  8
0
100
AcDbCircle
 62
7
  6
BYLAYER
 10
38.2503347069
 20
20.76046114
 40
0.5
100
AcDbArc
 50
180.0
 51
225.0
  0
ARC
  5
234
100
AcDbEntity
  8
0
100
AcDbCircle
 62
7
  6
BYLAYER
 10
48.4574414881
 20
10.5533543588
 40
0.5
100
AcDbArc
 50
225.0
 51
270.0
  0
SPLINE
  5
235
100
AcDbEntity
  8
0
100
AcDbSpline
 62
7
  6
BYLAYER
 70
0
 71
3
 72
15
 73
11
 74
0
 42
0.0000001
 43
0.0000001
 44
0.0000000001
 40
0.0
 40
0.0
 40
0.0
 40
0.0
 40
0.4169535931
 40
0.5842514731
 40
0.7230855157
 40
0.8331657841
 40
0.9145290905
 40
0.9447194929
 40
0.9683616774
 40
1.0
 40
1.0
 40
1.0
 40
1.0
 10
42.0137712031
 20
98.4492656018
 30
0.0
 10
41.9487676604
 20
98.4385746209
 30
0.0
 10
41.8578330613
 20
98.4224998973
 30
0.0
 10
41.7461896864
 20
98.3981928502
 30
0.0
 10
41.6824392674
 20
98.3819852729
 30
0.0
 10
41.6325874963
 20
98.3664350439
 30
0.0
 10
41.6000257966
 20
98.3534381195
 30
0.0
 10
41.5814077121
 20
98.3426356153
 30
0.0
 10
41.5708441519
 20
98.3346198791
 30
0.0
 10
41.5653084226
 20
98.3262340669
 30
0.0
 10
41.5656214282
 20
98.3212451602
 30
0.0
  0
SPLINE
  5
236
100
AcDbEntity
  8
0
100
AcDbSpline
 62
7
  6
BYLAYER
 70
0
 71
3
 72
15
 73
11
 74
0
 42
0.0000001
 43
0.0000001
 44
0.0000000001
 40
0.0
 40
0.0
 40
0.0
 40
0.0
 40
0.0313811475
 40
0.054963487
 40
0.0851326458
 40
0.1664931033
 40
0.2766113673
 40
0.4155382412
 40
0.5829512294
 40
1.0
 40
1.0
 40
1.0
 40
1.0
 10
47.5536565561
 20
98.6987252719
 30
0.0
 10
47.5533387359
 20
98.7037909174
 30
0.0
 10
47.5466023389
 20
98.7115172491
 30
0.0
 10
47.5348562303
 20
98.7181937107
 30
0.0
 10
47.5145238359
 20
98.7266607822
 30
0.0
 10
47.4797529042
 20
98.7355425792
 30
0.0
 10
47.4270754455
 20
98.7447764914
 30
0.0
 10
47.3601885959
 20
98.7528824053
 30
0.0
 10
47.2436088456
 20
98.7629788037
 30
0.0
 10
47.1491488977
 20
98.7674647669
 30
0.0
 10
47.0817378208
 20
98.7698629085
 30
0.0
  0
SPLINE
  5
237
100
AcDbEntity
  8
0
100
AcDbSpline
 62
7
  6
BYLAYER
 70
0
 71
3
 72
15
 73
11
 74
0
 42
0.0000001
 43
0.0000001
 44
0.0000000001
 40
0.0
 40
0.0
 40
0.0
 40
0.0
 40
0.1364483671
 40
0.2707372545
 40
0.4017714484
 40
0.5288453904
 40
0.6517282583
 40
0.7706957433
 40
0.8864610102
 40
1.0
 40
1.0
 40
1.0
 40
1.0
 10
47.0544267334
 20
98.6672910128
 30
0.0
 10
47.0026493231
 20
99.4261834982
 30
0.0
 10
46.8109404145
 20
100.9275216887
 30
0.0
 10
46.2586858639
 20
103.1038103488
 30
0.0
 10
45.4521846232
 20
105.1441408432
 30
0.0
 10
44.4039854844
 20
106.9997834616
 30
0.0
 10
43.1294288058
 20
108.6247924714
 30
0.0
 10
41.647363101
 20
109.973780716
 30
0.0
 10
39.9856996554
 20
111.0000886828
 30
0.0
 10
38.7745017694
 20
111.4425090824
 30
0.0
 10
38.1599679836
 20
111.5940563116
 30
0.0
  0
SPLINE
  5
238
100
AcDbEntity
  8
0
100
AcDbSpline
 62
7
  6
BYLAYER
 70
0
 71
3
 72
15
 73
11
 74
0
 42
0.0000001
 43
0.0000001
 44
0.0000000001
 40
0.0
 40
0.0
 40
0.0
 40
0.0
 40
0.1527970881
 40
0.3015689263
 40
0.4439067192
 40
0.5776505244
 40
0.7009006361
 40
0.8123234024
 40
0.9116065807
 40
1.0
 40
1.0
 40
1.0
 40
1.0
 10
42.0642510411
 20
98.3525855193
 30
0.0
 10
42.0281955622
 20
98.8673413636
 30
0.0
 10
41.9021119187
 20
99.8803848666
 30
0.0
 10
41.5519057043
 20
101.3412480204
 30
0.0
 10
41.0549320884
 20
102.6910291462
 30
0.0
 10
40.4312329992
 20
103.8911885788
 30
0.0
 10
39.7072830889
 20
104.9085454008
 30
0.0
 10
38.9153713768
 20
105.7188863215
 30
0.0
 10
38.0899405872
 20
106.310530171
 30
0.0
 10
37.5075449579
 20
106.573901857
 30
0.0
 10
37.2234014501
 20
106.6654157567
 30
0.0
  0
SPLINE
  5
239
100
AcDbEntity
  8
0
100
AcDbSpline
 62
7
  6
BYLAYER
 70
0
 71
3
 72
20
 73
16
 74
0
 42
0.0000001
 43
0.0000001
 44
0.0000000001
 40
0.0
 40
0.0
 40
0.0
 40
0.0
 40
0.0521397486
 40
0.1073715973
 40
0.1664371167
 40
0.2295848033
 40
0.3659429881
 40
0.5098620952
 40
0.5817343694
 40
0.6517903712
 40
0.7820373797
 40
0.8414690716
 40
0.8969897342
 40
0.9493587794
 40
1.0
 40
1.0
 40
1.0
 40
1.0
 10
37.8663888976
 20
111.6294680288
 30
0.0
 10
37.7551786907
 20
111.6294818353
 30
0.0
 10
37.525373352
 20
111.5986962227
 30
0.0
 10
37.1919256739
 20
111.469099914
 30
0.0
 10
36.8729904328
 20
111.2608262409
 30
0.0
 10
36.4710678695
 20
110.8796401089
 30
0.0
 10
36.069193987
 20
110.2538837063
 30
0.0
 10
35.8379545439
 20
109.5305371482
 30
0.0
 10
35.765538846
 20
108.9234288021
 30
0.0
 10
35.7737698439
 20
108.3420460642
 30
0.0
 10
35.8972313251
 20
107.7904162364
 30
0.0
 10
36.1456268224
 20
107.3269136175
 30
0.0
 10
36.3766687838
 20
107.0510279066
 30
0.0
 10
36.6507895193
 20
106.8474271908
 30
0.0
 10
36.8579443234
 20
106.7653919157
 30
0.0
 10
36.9628225787
 20
106.7395546005
 30
0.0
  0
SPLINE
  5
23A
100
AcDbEntity
  8
0
100
AcDbSpline
 62
7
  6
BYLAYER
 70
0
 71
3
 72
15
 73
11
 74
0
 42
0.0000001
 43
0.0000001
 44
0.0000000001
 40
0.0
 40
0.0
 40
0.0
 40
0.0
 40
0.0314006249
 40
0.0549878802
 40
0.0851595463
 40
0.1665201523
 40
0.2766342585
 40
0.4155541266
 40
0.5829595324
 40
1.0
 40
1.0
 40
1.0
 40
1.0
 10
41.5656214282
 20
98.3212451602
 30
0.0
 10
41.565938866
 20
98.3161856084
 30
0.0
 10
41.5726600429
 20
98.3084670123
 30
0.0
 10
41.5843859773
 20
98.3017946601
 30
0.0
 10
41.604678913
 20
98.2933347517
 30
0.0
 10
41.6393839743
 20
98.2844587206
 30
0.0
 10
41.6919614822
 20
98.2752299183
 30
0.0
 10
41.758721982
 20
98.2671265347
 30
0.0
 10
41.875083985
 20
98.2570303788
 30
0.0
 10
41.9693687181
 20
98.252540789
 30
0.0
 10
42.0366553146
 20
98.2501390548
 30
0.0
  0
SPLINE
  5
23B
100
AcDbEntity
  8
0
100
AcDbSpline
 62
7
  6
BYLAYER
 70
0
 71
3
 72
10
 73
6
 74
0
 42
0.0000001
 43
0.0000001
 44
0.0000000001
 40
0.0
 40
0.0
 40
0.0
 40
0.0
 40
0.1933173562
 40
0.4341305395
 40
1.0
 40
1.0
 40
1.0
 40
1.0
 10
42.084946945
 20
98.2485658053
 30
0.0
 10
42.244452595
 20
98.2438452689
 30
0.0
 10
42.602901247
 20
98.2422946583
 30
0.0
 10
43.42820653
 20
98.2594588157
 30
0.0
 10
44.0934552395
 20
98.2923417374
 30
0.0
 10
44.5596389921
 20
98.3216136575
 30
0.0
  0
SPLINE
  5
23C
100
AcDbEntity
  8
0
100
AcDbSpline
 62
7
  6
BYLAYER
 70
0
 71
3
 72
16
 73
12
 74
0
 42
0.0000001
 43
0.0000001
 44
0.0000000001
 40
0.0
 40
0.0
 40
0.0
 40
0.0
 40
0.0262350783
 40
0.0488010642
 40
0.0786164813
 40
0.1158967194
 40
0.1607167803
 40
0.272782583
 40
0.4141021201
 40
0.5836741289
 40
1.0
 40
1.0
 40
1.0
 40
1.0
 10
42.0642517969
 20
98.3525855922
 30
0.0
 10
42.0647105916
 20
98.3461182555
 30
0.0
 10
42.0767000255
 20
98.3374775595
 30
0.0
 10
42.0939787062
 20
98.3306669095
 30
0.0
 10
42.1156104947
 20
98.3244845623
 30
0.0
 10
42.1426027654
 20
98.3189233429
 30
0.0
 10
42.1900568285
 20
98.3113859326
 30
0.0
 10
42.2633636915
 20
98.3037357227
 30
0.0
 10
42.3676829494
 20
98.2967767106
 30
0.0
 10
42.5472719037
 20
98.2896349374
 30
0.0
 10
42.6920937141
 20
98.2881715248
 30
0.0
 10
42.7949821481
 20
98.2881587514
 30
0.0
  0
SPLINE
  5
23D
100
AcDbEntity
  8
0
100
AcDbSpline
 62
7
  6
BYLAYER
 70
0
 71
3
 72
20
 73
16
 74
0
 42
0.0000001
 43
0.0000001
 44
0.0000000001
 40
0.0
 40
0.0
 40
0.0
 40
0.0
 40
0.0521397486
 40
0.1073715973
 40
0.1664371167
 40
0.2295848033
 40
0.3659429881
 40
0.5098620952
 40
0.5817343694
 40
0.6517903712
 40
0.7820373797
 40
0.8414690716
 40
0.8969897342
 40
0.9493587794
 40
1.0
 40
1.0
 40
1.0
 40
1.0
 10
37.2563859792
 20
106.704079184
 30
0.0
 10
37.3675961861
 20
106.7040653775
 30
0.0
 10
37.5974015248
 20
106.7348509901
 30
0.0
 10
37.9308492029
 20
106.8644472989
 30
0.0
 10
38.249784444
 20
107.0727209719
 30
0.0
 10
38.6517070073
 20
107.4539071039
 30
0.0
 10
39.0535808898
 20
108.0796635066
 30
0.0
 10
39.2848203329
 20
108.8030100646
 30
0.0
 10
39.3572360308
 20
109.4101184108
 30
0.0
 10
39.3490050329
 20
109.9915011486
 30
0.0
 10
39.2255435517
 20
110.5431309764
 30
0.0
 10
38.9771480544
 20
111.0066335953
 30
0.0
 10
38.746106093
 20
111.2825193063
 30
0.0
 10
38.4719853575
 20
111.486120022
 30
0.0
 10
38.2648305534
 20
111.5681552972
 30
0.0
 10
38.1599522981
 20
111.5939926123
 30
0.0
  0
SPLINE
  5
23E
100
AcDbEntity
  8
0
100
AcDbSpline
 62
7
  6
BYLAYER
 70
0
 71
3
 72
16
 73
12
 74
0
 42
0.0000001
 43
0.0000001
 44
0.0000000001
 40
0.0
 40
0.0
 40
0.0
 40
0.0
 40
0.4167982765
 40
0.5863807129
 40
0.7275941119
 40
0.8394851981
 40
0.884218066
 40
0.9214096521
 40
0.9511398373
 40
0.9736482873
 40
1.0
 40
1.0
 40
1.0
 40
1.0
 10
46.362004719
 20
98.5146068095
 30
0.0
 10
46.4607922684
 20
98.5273044913
 30
0.0
 10
46.5996191206
 20
98.5465741234
 30
0.0
 10
46.771052189
 20
98.5756456186
 30
0.0
 10
46.8701618528
 20
98.5952511484
 30
0.0
 10
46.9394157156
 20
98.6117130293
 30
0.0
 10
46.9838817396
 20
98.6248820055
 30
0.0
 10
47.0089995021
 20
98.6336103753
 30
0.0
 10
47.0288747241
 20
98.6422908182
 30
0.0
 10
47.0445741898
 20
98.6510628022
 30
0.0
 10
47.0548132388
 20
98.6610057446
 30
0.0
 10
47.0544098621
 20
98.6672899523
 30
0.0
  0
SPLINE
  5
23F
100
AcDbEntity
  8
0
100
AcDbSpline
 62
7
  6
BYLAYER
 70
0
 71
3
 72
13
 73
9
 74
0
 42
0.0000001
 43
0.0000001
 44
0.0000000001
 40
0.0
 40
0.0
 40
0.0
 40
0.0
 40
0.1073121531
 40
0.2300013428
 40
0.5014776125
 40
0.7721831106
 40
0.8939385773
 40
1.0
 40
1.0
 40
1.0
 40
1.0
 10
42.7949821481
 20
98.2881587514
 30
0.0
 10
42.9228950797
 20
98.2881428713
 30
0.0
 10
43.1970513441
 20
98.2917024466
 30
0.0
 10
43.7945418545
 20
98.3098275408
 30
0.0
 10
44.586073513
 20
98.3509354886
 30
0.0
 10
45.375343493
 20
98.4101374521
 30
0.0
 10
45.9668109724
 20
98.4675053252
 30
0.0
 10
46.236614185
 20
98.4984897067
 30
0.0
 10
46.362004719
 20
98.5146068095
 30
0.0
  0
SPLINE
  5
240
100
AcDbEntity
  8
0
100
AcDbSpline
 62
7
  6
BYLAYER
 70
0
 71
3
 72
11
 73
7
 74
0
 42
0.0000001
 43
0.0000001
 44
0.0000000001
 40
0.0
 40
0.0
 40
0.0
 40
0.0
 40
0.2948851067
 40
0.5711933821
 40
0.8113273284
 40
1.0
 40
1.0
 40
1.0
 40
1.0
 10
44.5596389921
 20
98.3216136575
 30
0.0
 10
44.8105752224
 20
98.3373700737
 30
0.0
 10
45.2964089599
 20
98.3716692758
 30
0.0
 10
45.985616224
 20
98.4316734547
 30
0.0
 10
46.5834182438
 20
98.4957797346
 30
0.0
 10
46.9459011319
 20
98.5444747014
 30
0.0
 10
47.1046413364
 20
98.5705625466
 30
0.0
  0
SPLINE
  5
241
100
AcDbEntity
  8
0
100
AcDbSpline
 62
7
  6
BYLAYER
 70
0
 71
3
 72
15
 73
11
 74
0
 42
0.0000001
 43
0.0000001
 44
0.0000000001
 40
0.0
 40
0.0
 40
0.0
 40
0.0
 40
0.4169625666
 40
0.5842684413
 40
0.7231093879
 40
0.8331937585
 40
0.9145568379
 40
0.9447446114
 40
0.968381671
 40
1.0
 40
1.0
 40
1.0
 40
1.0
 10
47.1046413364
 20
98.5705625466
 30
0.0
 10
47.1697677127
 20
98.5812656122
 30
0.0
 10
47.2608750217
 20
98.5973587542
 30
0.0
 10
47.3727323789
 20
98.621693314
 30
0.0
 10
47.4366065738
 20
98.6379192754
 30
0.0
 10
47.486555824
 20
98.6534870911
 30
0.0
 10
47.5191814997
 20
98.6664979804
 30
0.0
 10
47.5378374173
 20
98.6773125251
 30
0.0
 10
47.5484203163
 20
98.6853349021
 30
0.0
 10
47.5539699419
 20
98.6937303038
 30
0.0
 10
47.5536565561
 20
98.6987252719
 30
0.0
  0
ENDSEC
  0
SECTION
  2
OBJECTS
  0
DICTIONARY
  5
C
100
AcDbDictionary
280
0
281
1
  3
ACAD_GROUP
350
D
  3
ACAD_MLINESTYLE
350
17
  3
ACAD_LAYOUT
350
1A
  3
ACAD_PLOTSETTINGS
350
19
  3
ACAD_PLOTSTYLENAME
350
E
  0
DICTIONARY
  5
D
102
{ACAD_REACTORS
330
C
102
}
100
AcDbDictionary
280
0
281
1
  0
ACDBDICTIONARYWDFLT
  5
E
102
{ACAD_REACTORS
330
C
102
}
100
AcDbDictionary
281
1
  3
Normal
350
F
100
AcDbDictionaryWithDefault
340
F
  0
DICTIONARY
  5
17
102
{ACAD_REACTORS
330
C
102
}
100
AcDbDictionary
280
0
281
1
  3
Standard
350
18
  0
DICTIONARY
  5
19
102
{ACAD_REACTORS
330
C
102
}
100
AcDbDictionary
281
1
  0
DICTIONARY
  5
1A
102
{ACAD_REACTORS
330
C
102
}
100
AcDbDictionary
281
1
  3
Model
350
242
  3
Layout1
350
243
  0
ACDBPLACEHOLDER
  5
F
102
{ACAD_REACTORS
330
E
102
}
  0
MLINESTYLE
  5
18
102
{ACAD_REACTORS
330
17
102
}
100
AcDbMlineStyle
  2
STANDARD
 70
0
  3

 62
256
 51
90.0
 52
90.0
 71
2
 49
0.5
 62
256
  6
BYLAYER
 49
-0.5
 62
256
  6
BYLAYER
  0
LAYOUT
  5
242
102
{ACAD_REACTORS
330
1A
102
}
100
AcDbPlotSettings
  1

  2
none_device
  4

  6

 40
0.0
 41
0.0
 42
0.0
 43
0.0
 44
210.0
 45
297.0
 46
0.0
 47
0.0
 48
0.0
 49
0.0
140
0.0
141
0.0
142
1.0
143
1.0
 70
1024
 72
1
 73
0
 74
0
  7

 75
0
147
1.0
148
0.0
149
0.0
100
AcDbLayout
  1
Model
 70
0
 71
0
 10
0.0
 20
0.0
 11
210.0
 21
297.0
 12
0.0
 22
0.0
 32
0.0
 14
0.0
 24
0.0
 34
0.0
 15
0.0
 25
0.0
 35
0.0
146
0.0
 13
0.0
 23
0.0
 33
0.0
 16
1.0
 26
0.0
 36
0.0
 17
0.0
 27
1.0
 37
0.0
 76
0
330
210
345
0
346
0
  0
LAYOUT
  5
243
102
{ACAD_REACTORS
330
1A
102
}
100
AcDbPlotSettings
  1

  2
none_device
  4

  6

 40
0.0
 41
0.0
 42
0.0
 43
0.0
 44
210.0
 45
297.0
 46
0.0
 47
0.0
 48
0.0
 49
0.0
140
0.0
141
0.0
142
1.0
143
1.0
 70
0
 72
1
 73
0
 74
0
  7

 75
0
147
1.0
148
0.0
149
0.0
100
AcDbLayout
  1
Layout1
 70
0
 71
1
 10
0.0
 20
0.0
 11
210.0
 21
297.0
 12
0.0
 22
0.0
 32
0.0
 14
0.0
 24
0.0
 34
0.0
 15
0.0
 25
0.0
 35
0.0
146
0.0
 13
0.0
 23
0.0
 33
0.0
 16
1.0
 26
0.0
 36
0.0
 17
0.0
 27
1.0
 37
0.0
 76
0
330
211
345
0
346
0
  0
ENDSEC
  0
EOF
