999
DXF file: C:\Users\sesa63760\Dev\_Creo\CAD\MCADID0004829_3D-CAD\drw0001_2.dxf
999
Pro/ENGINEER 2019471 by Parametric Technology Corporation
  0
SECTION
  2
HEADER
  9
$ACADVER
  1
AC1024
  9
$DWGCODEPAGE
  3
ANSI_1252
  9
$EXTMAX
 10
64.1863075196
 20
90.7777777778
 30
0.0
  9
$EXTMIN
 10
0.0
 20
0.0
 30
0.0
  9
$LIMMIN
 10
0.0
 20
0.0
  9
$LIMMAX
 10
64.1863075196
 20
90.7777777778
  9
$VIEWCTR
 10
32.0931537598
 20
45.3888888889
  9
$VIEWSIZE
 40
90.7777777778
  9
$CLAYER
  8
0
  9
$LTSCALE
 40
5.9173662551
  9
$CELTYPE
  6
BYLAYER
  9
$DIMSCALE
 40
1.0
  9
$DIMASZ
 40
0.7641227086
  9
$DIMEXO
 40
1.0
  9
$DIMDLI
 40
4.0883621399
  9
$DIMEXE
 40
1.0
  9
$DIMCEN
 40
0.9682962963
  9
$DIMLFAC
 40
1.0
  9
$DIMBLK
  1
_FILLED
  9
$DIMALT
 70
0
  9
$DIMALTF
 40
0.0393700787
  9
$DIMTXT
 40
1.069771792
  9
$DIMTOL
 70
1
  9
$DIMLIM
 70
0
  9
$DIMTFAC
 40
1.0
  9
$DIMTP
 40
0.01
  9
$DIMTM
 40
0.01
  9
$DIMGAP
 40
0.625
  9
$DIMDSEP
 70
46
  9
$AUNITS
 70
0
  9
$PDMODE
 70
3
  9
$PDSIZE
 40
0.3125
  9
$HANDSEED
  5
25B
  9
$TILEMODE
 70
1
  9
$MEASUREMENT
 70
1
  9
$INSUNITS
 70
4
  0
ENDSEC
  0
SECTION
  2
CLASSES
  0
CLASS
  1
ACDBDICTIONARYWDFLT
  2
AcDbDictionaryWithDefault
  3
AutoCAD 2000
 90
0
 91
1
280
0
281
0
  0
CLASS
  1
ACDBPLACEHOLDER
  2
AcDbPlaceHolder
  3
AutoCAD 2000
 90
0
 91
1
280
0
281
0
  0
CLASS
  1
LAYOUT
  2
AcDbLayout
  3
AutoCAD 2000
 90
0
 91
0
280
0
281
0
  0
ENDSEC
  0
SECTION
  2
TABLES
  0
TABLE
  2
VPORT
  5
8
100
AcDbSymbolTable
 70
2
  0
VPORT
  5
1F4
100
AcDbSymbolTableRecord
100
AcDbViewportTableRecord
  2
*ACTIVE
 70
0
 10
0.0
 20
0.0
 11
1.0
 21
1.0
 12
32.0931537598
 22
45.3888888889
 13
0.0
 23
0.0
 14
1.0
 24
1.0
 15
0.0
 25
0.0
 16
0.0
 26
0.0
 36
1.0
 17
0.0
 27
0.0
 37
0.0
 40
90.7777777778
 41
0.7070707071
 42
50.0
 43
0.0
 44
0.0
 50
0.0
 51
0.0
 71
0
 72
100
 73
1
 74
1
 75
0
 76
0
 77
0
 78
0
  0
ENDTAB
  0
TABLE
  2
LTYPE
  5
5
100
AcDbSymbolTable
 70
6
  0
LTYPE
  5
14
100
AcDbSymbolTableRecord
100
AcDbLinetypeTableRecord
  2
BYBLOCK
 70
0
  3

 72
65
 73
0
 40
0.0
  0
LTYPE
  5
15
100
AcDbSymbolTableRecord
100
AcDbLinetypeTableRecord
  2
BYLAYER
 70
0
  3

 72
65
 73
0
 40
0.0
  0
LTYPE
  5
16
100
AcDbSymbolTableRecord
100
AcDbLinetypeTableRecord
  2
CONTINUOUS
 70
64
  3
Solid line
 72
65
 73
0
 40
0.0
  0
LTYPE
  5
1F5
100
AcDbSymbolTableRecord
100
AcDbLinetypeTableRecord
  2
CENTER
 70
64
  3
____ _ ____ _ ____ _ ____ _ ____ _ ____ _ ____
 72
65
 73
4
 40
0.6
 49
0.375
 74
0
 49
-0.075
 74
0
 49
0.075
 74
0
 49
-0.075
 74
0
  0
LTYPE
  5
1F6
100
AcDbSymbolTableRecord
100
AcDbLinetypeTableRecord
  2
HIDDEN
 70
64
  3
- - - - - - - - - - - - - - - - - - - -
 72
65
 73
2
 40
0.2
 49
0.1
 74
0
 49
-0.1
 74
0
  0
LTYPE
  5
1F7
100
AcDbSymbolTableRecord
100
AcDbLinetypeTableRecord
  2
PHANTOM
 70
64
  3
_____ _ _ _____ _ _ _____ _ _ _____
 72
65
 73
6
 40
0.8
 49
0.45
 74
0
 49
-0.05
 74
0
 49
0.1
 74
0
 49
-0.05
 74
0
 49
0.1
 74
0
 49
-0.05
 74
0
  0
LTYPE
  5
1F8
100
AcDbSymbolTableRecord
100
AcDbLinetypeTableRecord
  2
DOT
 70
64
  3
. . . . . . . . . . . . . . . . . . . .
 72
65
 73
2
 40
0.2
 49
0.1
 74
0
 49
-0.1
 74
0
  0
LTYPE
  5
1F9
100
AcDbSymbolTableRecord
100
AcDbLinetypeTableRecord
  2
DASHED
 70
64
  3
- - - - - - - - - - - - - - - - - - - -
 72
65
 73
2
 40
0.2
 49
0.1
 74
0
 49
-0.1
 74
0
  0
ENDTAB
  0
TABLE
  2
LAYER
  5
2
100
AcDbSymbolTable
 70
36
  0
LAYER
  5
10
100
AcDbSymbolTableRecord
100
AcDbLayerTableRecord
  2
0
 70
0
 62
7
  6
CONTINUOUS
370
-3
390
F
  0
LAYER
  5
1FA
100
AcDbSymbolTableRecord
100
AcDbLayerTableRecord
  2
DEFAULT_1
 70
0
 62
7
  6
CENTER
370
-3
390
F
  0
LAYER
  5
1FB
100
AcDbSymbolTableRecord
100
AcDbLayerTableRecord
  2
DEFAULT_2
 70
0
 62
7
  6
HIDDEN
370
-3
390
F
  0
LAYER
  5
1FC
100
AcDbSymbolTableRecord
100
AcDbLayerTableRecord
  2
DEFAULT_3
 70
0
 62
7
  6
PHANTOM
370
-3
390
F
  0
LAYER
  5
1FD
100
AcDbSymbolTableRecord
100
AcDbLayerTableRecord
  2
00_COMPONENTS
 70
0
 62
7
  6
CONTINUOUS
370
-3
390
F
  0
LAYER
  5
1FE
100
AcDbSymbolTableRecord
100
AcDbLayerTableRecord
  2
01_1_DEFAULT_DATUMS
 70
0
 62
7
  6
CONTINUOUS
370
-3
390
F
  0
LAYER
  5
1FF
100
AcDbSymbolTableRecord
100
AcDbLayerTableRecord
  2
01_PLANES
 70
0
 62
7
  6
CONTINUOUS
370
-3
390
F
  0
LAYER
  5
200
100
AcDbSymbolTableRecord
100
AcDbLayerTableRecord
  2
02_COORD_SYS
 70
0
 62
7
  6
CONTINUOUS
370
-3
390
F
  0
LAYER
  5
201
100
AcDbSymbolTableRecord
100
AcDbLayerTableRecord
  2
03_AXES
 70
0
 62
7
  6
CONTINUOUS
370
-3
390
F
  0
LAYER
  5
202
100
AcDbSymbolTableRecord
100
AcDbLayerTableRecord
  2
04_POINTS
 70
0
 62
7
  6
CONTINUOUS
370
-3
390
F
  0
LAYER
  5
203
100
AcDbSymbolTableRecord
100
AcDbLayerTableRecord
  2
05_CURVES
 70
0
 62
7
  6
CONTINUOUS
370
-3
390
F
  0
LAYER
  5
204
100
AcDbSymbolTableRecord
100
AcDbLayerTableRecord
  2
06_SURFS
 70
0
 62
7
  6
CONTINUOUS
370
-3
390
F
  0
LAYER
  5
205
100
AcDbSymbolTableRecord
100
AcDbLayerTableRecord
  2
07_COSMETICS
 70
0
 62
7
  6
CONTINUOUS
370
-3
390
F
  0
LAYER
  5
206
100
AcDbSymbolTableRecord
100
AcDbLayerTableRecord
  2
10_NOTES
 70
0
 62
7
  6
CONTINUOUS
370
-3
390
F
  0
LAYER
  5
207
100
AcDbSymbolTableRecord
100
AcDbLayerTableRecord
  2
11_NOTES_PUB
 70
0
 62
7
  6
CONTINUOUS
370
-3
390
F
  0
LAYER
  5
208
100
AcDbSymbolTableRecord
100
AcDbLayerTableRecord
  2
13_REF_GTOL
 70
0
 62
7
  6
CONTINUOUS
370
-3
390
F
  0
LAYER
  5
209
100
AcDbSymbolTableRecord
100
AcDbLayerTableRecord
  2
16_MISC
 70
0
 62
7
  6
CONTINUOUS
370
-3
390
F
  0
LAYER
  5
20A
100
AcDbSymbolTableRecord
100
AcDbLayerTableRecord
  2
17_NO_PRINT
 70
0
 62
7
  6
CONTINUOUS
370
-3
390
F
  0
LAYER
  5
20B
100
AcDbSymbolTableRecord
100
AcDbLayerTableRecord
  2
18_DATUM_CAMS_JOINTS
 70
0
 62
7
  6
CONTINUOUS
370
-3
390
F
  0
LAYER
  5
20C
100
AcDbSymbolTableRecord
100
AcDbLayerTableRecord
  2
19_DATUM_FUNCTIONAL
 70
0
 62
7
  6
CONTINUOUS
370
-3
390
F
  0
LAYER
  5
20D
100
AcDbSymbolTableRecord
100
AcDbLayerTableRecord
  2
20_DATUM_KINEMATIC_SCHEME
 70
0
 62
7
  6
CONTINUOUS
370
-3
390
F
  0
ENDTAB
  0
TABLE
  2
STYLE
  5
3
100
AcDbSymbolTable
 70
1
  0
STYLE
  5
11
100
AcDbSymbolTableRecord
100
AcDbTextStyleTableRecord
  2
STANDARD
 70
0
 40
0.0
 41
1.0
 50
0.0
 71
0
 42
0.2
  3
ARIAL.TTF
  4

  0
STYLE
  5
20E
100
AcDbSymbolTableRecord
100
AcDbTextStyleTableRecord
  2
TEXTSTYLE_1
 70
0
 40
0.0
 41
0.8
 50
0.0
 71
0
 42
0.2
  3
gdt
  4

  0
ENDTAB
  0
TABLE
  2
VIEW
  5
6
100
AcDbSymbolTable
 70
0
  0
ENDTAB
  0
TABLE
  2
UCS
  5
7
100
AcDbSymbolTable
 70
0
  0
ENDTAB
  0
TABLE
  2
APPID
  5
9
100
AcDbSymbolTable
 70
1
  0
APPID
  5
20F
100
AcDbSymbolTableRecord
100
AcDbRegAppTableRecord
  2
ACAD
 70
0
  0
ENDTAB
  0
TABLE
  2
BLOCK_RECORD
  5
1
100
AcDbSymbolTable
 70
0
  0
BLOCK_RECORD
  5
210
100
AcDbSymbolTableRecord
100
AcDbBlockTableRecord
  2
*Model_Space
  0
BLOCK_RECORD
  5
211
100
AcDbSymbolTableRecord
100
AcDbBlockTableRecord
  2
*Paper_Space
  0
BLOCK_RECORD
  5
212
100
AcDbSymbolTableRecord
100
AcDbBlockTableRecord
  2
_FILLED
  0
ENDTAB
  0
TABLE
  2
DIMSTYLE
  5
A
100
AcDbSymbolTable
 70
1
100
AcDbDimStyleTable
 71
0
  0
DIMSTYLE
105
213
100
AcDbSymbolTableRecord
100
AcDbDimStyleTableRecord
  2
STANDARD
 70
0
  3

  4

 40
1.0
 41
0.7641227086
 42
1.0
 43
0.38
 44
1.0
 45
0.0
 46
0.0
 47
0.01
 48
0.01
140
1.069771792
141
0.09
142
0.0
143
25.4
144
1.0
145
0.0
146
1.0
147
0.625
 71
1
 72
0
 73
0
 74
0
 75
0
 76
0
 77
1
 78
8
 79
2
170
0
171
1
172
0
173
0
174
0
175
0
176
0
177
0
178
0
270
2
179
2
271
2
272
2
273
2
274
2
275
0
280
0
281
0
282
0
283
1
284
8
285
0
286
0
287
3
288
0
340
11
278
46
341
212
342
212
343
212
344
212
  0
ENDTAB
  0
ENDSEC
  0
SECTION
  2
BLOCKS
  0
BLOCK
  5
20
100
AcDbEntity
  8
0
100
AcDbBlockBegin
  2
*Model_Space
 70
0
 10
0.0
 20
0.0
 30
0.0
  3
*Model_Space
  1

  0
ENDBLK
  5
21
100
AcDbEntity
  8
0
100
AcDbBlockEnd
  0
BLOCK
  5
1C
100
AcDbEntity
  8
0
100
AcDbBlockBegin
  2
*Paper_Space
 70
0
 10
0.0
 20
0.0
 30
0.0
  3
*Paper_Space
  1

  0
ENDBLK
  5
1D
100
AcDbEntity
  8
0
100
AcDbBlockEnd
  0
BLOCK
  5
214
100
AcDbEntity
  8
0
100
AcDbBlockBegin
  2
_FILLED
 70
64
 10
0.0
 20
0.0
  3
_FILLED
  1

  0
SOLID
  5
215
100
AcDbEntity
  8
0
  6
BYBLOCK
 62
0
100
AcDbTrace
 10
0.0
 20
0.0
 11
-1.0
 21
0.25
 12
-1.0
 22
-0.25
 13
-1.0
 23
-0.25
  0
ENDBLK
  5
216
100
AcDbEntity
  8
0
  6
BYBLOCK
 62
0
100
AcDbBlockEnd
  0
ENDSEC
  0
SECTION
  2
ENTITIES
  0
LINE
  5
217
100
AcDbEntity
  8
0
100
AcDbLine
 62
7
  6
BYLAYER
 10
7.0375982043
 20
53.0975967831
 11
7.0375982043
 21
29.4995205718
  0
LINE
  5
218
100
AcDbEntity
  8
0
100
AcDbLine
 62
7
  6
BYLAYER
 10
7.0375982043
 20
53.6995205718
 11
7.0375982043
 21
59.9995198318
  0
LINE
  5
219
100
AcDbEntity
  8
0
100
AcDbLine
 62
7
  6
BYLAYER
 10
10.4821847781
 20
53.6995205718
 11
10.4821847781
 21
53.4995205718
  0
LINE
  5
21A
100
AcDbEntity
  8
0
100
AcDbLine
 62
7
  6
BYLAYER
 10
58.0375955872
 20
29.4995205718
 11
7.0375982043
 21
29.4995205718
  0
LINE
  5
21B
100
AcDbEntity
  8
0
100
AcDbLine
 62
7
  6
BYLAYER
 10
48.4565002762
 20
60.8804870259
 11
48.4738192655
 21
60.9119156445
  0
LINE
  5
21C
100
AcDbEntity
  8
0
100
AcDbLine
 62
7
  6
BYLAYER
 10
40.9012028079
 20
54.4995205743
 11
40.9011870989
 21
53.6995205718
  0
LINE
  5
21D
100
AcDbEntity
  8
0
100
AcDbLine
 62
7
  6
BYLAYER
 10
41.1585241718
 20
53.4995205718
 11
41.1585241718
 21
54.4995205718
  0
LINE
  5
21E
100
AcDbEntity
  8
0
100
AcDbLine
 62
7
  6
BYLAYER
 10
45.0799377576
 20
59.9910456601
 11
45.1017159372
 21
60.0995205718
  0
LINE
  5
21F
100
AcDbEntity
  8
0
100
AcDbLine
 62
7
  6
BYLAYER
 10
41.1585241718
 20
53.4995205718
 11
34.4748912484
 21
53.4995205718
  0
LINE
  5
220
100
AcDbEntity
  8
0
100
AcDbLine
 62
7
  6
BYLAYER
 10
8.2293591518
 20
53.4995205718
 11
15.6003051602
 21
53.4995205718
  0
LINE
  5
221
100
AcDbEntity
  8
0
100
AcDbLine
 62
7
  6
BYLAYER
 10
41.1585241718
 20
53.6995205718
 11
34.0470396973
 21
53.6995205718
  0
LINE
  5
222
100
AcDbEntity
  8
0
100
AcDbLine
 62
7
  6
BYLAYER
 10
16.0306019075
 20
53.6995205718
 11
7.0375982043
 21
53.6995205718
  0
LINE
  5
223
100
AcDbEntity
  8
0
100
AcDbLine
 62
7
  6
BYLAYER
 10
40.9011870989
 20
54.4995205718
 11
58.0375955872
 21
54.4995205718
  0
LINE
  5
224
100
AcDbEntity
  8
0
100
AcDbLine
 62
7
  6
BYLAYER
 10
55.4374264143
 20
54.6995205718
 11
44.4715833904
 21
54.6995205718
  0
LINE
  5
225
100
AcDbEntity
  8
0
100
AcDbLine
 62
7
  6
BYLAYER
 10
45.0799377576
 20
59.9910456601
 11
45.0544326173
 21
59.6995205718
  0
LINE
  5
226
100
AcDbEntity
  8
0
100
AcDbLine
 62
7
  6
BYLAYER
 10
44.7375982043
 20
54.4995205718
 11
44.7363481554
 21
54.6995205718
  0
LINE
  5
227
100
AcDbEntity
  8
0
100
AcDbLine
 62
7
  6
BYLAYER
 10
44.9375982043
 20
54.6995205718
 11
44.9375982043
 21
54.4995205718
  0
LINE
  5
228
100
AcDbEntity
  8
0
100
AcDbLine
 62
7
  6
BYLAYER
 10
8.5375982043
 20
53.4995205718
 11
7.0375982043
 21
53.0975967831
  0
LINE
  5
229
100
AcDbEntity
  8
0
100
AcDbLine
 62
7
  6
BYLAYER
 10
39.4418345137
 20
58.9995204127
 11
7.0375982043
 21
58.9995205718
  0
LINE
  5
22A
100
AcDbEntity
  8
0
100
AcDbLine
 62
7
  6
BYLAYER
 10
47.3675982043
 20
60.8296385802
 11
47.3675982043
 21
60.9405933298
  0
LINE
  5
22B
100
AcDbEntity
  8
0
100
AcDbLine
 62
7
  6
BYLAYER
 10
47.7375982043
 20
54.4995205718
 11
47.7375982043
 21
54.6995205718
  0
LINE
  5
22C
100
AcDbEntity
  8
0
100
AcDbLine
 62
7
  6
BYLAYER
 10
48.1075982043
 20
60.9405933298
 11
48.1075982043
 21
60.8296385802
  0
LINE
  5
22D
100
AcDbEntity
  8
0
100
AcDbLine
 62
7
  6
BYLAYER
 10
43.4262212683
 20
59.6995205718
 11
55.4374264143
 21
59.6995205718
  0
LINE
  5
22E
100
AcDbEntity
  8
0
100
AcDbLine
 62
7
  6
BYLAYER
 10
45.0799377576
 20
59.9910456601
 11
50.3952586509
 21
59.9910456601
  0
LINE
  5
22F
100
AcDbEntity
  8
0
100
AcDbLine
 62
7
  6
BYLAYER
 10
43.0466764318
 20
59.9995205718
 11
7.0375982043
 21
59.9995205718
  0
LINE
  5
230
100
AcDbEntity
  8
0
100
AcDbLine
 62
7
  6
BYLAYER
 10
45.101740991
 20
60.0995205718
 11
45.1597356545
 21
60.0995205718
  0
LINE
  5
231
100
AcDbEntity
  8
0
100
AcDbLine
 62
7
  6
BYLAYER
 10
50.3154607541
 20
60.0995205718
 11
50.3734554175
 21
60.0995205718
  0
LINE
  5
232
100
AcDbEntity
  8
0
100
AcDbLine
 62
7
  6
BYLAYER
 10
45.4037477038
 20
60.3861285906
 11
50.0714487047
 21
60.3861285906
  0
LINE
  5
233
100
AcDbEntity
  8
0
100
AcDbLine
 62
7
  6
BYLAYER
 10
50.5375982043
 20
54.4995205718
 11
50.5375982043
 21
54.6995205718
  0
LINE
  5
234
100
AcDbEntity
  8
0
100
AcDbLine
 62
7
  6
BYLAYER
 10
50.3952586509
 20
59.9910456601
 11
50.4207637913
 21
59.6995205718
  0
LWPOLYLINE
  5
235
100
AcDbEntity
  8
0
100
AcDbPolyline
 62
7
  6
BYLAYER
 90
3
 70
0
 10
43.7608290684
 20
59.6995205718
 10
43.5344444796
 20
59.8724993147
 10
43.0466862255
 20
59.9995205718
  0
LINE
  5
236
100
AcDbEntity
  8
0
100
AcDbLine
 62
7
  6
BYLAYER
 10
46.9890328884
 20
60.9100554125
 11
47.008140316
 21
60.8753813307
  0
LINE
  5
237
100
AcDbEntity
  8
0
100
AcDbLine
 62
7
  6
BYLAYER
 10
54.6009474365
 20
59.6995205718
 11
54.6009474365
 21
54.6995205718
  0
LINE
  5
238
100
AcDbEntity
  8
0
100
AcDbLine
 62
7
  6
BYLAYER
 10
50.3952586509
 20
59.9910456601
 11
50.3734804713
 21
60.0995205718
  0
LINE
  5
239
100
AcDbEntity
  8
0
100
AcDbLine
 62
7
  6
BYLAYER
 10
55.4375982043
 20
59.6995205718
 11
55.4375982043
 21
54.6995205718
  0
LINE
  5
23A
100
AcDbEntity
  8
0
100
AcDbLine
 62
7
  6
BYLAYER
 10
55.5375982043
 20
54.4995205718
 11
55.5375982043
 21
29.4995205718
  0
LINE
  5
23B
100
AcDbEntity
  8
0
100
AcDbLine
 62
7
  6
BYLAYER
 10
58.0375982043
 20
33.9995205718
 11
58.0007563863
 21
34.5638295131
  0
LWPOLYLINE
  5
23C
100
AcDbEntity
  8
0
100
AcDbPolyline
 62
7
  6
BYLAYER
 90
7
 70
0
 10
58.0007563863
 20
34.5638295131
 10
57.911184047
 20
36.1570521481
 10
57.8166067788
 20
38.5593820065
 10
57.7681684391
 20
41.3484229789
 10
57.76918718
 20
42.814099893
 10
57.8200834645
 20
45.556547552
 10
57.9136196066
 20
47.8910284355
  0
LINE
  5
23D
100
AcDbEntity
  8
0
100
AcDbLine
 62
7
  6
BYLAYER
 10
58.0375982043
 20
54.4995205718
 11
58.0375982043
 21
29.4995205718
  0
LWPOLYLINE
  5
23E
100
AcDbEntity
  8
0
100
AcDbPolyline
 62
7
  6
BYLAYER
 90
3
 70
0
 10
57.9136196066
 20
47.8910284355
 10
58.0011565941
 20
49.4415664631
 10
58.0375982043
 20
49.9995205718
  0
ARC
  5
23F
100
AcDbEntity
  8
0
100
AcDbCircle
 62
7
  6
BYLAYER
 10
69.1177808264
 20
29.4995205718
 40
60.0
100
AcDbArc
 50
162.3799937437
 51
180.0
  0
ARC
  5
240
100
AcDbEntity
  8
0
100
AcDbCircle
 62
7
  6
BYLAYER
 10
-19.0425844179
 20
29.4995205718
 40
60.0
100
AcDbArc
 50
0.0
 51
17.6200062563
  0
ARC
  5
241
100
AcDbEntity
  8
0
100
AcDbCircle
 62
7
  6
BYLAYER
 10
25.6144175019
 20
54.4976790423
 40
15.286785417
100
AcDbArc
 50
0.0069021715
 51
14.2269712928
  0
ARC
  5
242
100
AcDbEntity
  8
0
100
AcDbCircle
 62
7
  6
BYLAYER
 10
25.0375982043
 20
43.4995205718
 40
13.75
100
AcDbArc
 50
17.6200062564
 51
162.3799937436
  0
CIRCLE
  5
243
100
AcDbEntity
  8
0
100
AcDbCircle
 62
7
  6
BYLAYER
 10
25.0375982043
 20
43.4995205718
 40
10.25
  0
CIRCLE
  5
244
100
AcDbEntity
  8
0
100
AcDbCircle
 62
7
  6
BYLAYER
 10
25.0375982043
 20
43.4995205718
 40
9.75
  0
ARC
  5
245
100
AcDbEntity
  8
0
100
AcDbCircle
 62
7
  6
BYLAYER
 10
47.7376070545
 20
55.548259866
 40
5.2943228626
100
AcDbArc
 50
85.9926462172
 51
94.0073514634
  0
ARC
  5
246
100
AcDbEntity
  8
0
100
AcDbCircle
 62
7
  6
BYLAYER
 10
47.7376948645
 20
55.985035227
 40
4.981569008
100
AcDbArc
 50
62.0644759222
 51
81.5023070183
  0
ARC
  5
247
100
AcDbEntity
  8
0
100
AcDbCircle
 62
7
  6
BYLAYER
 10
47.7375002528
 20
55.9850385374
 40
4.9815654784
100
AcDbArc
 50
98.6412652193
 51
117.9355287935
  0
ARC
  5
248
100
AcDbEntity
  8
0
100
AcDbCircle
 62
7
  6
BYLAYER
 10
47.4531008268
 20
56.5226061955
 40
4.472021752
100
AcDbArc
 50
74.6545204951
 51
77.0340526508
  0
ARC
  5
249
100
AcDbEntity
  8
0
100
AcDbCircle
 62
7
  6
BYLAYER
 10
47.499909491
 20
56.7369557112
 40
4.2526355527
100
AcDbArc
 50
77.0006557591
 51
81.6883985796
  0
ARC
  5
24A
100
AcDbEntity
  8
0
100
AcDbCircle
 62
7
  6
BYLAYER
 10
47.3729174219
 20
59.8912564015
 40
1.0887234543
100
AcDbArc
 50
110.6464616185
 51
120.7926831984
  0
ARC
  5
24B
100
AcDbEntity
  8
0
100
AcDbCircle
 62
7
  6
BYLAYER
 10
48.0931711291
 20
59.8935049894
 40
1.0872227307
100
AcDbArc
 50
60.0129051518
 51
69.5059236738
  0
ARC
  5
24C
100
AcDbEntity
  8
0
100
AcDbCircle
 62
7
  6
BYLAYER
 10
42.7996072909
 20
58.9258357133
 40
0.9956070193
100
AcDbArc
 50
17.4150380362
 51
50.9956916649
  0
ARC
  5
24D
100
AcDbEntity
  8
0
100
AcDbCircle
 62
7
  6
BYLAYER
 10
12.4293591518
 20
53.7995205718
 40
0.3
100
AcDbArc
 50
197.155668812
 51
270.0
  0
ARC
  5
24E
100
AcDbEntity
  8
0
100
AcDbCircle
 62
7
  6
BYLAYER
 10
8.2293591518
 20
53.7995205718
 40
0.3
100
AcDbArc
 50
197.155668812
 51
270.0
  0
SPLINE
  5
24F
100
AcDbEntity
  8
0
100
AcDbSpline
 62
7
  6
BYLAYER
 70
0
 71
3
 72
11
 73
7
 74
0
 42
0.0000001
 43
0.0000001
 44
0.0000000001
 40
0.0
 40
0.0
 40
0.0
 40
0.0
 40
0.2500298818
 40
0.5000412183
 40
0.7500331484
 40
1.0
 40
1.0
 40
1.0
 40
1.0
 10
45.4037477038
 20
60.3861285906
 30
0.0
 10
45.3753910731
 20
60.3710917746
 30
0.0
 10
45.3213347768
 20
60.3356650028
 30
0.0
 10
45.2517099841
 20
60.2683533196
 30
0.0
 10
45.1960975684
 20
60.1890647656
 30
0.0
 10
45.1698463382
 20
60.1299747844
 30
0.0
 10
45.1597356545
 20
60.0995205718
 30
0.0
  0
SPLINE
  5
250
100
AcDbEntity
  8
0
100
AcDbSpline
 62
7
  6
BYLAYER
 70
0
 71
3
 72
11
 73
7
 74
0
 42
0.0000001
 43
0.0000001
 44
0.0000000001
 40
0.0
 40
0.0
 40
0.0
 40
0.0
 40
0.2499669383
 40
0.4999589205
 40
0.7499702016
 40
1.0
 40
1.0
 40
1.0
 40
1.0
 10
50.3154607541
 20
60.0995205718
 30
0.0
 10
50.3053500668
 20
60.129974795
 30
0.0
 10
50.2790988266
 20
60.1890647918
 30
0.0
 10
50.2234863976
 20
60.2683533497
 30
0.0
 10
50.1538616093
 20
60.3356650211
 30
0.0
 10
50.099805326
 20
60.3710917796
 30
0.0
 10
50.0714487047
 20
60.3861285906
 30
0.0
  0
SPLINE
  5
251
100
AcDbEntity
  8
0
100
AcDbSpline
 62
7
  6
BYLAYER
 70
0
 71
3
 72
10
 73
6
 74
0
 42
0.0000001
 43
0.0000001
 44
0.0000000001
 40
0.0
 40
0.0
 40
0.0
 40
0.0
 40
0.1807408139
 40
0.517977028
 40
1.0
 40
1.0
 40
1.0
 40
1.0
 10
47.3675982043
 20
60.9405933298
 30
0.0
 10
47.3675982043
 20
60.9408957001
 30
0.0
 10
47.3673565491
 20
60.9417700436
 30
0.0
 10
47.3660606046
 20
60.9429385884
 30
0.0
 10
47.3648215879
 20
60.9435248436
 30
0.0
 10
47.3640733072
 20
60.9438254384
 30
0.0
  0
SPLINE
  5
252
100
AcDbEntity
  8
0
100
AcDbSpline
 62
7
  6
BYLAYER
 70
0
 71
3
 72
9
 73
5
 74
0
 42
0.0000001
 43
0.0000001
 44
0.0000000001
 40
0.0
 40
0.0
 40
0.0
 40
0.0
 40
0.2469228436
 40
1.0
 40
1.0
 40
1.0
 40
1.0
 10
47.3640733072
 20
60.9438254384
 30
0.0
 10
47.3183740509
 20
60.9371388378
 30
0.0
 10
47.1337623549
 20
60.9069586964
 30
0.0
 10
46.9511683079
 20
60.8646142922
 30
0.0
 10
46.8155637731
 20
60.8264973705
 30
0.0
  0
SPLINE
  5
253
100
AcDbEntity
  8
0
100
AcDbSpline
 62
7
  6
BYLAYER
 70
0
 71
3
 72
11
 73
7
 74
0
 42
0.0000001
 43
0.0000001
 44
0.0000000001
 40
0.0
 40
0.0
 40
0.0
 40
0.0
 40
0.368072912
 40
0.6482190115
 40
0.8493987716
 40
1.0
 40
1.0
 40
1.0
 40
1.0
 10
48.1146558582
 20
60.9449238727
 30
0.0
 10
48.1136179436
 20
60.9446683498
 30
0.0
 10
48.1118014815
 20
60.9441518427
 30
0.0
 10
48.1095395639
 20
60.9431550253
 30
0.0
 10
48.1080297259
 20
60.9420473053
 30
0.0
 10
48.1075982043
 20
60.9410306846
 30
0.0
 10
48.1075982043
 20
60.9405933298
 30
0.0
  0
SPLINE
  5
254
100
AcDbEntity
  8
0
100
AcDbSpline
 62
7
  6
BYLAYER
 70
0
 71
3
 72
11
 73
7
 74
0
 42
0.0000001
 43
0.0000001
 44
0.0000000001
 40
0.0
 40
0.0
 40
0.0
 40
0.0
 40
0.3043279649
 40
0.5655579522
 40
0.7921752007
 40
1.0
 40
1.0
 40
1.0
 40
1.0
 10
40.262051274
 20
53.6932870485
 30
0.0
 10
40.2537855294
 20
53.6636780501
 30
0.0
 10
40.2315216434
 20
53.6101741827
 30
0.0
 10
40.180614432
 20
53.5469025924
 30
0.0
 10
40.120246568
 20
53.5083187924
 30
0.0
 10
40.0759811593
 20
53.4995205718
 30
0.0
 10
40.0549881387
 20
53.4995205718
 30
0.0
  0
SPLINE
  5
255
100
AcDbEntity
  8
0
100
AcDbSpline
 62
7
  6
BYLAYER
 70
0
 71
3
 72
9
 73
5
 74
0
 42
0.0000001
 43
0.0000001
 44
0.0000000001
 40
0.0
 40
0.0
 40
0.0
 40
0.0
 40
0.5000766106
 40
1.0
 40
1.0
 40
1.0
 40
1.0
 10
44.4715833904
 20
54.6995205718
 30
0.0
 10
44.4618658063
 20
55.4651868894
 30
0.0
 10
44.3304649147
 20
56.9969087519
 30
0.0
 10
43.9781769694
 20
58.4932491188
 30
0.0
 10
43.7495774849
 20
59.2238121677
 30
0.0
  0
SPLINE
  5
256
100
AcDbEntity
  8
0
100
AcDbSpline
 62
7
  6
BYLAYER
 70
0
 71
3
 72
28
 73
24
 74
0
 42
0.0000001
 43
0.0000001
 44
0.0000000001
 40
0.0
 40
0.0
 40
0.0
 40
0.0
 40
0.2343438917
 40
0.4374857779
 40
0.5273476594
 40
0.6093988131
 40
0.6836356122
 40
0.750054334
 40
0.8086521666
 40
0.8594302305
 40
0.9023906244
 40
0.9375354329
 40
0.9521776404
 40
0.9648667267
 40
0.9756029482
 40
0.9843865606
 40
0.9912178186
 40
0.9939013941
 40
0.9960969761
 40
0.9978045962
 40
0.9990242859
 40
0.9997560767
 40
1.0
 40
1.0
 40
1.0
 40
1.0
 10
39.4418332874
 20
58.9995201245
 30
0.0
 10
39.7240472895
 20
59.0753678812
 30
0.0
 10
40.2506518314
 20
59.2178885599
 30
0.0
 10
40.8848142115
 20
59.3919185298
 30
0.0
 10
41.3355268665
 20
59.5168115857
 30
0.0
 10
41.6312104347
 20
59.5992136524
 30
0.0
 10
41.8986353922
 20
59.6741180692
 30
0.0
 10
42.1378237856
 20
59.7413976185
 30
0.0
 10
42.3488047674
 20
59.8009229169
 30
0.0
 10
42.5315919691
 20
59.8526470718
 30
0.0
 10
42.686203924
 20
59.8965284609
 30
0.0
 10
42.7974417639
 20
59.9281928298
 30
0.0
 10
42.8723601561
 20
59.9495686229
 30
0.0
 10
42.9180037161
 20
59.9626112964
 30
0.0
 10
42.9566187703
 20
59.9736608845
 30
0.0
 10
42.9882064496
 20
59.9827155159
 30
0.0
 10
43.0101409904
 20
59.9890061782
 30
0.0
 10
43.0241734988
 20
59.9930453861
 30
0.0
 10
43.0320727428
 20
59.9953020176
 30
0.0
 10
43.0381980698
 20
59.9971029196
 30
0.0
 10
43.0426140994
 20
59.9982880471
 30
0.0
 10
43.0451898715
 20
59.9991821041
 30
0.0
 10
43.046415751
 20
59.9993784605
 30
0.0
 10
43.0466846868
 20
59.9995205718
 30
0.0
  0
SPLINE
  5
257
100
AcDbEntity
  8
0
100
AcDbSpline
 62
7
  6
BYLAYER
 70
0
 71
3
 72
11
 73
7
 74
0
 42
0.0000001
 43
0.0000001
 44
0.0000000001
 40
0.0
 40
0.0
 40
0.0
 40
0.0
 40
0.2501162105
 40
0.5001306518
 40
0.7500782142
 40
1.0
 40
1.0
 40
1.0
 40
1.0
 10
39.4418345137
 20
58.9995204127
 30
0.0
 10
39.552616635
 20
58.9995205095
 30
0.0
 10
39.775731927
 20
58.965179088
 30
0.0
 10
40.0768612524
 20
58.8118143673
 30
0.0
 10
40.3121365122
 20
58.5686991746
 30
0.0
 10
40.4052433333
 20
58.3619411023
 30
0.0
 10
40.4323536485
 20
58.254616191
 30
0.0
  0
SPLINE
  5
258
100
AcDbEntity
  8
0
100
AcDbSpline
 62
7
  6
BYLAYER
 70
0
 71
3
 72
12
 73
8
 74
0
 42
0.0000001
 43
0.0000001
 44
0.0000000001
 40
0.0
 40
0.0
 40
0.0
 40
0.0
 40
0.3588331958
 40
0.6451424317
 40
0.8588559001
 40
0.938500498
 40
1.0
 40
1.0
 40
1.0
 40
1.0
 10
40.432504696
 20
58.2539884101
 30
0.0
 10
40.8297172419
 20
58.3684435968
 30
0.0
 10
41.5439727565
 20
58.5738363373
 30
0.0
 10
42.4941918137
 20
58.8495009235
 30
0.0
 10
43.1348705298
 20
59.0378006805
 30
0.0
 10
43.5265227429
 20
59.1549364832
 30
0.0
 10
43.6819967289
 20
59.2025487478
 30
0.0
 10
43.7495702707
 20
59.2238354027
 30
0.0
  0
ENDSEC
  0
SECTION
  2
OBJECTS
  0
DICTIONARY
  5
C
100
AcDbDictionary
280
0
281
1
  3
ACAD_GROUP
350
D
  3
ACAD_MLINESTYLE
350
17
  3
ACAD_LAYOUT
350
1A
  3
ACAD_PLOTSETTINGS
350
19
  3
ACAD_PLOTSTYLENAME
350
E
  0
DICTIONARY
  5
D
102
{ACAD_REACTORS
330
C
102
}
100
AcDbDictionary
280
0
281
1
  0
ACDBDICTIONARYWDFLT
  5
E
102
{ACAD_REACTORS
330
C
102
}
100
AcDbDictionary
281
1
  3
Normal
350
F
100
AcDbDictionaryWithDefault
340
F
  0
DICTIONARY
  5
17
102
{ACAD_REACTORS
330
C
102
}
100
AcDbDictionary
280
0
281
1
  3
Standard
350
18
  0
DICTIONARY
  5
19
102
{ACAD_REACTORS
330
C
102
}
100
AcDbDictionary
281
1
  0
DICTIONARY
  5
1A
102
{ACAD_REACTORS
330
C
102
}
100
AcDbDictionary
281
1
  3
Model
350
259
  3
Layout1
350
25A
  0
ACDBPLACEHOLDER
  5
F
102
{ACAD_REACTORS
330
E
102
}
  0
MLINESTYLE
  5
18
102
{ACAD_REACTORS
330
17
102
}
100
AcDbMlineStyle
  2
STANDARD
 70
0
  3

 62
256
 51
90.0
 52
90.0
 71
2
 49
0.5
 62
256
  6
BYLAYER
 49
-0.5
 62
256
  6
BYLAYER
  0
LAYOUT
  5
259
102
{ACAD_REACTORS
330
1A
102
}
100
AcDbPlotSettings
  1

  2
none_device
  4

  6

 40
0.0
 41
0.0
 42
0.0
 43
0.0
 44
210.0
 45
297.0
 46
0.0
 47
0.0
 48
0.0
 49
0.0
140
0.0
141
0.0
142
1.0
143
1.0
 70
1024
 72
1
 73
0
 74
0
  7

 75
0
147
1.0
148
0.0
149
0.0
100
AcDbLayout
  1
Model
 70
0
 71
0
 10
0.0
 20
0.0
 11
210.0
 21
297.0
 12
0.0
 22
0.0
 32
0.0
 14
0.0
 24
0.0
 34
0.0
 15
0.0
 25
0.0
 35
0.0
146
0.0
 13
0.0
 23
0.0
 33
0.0
 16
1.0
 26
0.0
 36
0.0
 17
0.0
 27
1.0
 37
0.0
 76
0
330
210
345
0
346
0
  0
LAYOUT
  5
25A
102
{ACAD_REACTORS
330
1A
102
}
100
AcDbPlotSettings
  1

  2
none_device
  4

  6

 40
0.0
 41
0.0
 42
0.0
 43
0.0
 44
210.0
 45
297.0
 46
0.0
 47
0.0
 48
0.0
 49
0.0
140
0.0
141
0.0
142
1.0
143
1.0
 70
0
 72
1
 73
0
 74
0
  7

 75
0
147
1.0
148
0.0
149
0.0
100
AcDbLayout
  1
Layout1
 70
0
 71
1
 10
0.0
 20
0.0
 11
210.0
 21
297.0
 12
0.0
 22
0.0
 32
0.0
 14
0.0
 24
0.0
 34
0.0
 15
0.0
 25
0.0
 35
0.0
146
0.0
 13
0.0
 23
0.0
 33
0.0
 16
1.0
 26
0.0
 36
0.0
 17
0.0
 27
1.0
 37
0.0
 76
0
330
211
345
0
346
0
  0
ENDSEC
  0
EOF
