999
DXF file: C:\Users\sesa63760\Dev\_Creo\CAD\MCADID0004480_3D-CAD\drw0001_7.dxf
999
Pro/ENGINEER 2019471 by Parametric Technology Corporation
  0
SECTION
  2
HEADER
  9
$ACADVER
  1
AC1024
  9
$DWGCODEPAGE
  3
ANSI_1252
  9
$EXTMAX
 10
96.3721558451
 20
136.2977632667
 30
0.0
  9
$EXTMIN
 10
0.0
 20
0.0
 30
0.0
  9
$LIMMIN
 10
0.0
 20
0.0
  9
$LIMMAX
 10
96.3721558451
 20
136.2977632667
  9
$VIEWCTR
 10
48.1860779226
 20
68.1488816333
  9
$VIEWSIZE
 40
136.2977632667
  9
$CLAYER
  8
0
  9
$LTSCALE
 40
8.8845949389
  9
$CELTYPE
  6
BYLAYER
  9
$DIMSCALE
 40
1.0
  9
$DIMASZ
 40
1.1472875696
  9
$DIMEXO
 40
1.0
  9
$DIMDLI
 40
6.1384474123
  9
$DIMEXE
 40
1.0
  9
$DIMCEN
 40
1.4538428082
  9
$DIMLFAC
 40
1.0
  9
$DIMBLK
  1
_FILLED
  9
$DIMALT
 70
0
  9
$DIMALTF
 40
0.0393700787
  9
$DIMTXT
 40
1.6062025974
  9
$DIMTOL
 70
1
  9
$DIMLIM
 70
0
  9
$DIMTFAC
 40
1.0
  9
$DIMTP
 40
0.01
  9
$DIMTM
 40
0.01
  9
$DIMGAP
 40
0.625
  9
$DIMDSEP
 70
46
  9
$AUNITS
 70
0
  9
$PDMODE
 70
3
  9
$PDSIZE
 40
0.3125
  9
$HANDSEED
  5
256
  9
$TILEMODE
 70
1
  9
$MEASUREMENT
 70
1
  9
$INSUNITS
 70
4
  0
ENDSEC
  0
SECTION
  2
CLASSES
  0
CLASS
  1
ACDBDICTIONARYWDFLT
  2
AcDbDictionaryWithDefault
  3
AutoCAD 2000
 90
0
 91
1
280
0
281
0
  0
CLASS
  1
ACDBPLACEHOLDER
  2
AcDbPlaceHolder
  3
AutoCAD 2000
 90
0
 91
1
280
0
281
0
  0
CLASS
  1
LAYOUT
  2
AcDbLayout
  3
AutoCAD 2000
 90
0
 91
0
280
0
281
0
  0
ENDSEC
  0
SECTION
  2
TABLES
  0
TABLE
  2
VPORT
  5
8
100
AcDbSymbolTable
 70
2
  0
VPORT
  5
1F4
100
AcDbSymbolTableRecord
100
AcDbViewportTableRecord
  2
*ACTIVE
 70
0
 10
0.0
 20
0.0
 11
1.0
 21
1.0
 12
48.1860779226
 22
68.1488816333
 13
0.0
 23
0.0
 14
1.0
 24
1.0
 15
0.0
 25
0.0
 16
0.0
 26
0.0
 36
1.0
 17
0.0
 27
0.0
 37
0.0
 40
136.2977632667
 41
0.7070707071
 42
50.0
 43
0.0
 44
0.0
 50
0.0
 51
0.0
 71
0
 72
100
 73
1
 74
1
 75
0
 76
0
 77
0
 78
0
  0
ENDTAB
  0
TABLE
  2
LTYPE
  5
5
100
AcDbSymbolTable
 70
6
  0
LTYPE
  5
14
100
AcDbSymbolTableRecord
100
AcDbLinetypeTableRecord
  2
BYBLOCK
 70
0
  3

 72
65
 73
0
 40
0.0
  0
LTYPE
  5
15
100
AcDbSymbolTableRecord
100
AcDbLinetypeTableRecord
  2
BYLAYER
 70
0
  3

 72
65
 73
0
 40
0.0
  0
LTYPE
  5
16
100
AcDbSymbolTableRecord
100
AcDbLinetypeTableRecord
  2
CONTINUOUS
 70
64
  3
Solid line
 72
65
 73
0
 40
0.0
  0
LTYPE
  5
1F5
100
AcDbSymbolTableRecord
100
AcDbLinetypeTableRecord
  2
CENTER
 70
64
  3
____ _ ____ _ ____ _ ____ _ ____ _ ____ _ ____
 72
65
 73
4
 40
0.6
 49
0.375
 74
0
 49
-0.075
 74
0
 49
0.075
 74
0
 49
-0.075
 74
0
  0
LTYPE
  5
1F6
100
AcDbSymbolTableRecord
100
AcDbLinetypeTableRecord
  2
HIDDEN
 70
64
  3
- - - - - - - - - - - - - - - - - - - -
 72
65
 73
2
 40
0.2
 49
0.1
 74
0
 49
-0.1
 74
0
  0
LTYPE
  5
1F7
100
AcDbSymbolTableRecord
100
AcDbLinetypeTableRecord
  2
PHANTOM
 70
64
  3
_____ _ _ _____ _ _ _____ _ _ _____
 72
65
 73
6
 40
0.8
 49
0.45
 74
0
 49
-0.05
 74
0
 49
0.1
 74
0
 49
-0.05
 74
0
 49
0.1
 74
0
 49
-0.05
 74
0
  0
LTYPE
  5
1F8
100
AcDbSymbolTableRecord
100
AcDbLinetypeTableRecord
  2
DOT
 70
64
  3
. . . . . . . . . . . . . . . . . . . .
 72
65
 73
2
 40
0.2
 49
0.1
 74
0
 49
-0.1
 74
0
  0
LTYPE
  5
1F9
100
AcDbSymbolTableRecord
100
AcDbLinetypeTableRecord
  2
DASHED
 70
64
  3
- - - - - - - - - - - - - - - - - - - -
 72
65
 73
2
 40
0.2
 49
0.1
 74
0
 49
-0.1
 74
0
  0
ENDTAB
  0
TABLE
  2
LAYER
  5
2
100
AcDbSymbolTable
 70
36
  0
LAYER
  5
10
100
AcDbSymbolTableRecord
100
AcDbLayerTableRecord
  2
0
 70
0
 62
7
  6
CONTINUOUS
370
-3
390
F
  0
LAYER
  5
1FA
100
AcDbSymbolTableRecord
100
AcDbLayerTableRecord
  2
DEFAULT_1
 70
0
 62
7
  6
CENTER
370
-3
390
F
  0
LAYER
  5
1FB
100
AcDbSymbolTableRecord
100
AcDbLayerTableRecord
  2
DEFAULT_2
 70
0
 62
7
  6
HIDDEN
370
-3
390
F
  0
LAYER
  5
1FC
100
AcDbSymbolTableRecord
100
AcDbLayerTableRecord
  2
DEFAULT_3
 70
0
 62
7
  6
PHANTOM
370
-3
390
F
  0
LAYER
  5
1FD
100
AcDbSymbolTableRecord
100
AcDbLayerTableRecord
  2
00_COMPONENTS
 70
0
 62
7
  6
CONTINUOUS
370
-3
390
F
  0
LAYER
  5
1FE
100
AcDbSymbolTableRecord
100
AcDbLayerTableRecord
  2
01_1_DEFAULT_DATUMS
 70
0
 62
7
  6
CONTINUOUS
370
-3
390
F
  0
LAYER
  5
1FF
100
AcDbSymbolTableRecord
100
AcDbLayerTableRecord
  2
01_PLANES
 70
0
 62
7
  6
CONTINUOUS
370
-3
390
F
  0
LAYER
  5
200
100
AcDbSymbolTableRecord
100
AcDbLayerTableRecord
  2
02_COORD_SYS
 70
0
 62
7
  6
CONTINUOUS
370
-3
390
F
  0
LAYER
  5
201
100
AcDbSymbolTableRecord
100
AcDbLayerTableRecord
  2
03_AXES
 70
0
 62
7
  6
CONTINUOUS
370
-3
390
F
  0
LAYER
  5
202
100
AcDbSymbolTableRecord
100
AcDbLayerTableRecord
  2
04_POINTS
 70
0
 62
7
  6
CONTINUOUS
370
-3
390
F
  0
LAYER
  5
203
100
AcDbSymbolTableRecord
100
AcDbLayerTableRecord
  2
05_CURVES
 70
0
 62
7
  6
CONTINUOUS
370
-3
390
F
  0
LAYER
  5
204
100
AcDbSymbolTableRecord
100
AcDbLayerTableRecord
  2
06_SURFS
 70
0
 62
7
  6
CONTINUOUS
370
-3
390
F
  0
LAYER
  5
205
100
AcDbSymbolTableRecord
100
AcDbLayerTableRecord
  2
07_COSMETICS
 70
0
 62
7
  6
CONTINUOUS
370
-3
390
F
  0
LAYER
  5
206
100
AcDbSymbolTableRecord
100
AcDbLayerTableRecord
  2
10_NOTES
 70
0
 62
7
  6
CONTINUOUS
370
-3
390
F
  0
LAYER
  5
207
100
AcDbSymbolTableRecord
100
AcDbLayerTableRecord
  2
11_NOTES_PUB
 70
0
 62
7
  6
CONTINUOUS
370
-3
390
F
  0
LAYER
  5
208
100
AcDbSymbolTableRecord
100
AcDbLayerTableRecord
  2
13_REF_GTOL
 70
0
 62
7
  6
CONTINUOUS
370
-3
390
F
  0
LAYER
  5
209
100
AcDbSymbolTableRecord
100
AcDbLayerTableRecord
  2
16_MISC
 70
0
 62
7
  6
CONTINUOUS
370
-3
390
F
  0
LAYER
  5
20A
100
AcDbSymbolTableRecord
100
AcDbLayerTableRecord
  2
17_NO_PRINT
 70
0
 62
7
  6
CONTINUOUS
370
-3
390
F
  0
LAYER
  5
20B
100
AcDbSymbolTableRecord
100
AcDbLayerTableRecord
  2
18_DATUM_CAMS_JOINTS
 70
0
 62
7
  6
CONTINUOUS
370
-3
390
F
  0
LAYER
  5
20C
100
AcDbSymbolTableRecord
100
AcDbLayerTableRecord
  2
19_DATUM_FUNCTIONAL
 70
0
 62
7
  6
CONTINUOUS
370
-3
390
F
  0
LAYER
  5
20D
100
AcDbSymbolTableRecord
100
AcDbLayerTableRecord
  2
20_DATUM_KINEMATIC_SCHEME
 70
0
 62
7
  6
CONTINUOUS
370
-3
390
F
  0
ENDTAB
  0
TABLE
  2
STYLE
  5
3
100
AcDbSymbolTable
 70
1
  0
STYLE
  5
11
100
AcDbSymbolTableRecord
100
AcDbTextStyleTableRecord
  2
STANDARD
 70
0
 40
0.0
 41
1.0
 50
0.0
 71
0
 42
0.2
  3
ARIAL.TTF
  4

  0
STYLE
  5
20E
100
AcDbSymbolTableRecord
100
AcDbTextStyleTableRecord
  2
TEXTSTYLE_1
 70
0
 40
0.0
 41
0.8
 50
0.0
 71
0
 42
0.2
  3
gdt
  4

  0
ENDTAB
  0
TABLE
  2
VIEW
  5
6
100
AcDbSymbolTable
 70
0
  0
ENDTAB
  0
TABLE
  2
UCS
  5
7
100
AcDbSymbolTable
 70
0
  0
ENDTAB
  0
TABLE
  2
APPID
  5
9
100
AcDbSymbolTable
 70
1
  0
APPID
  5
20F
100
AcDbSymbolTableRecord
100
AcDbRegAppTableRecord
  2
ACAD
 70
0
  0
ENDTAB
  0
TABLE
  2
BLOCK_RECORD
  5
1
100
AcDbSymbolTable
 70
0
  0
BLOCK_RECORD
  5
210
100
AcDbSymbolTableRecord
100
AcDbBlockTableRecord
  2
*Model_Space
  0
BLOCK_RECORD
  5
211
100
AcDbSymbolTableRecord
100
AcDbBlockTableRecord
  2
*Paper_Space
  0
BLOCK_RECORD
  5
212
100
AcDbSymbolTableRecord
100
AcDbBlockTableRecord
  2
_FILLED
  0
ENDTAB
  0
TABLE
  2
DIMSTYLE
  5
A
100
AcDbSymbolTable
 70
1
100
AcDbDimStyleTable
 71
0
  0
DIMSTYLE
105
213
100
AcDbSymbolTableRecord
100
AcDbDimStyleTableRecord
  2
STANDARD
 70
0
  3

  4

 40
1.0
 41
1.1472875696
 42
1.0
 43
0.38
 44
1.0
 45
0.0
 46
0.0
 47
0.01
 48
0.01
140
1.6062025974
141
0.09
142
0.0
143
25.4
144
1.0
145
0.0
146
1.0
147
0.625
 71
1
 72
0
 73
0
 74
0
 75
0
 76
0
 77
1
 78
8
 79
2
170
0
171
1
172
0
173
0
174
0
175
0
176
0
177
0
178
0
270
2
179
2
271
2
272
2
273
2
274
2
275
0
280
0
281
0
282
0
283
1
284
8
285
0
286
0
287
3
288
0
340
11
278
46
341
212
342
212
343
212
344
212
  0
ENDTAB
  0
ENDSEC
  0
SECTION
  2
BLOCKS
  0
BLOCK
  5
20
100
AcDbEntity
  8
0
100
AcDbBlockBegin
  2
*Model_Space
 70
0
 10
0.0
 20
0.0
 30
0.0
  3
*Model_Space
  1

  0
ENDBLK
  5
21
100
AcDbEntity
  8
0
100
AcDbBlockEnd
  0
BLOCK
  5
1C
100
AcDbEntity
  8
0
100
AcDbBlockBegin
  2
*Paper_Space
 70
0
 10
0.0
 20
0.0
 30
0.0
  3
*Paper_Space
  1

  0
ENDBLK
  5
1D
100
AcDbEntity
  8
0
100
AcDbBlockEnd
  0
BLOCK
  5
214
100
AcDbEntity
  8
0
100
AcDbBlockBegin
  2
_FILLED
 70
64
 10
0.0
 20
0.0
  3
_FILLED
  1

  0
SOLID
  5
215
100
AcDbEntity
  8
0
  6
BYBLOCK
 62
0
100
AcDbTrace
 10
0.0
 20
0.0
 11
-1.0
 21
0.25
 12
-1.0
 22
-0.25
 13
-1.0
 23
-0.25
  0
ENDBLK
  5
216
100
AcDbEntity
  8
0
  6
BYBLOCK
 62
0
100
AcDbBlockEnd
  0
ENDSEC
  0
SECTION
  2
ENTITIES
  0
LINE
  5
217
100
AcDbEntity
  8
0
100
AcDbLine
 62
7
  6
BYLAYER
 10
10.2329063887
 20
100.5056831034
 11
10.2329063887
 21
74.3525358886
  0
LINE
  5
218
100
AcDbEntity
  8
0
100
AcDbLine
 62
7
  6
BYLAYER
 10
12.7497872888
 20
74.3525358886
 11
12.7497872888
 21
83.8805201431
  0
LINE
  5
219
100
AcDbEntity
  8
0
100
AcDbLine
 62
7
  6
BYLAYER
 10
12.7497872888
 20
96.8245516341
 11
12.7497872888
 21
102.3525358886
  0
LINE
  5
21A
100
AcDbEntity
  8
0
100
AcDbLine
 62
7
  6
BYLAYER
 10
68.9929037117
 20
34.6125358886
 11
84.4729037117
 21
34.6125358886
  0
LINE
  5
21B
100
AcDbEntity
  8
0
100
AcDbLine
 62
7
  6
BYLAYER
 10
84.4729037117
 20
36.6125358886
 11
68.9929037117
 21
36.6125358886
  0
LINE
  5
21C
100
AcDbEntity
  8
0
100
AcDbLine
 62
7
  6
BYLAYER
 10
19.576593086
 20
102.3525358886
 11
19.576593086
 21
97.7394537347
  0
LINE
  5
21D
100
AcDbEntity
  8
0
100
AcDbLine
 62
7
  6
BYLAYER
 10
19.576593086
 20
79.1656180425
 11
19.576593086
 21
74.3525358886
  0
LINE
  5
21E
100
AcDbEntity
  8
0
100
AcDbLine
 62
7
  6
BYLAYER
 10
23.9329037117
 20
102.3525358886
 11
23.9329037117
 21
74.3525358886
  0
LINE
  5
21F
100
AcDbEntity
  8
0
100
AcDbLine
 62
7
  6
BYLAYER
 10
26.7329037117
 20
74.3525358886
 11
26.7329037117
 21
102.3525358886
  0
LINE
  5
220
100
AcDbEntity
  8
0
100
AcDbLine
 62
7
  6
BYLAYER
 10
68.9929037117
 20
52.0925358886
 11
84.4729037117
 21
52.0925358886
  0
LINE
  5
221
100
AcDbEntity
  8
0
100
AcDbLine
 62
7
  6
BYLAYER
 10
84.4729037117
 20
54.0925358886
 11
68.9929037117
 21
54.0925358886
  0
LINE
  5
222
100
AcDbEntity
  8
0
100
AcDbLine
 62
7
  6
BYLAYER
 10
46.7329037117
 20
102.3525358886
 11
46.7329037117
 21
74.3525358886
  0
LINE
  5
223
100
AcDbEntity
  8
0
100
AcDbLine
 62
7
  6
BYLAYER
 10
49.5329037117
 20
74.3525358886
 11
49.5329037117
 21
102.3525358886
  0
LINE
  5
224
100
AcDbEntity
  8
0
100
AcDbLine
 62
7
  6
BYLAYER
 10
68.9929037117
 20
52.0925358886
 11
67.5786901493
 21
53.506749451
  0
LINE
  5
225
100
AcDbEntity
  8
0
100
AcDbLine
 62
7
  6
BYLAYER
 10
84.4729037117
 20
36.6125358886
 11
85.8871172741
 21
35.1983223262
  0
LINE
  5
226
100
AcDbEntity
  8
0
100
AcDbLine
 62
7
  6
BYLAYER
 10
53.8892143373
 20
74.3525358886
 11
53.8892143373
 21
79.1656180425
  0
LINE
  5
227
100
AcDbEntity
  8
0
100
AcDbLine
 62
7
  6
BYLAYER
 10
53.8892143373
 20
97.7394537347
 11
53.8892143373
 21
102.3525358886
  0
LINE
  5
228
100
AcDbEntity
  8
0
100
AcDbLine
 62
7
  6
BYLAYER
 10
63.2329010347
 20
74.3525358886
 11
10.2329063887
 21
74.3525358886
  0
LINE
  5
229
100
AcDbEntity
  8
0
100
AcDbLine
 62
7
  6
BYLAYER
 10
23.9113849384
 20
76.4525358886
 11
23.9329037117
 21
76.4525358886
  0
LINE
  5
22A
100
AcDbEntity
  8
0
100
AcDbLine
 62
7
  6
BYLAYER
 10
60.7160201346
 20
102.3525358886
 11
60.7160201346
 21
96.8245516341
  0
LINE
  5
22B
100
AcDbEntity
  8
0
100
AcDbLine
 62
7
  6
BYLAYER
 10
60.7160201346
 20
83.8805201431
 11
60.7160201346
 21
74.3525358886
  0
LINE
  5
22C
100
AcDbEntity
  8
0
100
AcDbLine
 62
7
  6
BYLAYER
 10
63.2329010347
 20
74.3525358886
 11
63.2329010347
 21
100.5056831034
  0
LINE
  5
22D
100
AcDbEntity
  8
0
100
AcDbLine
 62
7
  6
BYLAYER
 10
10.2329063887
 20
83.7732665011
 11
10.4408330608
 21
83.7732665011
  0
LINE
  5
22E
100
AcDbEntity
  8
0
100
AcDbLine
 62
7
  6
BYLAYER
 10
63.0249743625
 20
83.7732665011
 11
63.2329010347
 21
83.7732665011
  0
LINE
  5
22F
100
AcDbEntity
  8
0
100
AcDbLine
 62
7
  6
BYLAYER
 10
66.9929037117
 20
52.0925358886
 11
66.9929037117
 21
36.6125358886
  0
LINE
  5
230
100
AcDbEntity
  8
0
100
AcDbLine
 62
7
  6
BYLAYER
 10
68.9929037117
 20
36.6125358886
 11
68.9929037117
 21
52.0925358886
  0
LINE
  5
231
100
AcDbEntity
  8
0
100
AcDbLine
 62
7
  6
BYLAYER
 10
63.2329010347
 20
96.931805276
 11
63.0249743625
 21
96.931805276
  0
LINE
  5
232
100
AcDbEntity
  8
0
100
AcDbLine
 62
7
  6
BYLAYER
 10
10.4408330608
 20
96.931805276
 11
10.2329063887
 21
96.931805276
  0
LINE
  5
233
100
AcDbEntity
  8
0
100
AcDbLine
 62
7
  6
BYLAYER
 10
49.5544224849
 20
100.4525358886
 11
49.5329037117
 21
100.4525358886
  0
LINE
  5
234
100
AcDbEntity
  8
0
100
AcDbLine
 62
7
  6
BYLAYER
 10
12.0829037117
 20
102.3525358886
 11
61.3829037117
 21
102.3525358886
  0
LINE
  5
235
100
AcDbEntity
  8
0
100
AcDbLine
 62
7
  6
BYLAYER
 10
84.4729037117
 20
52.0925358886
 11
84.4729037117
 21
36.6125358886
  0
LINE
  5
236
100
AcDbEntity
  8
0
100
AcDbLine
 62
7
  6
BYLAYER
 10
85.8871172741
 20
53.506749451
 11
84.4729037117
 21
52.0925358886
  0
LINE
  5
237
100
AcDbEntity
  8
0
100
AcDbLine
 62
7
  6
BYLAYER
 10
67.5786901493
 20
35.1983223262
 11
68.9929037117
 21
36.6125358886
  0
LINE
  5
238
100
AcDbEntity
  8
0
100
AcDbLine
 62
7
  6
BYLAYER
 10
86.4729037117
 20
36.6125358886
 11
86.4729037117
 21
52.0925358886
  0
ARC
  5
239
100
AcDbEntity
  8
0
100
AcDbCircle
 62
7
  6
BYLAYER
 10
62.8798180728
 20
105.555531542
 40
21.7827486938
100
AcDbArc
 50
250.0105975103
 51
270.3818115172
  0
ARC
  5
23A
100
AcDbEntity
  8
0
100
AcDbCircle
 62
7
  6
BYLAYER
 10
62.8798180728
 20
75.1495402352
 40
21.7827486938
100
AcDbArc
 50
89.6181884828
 51
109.9894024897
  0
ARC
  5
23B
100
AcDbEntity
  8
0
100
AcDbCircle
 62
7
  6
BYLAYER
 10
10.5859893506
 20
75.1495402352
 40
21.7827486938
100
AcDbArc
 50
70.0105975103
 51
90.3818115172
  0
ARC
  5
23C
100
AcDbEntity
  8
0
100
AcDbCircle
 62
7
  6
BYLAYER
 10
10.5859893506
 20
105.555531542
 40
21.7827486938
100
AcDbArc
 50
269.6181884828
 51
289.9894024897
  0
ARC
  5
23D
100
AcDbEntity
  8
0
100
AcDbCircle
 62
7
  6
BYLAYER
 10
57.893039196
 20
86.875112273
 40
9.0841989833
100
AcDbArc
 50
105.7090777197
 51
138.6587590406
  0
ARC
  5
23E
100
AcDbEntity
  8
0
100
AcDbCircle
 62
7
  6
BYLAYER
 10
57.893039196
 20
93.8299595042
 40
9.0841989833
100
AcDbArc
 50
221.3412409594
 51
254.2909222803
  0
ARC
  5
23F
100
AcDbEntity
  8
0
100
AcDbCircle
 62
7
  6
BYLAYER
 10
15.5727682274
 20
86.875112273
 40
9.0841989833
100
AcDbArc
 50
41.3412409594
 51
74.2909222803
  0
ARC
  5
240
100
AcDbEntity
  8
0
100
AcDbCircle
 62
7
  6
BYLAYER
 10
15.5727682274
 20
93.8299595042
 40
9.0841989833
100
AcDbArc
 50
285.7090777197
 51
318.6587590406
  0
CIRCLE
  5
241
100
AcDbEntity
  8
0
100
AcDbCircle
 62
7
  6
BYLAYER
 10
36.7329037117
 20
88.4525358886
 40
6.14
  0
ARC
  5
242
100
AcDbEntity
  8
0
100
AcDbCircle
 62
7
  6
BYLAYER
 10
53.91674686
 20
90.3525358886
 40
3.8018901205
100
AcDbArc
 50
138.4221823875
 51
221.5778176126
  0
ARC
  5
243
100
AcDbEntity
  8
0
100
AcDbCircle
 62
7
  6
BYLAYER
 10
19.5490605633
 20
90.3525358886
 40
3.8018901205
100
AcDbArc
 50
318.4221823875
 51
41.5778176126
  0
CIRCLE
  5
244
100
AcDbEntity
  8
0
100
AcDbCircle
 62
7
  6
BYLAYER
 10
56.7329037117
 20
90.3525358886
 40
3.25
  0
CIRCLE
  5
245
100
AcDbEntity
  8
0
100
AcDbCircle
 62
7
  6
BYLAYER
 10
16.7329037117
 20
90.3525358886
 40
3.25
  0
ARC
  5
246
100
AcDbEntity
  8
0
100
AcDbCircle
 62
7
  6
BYLAYER
 10
68.9929037117
 20
52.0925358886
 40
2.0
100
AcDbArc
 50
90.0
 51
180.0
  0
ARC
  5
247
100
AcDbEntity
  8
0
100
AcDbCircle
 62
7
  6
BYLAYER
 10
68.9929037117
 20
36.6125358886
 40
2.0
100
AcDbArc
 50
180.0
 51
270.0
  0
ARC
  5
248
100
AcDbEntity
  8
0
100
AcDbCircle
 62
7
  6
BYLAYER
 10
84.4729037117
 20
36.6125358886
 40
2.0
100
AcDbArc
 50
270.0
 51
360.0
  0
ARC
  5
249
100
AcDbEntity
  8
0
100
AcDbCircle
 62
7
  6
BYLAYER
 10
84.4729037117
 20
52.0925358886
 40
2.0
100
AcDbArc
 50
0.0
 51
90.0
  0
ARC
  5
24A
100
AcDbEntity
  8
0
100
AcDbCircle
 62
7
  6
BYLAYER
 10
12.0829037117
 20
100.5025358886
 40
1.85
100
AcDbArc
 50
90.0
 51
179.9025285345
  0
ARC
  5
24B
100
AcDbEntity
  8
0
100
AcDbCircle
 62
7
  6
BYLAYER
 10
61.3829037117
 20
100.5025358886
 40
1.85
100
AcDbArc
 50
0.0974714655
 51
90.0
  0
SPLINE
  5
24C
100
AcDbEntity
  8
0
100
AcDbSpline
 62
7
  6
BYLAYER
 70
0
 71
3
 72
11
 73
7
 74
0
 42
0.0000001
 43
0.0000001
 44
0.0000000001
 40
0.0
 40
0.0
 40
0.0
 40
0.0
 40
0.241649165
 40
0.4878659157
 40
0.7401064598
 40
1.0
 40
1.0
 40
1.0
 40
1.0
 10
53.8892143373
 20
79.1656180425
 30
0.0
 10
54.4008764374
 20
79.4519122559
 30
0.0
 10
55.4064965568
 20
80.0809312742
 30
0.0
 10
56.8164763269
 20
81.1998994591
 30
0.0
 10
58.0999291602
 20
82.5263685741
 30
0.0
 10
58.8173838501
 20
83.5501327812
 30
0.0
 10
59.1294846153
 20
84.0980587268
 30
0.0
  0
SPLINE
  5
24D
100
AcDbEntity
  8
0
100
AcDbSpline
 62
7
  6
BYLAYER
 70
0
 71
3
 72
22
 73
18
 74
0
 42
0.0000001
 43
0.0000001
 44
0.0000000001
 40
0.0
 40
0.0
 40
0.0
 40
0.0
 40
0.004723577
 40
0.0114739908
 40
0.0203294036
 40
0.0313055353
 40
0.0595696524
 40
0.0959889903
 40
0.1401531048
 40
0.191606832
 40
0.2498375848
 40
0.3143242922
 40
0.3845620152
 40
0.4600595392
 40
0.6249892991
 40
0.8059269948
 40
1.0
 40
1.0
 40
1.0
 40
1.0
 10
49.5545810295
 20
76.4525358886
 30
0.0
 10
49.5626429164
 20
76.4525358886
 30
0.0
 10
49.5820863032
 20
76.4564945532
 30
0.0
 10
49.6147703856
 20
76.4680577207
 30
0.0
 10
49.6562306867
 20
76.4866336033
 30
0.0
 10
49.72936508
 20
76.5239206294
 30
0.0
 10
49.8412334685
 20
76.588570305
 30
0.0
 10
49.9991032529
 20
76.6864914578
 30
0.0
 10
50.1883350967
 20
76.8088895157
 30
0.0
 10
50.4072574014
 20
76.9538743727
 30
0.0
 10
50.6541870127
 20
77.1193805395
 30
0.0
 10
50.9273697116
 20
77.303295359
 30
0.0
 10
51.225180995
 20
77.5033982303
 30
0.0
 10
51.666287381
 20
77.7976107349
 30
0.0
 10
52.2680072677
 20
78.191520067
 30
0.0
 10
53.0489779574
 20
78.680859548
 30
0.0
 10
53.6013233153
 20
79.0045565824
 30
0.0
 10
53.8903812121
 20
79.1662953612
 30
0.0
  0
SPLINE
  5
24E
100
AcDbEntity
  8
0
100
AcDbSpline
 62
7
  6
BYLAYER
 70
0
 71
3
 72
22
 73
18
 74
0
 42
0.0000001
 43
0.0000001
 44
0.0000000001
 40
0.0
 40
0.0
 40
0.0
 40
0.0
 40
0.0047235944
 40
0.0114740148
 40
0.0203294236
 40
0.0313055416
 40
0.0595696054
 40
0.0959888642
 40
0.1401528812
 40
0.1916065026
 40
0.2498371515
 40
0.3143237653
 40
0.3845614093
 40
0.4600588726
 40
0.6249885757
 40
0.8059263945
 40
1.0
 40
1.0
 40
1.0
 40
1.0
 10
23.9112263938
 20
100.4525358886
 30
0.0
 10
23.9031646087
 20
100.4525358886
 30
0.0
 10
23.883721494
 20
100.448577319
 30
0.0
 10
23.8510378878
 20
100.4370143899
 30
0.0
 10
23.8095782472
 20
100.4184388917
 30
0.0
 10
23.7364450946
 20
100.3811526424
 30
0.0
 10
23.6245786625
 20
100.3165042867
 30
0.0
 10
23.4667116923
 20
100.2185850839
 30
0.0
 10
23.2774832509
 20
100.0961894149
 30
0.0
 10
23.0585648843
 20
99.95120731
 30
0.0
 10
22.8116396848
 20
99.7857041911
 30
0.0
 10
22.5384618141
 20
99.6017926541
 30
0.0
 10
22.240655748
 20
99.4016932159
 30
0.0
 10
21.7995569674
 20
99.1074854847
 30
0.0
 10
21.1978472442
 20
98.7135820129
 30
0.0
 10
20.4168892324
 20
98.2242484539
 30
0.0
 10
19.8645515488
 20
97.9005564067
 30
0.0
 10
19.5754966389
 20
97.7388212456
 30
0.0
  0
SPLINE
  5
24F
100
AcDbEntity
  8
0
100
AcDbSpline
 62
7
  6
BYLAYER
 70
0
 71
3
 72
9
 73
5
 74
0
 42
0.0000001
 43
0.0000001
 44
0.0000000001
 40
0.0
 40
0.0
 40
0.0
 40
0.0
 40
0.2472529484
 40
1.0
 40
1.0
 40
1.0
 40
1.0
 10
19.576593086
 20
97.7394537347
 30
0.0
 10
19.3516905896
 20
97.6136138329
 30
0.0
 10
18.4532253332
 20
97.0852635869
 30
0.0
 10
17.6025034051
 20
96.4736631096
 30
0.0
 10
17.0051473157
 20
95.9649804582
 30
0.0
  0
SPLINE
  5
250
100
AcDbEntity
  8
0
100
AcDbSpline
 62
7
  6
BYLAYER
 70
0
 71
3
 72
22
 73
18
 74
0
 42
0.0000001
 43
0.0000001
 44
0.0000000001
 40
0.0
 40
0.0
 40
0.0
 40
0.0
 40
0.1940737757
 40
0.3750119058
 40
0.5399417009
 40
0.6154391476
 40
0.6856767892
 40
0.7501633231
 40
0.8083938595
 40
0.8598474009
 40
0.904011357
 40
0.9404305232
 40
0.9686945813
 40
0.9796706799
 40
0.9885260497
 40
0.9952764299
 40
1.0
 40
1.0
 40
1.0
 40
1.0
 10
53.8903081097
 20
97.7388229359
 30
0.0
 10
53.6012530911
 20
97.9005580844
 30
0.0
 10
53.0489148838
 20
98.2242500994
 30
0.0
 10
52.267956696
 20
98.7135841648
 30
0.0
 10
51.6662466243
 20
99.1074875077
 30
0.0
 10
51.2251481061
 20
99.4016952757
 30
0.0
 10
50.9273423373
 20
99.6017944617
 30
0.0
 10
50.6541650995
 20
99.7857059843
 30
0.0
 10
50.4072405086
 20
99.9512088518
 30
0.0
 10
50.1883226757
 20
100.096190688
 30
0.0
 10
49.99909474
 20
100.2185861571
 30
0.0
 10
49.8412278999
 20
100.3165048408
 30
0.0
 10
49.7293616962
 20
100.3811530259
 30
0.0
 10
49.6562286825
 20
100.4184391995
 30
0.0
 10
49.6147692033
 20
100.4370145773
 30
0.0
 10
49.5820857617
 20
100.44857739
 30
0.0
 10
49.562642763
 20
100.4525358886
 30
0.0
 10
49.5545810243
 20
100.4525358886
 30
0.0
  0
SPLINE
  5
251
100
AcDbEntity
  8
0
100
AcDbSpline
 62
7
  6
BYLAYER
 70
0
 71
3
 72
22
 73
18
 74
0
 42
0.0000001
 43
0.0000001
 44
0.0000000001
 40
0.0
 40
0.0
 40
0.0
 40
0.0
 40
0.1940731544
 40
0.3750111572
 40
0.539941011
 40
0.6154385206
 40
0.685676244
 40
0.7501628747
 40
0.8083935186
 40
0.8598471695
 40
0.9040112266
 40
0.9404304746
 40
0.9686945878
 40
0.9796707006
 40
0.9885260745
 40
0.9952764479
 40
1.0
 40
1.0
 40
1.0
 40
1.0
 10
19.5754264473
 20
79.1662952269
 30
0.0
 10
19.8644845559
 20
79.0045563354
 30
0.0
 10
20.4168307021
 20
78.6808591585
 30
0.0
 10
21.1978020064
 20
78.1915189655
 30
0.0
 10
21.7995225938
 20
77.7976095592
 30
0.0
 10
22.2406289812
 20
77.5033968524
 30
0.0
 10
22.5384401482
 20
77.3032941143
 30
0.0
 10
22.8116223816
 20
77.1193791954
 30
0.0
 10
23.0585515371
 20
76.9538731743
 30
0.0
 10
23.2774734448
 20
76.8088884906
 30
0.0
 10
23.4667049007
 20
76.6864905498
 30
0.0
 10
23.6245746525
 20
76.5885698486
 30
0.0
 10
23.7364428806
 20
76.5239202977
 30
0.0
 10
23.8095771779
 20
76.4866333204
 30
0.0
 10
23.8510373405
 20
76.4680575448
 30
0.0
 10
23.8837212748
 20
76.4564944855
 30
0.0
 10
23.9031645551
 20
76.4525358886
 30
0.0
 10
23.911226399
 20
76.4525358886
 30
0.0
  0
SPLINE
  5
252
100
AcDbEntity
  8
0
100
AcDbSpline
 62
7
  6
BYLAYER
 70
0
 71
3
 72
11
 73
7
 74
0
 42
0.0000001
 43
0.0000001
 44
0.0000000001
 40
0.0
 40
0.0
 40
0.0
 40
0.0
 40
0.2598935302
 40
0.5121340652
 40
0.7583508235
 40
1.0
 40
1.0
 40
1.0
 40
1.0
 10
14.336322808
 20
84.0980587268
 30
0.0
 10
14.6484235613
 20
83.5501328022
 30
0.0
 10
15.3658782215
 20
82.526368632
 30
0.0
 10
16.64933102
 20
81.1998995218
 30
0.0
 10
18.0593108058
 20
80.0809313178
 30
0.0
 10
19.0649309573
 20
79.4519122617
 30
0.0
 10
19.576593086
 20
79.1656180425
 30
0.0
  0
SPLINE
  5
253
100
AcDbEntity
  8
0
100
AcDbSpline
 62
7
  6
BYLAYER
 70
0
 71
3
 72
9
 73
5
 74
0
 42
0.0000001
 43
0.0000001
 44
0.0000000001
 40
0.0
 40
0.0
 40
0.0
 40
0.0
 40
0.2532913524
 40
1.0
 40
1.0
 40
1.0
 40
1.0
 10
56.4606601076
 20
95.9649804582
 30
0.0
 10
56.259639649
 20
96.1361608005
 30
0.0
 10
55.4473260685
 20
96.7899445826
 30
0.0
 10
54.568480044
 20
97.359383738
 30
0.0
 10
53.8892143373
 20
97.7394537347
 30
0.0
  0
ENDSEC
  0
SECTION
  2
OBJECTS
  0
DICTIONARY
  5
C
100
AcDbDictionary
280
0
281
1
  3
ACAD_GROUP
350
D
  3
ACAD_MLINESTYLE
350
17
  3
ACAD_LAYOUT
350
1A
  3
ACAD_PLOTSETTINGS
350
19
  3
ACAD_PLOTSTYLENAME
350
E
  0
DICTIONARY
  5
D
102
{ACAD_REACTORS
330
C
102
}
100
AcDbDictionary
280
0
281
1
  0
ACDBDICTIONARYWDFLT
  5
E
102
{ACAD_REACTORS
330
C
102
}
100
AcDbDictionary
281
1
  3
Normal
350
F
100
AcDbDictionaryWithDefault
340
F
  0
DICTIONARY
  5
17
102
{ACAD_REACTORS
330
C
102
}
100
AcDbDictionary
280
0
281
1
  3
Standard
350
18
  0
DICTIONARY
  5
19
102
{ACAD_REACTORS
330
C
102
}
100
AcDbDictionary
281
1
  0
DICTIONARY
  5
1A
102
{ACAD_REACTORS
330
C
102
}
100
AcDbDictionary
281
1
  3
Model
350
254
  3
Layout1
350
255
  0
ACDBPLACEHOLDER
  5
F
102
{ACAD_REACTORS
330
E
102
}
  0
MLINESTYLE
  5
18
102
{ACAD_REACTORS
330
17
102
}
100
AcDbMlineStyle
  2
STANDARD
 70
0
  3

 62
256
 51
90.0
 52
90.0
 71
2
 49
0.5
 62
256
  6
BYLAYER
 49
-0.5
 62
256
  6
BYLAYER
  0
LAYOUT
  5
254
102
{ACAD_REACTORS
330
1A
102
}
100
AcDbPlotSettings
  1

  2
none_device
  4

  6

 40
0.0
 41
0.0
 42
0.0
 43
0.0
 44
210.0
 45
297.0
 46
0.0
 47
0.0
 48
0.0
 49
0.0
140
0.0
141
0.0
142
1.0
143
1.0
 70
1024
 72
1
 73
0
 74
0
  7

 75
0
147
1.0
148
0.0
149
0.0
100
AcDbLayout
  1
Model
 70
0
 71
0
 10
0.0
 20
0.0
 11
210.0
 21
297.0
 12
0.0
 22
0.0
 32
0.0
 14
0.0
 24
0.0
 34
0.0
 15
0.0
 25
0.0
 35
0.0
146
0.0
 13
0.0
 23
0.0
 33
0.0
 16
1.0
 26
0.0
 36
0.0
 17
0.0
 27
1.0
 37
0.0
 76
0
330
210
345
0
346
0
  0
LAYOUT
  5
255
102
{ACAD_REACTORS
330
1A
102
}
100
AcDbPlotSettings
  1

  2
none_device
  4

  6

 40
0.0
 41
0.0
 42
0.0
 43
0.0
 44
210.0
 45
297.0
 46
0.0
 47
0.0
 48
0.0
 49
0.0
140
0.0
141
0.0
142
1.0
143
1.0
 70
0
 72
1
 73
0
 74
0
  7

 75
0
147
1.0
148
0.0
149
0.0
100
AcDbLayout
  1
Layout1
 70
0
 71
1
 10
0.0
 20
0.0
 11
210.0
 21
297.0
 12
0.0
 22
0.0
 32
0.0
 14
0.0
 24
0.0
 34
0.0
 15
0.0
 25
0.0
 35
0.0
146
0.0
 13
0.0
 23
0.0
 33
0.0
 16
1.0
 26
0.0
 36
0.0
 17
0.0
 27
1.0
 37
0.0
 76
0
330
211
345
0
346
0
  0
ENDSEC
  0
EOF
