999
DXF file: C:\Users\sesa63760\Dev\_Creo\CAD\MCADID0004752_3D-CAD\drw0001_7.dxf
999
Pro/ENGINEER 2019471 by Parametric Technology Corporation
  0
SECTION
  2
HEADER
  9
$ACADVER
  1
AC1024
  9
$DWGCODEPAGE
  3
ANSI_1252
  9
$EXTMAX
 10
59.9797869284
 20
84.8285557987
 30
0.0
  9
$EXTMIN
 10
0.0
 20
0.0
 30
0.0
  9
$LIMMIN
 10
0.0
 20
0.0
  9
$LIMMAX
 10
59.9797869284
 20
84.8285557987
  9
$VIEWCTR
 10
29.9898934642
 20
42.4142778993
  9
$VIEWSIZE
 40
84.8285557987
  9
$CLAYER
  8
0
  9
$LTSCALE
 40
5.5295651187
  9
$CELTYPE
  6
BYLAYER
  9
$DIMSCALE
 40
1.0
  9
$DIMASZ
 40
0.7140450825
  9
$DIMEXO
 40
1.0
  9
$DIMDLI
 40
3.8204268093
  9
$DIMEXE
 40
1.0
  9
$DIMCEN
 40
0.9048379285
  9
$DIMLFAC
 40
1.0
  9
$DIMBLK
  1
_FILLED
  9
$DIMALT
 70
0
  9
$DIMALTF
 40
0.0393700787
  9
$DIMTXT
 40
0.9996631155
  9
$DIMTOL
 70
1
  9
$DIMLIM
 70
0
  9
$DIMTFAC
 40
1.0
  9
$DIMTP
 40
0.01
  9
$DIMTM
 40
0.01
  9
$DIMGAP
 40
0.625
  9
$DIMDSEP
 70
46
  9
$AUNITS
 70
0
  9
$PDMODE
 70
3
  9
$PDSIZE
 40
0.3125
  9
$HANDSEED
  5
251
  9
$TILEMODE
 70
1
  9
$MEASUREMENT
 70
1
  9
$INSUNITS
 70
4
  0
ENDSEC
  0
SECTION
  2
CLASSES
  0
CLASS
  1
ACDBDICTIONARYWDFLT
  2
AcDbDictionaryWithDefault
  3
AutoCAD 2000
 90
0
 91
1
280
0
281
0
  0
CLASS
  1
ACDBPLACEHOLDER
  2
AcDbPlaceHolder
  3
AutoCAD 2000
 90
0
 91
1
280
0
281
0
  0
CLASS
  1
LAYOUT
  2
AcDbLayout
  3
AutoCAD 2000
 90
0
 91
0
280
0
281
0
  0
ENDSEC
  0
SECTION
  2
TABLES
  0
TABLE
  2
VPORT
  5
8
100
AcDbSymbolTable
 70
2
  0
VPORT
  5
1F4
100
AcDbSymbolTableRecord
100
AcDbViewportTableRecord
  2
*ACTIVE
 70
0
 10
0.0
 20
0.0
 11
1.0
 21
1.0
 12
29.9898934642
 22
42.4142778993
 13
0.0
 23
0.0
 14
1.0
 24
1.0
 15
0.0
 25
0.0
 16
0.0
 26
0.0
 36
1.0
 17
0.0
 27
0.0
 37
0.0
 40
84.8285557987
 41
0.7070707071
 42
50.0
 43
0.0
 44
0.0
 50
0.0
 51
0.0
 71
0
 72
100
 73
1
 74
1
 75
0
 76
0
 77
0
 78
0
  0
ENDTAB
  0
TABLE
  2
LTYPE
  5
5
100
AcDbSymbolTable
 70
6
  0
LTYPE
  5
14
100
AcDbSymbolTableRecord
100
AcDbLinetypeTableRecord
  2
BYBLOCK
 70
0
  3

 72
65
 73
0
 40
0.0
  0
LTYPE
  5
15
100
AcDbSymbolTableRecord
100
AcDbLinetypeTableRecord
  2
BYLAYER
 70
0
  3

 72
65
 73
0
 40
0.0
  0
LTYPE
  5
16
100
AcDbSymbolTableRecord
100
AcDbLinetypeTableRecord
  2
CONTINUOUS
 70
64
  3
Solid line
 72
65
 73
0
 40
0.0
  0
LTYPE
  5
1F5
100
AcDbSymbolTableRecord
100
AcDbLinetypeTableRecord
  2
CENTER
 70
64
  3
____ _ ____ _ ____ _ ____ _ ____ _ ____ _ ____
 72
65
 73
4
 40
0.6
 49
0.375
 74
0
 49
-0.075
 74
0
 49
0.075
 74
0
 49
-0.075
 74
0
  0
LTYPE
  5
1F6
100
AcDbSymbolTableRecord
100
AcDbLinetypeTableRecord
  2
HIDDEN
 70
64
  3
- - - - - - - - - - - - - - - - - - - -
 72
65
 73
2
 40
0.2
 49
0.1
 74
0
 49
-0.1
 74
0
  0
LTYPE
  5
1F7
100
AcDbSymbolTableRecord
100
AcDbLinetypeTableRecord
  2
PHANTOM
 70
64
  3
_____ _ _ _____ _ _ _____ _ _ _____
 72
65
 73
6
 40
0.8
 49
0.45
 74
0
 49
-0.05
 74
0
 49
0.1
 74
0
 49
-0.05
 74
0
 49
0.1
 74
0
 49
-0.05
 74
0
  0
LTYPE
  5
1F8
100
AcDbSymbolTableRecord
100
AcDbLinetypeTableRecord
  2
DOT
 70
64
  3
. . . . . . . . . . . . . . . . . . . .
 72
65
 73
2
 40
0.2
 49
0.1
 74
0
 49
-0.1
 74
0
  0
LTYPE
  5
1F9
100
AcDbSymbolTableRecord
100
AcDbLinetypeTableRecord
  2
DASHED
 70
64
  3
- - - - - - - - - - - - - - - - - - - -
 72
65
 73
2
 40
0.2
 49
0.1
 74
0
 49
-0.1
 74
0
  0
ENDTAB
  0
TABLE
  2
LAYER
  5
2
100
AcDbSymbolTable
 70
36
  0
LAYER
  5
10
100
AcDbSymbolTableRecord
100
AcDbLayerTableRecord
  2
0
 70
0
 62
7
  6
CONTINUOUS
370
-3
390
F
  0
LAYER
  5
1FA
100
AcDbSymbolTableRecord
100
AcDbLayerTableRecord
  2
DEFAULT_1
 70
0
 62
7
  6
CENTER
370
-3
390
F
  0
LAYER
  5
1FB
100
AcDbSymbolTableRecord
100
AcDbLayerTableRecord
  2
DEFAULT_2
 70
0
 62
7
  6
HIDDEN
370
-3
390
F
  0
LAYER
  5
1FC
100
AcDbSymbolTableRecord
100
AcDbLayerTableRecord
  2
DEFAULT_3
 70
0
 62
7
  6
PHANTOM
370
-3
390
F
  0
LAYER
  5
1FD
100
AcDbSymbolTableRecord
100
AcDbLayerTableRecord
  2
00_COMPONENTS
 70
0
 62
7
  6
CONTINUOUS
370
-3
390
F
  0
LAYER
  5
1FE
100
AcDbSymbolTableRecord
100
AcDbLayerTableRecord
  2
01_1_DEFAULT_DATUMS
 70
0
 62
7
  6
CONTINUOUS
370
-3
390
F
  0
LAYER
  5
1FF
100
AcDbSymbolTableRecord
100
AcDbLayerTableRecord
  2
01_PLANES
 70
0
 62
7
  6
CONTINUOUS
370
-3
390
F
  0
LAYER
  5
200
100
AcDbSymbolTableRecord
100
AcDbLayerTableRecord
  2
02_COORD_SYS
 70
0
 62
7
  6
CONTINUOUS
370
-3
390
F
  0
LAYER
  5
201
100
AcDbSymbolTableRecord
100
AcDbLayerTableRecord
  2
03_AXES
 70
0
 62
7
  6
CONTINUOUS
370
-3
390
F
  0
LAYER
  5
202
100
AcDbSymbolTableRecord
100
AcDbLayerTableRecord
  2
04_POINTS
 70
0
 62
7
  6
CONTINUOUS
370
-3
390
F
  0
LAYER
  5
203
100
AcDbSymbolTableRecord
100
AcDbLayerTableRecord
  2
05_CURVES
 70
0
 62
7
  6
CONTINUOUS
370
-3
390
F
  0
LAYER
  5
204
100
AcDbSymbolTableRecord
100
AcDbLayerTableRecord
  2
06_SURFS
 70
0
 62
7
  6
CONTINUOUS
370
-3
390
F
  0
LAYER
  5
205
100
AcDbSymbolTableRecord
100
AcDbLayerTableRecord
  2
07_COSMETICS
 70
0
 62
7
  6
CONTINUOUS
370
-3
390
F
  0
LAYER
  5
206
100
AcDbSymbolTableRecord
100
AcDbLayerTableRecord
  2
10_NOTES
 70
0
 62
7
  6
CONTINUOUS
370
-3
390
F
  0
LAYER
  5
207
100
AcDbSymbolTableRecord
100
AcDbLayerTableRecord
  2
11_NOTES_PUB
 70
0
 62
7
  6
CONTINUOUS
370
-3
390
F
  0
LAYER
  5
208
100
AcDbSymbolTableRecord
100
AcDbLayerTableRecord
  2
13_REF_GTOL
 70
0
 62
7
  6
CONTINUOUS
370
-3
390
F
  0
LAYER
  5
209
100
AcDbSymbolTableRecord
100
AcDbLayerTableRecord
  2
16_MISC
 70
0
 62
7
  6
CONTINUOUS
370
-3
390
F
  0
LAYER
  5
20A
100
AcDbSymbolTableRecord
100
AcDbLayerTableRecord
  2
17_NO_PRINT
 70
0
 62
7
  6
CONTINUOUS
370
-3
390
F
  0
LAYER
  5
20B
100
AcDbSymbolTableRecord
100
AcDbLayerTableRecord
  2
18_DATUM_CAMS_JOINTS
 70
0
 62
7
  6
CONTINUOUS
370
-3
390
F
  0
LAYER
  5
20C
100
AcDbSymbolTableRecord
100
AcDbLayerTableRecord
  2
19_DATUM_FUNCTIONAL
 70
0
 62
7
  6
CONTINUOUS
370
-3
390
F
  0
LAYER
  5
20D
100
AcDbSymbolTableRecord
100
AcDbLayerTableRecord
  2
20_DATUM_KINEMATIC_SCHEME
 70
0
 62
7
  6
CONTINUOUS
370
-3
390
F
  0
ENDTAB
  0
TABLE
  2
STYLE
  5
3
100
AcDbSymbolTable
 70
1
  0
STYLE
  5
11
100
AcDbSymbolTableRecord
100
AcDbTextStyleTableRecord
  2
STANDARD
 70
0
 40
0.0
 41
1.0
 50
0.0
 71
0
 42
0.2
  3
ARIAL.TTF
  4

  0
STYLE
  5
20E
100
AcDbSymbolTableRecord
100
AcDbTextStyleTableRecord
  2
TEXTSTYLE_1
 70
0
 40
0.0
 41
0.8
 50
0.0
 71
0
 42
0.2
  3
gdt
  4

  0
ENDTAB
  0
TABLE
  2
VIEW
  5
6
100
AcDbSymbolTable
 70
0
  0
ENDTAB
  0
TABLE
  2
UCS
  5
7
100
AcDbSymbolTable
 70
0
  0
ENDTAB
  0
TABLE
  2
APPID
  5
9
100
AcDbSymbolTable
 70
1
  0
APPID
  5
20F
100
AcDbSymbolTableRecord
100
AcDbRegAppTableRecord
  2
ACAD
 70
0
  0
ENDTAB
  0
TABLE
  2
BLOCK_RECORD
  5
1
100
AcDbSymbolTable
 70
0
  0
BLOCK_RECORD
  5
210
100
AcDbSymbolTableRecord
100
AcDbBlockTableRecord
  2
*Model_Space
  0
BLOCK_RECORD
  5
211
100
AcDbSymbolTableRecord
100
AcDbBlockTableRecord
  2
*Paper_Space
  0
BLOCK_RECORD
  5
212
100
AcDbSymbolTableRecord
100
AcDbBlockTableRecord
  2
_FILLED
  0
ENDTAB
  0
TABLE
  2
DIMSTYLE
  5
A
100
AcDbSymbolTable
 70
1
100
AcDbDimStyleTable
 71
0
  0
DIMSTYLE
105
213
100
AcDbSymbolTableRecord
100
AcDbDimStyleTableRecord
  2
STANDARD
 70
0
  3

  4

 40
1.0
 41
0.7140450825
 42
1.0
 43
0.38
 44
1.0
 45
0.0
 46
0.0
 47
0.01
 48
0.01
140
0.9996631155
141
0.09
142
0.0
143
25.4
144
1.0
145
0.0
146
1.0
147
0.625
 71
1
 72
0
 73
0
 74
0
 75
0
 76
0
 77
1
 78
8
 79
2
170
0
171
1
172
0
173
0
174
0
175
0
176
0
177
0
178
0
270
2
179
2
271
2
272
2
273
2
274
2
275
0
280
0
281
0
282
0
283
1
284
8
285
0
286
0
287
3
288
0
340
11
278
46
341
212
342
212
343
212
344
212
  0
ENDTAB
  0
ENDSEC
  0
SECTION
  2
BLOCKS
  0
BLOCK
  5
20
100
AcDbEntity
  8
0
100
AcDbBlockBegin
  2
*Model_Space
 70
0
 10
0.0
 20
0.0
 30
0.0
  3
*Model_Space
  1

  0
ENDBLK
  5
21
100
AcDbEntity
  8
0
100
AcDbBlockEnd
  0
BLOCK
  5
1C
100
AcDbEntity
  8
0
100
AcDbBlockBegin
  2
*Paper_Space
 70
0
 10
0.0
 20
0.0
 30
0.0
  3
*Paper_Space
  1

  0
ENDBLK
  5
1D
100
AcDbEntity
  8
0
100
AcDbBlockEnd
  0
BLOCK
  5
214
100
AcDbEntity
  8
0
100
AcDbBlockBegin
  2
_FILLED
 70
64
 10
0.0
 20
0.0
  3
_FILLED
  1

  0
SOLID
  5
215
100
AcDbEntity
  8
0
  6
BYBLOCK
 62
0
100
AcDbTrace
 10
0.0
 20
0.0
 11
-1.0
 21
0.25
 12
-1.0
 22
-0.25
 13
-1.0
 23
-0.25
  0
ENDBLK
  5
216
100
AcDbEntity
  8
0
  6
BYBLOCK
 62
0
100
AcDbBlockEnd
  0
ENDSEC
  0
SECTION
  2
ENTITIES
  0
LINE
  5
217
100
AcDbEntity
  8
0
100
AcDbLine
 62
7
  6
BYLAYER
 10
14.368722792
 20
34.6219365423
 11
14.368722792
 21
36.2178961383
  0
LINE
  5
218
100
AcDbEntity
  8
0
100
AcDbLine
 62
7
  6
BYLAYER
 10
14.3687227858
 20
49.0259769464
 11
14.3687227858
 21
50.6219365423
  0
LINE
  5
219
100
AcDbEntity
  8
0
100
AcDbLine
 62
7
  6
BYLAYER
 10
14.3687227858
 20
34.6219365423
 11
37.0187227858
 21
34.6219365423
  0
LINE
  5
21A
100
AcDbEntity
  8
0
100
AcDbLine
 62
7
  6
BYLAYER
 10
37.7187227858
 20
34.7219365423
 11
37.2687227858
 21
34.7219365423
  0
LINE
  5
21B
100
AcDbEntity
  8
0
100
AcDbLine
 62
7
  6
BYLAYER
 10
14.3687227858
 20
36.2178961383
 11
37.0187227858
 21
36.2178961383
  0
LINE
  5
21C
100
AcDbEntity
  8
0
100
AcDbLine
 62
7
  6
BYLAYER
 10
38.4187227858
 20
37.4248219583
 11
43.8187442613
 21
37.4248219583
  0
LINE
  5
21D
100
AcDbEntity
  8
0
100
AcDbLine
 62
7
  6
BYLAYER
 10
44.8187227858
 20
39.0250628999
 11
51.0187324061
 21
39.0250628999
  0
LINE
  5
21E
100
AcDbEntity
  8
0
100
AcDbLine
 62
7
  6
BYLAYER
 10
8.3687205653
 20
42.6219364812
 11
6.3687249058
 21
42.6219365145
  0
LINE
  5
21F
100
AcDbEntity
  8
0
100
AcDbLine
 62
7
  6
BYLAYER
 10
51.0187324099
 20
46.2188101848
 11
44.8187227858
 21
46.2188101848
  0
LINE
  5
220
100
AcDbEntity
  8
0
100
AcDbLine
 62
7
  6
BYLAYER
 10
43.8187442646
 20
47.8190511264
 11
38.4187227858
 21
47.8190511264
  0
LINE
  5
221
100
AcDbEntity
  8
0
100
AcDbLine
 62
7
  6
BYLAYER
 10
37.0187227858
 20
49.0259769464
 11
14.3687227858
 21
49.0259769464
  0
LINE
  5
222
100
AcDbEntity
  8
0
100
AcDbLine
 62
7
  6
BYLAYER
 10
37.0187227858
 20
50.6219365423
 11
37.0187227858
 21
34.6219365423
  0
LINE
  5
223
100
AcDbEntity
  8
0
100
AcDbLine
 62
7
  6
BYLAYER
 10
37.2687227858
 20
34.7219365423
 11
37.2687227858
 21
50.5219365423
  0
LINE
  5
224
100
AcDbEntity
  8
0
100
AcDbLine
 62
7
  6
BYLAYER
 10
37.7187227858
 20
50.5219365423
 11
37.7187227858
 21
34.7219365423
  0
LINE
  5
225
100
AcDbEntity
  8
0
100
AcDbLine
 62
7
  6
BYLAYER
 10
38.3593964502
 20
50.233251731
 11
38.3593964502
 21
46.6257510851
  0
LINE
  5
226
100
AcDbEntity
  8
0
100
AcDbLine
 62
7
  6
BYLAYER
 10
38.3593964502
 20
46.2294367886
 11
38.3593964502
 21
39.0144358823
  0
LINE
  5
227
100
AcDbEntity
  8
0
100
AcDbLine
 62
7
  6
BYLAYER
 10
38.3593964502
 20
38.6181216
 11
38.3593964502
 21
35.0106213395
  0
LINE
  5
228
100
AcDbEntity
  8
0
100
AcDbLine
 62
7
  6
BYLAYER
 10
38.4187227858
 20
50.1411808485
 11
38.4187227858
 21
46.4863018544
  0
LINE
  5
229
100
AcDbEntity
  8
0
100
AcDbLine
 62
7
  6
BYLAYER
 10
38.4187227858
 20
46.1650523445
 11
38.4187227858
 21
39.0788207402
  0
LINE
  5
22A
100
AcDbEntity
  8
0
100
AcDbLine
 62
7
  6
BYLAYER
 10
38.4187227858
 20
38.7575712303
 11
38.4187227858
 21
35.1026922362
  0
LINE
  5
22B
100
AcDbEntity
  8
0
100
AcDbLine
 62
7
  6
BYLAYER
 10
37.7187227858
 20
50.5219365423
 11
37.2687227858
 21
50.5219365423
  0
LINE
  5
22C
100
AcDbEntity
  8
0
100
AcDbLine
 62
7
  6
BYLAYER
 10
37.0187227858
 20
50.6219365423
 11
14.3687227858
 21
50.6219365423
  0
LINE
  5
22D
100
AcDbEntity
  8
0
100
AcDbLine
 62
7
  6
BYLAYER
 10
37.2687227858
 20
34.7219365423
 11
37.0187227858
 21
34.6219365423
  0
LINE
  5
22E
100
AcDbEntity
  8
0
100
AcDbLine
 62
7
  6
BYLAYER
 10
37.2687227858
 20
50.5219365423
 11
37.0187227858
 21
50.6219365423
  0
LINE
  5
22F
100
AcDbEntity
  8
0
100
AcDbLine
 62
7
  6
BYLAYER
 10
37.825403587
 20
34.7696189644
 11
37.7187227858
 21
34.7219400261
  0
LINE
  5
230
100
AcDbEntity
  8
0
100
AcDbLine
 62
7
  6
BYLAYER
 10
37.7187227858
 20
50.5219373881
 11
37.8254355915
 21
50.4743345066
  0
LINE
  5
231
100
AcDbEntity
  8
0
100
AcDbLine
 62
7
  6
BYLAYER
 10
43.8187227858
 20
47.8190511264
 11
43.8187227858
 21
37.4248219583
  0
LINE
  5
232
100
AcDbEntity
  8
0
100
AcDbLine
 62
7
  6
BYLAYER
 10
44.8187227858
 20
46.7462546678
 11
44.8187227858
 21
38.4976184169
  0
LINE
  5
233
100
AcDbEntity
  8
0
100
AcDbLine
 62
7
  6
BYLAYER
 10
51.0187227858
 20
46.2188101848
 11
51.0187227858
 21
39.0250628999
  0
LINE
  5
234
100
AcDbEntity
  8
0
100
AcDbLine
 62
7
  6
BYLAYER
 10
51.5187227858
 20
45.6530254556
 11
51.5187227858
 21
39.5908476291
  0
ARC
  5
235
100
AcDbEntity
  8
0
100
AcDbCircle
 62
7
  6
BYLAYER
 10
-43.0986154659
 20
-105.3746597842
 40
172.1023254516
100
AcDbArc
 50
61.7505353997
 51
61.9923868438
  0
ARC
  5
236
100
AcDbEntity
  8
0
100
AcDbCircle
 62
7
  6
BYLAYER
 10
-41.9162234921
 20
188.4067622871
 40
169.5943459785
100
AcDbArc
 50
298.0058251397
 51
298.2512594572
  0
ARC
  5
237
100
AcDbEntity
  8
0
100
AcDbCircle
 62
7
  6
BYLAYER
 10
48.0310779407
 20
157.5990883166
 40
119.3734149573
100
AcDbArc
 50
265.0441912972
 51
265.3527730621
  0
ARC
  5
238
100
AcDbEntity
  8
0
100
AcDbCircle
 62
7
  6
BYLAYER
 10
47.8720372858
 20
-70.4618620225
 40
117.473398666
100
AcDbArc
 50
94.6447230207
 51
94.9583038951
  0
ARC
  5
239
100
AcDbEntity
  8
0
100
AcDbCircle
 62
7
  6
BYLAYER
 10
-29.6185274415
 20
-21.6448822673
 40
101.0854608091
100
AcDbArc
 50
42.5760843728
 51
43.4073131112
  0
ARC
  5
23A
100
AcDbEntity
  8
0
100
AcDbCircle
 62
7
  6
BYLAYER
 10
-28.4137742455
 20
105.7633183352
 40
99.4368483858
100
AcDbArc
 50
316.5867708588
 51
317.431781098
  0
ARC
  5
23B
100
AcDbEntity
  8
0
100
AcDbCircle
 62
7
  6
BYLAYER
 10
6.5887120698
 20
-19.4230119574
 40
76.5595973023
100
AcDbArc
 50
65.4819680756
 51
65.9204060009
  0
ARC
  5
23C
100
AcDbEntity
  8
0
100
AcDbCircle
 62
7
  6
BYLAYER
 10
6.7602386622
 20
104.2860422354
 40
76.141910863
100
AcDbArc
 50
294.0786801282
 51
294.5195382587
  0
ARC
  5
23D
100
AcDbEntity
  8
0
100
AcDbCircle
 62
7
  6
BYLAYER
 10
20.5461483742
 20
18.7835265749
 40
41.0033210233
100
AcDbArc
 50
40.9425224649
 51
41.9975552299
  0
ARC
  5
23E
100
AcDbEntity
  8
0
100
AcDbCircle
 62
7
  6
BYLAYER
 10
20.9473602333
 20
66.1054953137
 40
40.4677308985
100
AcDbArc
 50
317.995741548
 51
319.0647382673
  0
ARC
  5
23F
100
AcDbEntity
  8
0
100
AcDbCircle
 62
7
  6
BYLAYER
 10
14.3687227858
 20
42.6219365423
 40
8.0
100
AcDbArc
 50
90.0
 51
270.0
  0
ARC
  5
240
100
AcDbEntity
  8
0
100
AcDbCircle
 62
7
  6
BYLAYER
 10
48.0187227858
 20
42.6219365423
 40
5.8
100
AcDbArc
 50
232.6638954552
 51
127.3365687351
  0
ARC
  5
241
100
AcDbEntity
  8
0
100
AcDbCircle
 62
7
  6
BYLAYER
 10
48.0187227858
 20
42.6219365423
 40
5.6
100
AcDbArc
 50
232.8089148305
 51
127.189638648
  0
CIRCLE
  5
242
100
AcDbEntity
  8
0
100
AcDbCircle
 62
7
  6
BYLAYER
 10
48.0187227858
 20
42.6219365423
 40
1.265
  0
SPLINE
  5
243
100
AcDbEntity
  8
0
100
AcDbSpline
 62
7
  6
BYLAYER
 70
0
 71
3
 72
25
 73
21
 74
0
 42
0.0000001
 43
0.0000001
 44
0.0000000001
 40
0.0
 40
0.0
 40
0.0
 40
0.0
 40
0.0316413908
 40
0.0632035006
 40
0.0946334121
 40
0.1259083499
 40
0.187966775
 40
0.2498031793
 40
0.3117928182
 40
0.3742062778
 40
0.499999998
 40
0.6257937444
 40
0.6882071976
 40
0.7501968115
 40
0.8120331978
 40
0.8740916237
 40
0.9053665675
 40
0.9367964999
 40
0.9683586188
 40
1.0
 40
1.0
 40
1.0
 40
1.0
 10
50.3337227858
 20
42.6219365423
 30
0.0
 10
50.3337227858
 20
42.552800867
 30
0.0
 10
50.3239027475
 20
42.4145050265
 30
0.0
 10
50.2804828305
 20
42.2117102043
 30
0.0
 10
50.2104919003
 20
42.0173414516
 30
0.0
 10
50.0860819757
 20
41.7740982258
 30
0.0
 10
49.8789117849
 20
41.5018396799
 30
0.0
 10
49.5705357523
 20
41.2339348069
 30
0.0
 10
49.2189356635
 20
41.0250678586
 30
0.0
 10
48.7081425095
 20
40.8248913346
 30
0.0
 10
48.0187227438
 20
40.7239699668
 30
0.0
 10
47.3293029845
 20
40.8248913391
 30
0.0
 10
46.8185098551
 20
41.0250678938
 30
0.0
 10
46.4669098638
 20
41.2339347896
 30
0.0
 10
46.158533884
 20
41.5018395792
 30
0.0
 10
45.951363682
 20
41.7740980866
 30
0.0
 10
45.8269537133
 20
42.017341358
 30
0.0
 10
45.7569627467
 20
42.211710182
 30
0.0
 10
45.7135428238
 20
42.4145050488
 30
0.0
 10
45.7037227858
 20
42.552800888
 30
0.0
 10
45.7037227858
 20
42.6219365423
 30
0.0
  0
SPLINE
  5
244
100
AcDbEntity
  8
0
100
AcDbSpline
 62
7
  6
BYLAYER
 70
0
 71
3
 72
25
 73
21
 74
0
 42
0.0000001
 43
0.0000001
 44
0.0000000001
 40
0.0
 40
0.0
 40
0.0
 40
0.0
 40
0.0316413911
 40
0.063203501
 40
0.0946334125
 40
0.1259083503
 40
0.1879667752
 40
0.2498031795
 40
0.3117928183
 40
0.3742062776
 40
0.499999998
 40
0.6257937443
 40
0.6882071974
 40
0.7501968115
 40
0.8120331979
 40
0.8740916238
 40
0.9053665675
 40
0.9367964996
 40
0.9683586185
 40
1.0
 40
1.0
 40
1.0
 40
1.0
 10
45.7037227858
 20
42.6219365423
 30
0.0
 10
45.7037227858
 20
42.6910722182
 30
0.0
 10
45.7135428244
 20
42.8293680595
 30
0.0
 10
45.7569627416
 20
43.0321628825
 30
0.0
 10
45.8269536724
 20
43.2265316351
 30
0.0
 10
45.9513635971
 20
43.4697748607
 30
0.0
 10
46.158533788
 20
43.742033406
 30
0.0
 10
46.4669098203
 20
44.0099382784
 30
0.0
 10
46.8185099083
 20
44.218805226
 30
0.0
 10
47.3293030618
 20
44.4189817501
 30
0.0
 10
48.0187228273
 20
44.5199031179
 30
0.0
 10
48.7081425867
 20
44.4189817457
 30
0.0
 10
49.218935716
 20
44.2188051912
 30
0.0
 10
49.5705357078
 20
44.0099382952
 30
0.0
 10
49.8789116879
 20
43.7420335052
 30
0.0
 10
50.0860818899
 20
43.4697749978
 30
0.0
 10
50.2104918581
 20
43.2265317269
 30
0.0
 10
50.2804828248
 20
43.0321629038
 30
0.0
 10
50.3239027478
 20
42.829368037
 30
0.0
 10
50.3337227858
 20
42.6910721973
 30
0.0
 10
50.3337227858
 20
42.6219365423
 30
0.0
  0
SPLINE
  5
245
100
AcDbEntity
  8
0
100
AcDbSpline
 62
7
  6
BYLAYER
 70
0
 71
3
 72
11
 73
7
 74
0
 42
0.0000001
 43
0.0000001
 44
0.0000000001
 40
0.0
 40
0.0
 40
0.0
 40
0.0
 40
0.3092985012
 40
0.5873527443
 40
0.8187831825
 40
1.0
 40
1.0
 40
1.0
 40
1.0
 10
38.3593832793
 20
46.2294459196
 30
0.0
 10
38.3676193679
 20
46.2250200274
 30
0.0
 10
38.3827609795
 20
46.2156334143
 30
0.0
 10
38.4016993713
 20
46.1994826563
 30
0.0
 10
38.4146093557
 20
46.1828865949
 30
0.0
 10
38.4187227858
 20
46.1705304482
 30
0.0
 10
38.4187227858
 20
46.1650523445
 30
0.0
  0
SPLINE
  5
246
100
AcDbEntity
  8
0
100
AcDbSpline
 62
7
  6
BYLAYER
 70
0
 71
3
 72
11
 73
7
 74
0
 42
0.0000001
 43
0.0000001
 44
0.0000000001
 40
0.0
 40
0.0
 40
0.0
 40
0.0
 40
0.1812458826
 40
0.4126499471
 40
0.690679005
 40
1.0
 40
1.0
 40
1.0
 40
1.0
 10
38.4187227858
 20
39.0788207402
 30
0.0
 10
38.4187227858
 20
39.0733430167
 30
0.0
 10
38.4146074597
 20
39.0609905591
 30
0.0
 10
38.4017052278
 20
39.044396298
 30
0.0
 10
38.3827712306
 20
39.0282498974
 30
0.0
 10
38.3676346108
 20
39.0188634163
 30
0.0
 10
38.3593998156
 20
39.0144382191
 30
0.0
  0
SPLINE
  5
247
100
AcDbEntity
  8
0
100
AcDbSpline
 62
7
  6
BYLAYER
 70
0
 71
3
 72
9
 73
5
 74
0
 42
0.0000001
 43
0.0000001
 44
0.0000000001
 40
0.0
 40
0.0
 40
0.0
 40
0.0
 40
0.506960946
 40
1.0
 40
1.0
 40
1.0
 40
1.0
 10
38.4187227858
 20
35.1026922362
 30
0.0
 10
38.4187227858
 20
35.0834046817
 30
0.0
 10
38.4072137878
 20
35.0445288751
 30
0.0
 10
38.3764659341
 20
35.0184087528
 30
0.0
 10
38.3593998156
 20
35.0106237649
 30
0.0
  0
SPLINE
  5
248
100
AcDbEntity
  8
0
100
AcDbSpline
 62
7
  6
BYLAYER
 70
0
 71
3
 72
9
 73
5
 74
0
 42
0.0000001
 43
0.0000001
 44
0.0000000001
 40
0.0
 40
0.0
 40
0.0
 40
0.0
 40
0.4930428313
 40
1.0
 40
1.0
 40
1.0
 40
1.0
 10
38.3593832796
 20
50.2332611984
 30
0.0
 10
38.3764526417
 20
50.225474731
 30
0.0
 10
38.4072106888
 20
50.1993559705
 30
0.0
 10
38.4187227858
 20
50.1604717772
 30
0.0
 10
38.4187227858
 20
50.1411808485
 30
0.0
  0
SPLINE
  5
249
100
AcDbEntity
  8
0
100
AcDbSpline
 62
7
  6
BYLAYER
 70
0
 71
3
 72
15
 73
11
 74
0
 42
0.0000001
 43
0.0000001
 44
0.0000000001
 40
0.0
 40
0.0
 40
0.0
 40
0.0
 40
0.1280890389
 40
0.2556179372
 40
0.3821836487
 40
0.5075746852
 40
0.6318116418
 40
0.7550911361
 40
0.8777105082
 40
1.0
 40
1.0
 40
1.0
 40
1.0
 10
8.3687205653
 20
42.6219365422
 30
0.0
 10
8.3687387818
 20
42.2065424498
 30
0.0
 10
8.4446015286
 20
41.3755634129
 30
0.0
 10
8.7823964794
 20
40.1760807074
 30
0.0
 10
9.332196708
 20
39.0668625731
 30
0.0
 10
10.0753126391
 20
38.0898008064
 30
0.0
 10
10.9862472828
 20
37.2823670664
 30
0.0
 10
12.0329626253
 20
36.6776853128
 30
0.0
 10
13.1753562616
 20
36.3027013059
 30
0.0
 10
13.9721366849
 20
36.2178916025
 30
0.0
 10
14.3687227858
 20
36.2178920259
 30
0.0
  0
SPLINE
  5
24A
100
AcDbEntity
  8
0
100
AcDbSpline
 62
7
  6
BYLAYER
 70
0
 71
3
 72
15
 73
11
 74
0
 42
0.0000001
 43
0.0000001
 44
0.0000000001
 40
0.0
 40
0.0
 40
0.0
 40
0.0
 40
0.1222895239
 40
0.2449089288
 40
0.3681884569
 40
0.4924254522
 40
0.6178165247
 40
0.7443822776
 40
0.8719112178
 40
1.0
 40
1.0
 40
1.0
 40
1.0
 10
14.3687227858
 20
49.0259810841
 30
0.0
 10
13.9721365791
 20
49.0259806607
 30
0.0
 10
13.1753559814
 20
48.9411718352
 30
0.0
 10
12.0329619943
 20
48.5661874636
 30
0.0
 10
10.9862463119
 20
47.9615056617
 30
0.0
 10
10.0753116805
 20
47.1540712997
 30
0.0
 10
9.3321958991
 20
46.1770089839
 30
0.0
 10
8.7823956216
 20
45.0677903874
 30
0.0
 10
8.4446015159
 20
43.8683081241
 30
0.0
 10
8.368737948
 20
43.0373298042
 30
0.0
 10
8.3687203292
 20
42.6219365424
 30
0.0
  0
SPLINE
  5
24B
100
AcDbEntity
  8
0
100
AcDbSpline
 62
7
  6
BYLAYER
 70
0
 71
3
 72
12
 73
8
 74
0
 42
0.0000001
 43
0.0000001
 44
0.0000000001
 40
0.0
 40
0.0
 40
0.0
 40
0.0
 40
0.0971750608
 40
0.192988909
 40
0.4053530686
 40
0.674076569
 40
1.0
 40
1.0
 40
1.0
 40
1.0
 10
38.4187227858
 20
46.5980650463
 30
0.0
 10
38.4187227858
 20
46.6004252247
 30
0.0
 10
38.4180143391
 20
46.6051530818
 30
0.0
 10
38.4133644262
 20
46.6140392268
 30
0.0
 10
38.4011902098
 20
46.6223118593
 30
0.0
 10
38.3818309105
 20
46.6264456711
 30
0.0
 10
38.3672898361
 20
46.6263917581
 30
0.0
 10
38.3593998156
 20
46.6257509966
 30
0.0
  0
SPLINE
  5
24C
100
AcDbEntity
  8
0
100
AcDbSpline
 62
7
  6
BYLAYER
 70
0
 71
3
 72
12
 73
8
 74
0
 42
0.0000001
 43
0.0000001
 44
0.0000000001
 40
0.0
 40
0.0
 40
0.0
 40
0.0
 40
0.3259053015
 40
0.5946528734
 40
0.8070354044
 40
0.9028328128
 40
1.0
 40
1.0
 40
1.0
 40
1.0
 10
38.3593832795
 20
38.6181212633
 30
0.0
 10
38.3672748736
 20
38.6174803739
 30
0.0
 10
38.3818200643
 20
38.6174236451
 30
0.0
 10
38.4011840196
 20
38.621558669
 30
0.0
 10
38.413365553
 20
38.629829561
 30
0.0
 10
38.4180152784
 20
38.6387189634
 30
0.0
 10
38.4187227858
 20
38.6434474492
 30
0.0
 10
38.4187227858
 20
38.6458080383
 30
0.0
  0
ELLIPSE
  5
24D
100
AcDbEntity
  8
0
100
AcDbEllipse
 62
7
  6
BYLAYER
 10
37.7187227858
 20
42.6219365423
 30
0.0
 11
20.4126526173
 21
-6.5022740143
 31
0.0
 40
0.1625559039
 41
-1.5016102927
 42
-1.4848084806
  0
ELLIPSE
  5
24E
100
AcDbEntity
  8
0
100
AcDbEllipse
 62
7
  6
BYLAYER
 10
37.7187227858
 20
42.6219365423
 30
0.0
 11
20.4126526173
 21
6.5022740143
 31
0.0
 40
0.1625559039
 41
1.4848084806
 42
1.501611617
  0
ENDSEC
  0
SECTION
  2
OBJECTS
  0
DICTIONARY
  5
C
100
AcDbDictionary
280
0
281
1
  3
ACAD_GROUP
350
D
  3
ACAD_MLINESTYLE
350
17
  3
ACAD_LAYOUT
350
1A
  3
ACAD_PLOTSETTINGS
350
19
  3
ACAD_PLOTSTYLENAME
350
E
  0
DICTIONARY
  5
D
102
{ACAD_REACTORS
330
C
102
}
100
AcDbDictionary
280
0
281
1
  0
ACDBDICTIONARYWDFLT
  5
E
102
{ACAD_REACTORS
330
C
102
}
100
AcDbDictionary
281
1
  3
Normal
350
F
100
AcDbDictionaryWithDefault
340
F
  0
DICTIONARY
  5
17
102
{ACAD_REACTORS
330
C
102
}
100
AcDbDictionary
280
0
281
1
  3
Standard
350
18
  0
DICTIONARY
  5
19
102
{ACAD_REACTORS
330
C
102
}
100
AcDbDictionary
281
1
  0
DICTIONARY
  5
1A
102
{ACAD_REACTORS
330
C
102
}
100
AcDbDictionary
281
1
  3
Model
350
24F
  3
Layout1
350
250
  0
ACDBPLACEHOLDER
  5
F
102
{ACAD_REACTORS
330
E
102
}
  0
MLINESTYLE
  5
18
102
{ACAD_REACTORS
330
17
102
}
100
AcDbMlineStyle
  2
STANDARD
 70
0
  3

 62
256
 51
90.0
 52
90.0
 71
2
 49
0.5
 62
256
  6
BYLAYER
 49
-0.5
 62
256
  6
BYLAYER
  0
LAYOUT
  5
24F
102
{ACAD_REACTORS
330
1A
102
}
100
AcDbPlotSettings
  1

  2
none_device
  4

  6

 40
0.0
 41
0.0
 42
0.0
 43
0.0
 44
210.0
 45
297.0
 46
0.0
 47
0.0
 48
0.0
 49
0.0
140
0.0
141
0.0
142
1.0
143
1.0
 70
1024
 72
1
 73
0
 74
0
  7

 75
0
147
1.0
148
0.0
149
0.0
100
AcDbLayout
  1
Model
 70
0
 71
0
 10
0.0
 20
0.0
 11
210.0
 21
297.0
 12
0.0
 22
0.0
 32
0.0
 14
0.0
 24
0.0
 34
0.0
 15
0.0
 25
0.0
 35
0.0
146
0.0
 13
0.0
 23
0.0
 33
0.0
 16
1.0
 26
0.0
 36
0.0
 17
0.0
 27
1.0
 37
0.0
 76
0
330
210
345
0
346
0
  0
LAYOUT
  5
250
102
{ACAD_REACTORS
330
1A
102
}
100
AcDbPlotSettings
  1

  2
none_device
  4

  6

 40
0.0
 41
0.0
 42
0.0
 43
0.0
 44
210.0
 45
297.0
 46
0.0
 47
0.0
 48
0.0
 49
0.0
140
0.0
141
0.0
142
1.0
143
1.0
 70
0
 72
1
 73
0
 74
0
  7

 75
0
147
1.0
148
0.0
149
0.0
100
AcDbLayout
  1
Layout1
 70
0
 71
1
 10
0.0
 20
0.0
 11
210.0
 21
297.0
 12
0.0
 22
0.0
 32
0.0
 14
0.0
 24
0.0
 34
0.0
 15
0.0
 25
0.0
 35
0.0
146
0.0
 13
0.0
 23
0.0
 33
0.0
 16
1.0
 26
0.0
 36
0.0
 17
0.0
 27
1.0
 37
0.0
 76
0
330
211
345
0
346
0
  0
ENDSEC
  0
EOF
