999
DXF file: C:\Users\sesa63760\Dev\_Creo\CAD\MCADID0003703_3D-CAD\drw0001_4.dxf
999
Pro/ENGINEER 2019471 by Parametric Technology Corporation
  0
SECTION
  2
HEADER
  9
$ACADVER
  1
AC1024
  9
$DWGCODEPAGE
  3
ANSI_1252
  9
$EXTMAX
 10
68.4746168582
 20
96.8426724138
 30
0.0
  9
$EXTMIN
 10
0.0
 20
0.0
 30
0.0
  9
$LIMMIN
 10
0.0
 20
0.0
  9
$LIMMAX
 10
68.4746168582
 20
96.8426724138
  9
$VIEWCTR
 10
34.2373084291
 20
48.4213362069
  9
$VIEWSIZE
 40
96.8426724138
  9
$CLAYER
  8
0
  9
$LTSCALE
 40
6.3127075351
  9
$CELTYPE
  6
BYLAYER
  9
$DIMSCALE
 40
1.0
  9
$DIMASZ
 40
0.8151740102
  9
$DIMEXO
 40
1.0
  9
$DIMDLI
 40
4.3615070243
  9
$DIMEXE
 40
1.0
  9
$DIMCEN
 40
1.0329885057
  9
$DIMLFAC
 40
1.0
  9
$DIMBLK
  1
_FILLED
  9
$DIMALT
 70
0
  9
$DIMALTF
 40
0.0393700787
  9
$DIMTXT
 40
1.1412436143
  9
$DIMTOL
 70
1
  9
$DIMLIM
 70
0
  9
$DIMTFAC
 40
1.0
  9
$DIMTP
 40
0.01
  9
$DIMTM
 40
0.01
  9
$DIMGAP
 40
0.625
  9
$DIMDSEP
 70
46
  9
$AUNITS
 70
0
  9
$PDMODE
 70
3
  9
$PDSIZE
 40
0.3125
  9
$HANDSEED
  5
24A
  9
$TILEMODE
 70
1
  9
$MEASUREMENT
 70
1
  9
$INSUNITS
 70
4
  0
ENDSEC
  0
SECTION
  2
CLASSES
  0
CLASS
  1
ACDBDICTIONARYWDFLT
  2
AcDbDictionaryWithDefault
  3
AutoCAD 2000
 90
0
 91
1
280
0
281
0
  0
CLASS
  1
ACDBPLACEHOLDER
  2
AcDbPlaceHolder
  3
AutoCAD 2000
 90
0
 91
1
280
0
281
0
  0
CLASS
  1
LAYOUT
  2
AcDbLayout
  3
AutoCAD 2000
 90
0
 91
0
280
0
281
0
  0
ENDSEC
  0
SECTION
  2
TABLES
  0
TABLE
  2
VPORT
  5
8
100
AcDbSymbolTable
 70
2
  0
VPORT
  5
1F4
100
AcDbSymbolTableRecord
100
AcDbViewportTableRecord
  2
*ACTIVE
 70
0
 10
0.0
 20
0.0
 11
1.0
 21
1.0
 12
34.2373084291
 22
48.4213362069
 13
0.0
 23
0.0
 14
1.0
 24
1.0
 15
0.0
 25
0.0
 16
0.0
 26
0.0
 36
1.0
 17
0.0
 27
0.0
 37
0.0
 40
96.8426724138
 41
0.7070707071
 42
50.0
 43
0.0
 44
0.0
 50
0.0
 51
0.0
 71
0
 72
100
 73
1
 74
1
 75
0
 76
0
 77
0
 78
0
  0
ENDTAB
  0
TABLE
  2
LTYPE
  5
5
100
AcDbSymbolTable
 70
6
  0
LTYPE
  5
14
100
AcDbSymbolTableRecord
100
AcDbLinetypeTableRecord
  2
BYBLOCK
 70
0
  3

 72
65
 73
0
 40
0.0
  0
LTYPE
  5
15
100
AcDbSymbolTableRecord
100
AcDbLinetypeTableRecord
  2
BYLAYER
 70
0
  3

 72
65
 73
0
 40
0.0
  0
LTYPE
  5
16
100
AcDbSymbolTableRecord
100
AcDbLinetypeTableRecord
  2
CONTINUOUS
 70
64
  3
Solid line
 72
65
 73
0
 40
0.0
  0
LTYPE
  5
1F5
100
AcDbSymbolTableRecord
100
AcDbLinetypeTableRecord
  2
CENTER
 70
64
  3
____ _ ____ _ ____ _ ____ _ ____ _ ____ _ ____
 72
65
 73
4
 40
0.6
 49
0.375
 74
0
 49
-0.075
 74
0
 49
0.075
 74
0
 49
-0.075
 74
0
  0
LTYPE
  5
1F6
100
AcDbSymbolTableRecord
100
AcDbLinetypeTableRecord
  2
HIDDEN
 70
64
  3
- - - - - - - - - - - - - - - - - - - -
 72
65
 73
2
 40
0.2
 49
0.1
 74
0
 49
-0.1
 74
0
  0
LTYPE
  5
1F7
100
AcDbSymbolTableRecord
100
AcDbLinetypeTableRecord
  2
PHANTOM
 70
64
  3
_____ _ _ _____ _ _ _____ _ _ _____
 72
65
 73
6
 40
0.8
 49
0.45
 74
0
 49
-0.05
 74
0
 49
0.1
 74
0
 49
-0.05
 74
0
 49
0.1
 74
0
 49
-0.05
 74
0
  0
LTYPE
  5
1F8
100
AcDbSymbolTableRecord
100
AcDbLinetypeTableRecord
  2
DOT
 70
64
  3
. . . . . . . . . . . . . . . . . . . .
 72
65
 73
2
 40
0.2
 49
0.1
 74
0
 49
-0.1
 74
0
  0
LTYPE
  5
1F9
100
AcDbSymbolTableRecord
100
AcDbLinetypeTableRecord
  2
DASHED
 70
64
  3
- - - - - - - - - - - - - - - - - - - -
 72
65
 73
2
 40
0.2
 49
0.1
 74
0
 49
-0.1
 74
0
  0
ENDTAB
  0
TABLE
  2
LAYER
  5
2
100
AcDbSymbolTable
 70
36
  0
LAYER
  5
10
100
AcDbSymbolTableRecord
100
AcDbLayerTableRecord
  2
0
 70
0
 62
7
  6
CONTINUOUS
370
-3
390
F
  0
LAYER
  5
1FA
100
AcDbSymbolTableRecord
100
AcDbLayerTableRecord
  2
DEFAULT_1
 70
0
 62
7
  6
CENTER
370
-3
390
F
  0
LAYER
  5
1FB
100
AcDbSymbolTableRecord
100
AcDbLayerTableRecord
  2
DEFAULT_2
 70
0
 62
7
  6
HIDDEN
370
-3
390
F
  0
LAYER
  5
1FC
100
AcDbSymbolTableRecord
100
AcDbLayerTableRecord
  2
DEFAULT_3
 70
0
 62
7
  6
PHANTOM
370
-3
390
F
  0
LAYER
  5
1FD
100
AcDbSymbolTableRecord
100
AcDbLayerTableRecord
  2
00_COMPONENTS
 70
0
 62
7
  6
CONTINUOUS
370
-3
390
F
  0
LAYER
  5
1FE
100
AcDbSymbolTableRecord
100
AcDbLayerTableRecord
  2
01_1_DEFAULT_DATUMS
 70
0
 62
7
  6
CONTINUOUS
370
-3
390
F
  0
LAYER
  5
1FF
100
AcDbSymbolTableRecord
100
AcDbLayerTableRecord
  2
01_PLANES
 70
0
 62
7
  6
CONTINUOUS
370
-3
390
F
  0
LAYER
  5
200
100
AcDbSymbolTableRecord
100
AcDbLayerTableRecord
  2
02_COORD_SYS
 70
0
 62
7
  6
CONTINUOUS
370
-3
390
F
  0
LAYER
  5
201
100
AcDbSymbolTableRecord
100
AcDbLayerTableRecord
  2
03_AXES
 70
0
 62
7
  6
CONTINUOUS
370
-3
390
F
  0
LAYER
  5
202
100
AcDbSymbolTableRecord
100
AcDbLayerTableRecord
  2
04_POINTS
 70
0
 62
7
  6
CONTINUOUS
370
-3
390
F
  0
LAYER
  5
203
100
AcDbSymbolTableRecord
100
AcDbLayerTableRecord
  2
05_CURVES
 70
0
 62
7
  6
CONTINUOUS
370
-3
390
F
  0
LAYER
  5
204
100
AcDbSymbolTableRecord
100
AcDbLayerTableRecord
  2
06_SURFS
 70
0
 62
7
  6
CONTINUOUS
370
-3
390
F
  0
LAYER
  5
205
100
AcDbSymbolTableRecord
100
AcDbLayerTableRecord
  2
07_COSMETICS
 70
0
 62
7
  6
CONTINUOUS
370
-3
390
F
  0
LAYER
  5
206
100
AcDbSymbolTableRecord
100
AcDbLayerTableRecord
  2
10_NOTES
 70
0
 62
7
  6
CONTINUOUS
370
-3
390
F
  0
LAYER
  5
207
100
AcDbSymbolTableRecord
100
AcDbLayerTableRecord
  2
11_NOTES_PUB
 70
0
 62
7
  6
CONTINUOUS
370
-3
390
F
  0
LAYER
  5
208
100
AcDbSymbolTableRecord
100
AcDbLayerTableRecord
  2
13_REF_GTOL
 70
0
 62
7
  6
CONTINUOUS
370
-3
390
F
  0
LAYER
  5
209
100
AcDbSymbolTableRecord
100
AcDbLayerTableRecord
  2
16_MISC
 70
0
 62
7
  6
CONTINUOUS
370
-3
390
F
  0
LAYER
  5
20A
100
AcDbSymbolTableRecord
100
AcDbLayerTableRecord
  2
17_NO_PRINT
 70
0
 62
7
  6
CONTINUOUS
370
-3
390
F
  0
LAYER
  5
20B
100
AcDbSymbolTableRecord
100
AcDbLayerTableRecord
  2
18_DATUM_CAMS_JOINTS
 70
0
 62
7
  6
CONTINUOUS
370
-3
390
F
  0
LAYER
  5
20C
100
AcDbSymbolTableRecord
100
AcDbLayerTableRecord
  2
19_DATUM_FUNCTIONAL
 70
0
 62
7
  6
CONTINUOUS
370
-3
390
F
  0
LAYER
  5
20D
100
AcDbSymbolTableRecord
100
AcDbLayerTableRecord
  2
20_DATUM_KINEMATIC_SCHEME
 70
0
 62
7
  6
CONTINUOUS
370
-3
390
F
  0
ENDTAB
  0
TABLE
  2
STYLE
  5
3
100
AcDbSymbolTable
 70
1
  0
STYLE
  5
11
100
AcDbSymbolTableRecord
100
AcDbTextStyleTableRecord
  2
STANDARD
 70
0
 40
0.0
 41
1.0
 50
0.0
 71
0
 42
0.2
  3
ARIAL.TTF
  4

  0
STYLE
  5
20E
100
AcDbSymbolTableRecord
100
AcDbTextStyleTableRecord
  2
TEXTSTYLE_1
 70
0
 40
0.0
 41
0.8
 50
0.0
 71
0
 42
0.2
  3
gdt
  4

  0
ENDTAB
  0
TABLE
  2
VIEW
  5
6
100
AcDbSymbolTable
 70
0
  0
ENDTAB
  0
TABLE
  2
UCS
  5
7
100
AcDbSymbolTable
 70
0
  0
ENDTAB
  0
TABLE
  2
APPID
  5
9
100
AcDbSymbolTable
 70
1
  0
APPID
  5
20F
100
AcDbSymbolTableRecord
100
AcDbRegAppTableRecord
  2
ACAD
 70
0
  0
ENDTAB
  0
TABLE
  2
BLOCK_RECORD
  5
1
100
AcDbSymbolTable
 70
0
  0
BLOCK_RECORD
  5
210
100
AcDbSymbolTableRecord
100
AcDbBlockTableRecord
  2
*Model_Space
  0
BLOCK_RECORD
  5
211
100
AcDbSymbolTableRecord
100
AcDbBlockTableRecord
  2
*Paper_Space
  0
BLOCK_RECORD
  5
212
100
AcDbSymbolTableRecord
100
AcDbBlockTableRecord
  2
_FILLED
  0
ENDTAB
  0
TABLE
  2
DIMSTYLE
  5
A
100
AcDbSymbolTable
 70
1
100
AcDbDimStyleTable
 71
0
  0
DIMSTYLE
105
213
100
AcDbSymbolTableRecord
100
AcDbDimStyleTableRecord
  2
STANDARD
 70
0
  3

  4

 40
1.0
 41
0.8151740102
 42
1.0
 43
0.38
 44
1.0
 45
0.0
 46
0.0
 47
0.01
 48
0.01
140
1.1412436143
141
0.09
142
0.0
143
25.4
144
1.0
145
0.0
146
1.0
147
0.625
 71
1
 72
0
 73
0
 74
0
 75
0
 76
0
 77
1
 78
8
 79
2
170
0
171
1
172
0
173
0
174
0
175
0
176
0
177
0
178
0
270
2
179
2
271
2
272
2
273
2
274
2
275
0
280
0
281
0
282
0
283
1
284
8
285
0
286
0
287
3
288
0
340
11
278
46
341
212
342
212
343
212
344
212
  0
ENDTAB
  0
ENDSEC
  0
SECTION
  2
BLOCKS
  0
BLOCK
  5
20
100
AcDbEntity
  8
0
100
AcDbBlockBegin
  2
*Model_Space
 70
0
 10
0.0
 20
0.0
 30
0.0
  3
*Model_Space
  1

  0
ENDBLK
  5
21
100
AcDbEntity
  8
0
100
AcDbBlockEnd
  0
BLOCK
  5
1C
100
AcDbEntity
  8
0
100
AcDbBlockBegin
  2
*Paper_Space
 70
0
 10
0.0
 20
0.0
 30
0.0
  3
*Paper_Space
  1

  0
ENDBLK
  5
1D
100
AcDbEntity
  8
0
100
AcDbBlockEnd
  0
BLOCK
  5
214
100
AcDbEntity
  8
0
100
AcDbBlockBegin
  2
_FILLED
 70
64
 10
0.0
 20
0.0
  3
_FILLED
  1

  0
SOLID
  5
215
100
AcDbEntity
  8
0
  6
BYBLOCK
 62
0
100
AcDbTrace
 10
0.0
 20
0.0
 11
-1.0
 21
0.25
 12
-1.0
 22
-0.25
 13
-1.0
 23
-0.25
  0
ENDBLK
  5
216
100
AcDbEntity
  8
0
  6
BYBLOCK
 62
0
100
AcDbBlockEnd
  0
ENDSEC
  0
SECTION
  2
ENTITIES
  0
LINE
  5
217
100
AcDbEntity
  8
0
100
AcDbLine
 62
7
  6
BYLAYER
 10
26.1263170498
 20
52.6249998468
 11
26.1263170498
 21
50.6249998468
  0
LINE
  5
218
100
AcDbEntity
  8
0
100
AcDbLine
 62
7
  6
BYLAYER
 10
28.5263170498
 20
53.6249998468
 11
28.5263170498
 21
51.6249998468
  0
LINE
  5
219
100
AcDbEntity
  8
0
100
AcDbLine
 62
7
  6
BYLAYER
 10
29.1263170498
 20
50.6249998468
 11
29.1263170498
 21
53.6249998468
  0
LINE
  5
21A
100
AcDbEntity
  8
0
100
AcDbLine
 62
7
  6
BYLAYER
 10
57.6263170498
 20
42.6249998468
 11
12.6263170498
 21
42.6249998468
  0
LINE
  5
21B
100
AcDbEntity
  8
0
100
AcDbLine
 62
7
  6
BYLAYER
 10
33.2757078002
 20
51.2249992588
 11
33.134285588
 21
51.1250004693
  0
LINE
  5
21C
100
AcDbEntity
  8
0
100
AcDbLine
 62
7
  6
BYLAYER
 10
12.6263170498
 20
45.1249998468
 11
17.6263170498
 21
45.1249998468
  0
LINE
  5
21D
100
AcDbEntity
  8
0
100
AcDbLine
 62
7
  6
BYLAYER
 10
52.6263170498
 20
45.1249998468
 11
57.6263170498
 21
45.1249998468
  0
LINE
  5
21E
100
AcDbEntity
  8
0
100
AcDbLine
 62
7
  6
BYLAYER
 10
34.9848956936
 20
48.8078425593
 11
34.9848956936
 21
53.5249998468
  0
LINE
  5
21F
100
AcDbEntity
  8
0
100
AcDbLine
 62
7
  6
BYLAYER
 10
35.267738406
 20
48.8078425593
 11
35.267738406
 21
53.5249998468
  0
LINE
  5
220
100
AcDbEntity
  8
0
100
AcDbLine
 62
7
  6
BYLAYER
 10
35.267738406
 20
48.8078425593
 11
36.9769267153
 21
51.2249998468
  0
LINE
  5
221
100
AcDbEntity
  8
0
100
AcDbLine
 62
7
  6
BYLAYER
 10
37.1183480715
 20
51.1249998468
 11
35.4091597623
 21
48.7078425593
  0
LINE
  5
222
100
AcDbEntity
  8
0
100
AcDbLine
 62
7
  6
BYLAYER
 10
34.9848956936
 20
48.8078425593
 11
34.8434743373
 21
48.7078425593
  0
LINE
  5
223
100
AcDbEntity
  8
0
100
AcDbLine
 62
7
  6
BYLAYER
 10
34.8434743373
 20
48.7078425593
 11
33.1342860281
 21
51.1249998468
  0
LINE
  5
224
100
AcDbEntity
  8
0
100
AcDbLine
 62
7
  6
BYLAYER
 10
57.6263170498
 20
50.1249998468
 11
52.6263170498
 21
50.1249998468
  0
LINE
  5
225
100
AcDbEntity
  8
0
100
AcDbLine
 62
7
  6
BYLAYER
 10
17.6263170498
 20
50.1249998468
 11
12.6263170498
 21
50.1249998468
  0
LINE
  5
226
100
AcDbEntity
  8
0
100
AcDbLine
 62
7
  6
BYLAYER
 10
35.4091597623
 20
48.7078425593
 11
35.267738406
 21
48.8078425593
  0
LINE
  5
227
100
AcDbEntity
  8
0
100
AcDbLine
 62
7
  6
BYLAYER
 10
33.2757073844
 20
51.2249998469
 11
34.9848956936
 21
48.8078425593
  0
LINE
  5
228
100
AcDbEntity
  8
0
100
AcDbLine
 62
7
  6
BYLAYER
 10
26.1263170498
 20
50.6249998468
 11
29.1263170498
 21
50.6249998468
  0
LINE
  5
229
100
AcDbEntity
  8
0
100
AcDbLine
 62
7
  6
BYLAYER
 10
41.1263170498
 20
50.6249998468
 11
44.1263170498
 21
50.6249998468
  0
LINE
  5
22A
100
AcDbEntity
  8
0
100
AcDbLine
 62
7
  6
BYLAYER
 10
29.1263170498
 20
51.1249998468
 11
33.1342860281
 21
51.1249998468
  0
LINE
  5
22B
100
AcDbEntity
  8
0
100
AcDbLine
 62
7
  6
BYLAYER
 10
37.1183480715
 20
51.1249998468
 11
41.1263170498
 21
51.1249998468
  0
LINE
  5
22C
100
AcDbEntity
  8
0
100
AcDbLine
 62
7
  6
BYLAYER
 10
41.7263170498
 20
51.6249998468
 11
41.1263170498
 21
51.6249998468
  0
LINE
  5
22D
100
AcDbEntity
  8
0
100
AcDbLine
 62
7
  6
BYLAYER
 10
29.1263170498
 20
51.6249998468
 11
28.5263170498
 21
51.6249998468
  0
LINE
  5
22E
100
AcDbEntity
  8
0
100
AcDbLine
 62
7
  6
BYLAYER
 10
36.9769267153
 20
51.2249998468
 11
37.1183480715
 21
51.1249998468
  0
LINE
  5
22F
100
AcDbEntity
  8
0
100
AcDbLine
 62
7
  6
BYLAYER
 10
12.6263170498
 20
52.6249998468
 11
26.1263170498
 21
52.6249998468
  0
LINE
  5
230
100
AcDbEntity
  8
0
100
AcDbLine
 62
7
  6
BYLAYER
 10
44.1263170498
 20
52.6249998468
 11
57.6263170498
 21
52.6249998468
  0
LINE
  5
231
100
AcDbEntity
  8
0
100
AcDbLine
 62
7
  6
BYLAYER
 10
36.9769267152
 20
53.5249998468
 11
35.267738406
 21
53.5249998468
  0
LINE
  5
232
100
AcDbEntity
  8
0
100
AcDbLine
 62
7
  6
BYLAYER
 10
33.2757073844
 20
53.5249998468
 11
34.9848956936
 21
53.5249998468
  0
LINE
  5
233
100
AcDbEntity
  8
0
100
AcDbLine
 62
7
  6
BYLAYER
 10
28.5263170498
 20
53.6249998468
 11
41.7263170498
 21
53.6249998468
  0
LINE
  5
234
100
AcDbEntity
  8
0
100
AcDbLine
 62
7
  6
BYLAYER
 10
41.1263170498
 20
50.6249998468
 11
41.1263170498
 21
53.6249998468
  0
LINE
  5
235
100
AcDbEntity
  8
0
100
AcDbLine
 62
7
  6
BYLAYER
 10
41.7263170498
 20
53.6249998468
 11
41.7263170498
 21
51.6249998468
  0
LINE
  5
236
100
AcDbEntity
  8
0
100
AcDbLine
 62
7
  6
BYLAYER
 10
44.1263170498
 20
50.6249998468
 11
44.1263170498
 21
52.6249998468
  0
ARC
  5
237
100
AcDbEntity
  8
0
100
AcDbCircle
 62
7
  6
BYLAYER
 10
12.6263170498
 20
47.6249998468
 40
5.0
100
AcDbArc
 50
90.0
 51
270.0
  0
ARC
  5
238
100
AcDbEntity
  8
0
100
AcDbCircle
 62
7
  6
BYLAYER
 10
57.6263170498
 20
47.6249998468
 40
5.0
100
AcDbArc
 50
270.0
 51
90.0
  0
ARC
  5
239
100
AcDbEntity
  8
0
100
AcDbCircle
 62
7
  6
BYLAYER
 10
52.6263170498
 20
47.6249998468
 40
2.5
100
AcDbArc
 50
90.0
 51
270.0
  0
ARC
  5
23A
100
AcDbEntity
  8
0
100
AcDbCircle
 62
7
  6
BYLAYER
 10
57.6263170498
 20
47.6249998468
 40
2.5
100
AcDbArc
 50
270.0
 51
90.0
  0
ARC
  5
23B
100
AcDbEntity
  8
0
100
AcDbCircle
 62
7
  6
BYLAYER
 10
12.6263170498
 20
47.6249998468
 40
2.5
100
AcDbArc
 50
90.0
 51
270.0
  0
ARC
  5
23C
100
AcDbEntity
  8
0
100
AcDbCircle
 62
7
  6
BYLAYER
 10
17.6263170498
 20
47.6249998468
 40
2.5
100
AcDbArc
 50
270.0
 51
90.0
  0
SPLINE
  5
23D
100
AcDbEntity
  8
0
100
AcDbSpline
 62
7
  6
BYLAYER
 70
0
 71
3
 72
21
 73
17
 74
0
 42
0.0000001
 43
0.0000001
 44
0.0000000001
 40
0.0
 40
0.0
 40
0.0
 40
0.0
 40
0.1721089907
 40
0.33916728
 40
0.4186856637
 40
0.4941051655
 40
0.5643686453
 40
0.628631165
 40
0.6864981904
 40
0.7382288597
 40
0.7848223343
 40
0.827898417
 40
0.8693764079
 40
0.9110549839
 40
0.954308642
 40
1.0
 40
1.0
 40
1.0
 40
1.0
 10
37.1183480715
 20
51.1249998468
 30
0.0
 10
37.2136144037
 20
51.2714292723
 30
0.0
 10
37.38994441
 20
51.5676224901
 30
0.0
 10
37.5718870327
 20
51.9527439986
 30
0.0
 10
37.6826720457
 20
52.2604800979
 30
0.0
 10
37.7438593956
 20
52.4809867749
 30
0.0
 10
37.7822219872
 20
52.6909514372
 30
0.0
 10
37.7961775138
 20
52.8862128849
 30
0.0
 10
37.7848189673
 20
53.0629783784
 30
0.0
 10
37.7483219783
 20
53.2181760693
 30
0.0
 10
37.6875608001
 20
53.3494642331
 30
0.0
 10
37.6045555141
 20
53.4551752148
 30
0.0
 10
37.5024636004
 20
53.5346136351
 30
0.0
 10
37.3849601997
 20
53.5886001737
 30
0.0
 10
37.2551985414
 20
53.619085971
 30
0.0
 10
37.1647251312
 20
53.6250014272
 30
0.0
 10
37.1183480715
 20
53.6249998468
 30
0.0
  0
SPLINE
  5
23E
100
AcDbEntity
  8
0
100
AcDbSpline
 62
7
  6
BYLAYER
 70
0
 71
3
 72
10
 73
6
 74
0
 42
0.0000001
 43
0.0000001
 44
0.0000000001
 40
0.0
 40
0.0
 40
0.0
 40
0.0
 40
0.4742590613
 40
0.734487026
 40
1.0
 40
1.0
 40
1.0
 40
1.0
 10
37.1183483414
 20
53.624999833
 30
0.0
 10
37.0897038231
 20
53.6249995486
 30
0.0
 10
37.0443158233
 20
53.6092496009
 30
0.0
 10
37.0008382052
 20
53.5667257814
 30
0.0
 10
36.9837647322
 20
53.5395053558
 30
0.0
 10
36.9769264602
 20
53.5249998468
 30
0.0
  0
SPLINE
  5
23F
100
AcDbEntity
  8
0
100
AcDbSpline
 62
7
  6
BYLAYER
 70
0
 71
3
 72
15
 73
11
 74
0
 42
0.0000001
 43
0.0000001
 44
0.0000000001
 40
0.0
 40
0.0
 40
0.0
 40
0.0
 40
0.1251000836
 40
0.2501477865
 40
0.3751164039
 40
0.4999959698
 40
0.624874486
 40
0.7498430175
 40
0.8748943365
 40
1.0
 40
1.0
 40
1.0
 40
1.0
 10
34.8434743373
 20
48.7078425593
 30
0.0
 10
34.8598429609
 20
48.6846919137
 30
0.0
 10
34.896453612
 20
48.6409503752
 30
0.0
 10
34.9632177506
 20
48.5872761253
 30
0.0
 10
35.0410988318
 20
48.5508923919
 30
0.0
 10
35.1263140166
 20
48.5377960421
 30
0.0
 10
35.2115294422
 20
48.5508907629
 30
0.0
 10
35.28941167
 20
48.5872731439
 30
0.0
 10
35.3561788922
 20
48.6409473455
 30
0.0
 10
35.3927894096
 20
48.6846915875
 30
0.0
 10
35.4091597623
 20
48.7078425593
 30
0.0
  0
SPLINE
  5
240
100
AcDbEntity
  8
0
100
AcDbSpline
 62
7
  6
BYLAYER
 70
0
 71
3
 72
21
 73
17
 74
0
 42
0.0000001
 43
0.0000001
 44
0.0000000001
 40
0.0
 40
0.0
 40
0.0
 40
0.0
 40
0.1709818431
 40
0.336336719
 40
0.4150200745
 40
0.4895737448
 40
0.5588968796
 40
0.6221844898
 40
0.6791095691
 40
0.7301964892
 40
0.7766041138
 40
0.8201851678
 40
0.8628335404
 40
0.9063228045
 40
0.9518514758
 40
1.0
 40
1.0
 40
1.0
 40
1.0
 10
36.9769254698
 20
51.2250007275
 30
0.0
 10
37.0712742776
 20
51.3584294222
 30
0.0
 10
37.2462984206
 20
51.628578556
 30
0.0
 10
37.4284428805
 20
51.9820677901
 30
0.0
 10
37.5398443152
 20
52.2657214269
 30
0.0
 10
37.6017571775
 20
52.4695185324
 30
0.0
 10
37.6405266566
 20
52.6640603222
 30
0.0
 10
37.6548725587
 20
52.8451823182
 30
0.0
 10
37.6431530293
 20
53.0092135516
 30
0.0
 10
37.6061441807
 20
53.1531134721
 30
0.0
 10
37.5442432588
 20
53.2742716186
 30
0.0
 10
37.4605142369
 20
53.3711276793
 30
0.0
 10
37.3583498072
 20
53.4433403076
 30
0.0
 10
37.2414121456
 20
53.4921202669
 30
0.0
 10
37.1126340328
 20
53.5196371559
 30
0.0
 10
37.0229434662
 20
53.5249976465
 30
0.0
 10
36.9769253774
 20
53.5249970088
 30
0.0
  0
SPLINE
  5
241
100
AcDbEntity
  8
0
100
AcDbSpline
 62
7
  6
BYLAYER
 70
0
 71
3
 72
13
 73
9
 74
0
 42
0.0000001
 43
0.0000001
 44
0.0000000001
 40
0.0
 40
0.0
 40
0.0
 40
0.0
 40
0.2224617081
 40
0.3569656271
 40
0.499990674
 40
0.6430203285
 40
0.7775321157
 40
1.0
 40
1.0
 40
1.0
 40
1.0
 10
35.2677384517
 20
53.5249998912
 30
0.0
 10
35.2496617379
 20
53.5377816791
 30
0.0
 10
35.2168565501
 20
53.5532568598
 30
0.0
 10
35.1682122085
 20
53.5641513249
 30
0.0
 10
35.1263193568
 20
53.5675904152
 30
0.0
 10
35.084425711
 20
53.5641515114
 30
0.0
 10
35.0357793747
 20
53.5532577883
 30
0.0
 10
35.0029723619
 20
53.5377825835
 30
0.0
 10
34.9848955223
 20
53.5249999089
 30
0.0
  0
SPLINE
  5
242
100
AcDbEntity
  8
0
100
AcDbSpline
 62
7
  6
BYLAYER
 70
0
 71
3
 72
15
 73
11
 74
0
 42
0.0000001
 43
0.0000001
 44
0.0000000001
 40
0.0
 40
0.0
 40
0.0
 40
0.0
 40
0.1387343238
 40
0.268877943
 40
0.3892670062
 40
0.5000132574
 40
0.6107585619
 40
0.7311434995
 40
0.8612773889
 40
1.0
 40
1.0
 40
1.0
 40
1.0
 10
34.9848954769
 20
48.8078424827
 30
0.0
 10
34.9926824945
 20
48.7913230808
 30
0.0
 10
35.0096683454
 20
48.760116553
 30
0.0
 10
35.0421172675
 20
48.71991177
 30
0.0
 10
35.0812233232
 20
48.6916383246
 30
0.0
 10
35.1263224603
 20
48.6797175365
 30
0.0
 10
35.1714197742
 20
48.6916426166
 30
0.0
 10
35.2105221092
 20
48.7199175009
 30
0.0
 10
35.2429675462
 20
48.7601205887
 30
0.0
 10
35.2599517893
 20
48.79132469
 30
0.0
 10
35.2677384421
 20
48.8078425593
 30
0.0
  0
SPLINE
  5
243
100
AcDbEntity
  8
0
100
AcDbSpline
 62
7
  6
BYLAYER
 70
0
 71
3
 72
21
 73
17
 74
0
 42
0.0000001
 43
0.0000001
 44
0.0000000001
 40
0.0
 40
0.0
 40
0.0
 40
0.0
 40
0.04814077
 40
0.0936687431
 40
0.1371601628
 40
0.1798099254
 40
0.223390369
 40
0.2697979038
 40
0.3208865932
 40
0.3778156301
 40
0.4411103537
 40
0.5104401271
 40
0.5849956567
 40
0.6636790013
 40
0.829036448
 40
1.0
 40
1.0
 40
1.0
 40
1.0
 10
33.2757094321
 20
53.5249955029
 30
0.0
 10
33.229698232
 20
53.5249959871
 30
0.0
 10
33.1400148977
 20
53.5196357504
 30
0.0
 10
33.0112403713
 20
53.4921257279
 30
0.0
 10
32.8942942476
 20
53.4433564088
 30
0.0
 10
32.7921169659
 20
53.3711539937
 30
0.0
 10
32.7083812975
 20
53.2742998756
 30
0.0
 10
32.6464769622
 20
53.153140918
 30
0.0
 10
32.6094560666
 20
53.0092370047
 30
0.0
 10
32.597730322
 20
52.8451911681
 30
0.0
 10
32.6120877353
 20
52.6640505912
 30
0.0
 10
32.6508699127
 20
52.4694940936
 30
0.0
 10
32.7127884332
 20
52.2656878028
 30
0.0
 10
32.8241982114
 20
51.9820290126
 30
0.0
 10
33.0063516857
 20
51.6285562908
 30
0.0
 10
33.1813705405
 20
51.3584178623
 30
0.0
 10
33.2757098207
 20
51.2250015696
 30
0.0
  0
SPLINE
  5
244
100
AcDbEntity
  8
0
100
AcDbSpline
 62
7
  6
BYLAYER
 70
0
 71
3
 72
10
 73
6
 74
0
 42
0.0000001
 43
0.0000001
 44
0.0000000001
 40
0.0
 40
0.0
 40
0.0
 40
0.0
 40
0.265513392
 40
0.5257415443
 40
1.0
 40
1.0
 40
1.0
 40
1.0
 10
33.2757078457
 20
53.5249998468
 30
0.0
 10
33.2688694357
 20
53.539505298
 30
0.0
 10
33.2517957504
 20
53.5667255818
 30
0.0
 10
33.2083179713
 20
53.6092491087
 30
0.0
 10
33.162930124
 20
53.6249990346
 30
0.0
 10
33.1342856756
 20
53.62499938
 30
0.0
  0
SPLINE
  5
245
100
AcDbEntity
  8
0
100
AcDbSpline
 62
7
  6
BYLAYER
 70
0
 71
3
 72
21
 73
17
 74
0
 42
0.0000001
 43
0.0000001
 44
0.0000000001
 40
0.0
 40
0.0
 40
0.0
 40
0.0
 40
0.0456937673
 40
0.0889440534
 40
0.1306255885
 40
0.1721031809
 40
0.2151762313
 40
0.261770593
 40
0.3135008955
 40
0.3713680728
 40
0.4356308685
 40
0.5058943987
 40
0.5813137645
 40
0.6608322787
 40
0.8278908762
 40
1.0
 40
1.0
 40
1.0
 40
1.0
 10
33.1342860281
 20
53.6249998468
 30
0.0
 10
33.0879066939
 20
53.6250019454
 30
0.0
 10
32.9974338019
 20
53.6190901639
 30
0.0
 10
32.8676733154
 20
53.5885942259
 30
0.0
 10
32.7501675994
 20
53.5346186895
 30
0.0
 10
32.6480721203
 20
53.4551813372
 30
0.0
 10
32.565094694
 20
53.3494548681
 30
0.0
 10
32.5043096939
 20
53.2181815151
 30
0.0
 10
32.4678457807
 20
53.062974687
 30
0.0
 10
32.4564591587
 20
52.8862131262
 30
0.0
 10
32.4704424148
 20
52.6909529071
 30
0.0
 10
32.5087714926
 20
52.480983469
 30
0.0
 10
32.5699884601
 20
52.2604852701
 30
0.0
 10
32.6807216186
 20
51.9527324173
 30
0.0
 10
32.8627067998
 20
51.5676287762
 30
0.0
 10
33.0390179482
 20
51.2714275283
 30
0.0
 10
33.1342860281
 20
51.1249998468
 30
0.0
  0
SPLINE
  5
246
100
AcDbEntity
  8
0
100
AcDbSpline
 62
7
  6
BYLAYER
 70
0
 71
3
 72
10
 73
6
 74
0
 42
0.0000001
 43
0.0000001
 44
0.0000000001
 40
0.0
 40
0.0
 40
0.0
 40
0.0
 40
0.2655119981
 40
0.5257394578
 40
1.0
 40
1.0
 40
1.0
 40
1.0
 10
35.2677384082
 20
53.5249998401
 30
0.0
 10
35.2745764014
 20
53.5395054225
 30
0.0
 10
35.2916494578
 20
53.5667260386
 30
0.0
 10
35.335126817
 20
53.6092502284
 30
0.0
 10
35.3805151492
 20
53.624999933
 30
0.0
 10
35.4091597686
 20
53.624999947
 30
0.0
  0
SPLINE
  5
247
100
AcDbEntity
  8
0
100
AcDbSpline
 62
7
  6
BYLAYER
 70
0
 71
3
 72
10
 73
6
 74
0
 42
0.0000001
 43
0.0000001
 44
0.0000000001
 40
0.0
 40
0.0
 40
0.0
 40
0.0
 40
0.4742606924
 40
0.7344881422
 40
1.0
 40
1.0
 40
1.0
 40
1.0
 10
34.8434743168
 20
53.6250001532
 30
0.0
 10
34.8721189464
 20
53.625000018
 30
0.0
 10
34.9175072085
 20
53.6092501741
 30
0.0
 10
34.9609845359
 20
53.5667259585
 30
0.0
 10
34.9780575951
 20
53.5395053567
 30
0.0
 10
34.9848955965
 20
53.5249997868
 30
0.0
  0
ENDSEC
  0
SECTION
  2
OBJECTS
  0
DICTIONARY
  5
C
100
AcDbDictionary
280
0
281
1
  3
ACAD_GROUP
350
D
  3
ACAD_MLINESTYLE
350
17
  3
ACAD_LAYOUT
350
1A
  3
ACAD_PLOTSETTINGS
350
19
  3
ACAD_PLOTSTYLENAME
350
E
  0
DICTIONARY
  5
D
102
{ACAD_REACTORS
330
C
102
}
100
AcDbDictionary
280
0
281
1
  0
ACDBDICTIONARYWDFLT
  5
E
102
{ACAD_REACTORS
330
C
102
}
100
AcDbDictionary
281
1
  3
Normal
350
F
100
AcDbDictionaryWithDefault
340
F
  0
DICTIONARY
  5
17
102
{ACAD_REACTORS
330
C
102
}
100
AcDbDictionary
280
0
281
1
  3
Standard
350
18
  0
DICTIONARY
  5
19
102
{ACAD_REACTORS
330
C
102
}
100
AcDbDictionary
281
1
  0
DICTIONARY
  5
1A
102
{ACAD_REACTORS
330
C
102
}
100
AcDbDictionary
281
1
  3
Model
350
248
  3
Layout1
350
249
  0
ACDBPLACEHOLDER
  5
F
102
{ACAD_REACTORS
330
E
102
}
  0
MLINESTYLE
  5
18
102
{ACAD_REACTORS
330
17
102
}
100
AcDbMlineStyle
  2
STANDARD
 70
0
  3

 62
256
 51
90.0
 52
90.0
 71
2
 49
0.5
 62
256
  6
BYLAYER
 49
-0.5
 62
256
  6
BYLAYER
  0
LAYOUT
  5
248
102
{ACAD_REACTORS
330
1A
102
}
100
AcDbPlotSettings
  1

  2
none_device
  4

  6

 40
0.0
 41
0.0
 42
0.0
 43
0.0
 44
210.0
 45
297.0
 46
0.0
 47
0.0
 48
0.0
 49
0.0
140
0.0
141
0.0
142
1.0
143
1.0
 70
1024
 72
1
 73
0
 74
0
  7

 75
0
147
1.0
148
0.0
149
0.0
100
AcDbLayout
  1
Model
 70
0
 71
0
 10
0.0
 20
0.0
 11
210.0
 21
297.0
 12
0.0
 22
0.0
 32
0.0
 14
0.0
 24
0.0
 34
0.0
 15
0.0
 25
0.0
 35
0.0
146
0.0
 13
0.0
 23
0.0
 33
0.0
 16
1.0
 26
0.0
 36
0.0
 17
0.0
 27
1.0
 37
0.0
 76
0
330
210
345
0
346
0
  0
LAYOUT
  5
249
102
{ACAD_REACTORS
330
1A
102
}
100
AcDbPlotSettings
  1

  2
none_device
  4

  6

 40
0.0
 41
0.0
 42
0.0
 43
0.0
 44
210.0
 45
297.0
 46
0.0
 47
0.0
 48
0.0
 49
0.0
140
0.0
141
0.0
142
1.0
143
1.0
 70
0
 72
1
 73
0
 74
0
  7

 75
0
147
1.0
148
0.0
149
0.0
100
AcDbLayout
  1
Layout1
 70
0
 71
1
 10
0.0
 20
0.0
 11
210.0
 21
297.0
 12
0.0
 22
0.0
 32
0.0
 14
0.0
 24
0.0
 34
0.0
 15
0.0
 25
0.0
 35
0.0
146
0.0
 13
0.0
 23
0.0
 33
0.0
 16
1.0
 26
0.0
 36
0.0
 17
0.0
 27
1.0
 37
0.0
 76
0
330
211
345
0
346
0
  0
ENDSEC
  0
EOF
