999
DXF file: C:\Users\sesa63760\Dev\_Creo\CAD\MCADID0003616_3D-CAD\drw0001_6.dxf
999
Pro/ENGINEER 2019471 by Parametric Technology Corporation
  0
SECTION
  2
HEADER
  9
$ACADVER
  1
AC1024
  9
$DWGCODEPAGE
  3
ANSI_1252
  9
$EXTMAX
 10
259.1329045377
 20
366.4879649891
 30
0.0
  9
$EXTMIN
 10
0.0
 20
0.0
 30
0.0
  9
$LIMMIN
 10
0.0
 20
0.0
  9
$LIMMAX
 10
259.1329045377
 20
366.4879649891
  9
$VIEWCTR
 10
129.5664522689
 20
183.2439824945
  9
$VIEWSIZE
 40
366.4879649891
  9
$CLAYER
  8
0
  9
$LTSCALE
 40
23.889585866
  9
$CELTYPE
  6
BYLAYER
  9
$DIMSCALE
 40
1.0
  9
$DIMASZ
 40
3.0849155302
  9
$DIMEXO
 40
1.0
  9
$DIMDLI
 40
16.5055320528
  9
$DIMEXE
 40
1.0
  9
$DIMCEN
 40
3.9092049599
  9
$DIMLFAC
 40
1.0
  9
$DIMBLK
  1
_FILLED
  9
$DIMALT
 70
0
  9
$DIMALTF
 40
0.0393700787
  9
$DIMTXT
 40
4.3188817423
  9
$DIMTOL
 70
1
  9
$DIMLIM
 70
0
  9
$DIMTFAC
 40
1.0
  9
$DIMTP
 40
0.01
  9
$DIMTM
 40
0.01
  9
$DIMGAP
 40
0.625
  9
$DIMDSEP
 70
46
  9
$AUNITS
 70
0
  9
$PDMODE
 70
3
  9
$PDSIZE
 40
0.3125
  9
$HANDSEED
  5
247
  9
$TILEMODE
 70
1
  9
$MEASUREMENT
 70
1
  9
$INSUNITS
 70
4
  0
ENDSEC
  0
SECTION
  2
CLASSES
  0
CLASS
  1
ACDBDICTIONARYWDFLT
  2
AcDbDictionaryWithDefault
  3
AutoCAD 2000
 90
0
 91
1
280
0
281
0
  0
CLASS
  1
ACDBPLACEHOLDER
  2
AcDbPlaceHolder
  3
AutoCAD 2000
 90
0
 91
1
280
0
281
0
  0
CLASS
  1
LAYOUT
  2
AcDbLayout
  3
AutoCAD 2000
 90
0
 91
0
280
0
281
0
  0
ENDSEC
  0
SECTION
  2
TABLES
  0
TABLE
  2
VPORT
  5
8
100
AcDbSymbolTable
 70
2
  0
VPORT
  5
1F4
100
AcDbSymbolTableRecord
100
AcDbViewportTableRecord
  2
*ACTIVE
 70
0
 10
0.0
 20
0.0
 11
1.0
 21
1.0
 12
129.5664522689
 22
183.2439824945
 13
0.0
 23
0.0
 14
1.0
 24
1.0
 15
0.0
 25
0.0
 16
0.0
 26
0.0
 36
1.0
 17
0.0
 27
0.0
 37
0.0
 40
366.4879649891
 41
0.7070707071
 42
50.0
 43
0.0
 44
0.0
 50
0.0
 51
0.0
 71
0
 72
100
 73
1
 74
1
 75
0
 76
0
 77
0
 78
0
  0
ENDTAB
  0
TABLE
  2
LTYPE
  5
5
100
AcDbSymbolTable
 70
6
  0
LTYPE
  5
14
100
AcDbSymbolTableRecord
100
AcDbLinetypeTableRecord
  2
BYBLOCK
 70
0
  3

 72
65
 73
0
 40
0.0
  0
LTYPE
  5
15
100
AcDbSymbolTableRecord
100
AcDbLinetypeTableRecord
  2
BYLAYER
 70
0
  3

 72
65
 73
0
 40
0.0
  0
LTYPE
  5
16
100
AcDbSymbolTableRecord
100
AcDbLinetypeTableRecord
  2
CONTINUOUS
 70
64
  3
Solid line
 72
65
 73
0
 40
0.0
  0
LTYPE
  5
1F5
100
AcDbSymbolTableRecord
100
AcDbLinetypeTableRecord
  2
CENTER
 70
64
  3
____ _ ____ _ ____ _ ____ _ ____ _ ____ _ ____
 72
65
 73
4
 40
0.6
 49
0.375
 74
0
 49
-0.075
 74
0
 49
0.075
 74
0
 49
-0.075
 74
0
  0
LTYPE
  5
1F6
100
AcDbSymbolTableRecord
100
AcDbLinetypeTableRecord
  2
HIDDEN
 70
64
  3
- - - - - - - - - - - - - - - - - - - -
 72
65
 73
2
 40
0.2
 49
0.1
 74
0
 49
-0.1
 74
0
  0
LTYPE
  5
1F7
100
AcDbSymbolTableRecord
100
AcDbLinetypeTableRecord
  2
PHANTOM
 70
64
  3
_____ _ _ _____ _ _ _____ _ _ _____
 72
65
 73
6
 40
0.8
 49
0.45
 74
0
 49
-0.05
 74
0
 49
0.1
 74
0
 49
-0.05
 74
0
 49
0.1
 74
0
 49
-0.05
 74
0
  0
LTYPE
  5
1F8
100
AcDbSymbolTableRecord
100
AcDbLinetypeTableRecord
  2
DOT
 70
64
  3
. . . . . . . . . . . . . . . . . . . .
 72
65
 73
2
 40
0.2
 49
0.1
 74
0
 49
-0.1
 74
0
  0
LTYPE
  5
1F9
100
AcDbSymbolTableRecord
100
AcDbLinetypeTableRecord
  2
DASHED
 70
64
  3
- - - - - - - - - - - - - - - - - - - -
 72
65
 73
2
 40
0.2
 49
0.1
 74
0
 49
-0.1
 74
0
  0
ENDTAB
  0
TABLE
  2
LAYER
  5
2
100
AcDbSymbolTable
 70
36
  0
LAYER
  5
10
100
AcDbSymbolTableRecord
100
AcDbLayerTableRecord
  2
0
 70
0
 62
7
  6
CONTINUOUS
370
-3
390
F
  0
LAYER
  5
1FA
100
AcDbSymbolTableRecord
100
AcDbLayerTableRecord
  2
DEFAULT_1
 70
0
 62
7
  6
CENTER
370
-3
390
F
  0
LAYER
  5
1FB
100
AcDbSymbolTableRecord
100
AcDbLayerTableRecord
  2
DEFAULT_2
 70
0
 62
7
  6
HIDDEN
370
-3
390
F
  0
LAYER
  5
1FC
100
AcDbSymbolTableRecord
100
AcDbLayerTableRecord
  2
DEFAULT_3
 70
0
 62
7
  6
PHANTOM
370
-3
390
F
  0
LAYER
  5
1FD
100
AcDbSymbolTableRecord
100
AcDbLayerTableRecord
  2
00_COMPONENTS
 70
0
 62
7
  6
CONTINUOUS
370
-3
390
F
  0
LAYER
  5
1FE
100
AcDbSymbolTableRecord
100
AcDbLayerTableRecord
  2
01_1_DEFAULT_DATUMS
 70
0
 62
7
  6
CONTINUOUS
370
-3
390
F
  0
LAYER
  5
1FF
100
AcDbSymbolTableRecord
100
AcDbLayerTableRecord
  2
01_PLANES
 70
0
 62
7
  6
CONTINUOUS
370
-3
390
F
  0
LAYER
  5
200
100
AcDbSymbolTableRecord
100
AcDbLayerTableRecord
  2
02_COORD_SYS
 70
0
 62
7
  6
CONTINUOUS
370
-3
390
F
  0
LAYER
  5
201
100
AcDbSymbolTableRecord
100
AcDbLayerTableRecord
  2
03_AXES
 70
0
 62
7
  6
CONTINUOUS
370
-3
390
F
  0
LAYER
  5
202
100
AcDbSymbolTableRecord
100
AcDbLayerTableRecord
  2
04_POINTS
 70
0
 62
7
  6
CONTINUOUS
370
-3
390
F
  0
LAYER
  5
203
100
AcDbSymbolTableRecord
100
AcDbLayerTableRecord
  2
05_CURVES
 70
0
 62
7
  6
CONTINUOUS
370
-3
390
F
  0
LAYER
  5
204
100
AcDbSymbolTableRecord
100
AcDbLayerTableRecord
  2
06_SURFS
 70
0
 62
7
  6
CONTINUOUS
370
-3
390
F
  0
LAYER
  5
205
100
AcDbSymbolTableRecord
100
AcDbLayerTableRecord
  2
07_COSMETICS
 70
0
 62
7
  6
CONTINUOUS
370
-3
390
F
  0
LAYER
  5
206
100
AcDbSymbolTableRecord
100
AcDbLayerTableRecord
  2
1
 70
0
 62
7
  6
CONTINUOUS
370
-3
390
F
  0
LAYER
  5
207
100
AcDbSymbolTableRecord
100
AcDbLayerTableRecord
  2
10_NOTES
 70
0
 62
7
  6
CONTINUOUS
370
-3
390
F
  0
LAYER
  5
208
100
AcDbSymbolTableRecord
100
AcDbLayerTableRecord
  2
11_NOTES_PUB
 70
0
 62
7
  6
CONTINUOUS
370
-3
390
F
  0
LAYER
  5
209
100
AcDbSymbolTableRecord
100
AcDbLayerTableRecord
  2
13_REF_GTOL
 70
0
 62
7
  6
CONTINUOUS
370
-3
390
F
  0
LAYER
  5
20A
100
AcDbSymbolTableRecord
100
AcDbLayerTableRecord
  2
16_MISC
 70
0
 62
7
  6
CONTINUOUS
370
-3
390
F
  0
LAYER
  5
20B
100
AcDbSymbolTableRecord
100
AcDbLayerTableRecord
  2
17_NO_PRINT
 70
0
 62
7
  6
CONTINUOUS
370
-3
390
F
  0
LAYER
  5
20C
100
AcDbSymbolTableRecord
100
AcDbLayerTableRecord
  2
18_DATUM_CAMS_JOINTS
 70
0
 62
7
  6
CONTINUOUS
370
-3
390
F
  0
LAYER
  5
20D
100
AcDbSymbolTableRecord
100
AcDbLayerTableRecord
  2
19_DATUM_FUNCTIONAL
 70
0
 62
7
  6
CONTINUOUS
370
-3
390
F
  0
LAYER
  5
20E
100
AcDbSymbolTableRecord
100
AcDbLayerTableRecord
  2
20_DATUM_KINEMATIC_SCHEME
 70
0
 62
7
  6
CONTINUOUS
370
-3
390
F
  0
ENDTAB
  0
TABLE
  2
STYLE
  5
3
100
AcDbSymbolTable
 70
1
  0
STYLE
  5
11
100
AcDbSymbolTableRecord
100
AcDbTextStyleTableRecord
  2
STANDARD
 70
0
 40
0.0
 41
1.0
 50
0.0
 71
0
 42
0.2
  3
ARIAL.TTF
  4

  0
STYLE
  5
20F
100
AcDbSymbolTableRecord
100
AcDbTextStyleTableRecord
  2
TEXTSTYLE_1
 70
0
 40
0.0
 41
0.8
 50
0.0
 71
0
 42
0.2
  3
gdt
  4

  0
ENDTAB
  0
TABLE
  2
VIEW
  5
6
100
AcDbSymbolTable
 70
0
  0
ENDTAB
  0
TABLE
  2
UCS
  5
7
100
AcDbSymbolTable
 70
0
  0
ENDTAB
  0
TABLE
  2
APPID
  5
9
100
AcDbSymbolTable
 70
1
  0
APPID
  5
210
100
AcDbSymbolTableRecord
100
AcDbRegAppTableRecord
  2
ACAD
 70
0
  0
ENDTAB
  0
TABLE
  2
BLOCK_RECORD
  5
1
100
AcDbSymbolTable
 70
0
  0
BLOCK_RECORD
  5
211
100
AcDbSymbolTableRecord
100
AcDbBlockTableRecord
  2
*Model_Space
  0
BLOCK_RECORD
  5
212
100
AcDbSymbolTableRecord
100
AcDbBlockTableRecord
  2
*Paper_Space
  0
BLOCK_RECORD
  5
213
100
AcDbSymbolTableRecord
100
AcDbBlockTableRecord
  2
_FILLED
  0
ENDTAB
  0
TABLE
  2
DIMSTYLE
  5
A
100
AcDbSymbolTable
 70
1
100
AcDbDimStyleTable
 71
0
  0
DIMSTYLE
105
214
100
AcDbSymbolTableRecord
100
AcDbDimStyleTableRecord
  2
STANDARD
 70
0
  3

  4

 40
1.0
 41
3.0849155302
 42
1.0
 43
0.38
 44
1.0
 45
0.0
 46
0.0
 47
0.01
 48
0.01
140
4.3188817423
141
0.09
142
0.0
143
25.4
144
1.0
145
0.0
146
1.0
147
0.625
 71
1
 72
0
 73
0
 74
0
 75
0
 76
0
 77
1
 78
8
 79
2
170
0
171
1
172
0
173
0
174
0
175
0
176
0
177
0
178
0
270
2
179
2
271
2
272
2
273
2
274
2
275
0
280
0
281
0
282
0
283
1
284
8
285
0
286
0
287
3
288
0
340
11
278
46
341
213
342
213
343
213
344
213
  0
ENDTAB
  0
ENDSEC
  0
SECTION
  2
BLOCKS
  0
BLOCK
  5
20
100
AcDbEntity
  8
0
100
AcDbBlockBegin
  2
*Model_Space
 70
0
 10
0.0
 20
0.0
 30
0.0
  3
*Model_Space
  1

  0
ENDBLK
  5
21
100
AcDbEntity
  8
0
100
AcDbBlockEnd
  0
BLOCK
  5
1C
100
AcDbEntity
  8
0
100
AcDbBlockBegin
  2
*Paper_Space
 70
0
 10
0.0
 20
0.0
 30
0.0
  3
*Paper_Space
  1

  0
ENDBLK
  5
1D
100
AcDbEntity
  8
0
100
AcDbBlockEnd
  0
BLOCK
  5
215
100
AcDbEntity
  8
0
100
AcDbBlockBegin
  2
_FILLED
 70
64
 10
0.0
 20
0.0
  3
_FILLED
  1

  0
SOLID
  5
216
100
AcDbEntity
  8
0
  6
BYBLOCK
 62
0
100
AcDbTrace
 10
0.0
 20
0.0
 11
-1.0
 21
0.25
 12
-1.0
 22
-0.25
 13
-1.0
 23
-0.25
  0
ENDBLK
  5
217
100
AcDbEntity
  8
0
  6
BYBLOCK
 62
0
100
AcDbBlockEnd
  0
ENDSEC
  0
SECTION
  2
ENTITIES
  0
LINE
  5
218
100
AcDbEntity
  8
1
100
AcDbLine
 62
7
  6
BYLAYER
 10
29.3093406715
 20
204.8104075457
 11
29.3093406715
 21
154.9939824945
  0
LINE
  5
219
100
AcDbEntity
  8
1
100
AcDbLine
 62
7
  6
BYLAYER
 10
35.0157063325
 20
204.8104075457
 11
35.0157063325
 21
194.5939824945
  0
LINE
  5
21A
100
AcDbEntity
  8
1
100
AcDbLine
 62
7
  6
BYLAYER
 10
39.0157063325
 20
194.5939824945
 11
39.0157063325
 21
204.8104075457
  0
LINE
  5
21B
100
AcDbEntity
  8
1
100
AcDbLine
 62
7
  6
BYLAYER
 10
29.3093406715
 20
154.9939824945
 11
198.9093406715
 21
154.9939824945
  0
LINE
  5
21C
100
AcDbEntity
  8
1
100
AcDbLine
 62
7
  6
BYLAYER
 10
234.3093406715
 20
155.6404291039
 11
198.9093406715
 21
155.6404291039
  0
LINE
  5
21D
100
AcDbEntity
  8
1
100
AcDbLine
 62
7
  6
BYLAYER
 10
234.3093406715
 20
194.4939824945
 11
198.9093406715
 21
194.4939824945
  0
LINE
  5
21E
100
AcDbEntity
  8
1
100
AcDbLine
 62
7
  6
BYLAYER
 10
198.9093406715
 20
194.5939824945
 11
183.0593406715
 21
194.5939824945
  0
LINE
  5
21F
100
AcDbEntity
  8
1
100
AcDbLine
 62
7
  6
BYLAYER
 10
29.3093406715
 20
194.5939824945
 11
39.0157063325
 21
194.5939824945
  0
LINE
  5
220
100
AcDbEntity
  8
1
100
AcDbLine
 62
7
  6
BYLAYER
 10
29.3093406715
 20
204.8104075457
 11
198.8694601419
 21
204.8104075457
  0
LINE
  5
221
100
AcDbEntity
  8
1
100
AcDbLine
 62
7
  6
BYLAYER
 10
169.3093406715
 20
211.2939824945
 11
175.1343406715
 21
211.2939824945
  0
LINE
  5
222
100
AcDbEntity
  8
1
100
AcDbLine
 62
7
  6
BYLAYER
 10
170.0593406715
 20
211.4939824945
 11
173.4593406715
 21
211.4939824945
  0
LINE
  5
223
100
AcDbEntity
  8
1
100
AcDbLine
 62
7
  6
BYLAYER
 10
164.4537662399
 20
211.2921904928
 11
164.4537662399
 21
204.8104075457
  0
LINE
  5
224
100
AcDbEntity
  8
1
100
AcDbLine
 62
7
  6
BYLAYER
 10
169.3093406715
 20
211.2939824945
 11
169.3093406715
 21
211.2277910683
  0
LINE
  5
225
100
AcDbEntity
  8
1
100
AcDbLine
 62
7
  6
BYLAYER
 10
169.8093406715
 20
211.2199342647
 11
169.8093406715
 21
211.2939824945
  0
LINE
  5
226
100
AcDbEntity
  8
1
100
AcDbLine
 62
7
  6
BYLAYER
 10
170.0593406715
 20
211.4939824945
 11
170.0593406715
 21
211.2939824945
  0
LINE
  5
227
100
AcDbEntity
  8
1
100
AcDbLine
 62
7
  6
BYLAYER
 10
171.2593406715
 20
211.4939824945
 11
171.2593406715
 21
211.2939824945
  0
LINE
  5
228
100
AcDbEntity
  8
1
100
AcDbLine
 62
7
  6
BYLAYER
 10
173.4593406715
 20
211.4939824945
 11
173.4593406715
 21
211.2939824945
  0
LINE
  5
229
100
AcDbEntity
  8
1
100
AcDbLine
 62
7
  6
BYLAYER
 10
173.6343406715
 20
211.2939824945
 11
173.6343406715
 21
211.203415493
  0
LINE
  5
22A
100
AcDbEntity
  8
1
100
AcDbLine
 62
7
  6
BYLAYER
 10
175.1343406715
 20
211.2100382592
 11
175.1343406715
 21
211.2939824945
  0
LINE
  5
22B
100
AcDbEntity
  8
1
100
AcDbLine
 62
7
  6
BYLAYER
 10
181.2649149224
 20
211.2921904928
 11
181.2649149224
 21
204.8104075457
  0
LINE
  5
22C
100
AcDbEntity
  8
1
100
AcDbLine
 62
7
  6
BYLAYER
 10
183.0593406715
 20
204.8104075457
 11
183.0593406715
 21
194.5939824945
  0
LINE
  5
22D
100
AcDbEntity
  8
1
100
AcDbLine
 62
7
  6
BYLAYER
 10
184.0630223055
 20
194.5939824945
 11
184.0630223055
 21
204.8104075457
  0
LINE
  5
22E
100
AcDbEntity
  8
1
100
AcDbLine
 62
7
  6
BYLAYER
 10
196.3602560569
 20
204.8104075457
 11
196.3602560569
 21
194.5939824945
  0
LINE
  5
22F
100
AcDbEntity
  8
1
100
AcDbLine
 62
7
  6
BYLAYER
 10
198.8694601419
 20
194.5939824945
 11
198.8694601419
 21
204.8104075457
  0
LINE
  5
230
100
AcDbEntity
  8
1
100
AcDbLine
 62
7
  6
BYLAYER
 10
198.9093406715
 20
194.5939824945
 11
198.9093406715
 21
154.9939824945
  0
LINE
  5
231
100
AcDbEntity
  8
1
100
AcDbLine
 62
7
  6
BYLAYER
 10
234.3093406715
 20
155.6404291039
 11
234.3093406715
 21
194.4939824945
  0
ARC
  5
232
100
AcDbEntity
  8
1
100
AcDbCircle
 62
7
  6
BYLAYER
 10
172.8514118388
 20
675.9771044451
 40
464.8339527647
100
AcDbArc
 50
269.7986444162
 51
270.0009773027
  0
ARC
  5
233
100
AcDbEntity
  8
1
100
AcDbCircle
 62
7
  6
BYLAYER
 10
172.8963701526
 20
664.0582401895
 40
452.9150525857
100
AcDbArc
 50
270.0951019999
 51
270.2901256248
  0
ARC
  5
234
100
AcDbEntity
  8
1
100
AcDbCircle
 62
7
  6
BYLAYER
 10
172.9266427946
 20
-232.4688436269
 40
443.9099994011
100
AcDbArc
 50
89.7077914563
 51
89.9068649266
  0
ARC
  5
235
100
AcDbEntity
  8
1
100
AcDbCircle
 62
7
  6
BYLAYER
 10
172.6758917796
 20
629.4456899132
 40
418.3022089139
100
AcDbArc
 50
269.6343951257
 51
269.8002871415
  0
CIRCLE
  5
236
100
AcDbEntity
  8
1
100
AcDbCircle
 62
7
  6
BYLAYER
 10
49.3093406715
 20
179.2939824945
 40
9.25
  0
SPLINE
  5
237
100
AcDbEntity
  8
1
100
AcDbSpline
 62
7
  6
BYLAYER
 70
0
 71
3
 72
23
 73
19
 74
0
 42
0.0000001
 43
0.0000001
 44
0.0000000001
 40
0.0
 40
0.0
 40
0.0
 40
0.0
 40
0.0014979055
 40
0.0050100699
 40
0.0107012516
 40
0.0185925596
 40
0.028684723
 40
0.0409723015
 40
0.0720547083
 40
0.1116254486
 40
0.1594494631
 40
0.2152217182
 40
0.2785621289
 40
0.3490797036
 40
0.4263118836
 40
0.5988787727
 40
0.7917745481
 40
1.0
 40
1.0
 40
1.0
 40
1.0
 10
181.2648878181
 20
211.2921904928
 30
0.0
 10
181.2648864127
 20
211.2952264079
 30
0.0
 10
181.2529770208
 20
211.3006943336
 30
0.0
 10
181.2341184377
 20
211.3052016704
 30
0.0
 10
181.1987102996
 20
211.3112237572
 30
0.0
 10
181.1515852903
 20
211.3167741936
 30
0.0
 10
181.0902999721
 20
211.3226170803
 30
0.0
 10
180.9823580478
 20
211.3309346382
 30
0.0
 10
180.8144706898
 20
211.3407876346
 30
0.0
 10
180.5746185557
 20
211.3517342121
 30
0.0
 10
180.284633548
 20
211.3623737881
 30
0.0
 10
179.9464476118
 20
211.3726186196
 30
0.0
 10
179.5622318094
 20
211.3823850945
 30
0.0
 10
179.1344983122
 20
211.3915901151
 30
0.0
 10
178.485396726
 20
211.4034745929
 30
0.0
 10
177.5882403565
 20
211.4161617733
 30
0.0
 10
176.425560798
 20
211.4278514344
 30
0.0
 10
175.6125948514
 20
211.4332224264
 30
0.0
 10
175.1905745055
 20
211.4353827345
 30
0.0
  0
LINE
  5
238
100
AcDbEntity
  8
1
100
AcDbLine
 62
7
  6
BYLAYER
 10
173.6482242534
 20
211.4405693038
 11
173.4675230363
 21
211.4408369697
  0
LINE
  5
239
100
AcDbEntity
  8
1
100
AcDbLine
 62
7
  6
BYLAYER
 10
170.0087332842
 20
211.4323968634
 11
169.7665307851
 21
211.43077357
  0
LINE
  5
23A
100
AcDbEntity
  8
1
100
AcDbLine
 62
7
  6
BYLAYER
 10
169.7665307851
 20
211.43077357
 11
169.2996082295
 21
211.4272043135
  0
LINE
  5
23B
100
AcDbEntity
  8
1
100
AcDbLine
 62
7
  6
BYLAYER
 10
169.2996082295
 20
211.4272043135
 11
169.2112531237
 21
211.4264607035
  0
SPLINE
  5
23C
100
AcDbEntity
  8
1
100
AcDbSpline
 62
7
  6
BYLAYER
 70
0
 71
3
 72
21
 73
17
 74
0
 42
0.0000001
 43
0.0000001
 44
0.0000000001
 40
0.0
 40
0.0
 40
0.0
 40
0.0
 40
0.2146806255
 40
0.4101381009
 40
0.5825080242
 40
0.7284132784
 40
0.7905434743
 40
0.8450262188
 40
0.891592725
 40
0.9300403906
 40
0.9601736727
 40
0.9818444873
 40
0.9894926238
 40
0.9950196164
 40
0.9984557618
 40
1.0
 40
1.0
 40
1.0
 40
1.0
 10
169.2112531237
 20
211.4264607035
 30
0.0
 10
168.870386852
 20
211.4235485784
 30
0.0
 10
168.2191841002
 20
211.4170342744
 30
0.0
 10
167.2943358426
 20
211.4045253134
 30
0.0
 10
166.4787386683
 20
211.389931085
 30
0.0
 10
165.8748755429
 20
211.3756902073
 30
0.0
 10
165.4582302169
 20
211.363094831
 30
0.0
 10
165.1992834649
 20
211.3538421749
 30
0.0
 10
164.9780076783
 20
211.3443390484
 30
0.0
 10
164.7953635212
 20
211.3346477218
 30
0.0
 10
164.6525375138
 20
211.3249445725
 30
0.0
 10
164.5582026264
 20
211.3160944682
 30
0.0
 10
164.5037899227
 20
211.3087645077
 30
0.0
 10
164.4771676634
 20
211.3034677249
 30
0.0
 10
164.4623933221
 20
211.2995957081
 30
0.0
 10
164.4537922091
 20
211.2946424973
 30
0.0
 10
164.4537933442
 20
211.2921904927
 30
0.0
  0
SPLINE
  5
23D
100
AcDbEntity
  8
1
100
AcDbSpline
 62
7
  6
BYLAYER
 70
0
 71
3
 72
21
 73
17
 74
0
 42
0.0000001
 43
0.0000001
 44
0.0000000001
 40
0.0
 40
0.0
 40
0.0
 40
0.0
 40
0.0015456496
 40
0.004980846
 40
0.01050523
 40
0.0181495421
 40
0.0398104738
 40
0.0699309359
 40
0.1083613341
 40
0.1549092095
 40
0.2093740058
 40
0.2714854816
 40
0.4173636575
 40
0.5897307494
 40
0.7852263757
 40
1.0
 40
1.0
 40
1.0
 40
1.0
 10
164.4537933442
 20
211.2921904927
 30
0.0
 10
164.4537944758
 20
211.2897460695
 30
0.0
 10
164.4623489556
 20
211.2848042721
 30
0.0
 10
164.4770665085
 20
211.2809382225
 30
0.0
 10
164.503564086
 20
211.275654038
 30
0.0
 10
164.5577338914
 20
211.2683394385
 30
0.0
 10
164.651645752
 20
211.259509253
 30
0.0
 10
164.7938364867
 20
211.2498267005
 30
0.0
 10
164.9756711174
 20
211.2401545487
 30
0.0
 10
165.1959753441
 20
211.2306694304
 30
0.0
 10
165.4537974457
 20
211.2214332918
 30
0.0
 10
165.8686734545
 20
211.208856575
 30
0.0
 10
166.4700418954
 20
211.1946321702
 30
0.0
 10
167.2823869696
 20
211.1800449096
 30
0.0
 10
168.2037359594
 20
211.1675303892
 30
0.0
 10
168.8525394782
 20
211.16100414
 30
0.0
 10
169.1921884292
 20
211.1580836896
 30
0.0
  0
LINE
  5
23E
100
AcDbEntity
  8
1
100
AcDbLine
 62
7
  6
BYLAYER
 10
169.1921884292
 20
211.1580836896
 11
169.2977809809
 21
211.1571918451
  0
LINE
  5
23F
100
AcDbEntity
  8
1
100
AcDbLine
 62
7
  6
BYLAYER
 10
169.2977809809
 20
211.1571918451
 11
169.7651110432
 21
211.153617422
  0
LINE
  5
240
100
AcDbEntity
  8
1
100
AcDbLine
 62
7
  6
BYLAYER
 10
169.7651110432
 20
211.153617422
 11
170.0067198095
 21
211.1519970331
  0
LINE
  5
241
100
AcDbEntity
  8
1
100
AcDbLine
 62
7
  6
BYLAYER
 10
172.8593405811
 20
211.143151748
 11
173.4683108555
 21
211.1435450158
  0
LINE
  5
242
100
AcDbEntity
  8
1
100
AcDbLine
 62
7
  6
BYLAYER
 10
173.4683108555
 20
211.1435450158
 11
173.6481376973
 21
211.143811512
  0
SPLINE
  5
243
100
AcDbEntity
  8
1
100
AcDbSpline
 62
7
  6
BYLAYER
 70
0
 71
3
 72
23
 73
19
 74
0
 42
0.0000001
 43
0.0000001
 44
0.0000000001
 40
0.0
 40
0.0
 40
0.0
 40
0.0
 40
0.2082165602
 40
0.4011085897
 40
0.5736734728
 40
0.6509068051
 40
0.7214250183
 40
0.7847680862
 40
0.8405432657
 40
0.8883684933
 40
0.9279419441
 40
0.9590261959
 40
0.9713136986
 40
0.9814062367
 40
0.9892982219
 40
0.9949900394
 40
0.9985024568
 40
1.0
 40
1.0
 40
1.0
 40
1.0
 10
175.1897624793
 20
211.1489940813
 30
0.0
 10
175.6118212094
 20
211.1511537615
 30
0.0
 10
176.4248702025
 20
211.1565238411
 30
0.0
 10
177.5876755008
 20
211.1682120396
 30
0.0
 10
178.4849424738
 20
211.1808992244
 30
0.0
 10
179.1341304148
 20
211.1927832284
 30
0.0
 10
179.56193011
 20
211.2019888902
 30
0.0
 10
179.9462099
 20
211.2117557159
 30
0.0
 10
180.2844548456
 20
211.2220007701
 30
0.0
 10
180.574492516
 20
211.232641772
 30
0.0
 10
180.8143883994
 20
211.2435890276
 30
0.0
 10
180.9823074471
 20
211.2534424386
 30
0.0
 10
181.090268003
 20
211.2617612571
 30
0.0
 10
181.1515638072
 20
211.2676049238
 30
0.0
 10
181.1986978068
 20
211.2731552014
 30
0.0
 10
181.234115788
 20
211.2791790998
 30
0.0
 10
181.2529748721
 20
211.2836839175
 30
0.0
 10
181.2648892233
 20
211.2891549062
 30
0.0
 10
181.2648878181
 20
211.2921904928
 30
0.0
  0
ELLIPSE
  5
244
100
AcDbEntity
  8
1
100
AcDbEllipse
 62
7
  6
BYLAYER
 10
172.8593406715
 20
211.2939824945
 30
0.0
 11
5.3
 21
0.0
 31
0.0
 40
0.0177337291
 41
2.2019975377
 42
7.7381282891
  0
ENDSEC
  0
SECTION
  2
OBJECTS
  0
DICTIONARY
  5
C
100
AcDbDictionary
280
0
281
1
  3
ACAD_GROUP
350
D
  3
ACAD_MLINESTYLE
350
17
  3
ACAD_LAYOUT
350
1A
  3
ACAD_PLOTSETTINGS
350
19
  3
ACAD_PLOTSTYLENAME
350
E
  0
DICTIONARY
  5
D
102
{ACAD_REACTORS
330
C
102
}
100
AcDbDictionary
280
0
281
1
  0
ACDBDICTIONARYWDFLT
  5
E
102
{ACAD_REACTORS
330
C
102
}
100
AcDbDictionary
281
1
  3
Normal
350
F
100
AcDbDictionaryWithDefault
340
F
  0
DICTIONARY
  5
17
102
{ACAD_REACTORS
330
C
102
}
100
AcDbDictionary
280
0
281
1
  3
Standard
350
18
  0
DICTIONARY
  5
19
102
{ACAD_REACTORS
330
C
102
}
100
AcDbDictionary
281
1
  0
DICTIONARY
  5
1A
102
{ACAD_REACTORS
330
C
102
}
100
AcDbDictionary
281
1
  3
Model
350
245
  3
Layout1
350
246
  0
ACDBPLACEHOLDER
  5
F
102
{ACAD_REACTORS
330
E
102
}
  0
MLINESTYLE
  5
18
102
{ACAD_REACTORS
330
17
102
}
100
AcDbMlineStyle
  2
STANDARD
 70
0
  3

 62
256
 51
90.0
 52
90.0
 71
2
 49
0.5
 62
256
  6
BYLAYER
 49
-0.5
 62
256
  6
BYLAYER
  0
LAYOUT
  5
245
102
{ACAD_REACTORS
330
1A
102
}
100
AcDbPlotSettings
  1

  2
none_device
  4

  6

 40
0.0
 41
0.0
 42
0.0
 43
0.0
 44
210.0
 45
297.0
 46
0.0
 47
0.0
 48
0.0
 49
0.0
140
0.0
141
0.0
142
1.0
143
1.0
 70
1024
 72
1
 73
0
 74
0
  7

 75
0
147
1.0
148
0.0
149
0.0
100
AcDbLayout
  1
Model
 70
0
 71
0
 10
0.0
 20
0.0
 11
210.0
 21
297.0
 12
0.0
 22
0.0
 32
0.0
 14
0.0
 24
0.0
 34
0.0
 15
0.0
 25
0.0
 35
0.0
146
0.0
 13
0.0
 23
0.0
 33
0.0
 16
1.0
 26
0.0
 36
0.0
 17
0.0
 27
1.0
 37
0.0
 76
0
330
211
345
0
346
0
  0
LAYOUT
  5
246
102
{ACAD_REACTORS
330
1A
102
}
100
AcDbPlotSettings
  1

  2
none_device
  4

  6

 40
0.0
 41
0.0
 42
0.0
 43
0.0
 44
210.0
 45
297.0
 46
0.0
 47
0.0
 48
0.0
 49
0.0
140
0.0
141
0.0
142
1.0
143
1.0
 70
0
 72
1
 73
0
 74
0
  7

 75
0
147
1.0
148
0.0
149
0.0
100
AcDbLayout
  1
Layout1
 70
0
 71
1
 10
0.0
 20
0.0
 11
210.0
 21
297.0
 12
0.0
 22
0.0
 32
0.0
 14
0.0
 24
0.0
 34
0.0
 15
0.0
 25
0.0
 35
0.0
146
0.0
 13
0.0
 23
0.0
 33
0.0
 16
1.0
 26
0.0
 36
0.0
 17
0.0
 27
1.0
 37
0.0
 76
0
330
212
345
0
346
0
  0
ENDSEC
  0
EOF
