999
DXF file: C:\Users\sesa63760\Dev\_Creo\CAD\MCADID0004734_3D-CAD\drw0001_5.dxf
999
Pro/ENGINEER 2019471 by Parametric Technology Corporation
  0
SECTION
  2
HEADER
  9
$ACADVER
  1
AC1024
  9
$DWGCODEPAGE
  3
ANSI_1252
  9
$EXTMAX
 10
39.0152065315
 20
55.1786492375
 30
0.0
  9
$EXTMIN
 10
0.0
 20
0.0
 30
0.0
  9
$LIMMIN
 10
0.0
 20
0.0
  9
$LIMMAX
 10
39.0152065315
 20
55.1786492375
  9
$VIEWCTR
 10
19.5076032658
 20
27.5893246187
  9
$VIEWSIZE
 40
55.1786492375
  9
$CLAYER
  8
0
  9
$LTSCALE
 40
3.5968304688
  9
$CELTYPE
  6
BYLAYER
  9
$DIMSCALE
 40
1.0
  9
$DIMASZ
 40
0.4644667444
  9
$DIMEXO
 40
1.0
  9
$DIMDLI
 40
2.4850828694
  9
$DIMEXE
 40
1.0
  9
$DIMCEN
 40
0.5885722585
  9
$DIMLFAC
 40
1.0
  9
$DIMBLK
  1
_FILLED
  9
$DIMALT
 70
0
  9
$DIMALTF
 40
0.0393700787
  9
$DIMTXT
 40
0.6502534422
  9
$DIMTOL
 70
1
  9
$DIMLIM
 70
0
  9
$DIMTFAC
 40
1.0
  9
$DIMTP
 40
0.01
  9
$DIMTM
 40
0.01
  9
$DIMGAP
 40
0.625
  9
$DIMDSEP
 70
46
  9
$AUNITS
 70
0
  9
$PDMODE
 70
3
  9
$PDSIZE
 40
0.3125
  9
$HANDSEED
  5
23D
  9
$TILEMODE
 70
1
  9
$MEASUREMENT
 70
1
  9
$INSUNITS
 70
4
  0
ENDSEC
  0
SECTION
  2
CLASSES
  0
CLASS
  1
ACDBDICTIONARYWDFLT
  2
AcDbDictionaryWithDefault
  3
AutoCAD 2000
 90
0
 91
1
280
0
281
0
  0
CLASS
  1
ACDBPLACEHOLDER
  2
AcDbPlaceHolder
  3
AutoCAD 2000
 90
0
 91
1
280
0
281
0
  0
CLASS
  1
LAYOUT
  2
AcDbLayout
  3
AutoCAD 2000
 90
0
 91
0
280
0
281
0
  0
ENDSEC
  0
SECTION
  2
TABLES
  0
TABLE
  2
VPORT
  5
8
100
AcDbSymbolTable
 70
2
  0
VPORT
  5
1F4
100
AcDbSymbolTableRecord
100
AcDbViewportTableRecord
  2
*ACTIVE
 70
0
 10
0.0
 20
0.0
 11
1.0
 21
1.0
 12
19.5076032658
 22
27.5893246187
 13
0.0
 23
0.0
 14
1.0
 24
1.0
 15
0.0
 25
0.0
 16
0.0
 26
0.0
 36
1.0
 17
0.0
 27
0.0
 37
0.0
 40
55.1786492375
 41
0.7070707071
 42
50.0
 43
0.0
 44
0.0
 50
0.0
 51
0.0
 71
0
 72
100
 73
1
 74
1
 75
0
 76
0
 77
0
 78
0
  0
ENDTAB
  0
TABLE
  2
LTYPE
  5
5
100
AcDbSymbolTable
 70
6
  0
LTYPE
  5
14
100
AcDbSymbolTableRecord
100
AcDbLinetypeTableRecord
  2
BYBLOCK
 70
0
  3

 72
65
 73
0
 40
0.0
  0
LTYPE
  5
15
100
AcDbSymbolTableRecord
100
AcDbLinetypeTableRecord
  2
BYLAYER
 70
0
  3

 72
65
 73
0
 40
0.0
  0
LTYPE
  5
16
100
AcDbSymbolTableRecord
100
AcDbLinetypeTableRecord
  2
CONTINUOUS
 70
64
  3
Solid line
 72
65
 73
0
 40
0.0
  0
LTYPE
  5
1F5
100
AcDbSymbolTableRecord
100
AcDbLinetypeTableRecord
  2
CENTER
 70
64
  3
____ _ ____ _ ____ _ ____ _ ____ _ ____ _ ____
 72
65
 73
4
 40
0.6
 49
0.375
 74
0
 49
-0.075
 74
0
 49
0.075
 74
0
 49
-0.075
 74
0
  0
LTYPE
  5
1F6
100
AcDbSymbolTableRecord
100
AcDbLinetypeTableRecord
  2
HIDDEN
 70
64
  3
- - - - - - - - - - - - - - - - - - - -
 72
65
 73
2
 40
0.2
 49
0.1
 74
0
 49
-0.1
 74
0
  0
LTYPE
  5
1F7
100
AcDbSymbolTableRecord
100
AcDbLinetypeTableRecord
  2
PHANTOM
 70
64
  3
_____ _ _ _____ _ _ _____ _ _ _____
 72
65
 73
6
 40
0.8
 49
0.45
 74
0
 49
-0.05
 74
0
 49
0.1
 74
0
 49
-0.05
 74
0
 49
0.1
 74
0
 49
-0.05
 74
0
  0
LTYPE
  5
1F8
100
AcDbSymbolTableRecord
100
AcDbLinetypeTableRecord
  2
DOT
 70
64
  3
. . . . . . . . . . . . . . . . . . . .
 72
65
 73
2
 40
0.2
 49
0.1
 74
0
 49
-0.1
 74
0
  0
LTYPE
  5
1F9
100
AcDbSymbolTableRecord
100
AcDbLinetypeTableRecord
  2
DASHED
 70
64
  3
- - - - - - - - - - - - - - - - - - - -
 72
65
 73
2
 40
0.2
 49
0.1
 74
0
 49
-0.1
 74
0
  0
ENDTAB
  0
TABLE
  2
LAYER
  5
2
100
AcDbSymbolTable
 70
36
  0
LAYER
  5
10
100
AcDbSymbolTableRecord
100
AcDbLayerTableRecord
  2
0
 70
0
 62
7
  6
CONTINUOUS
370
-3
390
F
  0
LAYER
  5
1FA
100
AcDbSymbolTableRecord
100
AcDbLayerTableRecord
  2
DEFAULT_1
 70
0
 62
7
  6
CENTER
370
-3
390
F
  0
LAYER
  5
1FB
100
AcDbSymbolTableRecord
100
AcDbLayerTableRecord
  2
DEFAULT_2
 70
0
 62
7
  6
HIDDEN
370
-3
390
F
  0
LAYER
  5
1FC
100
AcDbSymbolTableRecord
100
AcDbLayerTableRecord
  2
DEFAULT_3
 70
0
 62
7
  6
PHANTOM
370
-3
390
F
  0
LAYER
  5
1FD
100
AcDbSymbolTableRecord
100
AcDbLayerTableRecord
  2
00_COMPONENTS
 70
0
 62
7
  6
CONTINUOUS
370
-3
390
F
  0
LAYER
  5
1FE
100
AcDbSymbolTableRecord
100
AcDbLayerTableRecord
  2
01_1_DEFAULT_DATUMS
 70
0
 62
7
  6
CONTINUOUS
370
-3
390
F
  0
LAYER
  5
1FF
100
AcDbSymbolTableRecord
100
AcDbLayerTableRecord
  2
01_PLANES
 70
0
 62
7
  6
CONTINUOUS
370
-3
390
F
  0
LAYER
  5
200
100
AcDbSymbolTableRecord
100
AcDbLayerTableRecord
  2
02_COORD_SYS
 70
0
 62
7
  6
CONTINUOUS
370
-3
390
F
  0
LAYER
  5
201
100
AcDbSymbolTableRecord
100
AcDbLayerTableRecord
  2
03_AXES
 70
0
 62
7
  6
CONTINUOUS
370
-3
390
F
  0
LAYER
  5
202
100
AcDbSymbolTableRecord
100
AcDbLayerTableRecord
  2
04_POINTS
 70
0
 62
7
  6
CONTINUOUS
370
-3
390
F
  0
LAYER
  5
203
100
AcDbSymbolTableRecord
100
AcDbLayerTableRecord
  2
05_CURVES
 70
0
 62
7
  6
CONTINUOUS
370
-3
390
F
  0
LAYER
  5
204
100
AcDbSymbolTableRecord
100
AcDbLayerTableRecord
  2
06_SURFS
 70
0
 62
7
  6
CONTINUOUS
370
-3
390
F
  0
LAYER
  5
205
100
AcDbSymbolTableRecord
100
AcDbLayerTableRecord
  2
07_COSMETICS
 70
0
 62
7
  6
CONTINUOUS
370
-3
390
F
  0
LAYER
  5
206
100
AcDbSymbolTableRecord
100
AcDbLayerTableRecord
  2
10_NOTES
 70
0
 62
7
  6
CONTINUOUS
370
-3
390
F
  0
LAYER
  5
207
100
AcDbSymbolTableRecord
100
AcDbLayerTableRecord
  2
11_NOTES_PUB
 70
0
 62
7
  6
CONTINUOUS
370
-3
390
F
  0
LAYER
  5
208
100
AcDbSymbolTableRecord
100
AcDbLayerTableRecord
  2
13_REF_GTOL
 70
0
 62
7
  6
CONTINUOUS
370
-3
390
F
  0
LAYER
  5
209
100
AcDbSymbolTableRecord
100
AcDbLayerTableRecord
  2
16_MISC
 70
0
 62
7
  6
CONTINUOUS
370
-3
390
F
  0
LAYER
  5
20A
100
AcDbSymbolTableRecord
100
AcDbLayerTableRecord
  2
17_NO_PRINT
 70
0
 62
7
  6
CONTINUOUS
370
-3
390
F
  0
LAYER
  5
20B
100
AcDbSymbolTableRecord
100
AcDbLayerTableRecord
  2
18_DATUM_CAMS_JOINTS
 70
0
 62
7
  6
CONTINUOUS
370
-3
390
F
  0
LAYER
  5
20C
100
AcDbSymbolTableRecord
100
AcDbLayerTableRecord
  2
19_DATUM_FUNCTIONAL
 70
0
 62
7
  6
CONTINUOUS
370
-3
390
F
  0
LAYER
  5
20D
100
AcDbSymbolTableRecord
100
AcDbLayerTableRecord
  2
20_DATUM_KINEMATIC_SCHEME
 70
0
 62
7
  6
CONTINUOUS
370
-3
390
F
  0
ENDTAB
  0
TABLE
  2
STYLE
  5
3
100
AcDbSymbolTable
 70
1
  0
STYLE
  5
11
100
AcDbSymbolTableRecord
100
AcDbTextStyleTableRecord
  2
STANDARD
 70
0
 40
0.0
 41
1.0
 50
0.0
 71
0
 42
0.2
  3
ARIAL.TTF
  4

  0
STYLE
  5
20E
100
AcDbSymbolTableRecord
100
AcDbTextStyleTableRecord
  2
TEXTSTYLE_1
 70
0
 40
0.0
 41
0.8
 50
0.0
 71
0
 42
0.2
  3
gdt
  4

  0
ENDTAB
  0
TABLE
  2
VIEW
  5
6
100
AcDbSymbolTable
 70
0
  0
ENDTAB
  0
TABLE
  2
UCS
  5
7
100
AcDbSymbolTable
 70
0
  0
ENDTAB
  0
TABLE
  2
APPID
  5
9
100
AcDbSymbolTable
 70
1
  0
APPID
  5
20F
100
AcDbSymbolTableRecord
100
AcDbRegAppTableRecord
  2
ACAD
 70
0
  0
ENDTAB
  0
TABLE
  2
BLOCK_RECORD
  5
1
100
AcDbSymbolTable
 70
0
  0
BLOCK_RECORD
  5
210
100
AcDbSymbolTableRecord
100
AcDbBlockTableRecord
  2
*Model_Space
  0
BLOCK_RECORD
  5
211
100
AcDbSymbolTableRecord
100
AcDbBlockTableRecord
  2
*Paper_Space
  0
BLOCK_RECORD
  5
212
100
AcDbSymbolTableRecord
100
AcDbBlockTableRecord
  2
_FILLED
  0
ENDTAB
  0
TABLE
  2
DIMSTYLE
  5
A
100
AcDbSymbolTable
 70
1
100
AcDbDimStyleTable
 71
0
  0
DIMSTYLE
105
213
100
AcDbSymbolTableRecord
100
AcDbDimStyleTableRecord
  2
STANDARD
 70
0
  3

  4

 40
1.0
 41
0.4644667444
 42
1.0
 43
0.38
 44
1.0
 45
0.0
 46
0.0
 47
0.01
 48
0.01
140
0.6502534422
141
0.09
142
0.0
143
25.4
144
1.0
145
0.0
146
1.0
147
0.625
 71
1
 72
0
 73
0
 74
0
 75
0
 76
0
 77
1
 78
8
 79
2
170
0
171
1
172
0
173
0
174
0
175
0
176
0
177
0
178
0
270
2
179
2
271
2
272
2
273
2
274
2
275
0
280
0
281
0
282
0
283
1
284
8
285
0
286
0
287
3
288
0
340
11
278
46
341
212
342
212
343
212
344
212
  0
ENDTAB
  0
ENDSEC
  0
SECTION
  2
BLOCKS
  0
BLOCK
  5
20
100
AcDbEntity
  8
0
100
AcDbBlockBegin
  2
*Model_Space
 70
0
 10
0.0
 20
0.0
 30
0.0
  3
*Model_Space
  1

  0
ENDBLK
  5
21
100
AcDbEntity
  8
0
100
AcDbBlockEnd
  0
BLOCK
  5
1C
100
AcDbEntity
  8
0
100
AcDbBlockBegin
  2
*Paper_Space
 70
0
 10
0.0
 20
0.0
 30
0.0
  3
*Paper_Space
  1

  0
ENDBLK
  5
1D
100
AcDbEntity
  8
0
100
AcDbBlockEnd
  0
BLOCK
  5
214
100
AcDbEntity
  8
0
100
AcDbBlockBegin
  2
_FILLED
 70
64
 10
0.0
 20
0.0
  3
_FILLED
  1

  0
SOLID
  5
215
100
AcDbEntity
  8
0
  6
BYBLOCK
 62
0
100
AcDbTrace
 10
0.0
 20
0.0
 11
-1.0
 21
0.25
 12
-1.0
 22
-0.25
 13
-1.0
 23
-0.25
  0
ENDBLK
  5
216
100
AcDbEntity
  8
0
  6
BYBLOCK
 62
0
100
AcDbBlockEnd
  0
ENDSEC
  0
SECTION
  2
ENTITIES
  0
LINE
  5
217
100
AcDbEntity
  8
0
100
AcDbLine
 62
7
  6
BYLAYER
 10
4.9828581583
 20
37.4570452353
 11
4.98124161
 21
38.0133781127
  0
LINE
  5
218
100
AcDbEntity
  8
0
100
AcDbLine
 62
7
  6
BYLAYER
 10
4.5479082767
 20
37.4570452353
 11
4.5479082767
 21
12.4570452353
  0
LINE
  5
219
100
AcDbEntity
  8
0
100
AcDbLine
 62
7
  6
BYLAYER
 10
4.5979082767
 20
37.4570452353
 11
4.5979082767
 21
41.8570452353
  0
LINE
  5
21A
100
AcDbEntity
  8
0
100
AcDbLine
 62
7
  6
BYLAYER
 10
4.5479082767
 20
12.4570452353
 11
35.5479082767
 21
12.4570452353
  0
LINE
  5
21B
100
AcDbEntity
  8
0
100
AcDbLine
 62
7
  6
BYLAYER
 10
25.0479082767
 20
12.7570452353
 11
15.0479082767
 21
12.7570452353
  0
LINE
  5
21C
100
AcDbEntity
  8
0
100
AcDbLine
 62
7
  6
BYLAYER
 10
13.4462986252
 20
38.5479226286
 11
13.4479049137
 21
37.4570452353
  0
LINE
  5
21D
100
AcDbEntity
  8
0
100
AcDbLine
 62
7
  6
BYLAYER
 10
15.0479082767
 20
12.4570452353
 11
15.0479082767
 21
12.7570452353
  0
LINE
  5
21E
100
AcDbEntity
  8
0
100
AcDbLine
 62
7
  6
BYLAYER
 10
18.1710306802
 20
37.4570452353
 11
18.1710306802
 21
42.8423483276
  0
LINE
  5
21F
100
AcDbEntity
  8
0
100
AcDbLine
 62
7
  6
BYLAYER
 10
16.6995743265
 20
24.9570452353
 11
17.0479082767
 21
24.9570452353
  0
LINE
  5
220
100
AcDbEntity
  8
0
100
AcDbLine
 62
7
  6
BYLAYER
 10
23.0479082767
 20
24.9570452353
 11
23.3962422268
 21
24.9570452353
  0
LINE
  5
221
100
AcDbEntity
  8
0
100
AcDbLine
 62
7
  6
BYLAYER
 10
21.9247858732
 20
37.4570452353
 11
21.9247858732
 21
42.8423483276
  0
LINE
  5
222
100
AcDbEntity
  8
0
100
AcDbLine
 62
7
  6
BYLAYER
 10
25.0479082767
 20
12.7570452353
 11
25.0479082767
 21
12.4570452353
  0
LINE
  5
223
100
AcDbEntity
  8
0
100
AcDbLine
 62
7
  6
BYLAYER
 10
26.6479150026
 20
37.4570452353
 11
26.6495224333
 21
38.5479190243
  0
LINE
  5
224
100
AcDbEntity
  8
0
100
AcDbLine
 62
7
  6
BYLAYER
 10
4.5479082767
 20
37.4570452353
 11
35.5479082767
 21
37.4570452353
  0
LINE
  5
225
100
AcDbEntity
  8
0
100
AcDbLine
 62
7
  6
BYLAYER
 10
35.4979082767
 20
41.8570452353
 11
35.4979082767
 21
37.4570452353
  0
LINE
  5
226
100
AcDbEntity
  8
0
100
AcDbLine
 62
7
  6
BYLAYER
 10
35.5479082767
 20
12.4570452353
 11
35.5479082767
 21
37.4570452353
  0
LINE
  5
227
100
AcDbEntity
  8
0
100
AcDbLine
 62
7
  6
BYLAYER
 10
35.1145848599
 20
38.013377139
 11
35.1129683035
 21
37.4570452353
  0
ARC
  5
228
100
AcDbEntity
  8
0
100
AcDbCircle
 62
7
  6
BYLAYER
 10
20.0479082767
 20
-76.9942047647
 40
119.85125
100
AcDbArc
 50
82.5934019418
 51
97.4065980582
  0
CIRCLE
  5
229
100
AcDbEntity
  8
0
100
AcDbCircle
 62
7
  6
BYLAYER
 10
20.0479082767
 20
24.9570452353
 40
8.0
  0
CIRCLE
  5
22A
100
AcDbEntity
  8
0
100
AcDbCircle
 62
7
  6
BYLAYER
 10
20.0479082767
 20
24.9570452353
 40
6.79
  0
CIRCLE
  5
22B
100
AcDbEntity
  8
0
100
AcDbCircle
 62
7
  6
BYLAYER
 10
20.0479082767
 20
24.9570452353
 40
6.4
  0
CIRCLE
  5
22C
100
AcDbEntity
  8
0
100
AcDbCircle
 62
7
  6
BYLAYER
 10
20.0479082767
 20
24.9570452353
 40
4.85
  0
CIRCLE
  5
22D
100
AcDbEntity
  8
0
100
AcDbCircle
 62
7
  6
BYLAYER
 10
20.0479082767
 20
24.9570452353
 40
4.3537980617
  0
ARC
  5
22E
100
AcDbEntity
  8
0
100
AcDbCircle
 62
7
  6
BYLAYER
 10
20.0479082767
 20
24.9570452353
 40
4.1786327154
100
AcDbArc
 50
131.5384033568
 51
48.4615966432
  0
ARC
  5
22F
100
AcDbEntity
  8
0
100
AcDbCircle
 62
7
  6
BYLAYER
 10
20.0479082767
 20
24.9570452353
 40
3.3483339502
100
AcDbArc
 50
180.0
 51
360.0
  0
CIRCLE
  5
230
100
AcDbEntity
  8
0
100
AcDbCircle
 62
7
  6
BYLAYER
 10
20.0479083635
 20
24.9569014849
 40
2.9999836427
  0
LINE
  5
231
100
AcDbEntity
  8
0
100
AcDbLine
 62
7
  6
BYLAYER
 10
13.4402594751
 20
42.6747598578
 11
13.4462968971
 21
38.5479226135
  0
LINE
  5
232
100
AcDbEntity
  8
0
100
AcDbLine
 62
7
  6
BYLAYER
 10
26.6495224333
 20
38.5479190243
 11
26.6555570782
 21
42.6747598578
  0
SPLINE
  5
233
100
AcDbEntity
  8
0
100
AcDbSpline
 62
7
  6
BYLAYER
 70
0
 71
3
 72
9
 73
5
 74
0
 42
0.0000001
 43
0.0000001
 44
0.0000000001
 40
0.0
 40
0.0
 40
0.0
 40
0.0
 40
0.2434358213
 40
1.0
 40
1.0
 40
1.0
 40
1.0
 10
4.9812401477
 20
38.0133943223
 30
0.0
 10
6.0099313532
 20
38.1143985714
 30
0.0
 10
10.2397234886
 20
38.4866421523
 30
0.0
 10
14.4850087656
 20
38.6834803296
 30
0.0
 10
17.6970365467
 20
38.7324432993
 30
0.0
  0
SPLINE
  5
234
100
AcDbEntity
  8
0
100
AcDbSpline
 62
7
  6
BYLAYER
 70
0
 71
3
 72
9
 73
5
 74
0
 42
0.0000001
 43
0.0000001
 44
0.0000000001
 40
0.0
 40
0.0
 40
0.0
 40
0.0
 40
0.2546934364
 40
1.0
 40
1.0
 40
1.0
 40
1.0
 10
22.3987812713
 20
38.7324432233
 30
0.0
 10
23.48009842
 20
38.7159596917
 30
0.0
 10
27.7248750076
 20
38.6068718449
 30
0.0
 10
31.9651076091
 20
38.3226316612
 30
0.0
 10
35.1145764056
 20
38.0133943223
 30
0.0
  0
SPLINE
  5
235
100
AcDbEntity
  8
0
100
AcDbSpline
 62
7
  6
BYLAYER
 70
0
 71
3
 72
14
 73
10
 74
0
 42
0.0000001
 43
0.0000001
 44
0.0000000001
 40
0.0
 40
0.0
 40
0.0
 40
0.0
 40
0.1249939603
 40
0.2499972075
 40
0.374997025
 40
0.5000103184
 40
0.6250170004
 40
0.7500181623
 40
1.0
 40
1.0
 40
1.0
 40
1.0
 10
22.8188511346
 20
28.0847995492
 30
0.0
 10
22.8849357171
 20
27.9680810556
 30
0.0
 10
23.0039179131
 20
27.7269744571
 30
0.0
 10
23.1454314259
 20
27.349650455
 30
0.0
 10
23.2505401527
 20
26.9606138614
 30
0.0
 10
23.3223434854
 20
26.5642278777
 30
0.0
 10
23.3651963365
 20
26.1637981138
 30
0.0
 10
23.3916925294
 20
25.6277348058
 30
0.0
 10
23.3916079314
 20
25.2252551091
 30
0.0
 10
23.3962422268
 20
24.9570452353
 30
0.0
  0
SPLINE
  5
236
100
AcDbEntity
  8
0
100
AcDbSpline
 62
7
  6
BYLAYER
 70
0
 71
3
 72
31
 73
27
 74
0
 42
0.0000001
 43
0.0000001
 44
0.0000000001
 40
0.0
 40
0.0
 40
0.0
 40
0.0
 40
0.0625480512
 40
0.1250581827
 40
0.1875047319
 40
0.2498983776
 40
0.3122837814
 40
0.3435259432
 40
0.3747775495
 40
0.406046939
 40
0.4373348111
 40
0.4686378325
 40
0.4999468819
 40
0.5312572261
 40
0.5625585025
 40
0.5938437594
 40
0.6251094907
 40
0.6563591378
 40
0.6875957952
 40
0.7188233415
 40
0.7500481249
 40
0.7812726045
 40
0.8125050782
 40
0.8749456353
 40
0.9374520246
 40
1.0
 40
1.0
 40
1.0
 40
1.0
 10
20.0479082767
 20
16.9570452353
 30
0.0
 10
19.5044748845
 20
16.9570452353
 30
0.0
 10
18.4154619965
 20
17.0536750149
 30
0.0
 10
16.8359607902
 20
17.4852864922
 30
0.0
 10
15.3602348322
 20
18.193915052
 30
0.0
 10
14.0419623268
 20
19.163024179
 30
0.0
 10
13.1182074393
 20
20.1683106978
 30
0.0
 10
12.5119368018
 20
21.0700122972
 30
0.0
 10
12.1288897237
 20
21.7907428244
 30
0.0
 10
11.8243671656
 20
22.5484159314
 30
0.0
 10
11.6027769335
 20
23.3348690673
 30
0.0
 10
11.4679164589
 20
24.1411396853
 30
0.0
 10
11.422901294
 20
24.9575921253
 30
0.0
 10
11.4681817544
 20
25.7740028887
 30
0.0
 10
11.6028856081
 20
26.5802620036
 30
0.0
 10
11.8244246779
 20
27.3666776015
 30
0.0
 10
12.1295082913
 20
28.1240645127
 30
0.0
 10
12.512446213
 20
28.8446520119
 30
0.0
 10
12.9674375862
 20
29.5215822911
 30
0.0
 10
13.4882859489
 20
30.148893687
 30
0.0
 10
14.0683618122
 20
30.7216222972
 30
0.0
 10
14.7011344651
 20
31.2356238132
 30
0.0
 10
15.6054471865
 20
31.8378064205
 30
0.0
 10
16.836226091
 20
32.4289267478
 30
0.0
 10
18.4154529473
 20
32.860392506
 30
0.0
 10
19.5044755436
 20
32.9570452353
 30
0.0
 10
20.0479082767
 20
32.9570452353
 30
0.0
  0
SPLINE
  5
237
100
AcDbEntity
  8
0
100
AcDbSpline
 62
7
  6
BYLAYER
 70
0
 71
3
 72
31
 73
27
 74
0
 42
0.0000001
 43
0.0000001
 44
0.0000000001
 40
0.0
 40
0.0
 40
0.0
 40
0.0
 40
0.0625480436
 40
0.1250581722
 40
0.1875047245
 40
0.2498983664
 40
0.3122837713
 40
0.3435259332
 40
0.3747775398
 40
0.4060469298
 40
0.4373348025
 40
0.4686378239
 40
0.4999468737
 40
0.5312572178
 40
0.5625584935
 40
0.5938437498
 40
0.6251094811
 40
0.6563591272
 40
0.6875957844
 40
0.7188233307
 40
0.7500481141
 40
0.7812725933
 40
0.8125050682
 40
0.8749456335
 40
0.9374520272
 40
1.0
 40
1.0
 40
1.0
 40
1.0
 10
20.0479082767
 20
32.9570452353
 30
0.0
 10
20.5913416008
 20
32.9570452353
 30
0.0
 10
21.6803543787
 20
32.860415322
 30
0.0
 10
23.2598555456
 20
32.4288039951
 30
0.0
 10
24.7355814848
 20
31.7201754713
 30
0.0
 10
26.0538540883
 20
30.7510664821
 30
0.0
 10
26.9776089746
 20
29.7457799937
 30
0.0
 10
27.5838796675
 20
28.8440784184
 30
0.0
 10
27.9669267073
 20
28.1233478647
 30
0.0
 10
28.2714493243
 20
27.3656747729
 30
0.0
 10
28.4930395704
 20
26.5792216317
 30
0.0
 10
28.6279000595
 20
25.772951008
 30
0.0
 10
28.6729152009
 20
24.9564985687
 30
0.0
 10
28.62763484
 20
24.140087805
 30
0.0
 10
28.4929309502
 20
23.3338287053
 30
0.0
 10
28.271391856
 20
22.5474131357
 30
0.0
 10
27.9663084458
 20
21.7900261637
 30
0.0
 10
27.5833706058
 20
21.0694386263
 30
0.0
 10
27.1283791803
 20
20.3925083929
 30
0.0
 10
26.6075307459
 20
19.7651970633
 30
0.0
 10
26.0274549072
 20
19.1924684413
 30
0.0
 10
25.3946822816
 20
18.6784668826
 30
0.0
 10
24.4903695687
 20
18.076284134
 30
0.0
 10
23.2595905837
 20
17.4851636349
 30
0.0
 10
21.6803635578
 20
17.053698245
 30
0.0
 10
20.5913409863
 20
16.9570452353
 30
0.0
 10
20.0479082767
 20
16.9570452353
 30
0.0
  0
SPLINE
  5
238
100
AcDbEntity
  8
0
100
AcDbSpline
 62
7
  6
BYLAYER
 70
0
 71
3
 72
14
 73
10
 74
0
 42
0.0000001
 43
0.0000001
 44
0.0000000001
 40
0.0
 40
0.0
 40
0.0
 40
0.0
 40
0.2499822151
 40
0.3749857449
 40
0.4999919433
 40
0.6250052847
 40
0.7500052294
 40
0.8750067143
 40
1.0
 40
1.0
 40
1.0
 40
1.0
 10
16.6995743265
 20
24.9570452353
 30
0.0
 10
16.7042081357
 20
25.2252554798
 30
0.0
 10
16.704105273
 20
25.6277390603
 30
0.0
 10
16.7306401751
 20
26.1638022036
 30
0.0
 10
16.7734661165
 20
26.5642368408
 30
0.0
 10
16.8452829984
 20
26.9606200316
 30
0.0
 10
16.9503755032
 20
27.3496595357
 30
0.0
 10
17.0919131027
 20
27.726971744
 30
0.0
 10
17.2108811582
 20
27.9680817298
 30
0.0
 10
17.2769654188
 20
28.0847995492
 30
0.0
  0
SPLINE
  5
239
100
AcDbEntity
  8
0
100
AcDbSpline
 62
7
  6
BYLAYER
 70
0
 71
3
 72
11
 73
7
 74
0
 42
0.0000001
 43
0.0000001
 44
0.0000000001
 40
0.0
 40
0.0
 40
0.0
 40
0.0
 40
0.2531231438
 40
0.5052319229
 40
0.7550172347
 40
1.0
 40
1.0
 40
1.0
 40
1.0
 10
20.0479082767
 20
29.2101836841
 30
0.0
 10
20.3063215897
 20
29.2101836846
 30
0.0
 10
20.823479825
 20
29.1598893943
 30
0.0
 10
21.5664905447
 20
28.938004722
 30
0.0
 10
22.245624973
 20
28.5811552999
 30
0.0
 10
22.6411987481
 20
28.2608422774
 30
0.0
 10
22.8188511346
 20
28.0847995492
 30
0.0
  0
SPLINE
  5
23A
100
AcDbEntity
  8
0
100
AcDbSpline
 62
7
  6
BYLAYER
 70
0
 71
3
 72
11
 73
7
 74
0
 42
0.0000001
 43
0.0000001
 44
0.0000000001
 40
0.0
 40
0.0
 40
0.0
 40
0.0
 40
0.2449831512
 40
0.494766549
 40
0.7468765538
 40
1.0
 40
1.0
 40
1.0
 40
1.0
 10
17.2769654188
 20
28.0847995492
 30
0.0
 10
17.4546180961
 20
28.2608425407
 30
0.0
 10
17.850192114
 20
28.5811520525
 30
0.0
 10
18.529322369
 20
28.9380094834
 30
0.0
 10
19.2723358459
 20
29.1598842165
 30
0.0
 10
19.7894946569
 20
29.2101836836
 30
0.0
 10
20.0479082767
 20
29.2101836841
 30
0.0
  0
ENDSEC
  0
SECTION
  2
OBJECTS
  0
DICTIONARY
  5
C
100
AcDbDictionary
280
0
281
1
  3
ACAD_GROUP
350
D
  3
ACAD_MLINESTYLE
350
17
  3
ACAD_LAYOUT
350
1A
  3
ACAD_PLOTSETTINGS
350
19
  3
ACAD_PLOTSTYLENAME
350
E
  0
DICTIONARY
  5
D
102
{ACAD_REACTORS
330
C
102
}
100
AcDbDictionary
280
0
281
1
  0
ACDBDICTIONARYWDFLT
  5
E
102
{ACAD_REACTORS
330
C
102
}
100
AcDbDictionary
281
1
  3
Normal
350
F
100
AcDbDictionaryWithDefault
340
F
  0
DICTIONARY
  5
17
102
{ACAD_REACTORS
330
C
102
}
100
AcDbDictionary
280
0
281
1
  3
Standard
350
18
  0
DICTIONARY
  5
19
102
{ACAD_REACTORS
330
C
102
}
100
AcDbDictionary
281
1
  0
DICTIONARY
  5
1A
102
{ACAD_REACTORS
330
C
102
}
100
AcDbDictionary
281
1
  3
Model
350
23B
  3
Layout1
350
23C
  0
ACDBPLACEHOLDER
  5
F
102
{ACAD_REACTORS
330
E
102
}
  0
MLINESTYLE
  5
18
102
{ACAD_REACTORS
330
17
102
}
100
AcDbMlineStyle
  2
STANDARD
 70
0
  3

 62
256
 51
90.0
 52
90.0
 71
2
 49
0.5
 62
256
  6
BYLAYER
 49
-0.5
 62
256
  6
BYLAYER
  0
LAYOUT
  5
23B
102
{ACAD_REACTORS
330
1A
102
}
100
AcDbPlotSettings
  1

  2
none_device
  4

  6

 40
0.0
 41
0.0
 42
0.0
 43
0.0
 44
210.0
 45
297.0
 46
0.0
 47
0.0
 48
0.0
 49
0.0
140
0.0
141
0.0
142
1.0
143
1.0
 70
1024
 72
1
 73
0
 74
0
  7

 75
0
147
1.0
148
0.0
149
0.0
100
AcDbLayout
  1
Model
 70
0
 71
0
 10
0.0
 20
0.0
 11
210.0
 21
297.0
 12
0.0
 22
0.0
 32
0.0
 14
0.0
 24
0.0
 34
0.0
 15
0.0
 25
0.0
 35
0.0
146
0.0
 13
0.0
 23
0.0
 33
0.0
 16
1.0
 26
0.0
 36
0.0
 17
0.0
 27
1.0
 37
0.0
 76
0
330
210
345
0
346
0
  0
LAYOUT
  5
23C
102
{ACAD_REACTORS
330
1A
102
}
100
AcDbPlotSettings
  1

  2
none_device
  4

  6

 40
0.0
 41
0.0
 42
0.0
 43
0.0
 44
210.0
 45
297.0
 46
0.0
 47
0.0
 48
0.0
 49
0.0
140
0.0
141
0.0
142
1.0
143
1.0
 70
0
 72
1
 73
0
 74
0
  7

 75
0
147
1.0
148
0.0
149
0.0
100
AcDbLayout
  1
Layout1
 70
0
 71
1
 10
0.0
 20
0.0
 11
210.0
 21
297.0
 12
0.0
 22
0.0
 32
0.0
 14
0.0
 24
0.0
 34
0.0
 15
0.0
 25
0.0
 35
0.0
146
0.0
 13
0.0
 23
0.0
 33
0.0
 16
1.0
 26
0.0
 36
0.0
 17
0.0
 27
1.0
 37
0.0
 76
0
330
211
345
0
346
0
  0
ENDSEC
  0
EOF
