999
DXF file: C:\Users\sesa63760\Dev\_Creo\CAD\MCADID0003616_3D-CAD\drw0001_7.dxf
999
Pro/ENGINEER 2019471 by Parametric Technology Corporation
  0
SECTION
  2
HEADER
  9
$ACADVER
  1
AC1024
  9
$DWGCODEPAGE
  3
ANSI_1252
  9
$EXTMAX
 10
169.1767676768
 20
239.2642857143
 30
0.0
  9
$EXTMIN
 10
0.0
 20
0.0
 30
0.0
  9
$LIMMIN
 10
0.0
 20
0.0
  9
$LIMMAX
 10
169.1767676768
 20
239.2642857143
  9
$VIEWCTR
 10
84.5883838384
 20
119.6321428571
  9
$VIEWSIZE
 40
239.2642857143
  9
$CLAYER
  8
0
  9
$LTSCALE
 40
15.5964867725
  9
$CELTYPE
  6
BYLAYER
  9
$DIMSCALE
 40
1.0
  9
$DIMASZ
 40
2.014009139
  9
$DIMEXO
 40
1.0
  9
$DIMDLI
 40
10.7757544974
  9
$DIMEXE
 40
1.0
  9
$DIMCEN
 40
2.552152381
  9
$DIMLFAC
 40
1.0
  9
$DIMBLK
  1
_FILLED
  9
$DIMALT
 70
0
  9
$DIMALTF
 40
0.0393700787
  9
$DIMTXT
 40
2.8196127946
  9
$DIMTOL
 70
1
  9
$DIMLIM
 70
0
  9
$DIMTFAC
 40
1.0
  9
$DIMTP
 40
0.01
  9
$DIMTM
 40
0.01
  9
$DIMGAP
 40
0.625
  9
$DIMDSEP
 70
46
  9
$AUNITS
 70
0
  9
$PDMODE
 70
3
  9
$PDSIZE
 40
0.3125
  9
$HANDSEED
  5
25E
  9
$TILEMODE
 70
1
  9
$MEASUREMENT
 70
1
  9
$INSUNITS
 70
4
  0
ENDSEC
  0
SECTION
  2
CLASSES
  0
CLASS
  1
ACDBDICTIONARYWDFLT
  2
AcDbDictionaryWithDefault
  3
AutoCAD 2000
 90
0
 91
1
280
0
281
0
  0
CLASS
  1
ACDBPLACEHOLDER
  2
AcDbPlaceHolder
  3
AutoCAD 2000
 90
0
 91
1
280
0
281
0
  0
CLASS
  1
LAYOUT
  2
AcDbLayout
  3
AutoCAD 2000
 90
0
 91
0
280
0
281
0
  0
ENDSEC
  0
SECTION
  2
TABLES
  0
TABLE
  2
VPORT
  5
8
100
AcDbSymbolTable
 70
2
  0
VPORT
  5
1F4
100
AcDbSymbolTableRecord
100
AcDbViewportTableRecord
  2
*ACTIVE
 70
0
 10
0.0
 20
0.0
 11
1.0
 21
1.0
 12
84.5883838384
 22
119.6321428571
 13
0.0
 23
0.0
 14
1.0
 24
1.0
 15
0.0
 25
0.0
 16
0.0
 26
0.0
 36
1.0
 17
0.0
 27
0.0
 37
0.0
 40
239.2642857143
 41
0.7070707071
 42
50.0
 43
0.0
 44
0.0
 50
0.0
 51
0.0
 71
0
 72
100
 73
1
 74
1
 75
0
 76
0
 77
0
 78
0
  0
ENDTAB
  0
TABLE
  2
LTYPE
  5
5
100
AcDbSymbolTable
 70
6
  0
LTYPE
  5
14
100
AcDbSymbolTableRecord
100
AcDbLinetypeTableRecord
  2
BYBLOCK
 70
0
  3

 72
65
 73
0
 40
0.0
  0
LTYPE
  5
15
100
AcDbSymbolTableRecord
100
AcDbLinetypeTableRecord
  2
BYLAYER
 70
0
  3

 72
65
 73
0
 40
0.0
  0
LTYPE
  5
16
100
AcDbSymbolTableRecord
100
AcDbLinetypeTableRecord
  2
CONTINUOUS
 70
64
  3
Solid line
 72
65
 73
0
 40
0.0
  0
LTYPE
  5
1F5
100
AcDbSymbolTableRecord
100
AcDbLinetypeTableRecord
  2
CENTER
 70
64
  3
____ _ ____ _ ____ _ ____ _ ____ _ ____ _ ____
 72
65
 73
4
 40
0.6
 49
0.375
 74
0
 49
-0.075
 74
0
 49
0.075
 74
0
 49
-0.075
 74
0
  0
LTYPE
  5
1F6
100
AcDbSymbolTableRecord
100
AcDbLinetypeTableRecord
  2
HIDDEN
 70
64
  3
- - - - - - - - - - - - - - - - - - - -
 72
65
 73
2
 40
0.2
 49
0.1
 74
0
 49
-0.1
 74
0
  0
LTYPE
  5
1F7
100
AcDbSymbolTableRecord
100
AcDbLinetypeTableRecord
  2
PHANTOM
 70
64
  3
_____ _ _ _____ _ _ _____ _ _ _____
 72
65
 73
6
 40
0.8
 49
0.45
 74
0
 49
-0.05
 74
0
 49
0.1
 74
0
 49
-0.05
 74
0
 49
0.1
 74
0
 49
-0.05
 74
0
  0
LTYPE
  5
1F8
100
AcDbSymbolTableRecord
100
AcDbLinetypeTableRecord
  2
DOT
 70
64
  3
. . . . . . . . . . . . . . . . . . . .
 72
65
 73
2
 40
0.2
 49
0.1
 74
0
 49
-0.1
 74
0
  0
LTYPE
  5
1F9
100
AcDbSymbolTableRecord
100
AcDbLinetypeTableRecord
  2
DASHED
 70
64
  3
- - - - - - - - - - - - - - - - - - - -
 72
65
 73
2
 40
0.2
 49
0.1
 74
0
 49
-0.1
 74
0
  0
ENDTAB
  0
TABLE
  2
LAYER
  5
2
100
AcDbSymbolTable
 70
36
  0
LAYER
  5
10
100
AcDbSymbolTableRecord
100
AcDbLayerTableRecord
  2
0
 70
0
 62
7
  6
CONTINUOUS
370
-3
390
F
  0
LAYER
  5
1FA
100
AcDbSymbolTableRecord
100
AcDbLayerTableRecord
  2
DEFAULT_1
 70
0
 62
7
  6
CENTER
370
-3
390
F
  0
LAYER
  5
1FB
100
AcDbSymbolTableRecord
100
AcDbLayerTableRecord
  2
DEFAULT_2
 70
0
 62
7
  6
HIDDEN
370
-3
390
F
  0
LAYER
  5
1FC
100
AcDbSymbolTableRecord
100
AcDbLayerTableRecord
  2
DEFAULT_3
 70
0
 62
7
  6
PHANTOM
370
-3
390
F
  0
LAYER
  5
1FD
100
AcDbSymbolTableRecord
100
AcDbLayerTableRecord
  2
00_COMPONENTS
 70
0
 62
7
  6
CONTINUOUS
370
-3
390
F
  0
LAYER
  5
1FE
100
AcDbSymbolTableRecord
100
AcDbLayerTableRecord
  2
01_1_DEFAULT_DATUMS
 70
0
 62
7
  6
CONTINUOUS
370
-3
390
F
  0
LAYER
  5
1FF
100
AcDbSymbolTableRecord
100
AcDbLayerTableRecord
  2
01_PLANES
 70
0
 62
7
  6
CONTINUOUS
370
-3
390
F
  0
LAYER
  5
200
100
AcDbSymbolTableRecord
100
AcDbLayerTableRecord
  2
02_COORD_SYS
 70
0
 62
7
  6
CONTINUOUS
370
-3
390
F
  0
LAYER
  5
201
100
AcDbSymbolTableRecord
100
AcDbLayerTableRecord
  2
03_AXES
 70
0
 62
7
  6
CONTINUOUS
370
-3
390
F
  0
LAYER
  5
202
100
AcDbSymbolTableRecord
100
AcDbLayerTableRecord
  2
04_POINTS
 70
0
 62
7
  6
CONTINUOUS
370
-3
390
F
  0
LAYER
  5
203
100
AcDbSymbolTableRecord
100
AcDbLayerTableRecord
  2
05_CURVES
 70
0
 62
7
  6
CONTINUOUS
370
-3
390
F
  0
LAYER
  5
204
100
AcDbSymbolTableRecord
100
AcDbLayerTableRecord
  2
06_SURFS
 70
0
 62
7
  6
CONTINUOUS
370
-3
390
F
  0
LAYER
  5
205
100
AcDbSymbolTableRecord
100
AcDbLayerTableRecord
  2
07_COSMETICS
 70
0
 62
7
  6
CONTINUOUS
370
-3
390
F
  0
LAYER
  5
206
100
AcDbSymbolTableRecord
100
AcDbLayerTableRecord
  2
1
 70
0
 62
7
  6
CONTINUOUS
370
-3
390
F
  0
LAYER
  5
207
100
AcDbSymbolTableRecord
100
AcDbLayerTableRecord
  2
10_NOTES
 70
0
 62
7
  6
CONTINUOUS
370
-3
390
F
  0
LAYER
  5
208
100
AcDbSymbolTableRecord
100
AcDbLayerTableRecord
  2
11_NOTES_PUB
 70
0
 62
7
  6
CONTINUOUS
370
-3
390
F
  0
LAYER
  5
209
100
AcDbSymbolTableRecord
100
AcDbLayerTableRecord
  2
13_REF_GTOL
 70
0
 62
7
  6
CONTINUOUS
370
-3
390
F
  0
LAYER
  5
20A
100
AcDbSymbolTableRecord
100
AcDbLayerTableRecord
  2
16_MISC
 70
0
 62
7
  6
CONTINUOUS
370
-3
390
F
  0
LAYER
  5
20B
100
AcDbSymbolTableRecord
100
AcDbLayerTableRecord
  2
17_NO_PRINT
 70
0
 62
7
  6
CONTINUOUS
370
-3
390
F
  0
LAYER
  5
20C
100
AcDbSymbolTableRecord
100
AcDbLayerTableRecord
  2
18_DATUM_CAMS_JOINTS
 70
0
 62
7
  6
CONTINUOUS
370
-3
390
F
  0
LAYER
  5
20D
100
AcDbSymbolTableRecord
100
AcDbLayerTableRecord
  2
19_DATUM_FUNCTIONAL
 70
0
 62
7
  6
CONTINUOUS
370
-3
390
F
  0
LAYER
  5
20E
100
AcDbSymbolTableRecord
100
AcDbLayerTableRecord
  2
20_DATUM_KINEMATIC_SCHEME
 70
0
 62
7
  6
CONTINUOUS
370
-3
390
F
  0
ENDTAB
  0
TABLE
  2
STYLE
  5
3
100
AcDbSymbolTable
 70
1
  0
STYLE
  5
11
100
AcDbSymbolTableRecord
100
AcDbTextStyleTableRecord
  2
STANDARD
 70
0
 40
0.0
 41
1.0
 50
0.0
 71
0
 42
0.2
  3
ARIAL.TTF
  4

  0
STYLE
  5
20F
100
AcDbSymbolTableRecord
100
AcDbTextStyleTableRecord
  2
TEXTSTYLE_1
 70
0
 40
0.0
 41
0.8
 50
0.0
 71
0
 42
0.2
  3
gdt
  4

  0
ENDTAB
  0
TABLE
  2
VIEW
  5
6
100
AcDbSymbolTable
 70
0
  0
ENDTAB
  0
TABLE
  2
UCS
  5
7
100
AcDbSymbolTable
 70
0
  0
ENDTAB
  0
TABLE
  2
APPID
  5
9
100
AcDbSymbolTable
 70
1
  0
APPID
  5
210
100
AcDbSymbolTableRecord
100
AcDbRegAppTableRecord
  2
ACAD
 70
0
  0
ENDTAB
  0
TABLE
  2
BLOCK_RECORD
  5
1
100
AcDbSymbolTable
 70
0
  0
BLOCK_RECORD
  5
211
100
AcDbSymbolTableRecord
100
AcDbBlockTableRecord
  2
*Model_Space
  0
BLOCK_RECORD
  5
212
100
AcDbSymbolTableRecord
100
AcDbBlockTableRecord
  2
*Paper_Space
  0
BLOCK_RECORD
  5
213
100
AcDbSymbolTableRecord
100
AcDbBlockTableRecord
  2
_FILLED
  0
ENDTAB
  0
TABLE
  2
DIMSTYLE
  5
A
100
AcDbSymbolTable
 70
1
100
AcDbDimStyleTable
 71
0
  0
DIMSTYLE
105
214
100
AcDbSymbolTableRecord
100
AcDbDimStyleTableRecord
  2
STANDARD
 70
0
  3

  4

 40
1.0
 41
2.014009139
 42
1.0
 43
0.38
 44
1.0
 45
0.0
 46
0.0
 47
0.01
 48
0.01
140
2.8196127946
141
0.09
142
0.0
143
25.4
144
1.0
145
0.0
146
1.0
147
0.625
 71
1
 72
0
 73
0
 74
0
 75
0
 76
0
 77
1
 78
8
 79
2
170
0
171
1
172
0
173
0
174
0
175
0
176
0
177
0
178
0
270
2
179
2
271
2
272
2
273
2
274
2
275
0
280
0
281
0
282
0
283
1
284
8
285
0
286
0
287
3
288
0
340
11
278
46
341
213
342
213
343
213
344
213
  0
ENDTAB
  0
ENDSEC
  0
SECTION
  2
BLOCKS
  0
BLOCK
  5
20
100
AcDbEntity
  8
0
100
AcDbBlockBegin
  2
*Model_Space
 70
0
 10
0.0
 20
0.0
 30
0.0
  3
*Model_Space
  1

  0
ENDBLK
  5
21
100
AcDbEntity
  8
0
100
AcDbBlockEnd
  0
BLOCK
  5
1C
100
AcDbEntity
  8
0
100
AcDbBlockBegin
  2
*Paper_Space
 70
0
 10
0.0
 20
0.0
 30
0.0
  3
*Paper_Space
  1

  0
ENDBLK
  5
1D
100
AcDbEntity
  8
0
100
AcDbBlockEnd
  0
BLOCK
  5
215
100
AcDbEntity
  8
0
100
AcDbBlockBegin
  2
_FILLED
 70
64
 10
0.0
 20
0.0
  3
_FILLED
  1

  0
SOLID
  5
216
100
AcDbEntity
  8
0
  6
BYBLOCK
 62
0
100
AcDbTrace
 10
0.0
 20
0.0
 11
-1.0
 21
0.25
 12
-1.0
 22
-0.25
 13
-1.0
 23
-0.25
  0
ENDBLK
  5
217
100
AcDbEntity
  8
0
  6
BYBLOCK
 62
0
100
AcDbBlockEnd
  0
ENDSEC
  0
SECTION
  2
ENTITIES
  0
LINE
  5
218
100
AcDbEntity
  8
1
100
AcDbLine
 62
7
  6
BYLAYER
 10
63.1312409812
 20
17.7178571429
 11
106.6312409812
 21
17.7178571429
  0
LINE
  5
219
100
AcDbEntity
  8
1
100
AcDbLine
 62
7
  6
BYLAYER
 10
106.6312409812
 20
27.4242228039
 11
99.7248753202
 21
27.4242228039
  0
LINE
  5
21A
100
AcDbEntity
  8
1
100
AcDbLine
 62
7
  6
BYLAYER
 10
63.1312409812
 20
27.4242228039
 11
70.0376066423
 21
27.4242228039
  0
LINE
  5
21B
100
AcDbEntity
  8
1
100
AcDbLine
 62
7
  6
BYLAYER
 10
67.6703936499
 20
206.6107503617
 11
70.8361688353
 21
209.364303748
  0
LINE
  5
21C
100
AcDbEntity
  8
1
100
AcDbLine
 62
7
  6
BYLAYER
 10
98.9263131272
 20
217.3101967687
 11
102.0920883126
 21
219.502537118
  0
LINE
  5
21D
100
AcDbEntity
  8
1
100
AcDbLine
 62
7
  6
BYLAYER
 10
70.8361688353
 20
209.364303748
 11
72.1568931416
 21
212.1178571343
  0
LINE
  5
21E
100
AcDbEntity
  8
1
100
AcDbLine
 62
7
  6
BYLAYER
 10
80.5574432072
 20
184.7490315027
 11
73.5823181036
 21
172.4794351871
  0
LINE
  5
21F
100
AcDbEntity
  8
1
100
AcDbLine
 62
7
  6
BYLAYER
 10
97.6055888209
 20
215.1178564194
 11
98.9263131272
 21
217.3101967687
  0
LINE
  5
220
100
AcDbEntity
  8
1
100
AcDbLine
 62
7
  6
BYLAYER
 10
63.1312409812
 20
17.7178571429
 11
63.1312409812
 21
187.3178571429
  0
LINE
  5
221
100
AcDbEntity
  8
1
100
AcDbLine
 62
7
  6
BYLAYER
 10
65.5276875906
 20
222.7178571429
 11
65.5276875906
 21
187.3178571429
  0
LINE
  5
222
100
AcDbEntity
  8
1
100
AcDbLine
 62
7
  6
BYLAYER
 10
67.4356570167
 20
173.4906843165
 11
67.4356570167
 21
178.3450299692
  0
LINE
  5
223
100
AcDbEntity
  8
1
100
AcDbLine
 62
7
  6
BYLAYER
 10
67.6703936499
 20
206.6107503617
 11
67.6703936499
 21
219.502537118
  0
LINE
  5
224
100
AcDbEntity
  8
1
100
AcDbLine
 62
7
  6
BYLAYER
 10
70.8361688353
 20
209.364303748
 11
70.8361688353
 21
217.3101967687
  0
LINE
  5
225
100
AcDbEntity
  8
1
100
AcDbLine
 62
7
  6
BYLAYER
 10
84.8812409812
 20
158.4678571429
 11
85.5740613043
 21
159.6678571429
  0
LINE
  5
226
100
AcDbEntity
  8
1
100
AcDbLine
 62
7
  6
BYLAYER
 10
85.747266385
 20
158.2178571429
 11
87.9556311647
 21
162.0428571429
  0
LINE
  5
227
100
AcDbEntity
  8
1
100
AcDbLine
 62
7
  6
BYLAYER
 10
72.1568931416
 20
215.1178564194
 11
72.1568931416
 21
212.1178571343
  0
LINE
  5
228
100
AcDbEntity
  8
1
100
AcDbLine
 62
7
  6
BYLAYER
 10
72.3268249458
 20
178.3450299692
 11
72.3268249458
 21
173.4906843165
  0
LINE
  5
229
100
AcDbEntity
  8
1
100
AcDbLine
 62
7
  6
BYLAYER
 10
74.0376066423
 20
23.4242228039
 11
74.0376066423
 21
17.7178571429
  0
LINE
  5
22A
100
AcDbEntity
  8
1
100
AcDbLine
 62
7
  6
BYLAYER
 10
84.6812409812
 20
159.6678571429
 11
84.6812409812
 21
161.8678571429
  0
LINE
  5
22B
100
AcDbEntity
  8
1
100
AcDbLine
 62
7
  6
BYLAYER
 10
85.0812409812
 20
161.8678571429
 11
85.0812409812
 21
159.6678571429
  0
LINE
  5
22C
100
AcDbEntity
  8
1
100
AcDbLine
 62
7
  6
BYLAYER
 10
95.7248753202
 20
23.4242228039
 11
95.7248753202
 21
17.7178571429
  0
LINE
  5
22D
100
AcDbEntity
  8
1
100
AcDbLine
 62
7
  6
BYLAYER
 10
97.4356570167
 20
25.0450299692
 11
97.4356570167
 21
20.1906843165
  0
LINE
  5
22E
100
AcDbEntity
  8
1
100
AcDbLine
 62
7
  6
BYLAYER
 10
97.6055888209
 20
212.1178571343
 11
97.6055888209
 21
215.1178564194
  0
LINE
  5
22F
100
AcDbEntity
  8
1
100
AcDbLine
 62
7
  6
BYLAYER
 10
98.9263131272
 20
209.364303748
 11
98.9263131272
 21
217.3101967687
  0
LINE
  5
230
100
AcDbEntity
  8
1
100
AcDbLine
 62
7
  6
BYLAYER
 10
102.0920883126
 20
206.6107503617
 11
102.0920883126
 21
219.502537118
  0
LINE
  5
231
100
AcDbEntity
  8
1
100
AcDbLine
 62
7
  6
BYLAYER
 10
102.3268249458
 20
20.1906843165
 11
102.3268249457
 21
25.0450299692
  0
LINE
  5
232
100
AcDbEntity
  8
1
100
AcDbLine
 62
7
  6
BYLAYER
 10
104.3812230371
 20
222.7178571429
 11
104.3812230371
 21
187.3178571429
  0
LINE
  5
233
100
AcDbEntity
  8
1
100
AcDbLine
 62
7
  6
BYLAYER
 10
106.6312409812
 20
17.7178571429
 11
106.6312409812
 21
187.3178571429
  0
LINE
  5
234
100
AcDbEntity
  8
1
100
AcDbLine
 62
7
  6
BYLAYER
 10
81.8068507978
 20
162.0428571429
 11
84.0152155775
 21
158.2178571429
  0
LINE
  5
235
100
AcDbEntity
  8
1
100
AcDbLine
 62
7
  6
BYLAYER
 10
84.1884206582
 20
159.6678571429
 11
84.8812409812
 21
158.4678571429
  0
LINE
  5
236
100
AcDbEntity
  8
1
100
AcDbLine
 62
7
  6
BYLAYER
 10
84.1884206582
 20
159.6678571429
 11
84.6812409812
 21
159.6678571429
  0
LINE
  5
237
100
AcDbEntity
  8
1
100
AcDbLine
 62
7
  6
BYLAYER
 10
85.0812409812
 20
159.6678571429
 11
85.5740613043
 21
159.6678571429
  0
LINE
  5
238
100
AcDbEntity
  8
1
100
AcDbLine
 62
7
  6
BYLAYER
 10
84.6812409812
 20
161.8678571429
 11
85.0812409812
 21
161.8678571429
  0
LINE
  5
239
100
AcDbEntity
  8
1
100
AcDbLine
 62
7
  6
BYLAYER
 10
72.1568931416
 20
215.1178564194
 11
70.8361688353
 21
217.3101967687
  0
LINE
  5
23A
100
AcDbEntity
  8
1
100
AcDbLine
 62
7
  6
BYLAYER
 10
96.3046044578
 20
172.4715387769
 11
89.2395811699
 21
184.7687725283
  0
LINE
  5
23B
100
AcDbEntity
  8
1
100
AcDbLine
 62
7
  6
BYLAYER
 10
82.6728762016
 20
163.5428571429
 11
87.0896057609
 21
163.5428571429
  0
LINE
  5
23C
100
AcDbEntity
  8
1
100
AcDbLine
 62
7
  6
BYLAYER
 10
63.1312409812
 20
171.4678571429
 11
71.8436341077
 21
171.4678571429
  0
LINE
  5
23D
100
AcDbEntity
  8
1
100
AcDbLine
 62
7
  6
BYLAYER
 10
98.0387756471
 20
171.4678571429
 11
106.6312409812
 21
171.4678571429
  0
LINE
  5
23E
100
AcDbEntity
  8
1
100
AcDbLine
 62
7
  6
BYLAYER
 10
98.9263131272
 20
209.364303748
 11
97.6055888209
 21
212.1178571343
  0
LINE
  5
23F
100
AcDbEntity
  8
1
100
AcDbLine
 62
7
  6
BYLAYER
 10
106.6312409812
 20
187.3178571429
 11
63.1312409812
 21
187.3178571429
  0
LINE
  5
240
100
AcDbEntity
  8
1
100
AcDbLine
 62
7
  6
BYLAYER
 10
70.8361688353
 20
217.3101967687
 11
67.6703936499
 21
219.502537118
  0
LINE
  5
241
100
AcDbEntity
  8
1
100
AcDbLine
 62
7
  6
BYLAYER
 10
102.0920883126
 20
206.6107503617
 11
98.9263131272
 21
209.364303748
  0
LINE
  5
242
100
AcDbEntity
  8
1
100
AcDbLine
 62
7
  6
BYLAYER
 10
67.6703936499
 20
206.6107503617
 11
102.0920883126
 21
206.6107503617
  0
LINE
  5
243
100
AcDbEntity
  8
1
100
AcDbLine
 62
7
  6
BYLAYER
 10
72.1568931416
 20
212.1178571343
 11
97.6055888209
 21
212.1178571343
  0
LINE
  5
244
100
AcDbEntity
  8
1
100
AcDbLine
 62
7
  6
BYLAYER
 10
97.6055888209
 20
215.1178564194
 11
72.1568931416
 21
215.1178564194
  0
LINE
  5
245
100
AcDbEntity
  8
1
100
AcDbLine
 62
7
  6
BYLAYER
 10
102.0920883126
 20
219.502537118
 11
67.6703936499
 21
219.502537118
  0
LINE
  5
246
100
AcDbEntity
  8
1
100
AcDbLine
 62
7
  6
BYLAYER
 10
104.3812230371
 20
222.7178571429
 11
65.5276875906
 21
222.7178571429
  0
CIRCLE
  5
247
100
AcDbEntity
  8
1
100
AcDbCircle
 62
7
  6
BYLAYER
 10
84.9831254214
 20
161.2672430806
 40
8.4050075316
  0
CIRCLE
  5
248
100
AcDbEntity
  8
1
100
AcDbCircle
 62
7
  6
BYLAYER
 10
84.8812409812
 20
161.2678571429
 40
5.3
  0
ARC
  5
249
100
AcDbEntity
  8
1
100
AcDbCircle
 62
7
  6
BYLAYER
 10
84.9041531968
 20
182.2779766133
 40
5.0
100
AcDbArc
 50
29.8782870735
 51
150.3822652246
  0
ARC
  5
24A
100
AcDbEntity
  8
1
100
AcDbCircle
 62
7
  6
BYLAYER
 10
99.7248753202
 20
23.4242228039
 40
4.0
100
AcDbArc
 50
90.0
 51
180.0
  0
ARC
  5
24B
100
AcDbEntity
  8
1
100
AcDbCircle
 62
7
  6
BYLAYER
 10
70.0376066423
 20
23.4242228039
 40
4.0
100
AcDbArc
 50
0.0
 51
90.0
  0
ARC
  5
24C
100
AcDbEntity
  8
1
100
AcDbCircle
 62
7
  6
BYLAYER
 10
69.8812409812
 20
175.9178571429
 40
3.4455839645
100
AcDbArc
 50
44.7835156694
 51
135.2164843306
  0
ARC
  5
24D
100
AcDbEntity
  8
1
100
AcDbCircle
 62
7
  6
BYLAYER
 10
69.8812409812
 20
175.9178571429
 40
3.4455839645
100
AcDbArc
 50
224.7835156694
 51
315.2164843306
  0
ARC
  5
24E
100
AcDbEntity
  8
1
100
AcDbCircle
 62
7
  6
BYLAYER
 10
99.8812409812
 20
22.6178571429
 40
3.4455839645
100
AcDbArc
 50
224.7835156698
 51
315.2164843302
  0
ARC
  5
24F
100
AcDbEntity
  8
1
100
AcDbCircle
 62
7
  6
BYLAYER
 10
99.8812409812
 20
22.6178571429
 40
3.4455839645
100
AcDbArc
 50
44.7835156698
 51
135.2164843302
  0
CIRCLE
  5
250
100
AcDbEntity
  8
1
100
AcDbCircle
 62
7
  6
BYLAYER
 10
99.8812409812
 20
175.9178571429
 40
2.4455839645
  0
CIRCLE
  5
251
100
AcDbEntity
  8
1
100
AcDbCircle
 62
7
  6
BYLAYER
 10
69.8812409812
 20
22.6178571429
 40
2.4455839645
  0
ARC
  5
252
100
AcDbEntity
  8
1
100
AcDbCircle
 62
7
  6
BYLAYER
 10
74.7296186348
 20
41.716815074
 40
2.00102412
100
AcDbArc
 50
90.8805686363
 51
269.1206789569
  0
ARC
  5
253
100
AcDbEntity
  8
1
100
AcDbCircle
 62
7
  6
BYLAYER
 10
74.7296156773
 20
47.2168106646
 40
2.0010208335
100
AcDbArc
 50
90.8811774686
 51
269.1212115941
  0
ARC
  5
254
100
AcDbEntity
  8
1
100
AcDbCircle
 62
7
  6
BYLAYER
 10
98.0387756471
 20
173.4678571429
 40
2.0
100
AcDbArc
 50
209.8782870735
 51
270.0
  0
ARC
  5
255
100
AcDbEntity
  8
1
100
AcDbCircle
 62
7
  6
BYLAYER
 10
71.8436341077
 20
173.4678571429
 40
2.0
100
AcDbArc
 50
270.0
 51
330.3822652246
  0
ARC
  5
256
100
AcDbEntity
  8
1
100
AcDbCircle
 62
7
  6
BYLAYER
 10
82.6728762016
 20
162.5428571429
 40
1.0
100
AcDbArc
 50
90.0
 51
210.0
  0
ARC
  5
257
100
AcDbEntity
  8
1
100
AcDbCircle
 62
7
  6
BYLAYER
 10
84.8812409812
 20
158.7178571429
 40
1.0
100
AcDbArc
 50
210.0
 51
330.0
  0
ARC
  5
258
100
AcDbEntity
  8
1
100
AcDbCircle
 62
7
  6
BYLAYER
 10
87.0896057609
 20
162.5428571429
 40
1.0
100
AcDbArc
 50
330.0
 51
90.0
  0
ELLIPSE
  5
259
100
AcDbEntity
  8
1
100
AcDbEllipse
 62
7
  6
BYLAYER
 10
84.8673452754
 20
161.2678570525
 30
0.0
 11
8.4068959515
 21
0.0
 31
0.0
 40
0.9998427945
 41
1.5707963266
 42
4.7123889802
  0
ELLIPSE
  5
25A
100
AcDbEntity
  8
1
100
AcDbEllipse
 62
7
  6
BYLAYER
 10
74.6982240611
 20
41.7178571429
 30
0.0
 11
2.0042409394
 21
0.0
 31
0.0
 40
0.9988811079
 41
0.0
 42
6.2831853072
  0
ELLIPSE
  5
25B
100
AcDbEntity
  8
1
100
AcDbEllipse
 62
7
  6
BYLAYER
 10
74.6982240556
 20
47.2178571429
 30
0.0
 11
2.0042409338
 21
0.0
 31
0.0
 40
0.9988811079
 41
0.0
 42
6.2831853072
  0
ENDSEC
  0
SECTION
  2
OBJECTS
  0
DICTIONARY
  5
C
100
AcDbDictionary
280
0
281
1
  3
ACAD_GROUP
350
D
  3
ACAD_MLINESTYLE
350
17
  3
ACAD_LAYOUT
350
1A
  3
ACAD_PLOTSETTINGS
350
19
  3
ACAD_PLOTSTYLENAME
350
E
  0
DICTIONARY
  5
D
102
{ACAD_REACTORS
330
C
102
}
100
AcDbDictionary
280
0
281
1
  0
ACDBDICTIONARYWDFLT
  5
E
102
{ACAD_REACTORS
330
C
102
}
100
AcDbDictionary
281
1
  3
Normal
350
F
100
AcDbDictionaryWithDefault
340
F
  0
DICTIONARY
  5
17
102
{ACAD_REACTORS
330
C
102
}
100
AcDbDictionary
280
0
281
1
  3
Standard
350
18
  0
DICTIONARY
  5
19
102
{ACAD_REACTORS
330
C
102
}
100
AcDbDictionary
281
1
  0
DICTIONARY
  5
1A
102
{ACAD_REACTORS
330
C
102
}
100
AcDbDictionary
281
1
  3
Model
350
25C
  3
Layout1
350
25D
  0
ACDBPLACEHOLDER
  5
F
102
{ACAD_REACTORS
330
E
102
}
  0
MLINESTYLE
  5
18
102
{ACAD_REACTORS
330
17
102
}
100
AcDbMlineStyle
  2
STANDARD
 70
0
  3

 62
256
 51
90.0
 52
90.0
 71
2
 49
0.5
 62
256
  6
BYLAYER
 49
-0.5
 62
256
  6
BYLAYER
  0
LAYOUT
  5
25C
102
{ACAD_REACTORS
330
1A
102
}
100
AcDbPlotSettings
  1

  2
none_device
  4

  6

 40
0.0
 41
0.0
 42
0.0
 43
0.0
 44
210.0
 45
297.0
 46
0.0
 47
0.0
 48
0.0
 49
0.0
140
0.0
141
0.0
142
1.0
143
1.0
 70
1024
 72
1
 73
0
 74
0
  7

 75
0
147
1.0
148
0.0
149
0.0
100
AcDbLayout
  1
Model
 70
0
 71
0
 10
0.0
 20
0.0
 11
210.0
 21
297.0
 12
0.0
 22
0.0
 32
0.0
 14
0.0
 24
0.0
 34
0.0
 15
0.0
 25
0.0
 35
0.0
146
0.0
 13
0.0
 23
0.0
 33
0.0
 16
1.0
 26
0.0
 36
0.0
 17
0.0
 27
1.0
 37
0.0
 76
0
330
211
345
0
346
0
  0
LAYOUT
  5
25D
102
{ACAD_REACTORS
330
1A
102
}
100
AcDbPlotSettings
  1

  2
none_device
  4

  6

 40
0.0
 41
0.0
 42
0.0
 43
0.0
 44
210.0
 45
297.0
 46
0.0
 47
0.0
 48
0.0
 49
0.0
140
0.0
141
0.0
142
1.0
143
1.0
 70
0
 72
1
 73
0
 74
0
  7

 75
0
147
1.0
148
0.0
149
0.0
100
AcDbLayout
  1
Layout1
 70
0
 71
1
 10
0.0
 20
0.0
 11
210.0
 21
297.0
 12
0.0
 22
0.0
 32
0.0
 14
0.0
 24
0.0
 34
0.0
 15
0.0
 25
0.0
 35
0.0
146
0.0
 13
0.0
 23
0.0
 33
0.0
 16
1.0
 26
0.0
 36
0.0
 17
0.0
 27
1.0
 37
0.0
 76
0
330
212
345
0
346
0
  0
ENDSEC
  0
EOF
