999
DXF file: Y:\AEGYO - telemecanique\TRAVAIL\2D-Views\XUMRA.AYM8_2D-Views\xumraaym8_2d-bottom.dxf
999
Pro/ENGINEER 2018260 by Parametric Technology Corporation
  0
SECTION
  2
HEADER
  9
$ACADVER
  1
AC1027
  9
$DWGCODEPAGE
  3
ANSI_1252
  9
$EXTMAX
 10
558.8
 20
431.8
 30
0.0
  9
$EXTMIN
 10
0.0
 20
0.0
 30
0.0
  9
$LIMMIN
 10
0.0
 20
0.0
  9
$LIMMAX
 10
558.8
 20
431.8
  9
$VIEWCTR
 10
279.4
 20
215.9
  9
$VIEWSIZE
 40
431.8
  9
$CLAYER
  8
0
  9
$LTSCALE
 40
30.734
  9
$CELTYPE
  6
BYLAYER
  9
$DIMSCALE
 40
1.0
  9
$DIMASZ
 40
0.1875
  9
$DIMEXO
 40
0.0625
  9
$DIMDLI
 40
21.2344
  9
$DIMEXE
 40
0.125
  9
$DIMCEN
 40
5.0292
  9
$DIMLFAC
 40
1.0
  9
$DIMBLK
  1
_CLOSED
  9
$DIMALT
 70
0
  9
$DIMALTF
 40
0.0393700787
  9
$DIMTXT
 40
0.15625
  9
$DIMTOL
 70
0
  9
$DIMLIM
 70
0
  9
$DIMTFAC
 40
1.0
  9
$DIMGAP
 40
0.625
  9
$DIMDSEP
 70
46
  9
$AUNITS
 70
0
  9
$PDMODE
 70
3
  9
$PDSIZE
 40
0.3125
  9
$HANDSEED
  5
263
  9
$TILEMODE
 70
1
  9
$MEASUREMENT
 70
1
  9
$INSUNITS
 70
4
  0
ENDSEC
  0
SECTION
  2
CLASSES
  0
CLASS
  1
ACDBDICTIONARYWDFLT
  2
AcDbDictionaryWithDefault
  3
AutoCAD 2000
 90
0
 91
1
280
0
281
0
  0
CLASS
  1
ACDBPLACEHOLDER
  2
AcDbPlaceHolder
  3
AutoCAD 2000
 90
0
 91
1
280
0
281
0
  0
CLASS
  1
LAYOUT
  2
AcDbLayout
  3
AutoCAD 2000
 90
0
 91
0
280
0
281
0
  0
ENDSEC
  0
SECTION
  2
TABLES
  0
TABLE
  2
VPORT
  5
8
100
AcDbSymbolTable
 70
2
  0
VPORT
  5
1F4
100
AcDbSymbolTableRecord
100
AcDbViewportTableRecord
  2
*ACTIVE
 70
0
 10
0.0
 20
0.0
 11
1.0
 21
1.0
 12
279.4
 22
215.9
 13
0.0
 23
0.0
 14
1.0
 24
1.0
 15
0.0
 25
0.0
 16
0.0
 26
0.0
 36
1.0
 17
0.0
 27
0.0
 37
0.0
 40
431.8
 41
1.2941176471
 42
50.0
 43
0.0
 44
0.0
 50
0.0
 51
0.0
 71
0
 72
100
 73
1
 74
1
 75
0
 76
0
 77
0
 78
0
  0
ENDTAB
  0
TABLE
  2
LTYPE
  5
5
100
AcDbSymbolTable
 70
6
  0
LTYPE
  5
14
100
AcDbSymbolTableRecord
100
AcDbLinetypeTableRecord
  2
BYBLOCK
 70
0
  3

 72
65
 73
0
 40
0.0
  0
LTYPE
  5
15
100
AcDbSymbolTableRecord
100
AcDbLinetypeTableRecord
  2
BYLAYER
 70
0
  3

 72
65
 73
0
 40
0.0
  0
LTYPE
  5
16
100
AcDbSymbolTableRecord
100
AcDbLinetypeTableRecord
  2
CONTINUOUS
 70
64
  3
Solid line
 72
65
 73
0
 40
0.0
  0
LTYPE
  5
1F5
100
AcDbSymbolTableRecord
100
AcDbLinetypeTableRecord
  2
CENTER
 70
64
  3
____ _ ____ _ ____ _ ____ _ ____ _ ____ _ ____
 72
65
 73
4
 40
0.6
 49
0.375
 74
0
 49
-0.075
 74
0
 49
0.075
 74
0
 49
-0.075
 74
0
  0
LTYPE
  5
1F6
100
AcDbSymbolTableRecord
100
AcDbLinetypeTableRecord
  2
HIDDEN
 70
64
  3
- - - - - - - - - - - - - - - - - - - -
 72
65
 73
2
 40
0.2
 49
0.1
 74
0
 49
-0.1
 74
0
  0
LTYPE
  5
1F7
100
AcDbSymbolTableRecord
100
AcDbLinetypeTableRecord
  2
PHANTOM
 70
64
  3
_____ _ _ _____ _ _ _____ _ _ _____
 72
65
 73
6
 40
0.8
 49
0.45
 74
0
 49
-0.05
 74
0
 49
0.1
 74
0
 49
-0.05
 74
0
 49
0.1
 74
0
 49
-0.05
 74
0
  0
LTYPE
  5
1F8
100
AcDbSymbolTableRecord
100
AcDbLinetypeTableRecord
  2
DOT
 70
64
  3
. . . . . . . . . . . . . . . . . . . .
 72
65
 73
2
 40
0.2
 49
0.1
 74
0
 49
-0.1
 74
0
  0
LTYPE
  5
1F9
100
AcDbSymbolTableRecord
100
AcDbLinetypeTableRecord
  2
DASHED
 70
64
  3
- - - - - - - - - - - - - - - - - - - -
 72
65
 73
2
 40
0.2
 49
0.1
 74
0
 49
-0.1
 74
0
  0
ENDTAB
  0
TABLE
  2
LAYER
  5
2
100
AcDbSymbolTable
 70
36
  0
LAYER
  5
10
100
AcDbSymbolTableRecord
100
AcDbLayerTableRecord
  2
0
 70
0
 62
7
  6
CONTINUOUS
370
-3
390
F
  0
LAYER
  5
1FA
100
AcDbSymbolTableRecord
100
AcDbLayerTableRecord
  2
DEFAULT_1
 70
0
 62
7
  6
CENTER
370
-3
390
F
  0
LAYER
  5
1FB
100
AcDbSymbolTableRecord
100
AcDbLayerTableRecord
  2
DEFAULT_2
 70
0
 62
8
  6
HIDDEN
370
-3
390
F
  0
LAYER
  5
1FC
100
AcDbSymbolTableRecord
100
AcDbLayerTableRecord
  2
DEFAULT_3
 70
0
 62
7
  6
PHANTOM
370
-3
390
F
  0
LAYER
  5
1FD
100
AcDbSymbolTableRecord
100
AcDbLayerTableRecord
  2
01_ALL_DTM_PLN
 70
0
 62
7
  6
CONTINUOUS
370
-3
390
F
  0
LAYER
  5
1FE
100
AcDbSymbolTableRecord
100
AcDbLayerTableRecord
  2
01__ASM_ALL_DTM_PLN
 70
0
 62
7
  6
CONTINUOUS
370
-3
390
F
  0
LAYER
  5
1FF
100
AcDbSymbolTableRecord
100
AcDbLayerTableRecord
  2
01__ASM_DEF_DTM_PLN
 70
0
 62
7
  6
CONTINUOUS
370
-3
390
F
  0
LAYER
  5
200
100
AcDbSymbolTableRecord
100
AcDbLayerTableRecord
  2
01___PRT_ALL_DTM_PLN
 70
0
 62
7
  6
CONTINUOUS
370
-3
390
F
  0
LAYER
  5
201
100
AcDbSymbolTableRecord
100
AcDbLayerTableRecord
  2
01___PRT_DEF_DTM_PLN
 70
0
 62
7
  6
CONTINUOUS
370
-3
390
F
  0
LAYER
  5
202
100
AcDbSymbolTableRecord
100
AcDbLayerTableRecord
  2
02_ALL_AXES
 70
0
 62
7
  6
CONTINUOUS
370
-3
390
F
  0
LAYER
  5
203
100
AcDbSymbolTableRecord
100
AcDbLayerTableRecord
  2
02__ASM_ALL_AXES
 70
0
 62
7
  6
CONTINUOUS
370
-3
390
F
  0
LAYER
  5
204
100
AcDbSymbolTableRecord
100
AcDbLayerTableRecord
  2
02___PRT_ALL_AXES
 70
0
 62
7
  6
CONTINUOUS
370
-3
390
F
  0
LAYER
  5
205
100
AcDbSymbolTableRecord
100
AcDbLayerTableRecord
  2
03_ALL_CURVES
 70
0
 62
7
  6
CONTINUOUS
370
-3
390
F
  0
LAYER
  5
206
100
AcDbSymbolTableRecord
100
AcDbLayerTableRecord
  2
03__ASM_ALL_CURVES
 70
0
 62
7
  6
CONTINUOUS
370
-3
390
F
  0
LAYER
  5
207
100
AcDbSymbolTableRecord
100
AcDbLayerTableRecord
  2
03___PRT_ALL_CURVES
 70
0
 62
7
  6
CONTINUOUS
370
-3
390
F
  0
LAYER
  5
208
100
AcDbSymbolTableRecord
100
AcDbLayerTableRecord
  2
04_ALL_DTM_PNT
 70
0
 62
7
  6
CONTINUOUS
370
-3
390
F
  0
LAYER
  5
209
100
AcDbSymbolTableRecord
100
AcDbLayerTableRecord
  2
04__ASM_ALL_DTM_PNT
 70
0
 62
7
  6
CONTINUOUS
370
-3
390
F
  0
LAYER
  5
20A
100
AcDbSymbolTableRecord
100
AcDbLayerTableRecord
  2
04___PRT_ALL_DTM_PNT
 70
0
 62
7
  6
CONTINUOUS
370
-3
390
F
  0
LAYER
  5
20B
100
AcDbSymbolTableRecord
100
AcDbLayerTableRecord
  2
05_ALL_DTM_CSYS
 70
0
 62
7
  6
CONTINUOUS
370
-3
390
F
  0
LAYER
  5
20C
100
AcDbSymbolTableRecord
100
AcDbLayerTableRecord
  2
05__ASM_ALL_DTM_CSYS
 70
0
 62
7
  6
CONTINUOUS
370
-3
390
F
  0
LAYER
  5
20D
100
AcDbSymbolTableRecord
100
AcDbLayerTableRecord
  2
05__ASM_DEF_DTM_CSYS
 70
0
 62
7
  6
CONTINUOUS
370
-3
390
F
  0
LAYER
  5
20E
100
AcDbSymbolTableRecord
100
AcDbLayerTableRecord
  2
05___PRT_ALL_DTM_CSYS
 70
0
 62
7
  6
CONTINUOUS
370
-3
390
F
  0
LAYER
  5
20F
100
AcDbSymbolTableRecord
100
AcDbLayerTableRecord
  2
05___PRT_DEF_DTM_CSYS
 70
0
 62
7
  6
CONTINUOUS
370
-3
390
F
  0
LAYER
  5
210
100
AcDbSymbolTableRecord
100
AcDbLayerTableRecord
  2
06_ALL_SURFS
 70
0
 62
7
  6
CONTINUOUS
370
-3
390
F
  0
LAYER
  5
211
100
AcDbSymbolTableRecord
100
AcDbLayerTableRecord
  2
06__ASM_ALL_SURFS
 70
0
 62
7
  6
CONTINUOUS
370
-3
390
F
  0
LAYER
  5
212
100
AcDbSymbolTableRecord
100
AcDbLayerTableRecord
  2
06___PRT_ALL_SURFS
 70
0
 62
7
  6
CONTINUOUS
370
-3
390
F
  0
LAYER
  5
213
100
AcDbSymbolTableRecord
100
AcDbLayerTableRecord
  2
07__ASM_ALL_SKELETONS
 70
0
 62
7
  6
CONTINUOUS
370
-3
390
F
  0
ENDTAB
  0
TABLE
  2
STYLE
  5
3
100
AcDbSymbolTable
 70
1
  0
STYLE
  5
11
100
AcDbSymbolTableRecord
100
AcDbTextStyleTableRecord
  2
STANDARD
 70
0
 40
0.0
 41
0.8
 50
0.0
 71
0
 42
0.2
  3
txt
  4

  0
STYLE
  5
214
100
AcDbSymbolTableRecord
100
AcDbTextStyleTableRecord
  2
TEXTSTYLE_1
 70
0
 40
0.0
 41
0.8
 50
0.0
 71
0
 42
0.2
  3
gdt
  4

  0
ENDTAB
  0
TABLE
  2
VIEW
  5
6
100
AcDbSymbolTable
 70
0
  0
ENDTAB
  0
TABLE
  2
UCS
  5
7
100
AcDbSymbolTable
 70
0
  0
ENDTAB
  0
TABLE
  2
APPID
  5
9
100
AcDbSymbolTable
 70
1
  0
APPID
  5
215
100
AcDbSymbolTableRecord
100
AcDbRegAppTableRecord
  2
ACAD
 70
0
  0
ENDTAB
  0
TABLE
  2
BLOCK_RECORD
  5
1
100
AcDbSymbolTable
 70
0
  0
BLOCK_RECORD
  5
216
100
AcDbSymbolTableRecord
100
AcDbBlockTableRecord
  2
*Model_Space
  0
BLOCK_RECORD
  5
217
100
AcDbSymbolTableRecord
100
AcDbBlockTableRecord
  2
*Paper_Space
  0
BLOCK_RECORD
  5
218
100
AcDbSymbolTableRecord
100
AcDbBlockTableRecord
  2
_CLOSED
  0
ENDTAB
  0
TABLE
  2
DIMSTYLE
  5
A
100
AcDbSymbolTable
 70
1
100
AcDbDimStyleTable
 71
0
  0
DIMSTYLE
105
219
100
AcDbSymbolTableRecord
100
AcDbDimStyleTableRecord
  2
STANDARD
 70
0
  3

  4

 40
1.0
 41
0.1875
 42
0.0625
 43
0.38
 44
0.125
 45
0.0
 46
0.0
 47
0.01
 48
0.01
140
0.15625
141
0.09
142
0.0
143
25.4
144
1.0
145
0.0
146
1.0
147
0.625
 71
0.0
 72
0.0
 73
1
 74
1
 75
0
 76
0
 77
0
 78
8
 79
2
170
0
171
1
172
0
173
0
174
0
175
0
176
0
177
0
178
0
270
2
179
2
271
2
272
2
273
2
274
2
275
0
280
0
281
0
282
0
283
1
284
8
285
0
286
0
287
3
288
0
340
11
278
46
341
218
342
218
343
218
344
218
  0
ENDTAB
  0
ENDSEC
  0
SECTION
  2
BLOCKS
  0
BLOCK
  5
20
100
AcDbEntity
  8
0
100
AcDbBlockBegin
  2
*Model_Space
 70
0
 10
0.0
 20
0.0
 30
0.0
  3
*Model_Space
  1

  0
ENDBLK
  5
21
100
AcDbEntity
  8
0
100
AcDbBlockEnd
  0
BLOCK
  5
1C
100
AcDbEntity
  8
0
100
AcDbBlockBegin
  2
*Paper_Space
 70
0
 10
0.0
 20
0.0
 30
0.0
  3
*Paper_Space
  1

  0
ENDBLK
  5
1D
100
AcDbEntity
  8
0
100
AcDbBlockEnd
  0
BLOCK
  5
21A
100
AcDbEntity
  8
0
100
AcDbBlockBegin
  2
_CLOSED
 70
64
 10
0.0
 20
0.0
  3
_CLOSED
  1

  0
LINE
  5
21B
100
AcDbEntity
  8
0
  6
BYBLOCK
 62
0
100
AcDbLine
 10
0.0
 20
0.0
 11
-1.0
 21
0.1666666667
  0
LINE
  5
21C
100
AcDbEntity
  8
0
  6
BYBLOCK
 62
0
100
AcDbLine
 10
-1.0
 20
0.1666666667
 11
-1.0
 21
-0.1666666667
  0
LINE
  5
21D
100
AcDbEntity
  8
0
  6
BYBLOCK
 62
0
100
AcDbLine
 10
-1.0
 20
-0.1666666667
 11
0.0
 21
0.0
  0
LINE
  5
21E
100
AcDbEntity
  8
0
  6
BYBLOCK
 62
0
100
AcDbLine
 10
-1.0
 20
0.0
 11
0.0
 21
0.0
  0
ENDBLK
  5
21F
100
AcDbEntity
  8
0
  6
BYBLOCK
 62
0
100
AcDbBlockEnd
  0
ENDSEC
  0
SECTION
  2
ENTITIES
  0
LINE
  5
220
100
AcDbEntity
  8
0
100
AcDbLine
 62
6
  6
CONTINUOUS
 10
249.4038745517
 20
145.789595062
 11
250.4564923997
 21
145.8079685749
  0
LINE
  5
221
100
AcDbEntity
  8
0
100
AcDbLine
 62
6
  6
CONTINUOUS
 10
239.8038745258
 20
145.7895950618
 11
249.4038745517
 21
145.7895950618
  0
LINE
  5
222
100
AcDbEntity
  8
0
100
AcDbLine
 62
6
  6
CONTINUOUS
 10
238.7512566778
 20
145.8079685749
 11
239.8038745258
 21
145.789595062
  0
LINE
  5
223
100
AcDbEntity
  8
0
100
AcDbLine
 62
6
  6
CONTINUOUS
 10
250.4564923997
 20
145.9579457292
 11
249.4051833695
 21
145.9395950618
  0
LINE
  5
224
100
AcDbEntity
  8
0
100
AcDbLine
 62
6
  6
CONTINUOUS
 10
239.8025657079
 20
145.9395950618
 11
249.4051833695
 21
145.9395950618
  0
LINE
  5
225
100
AcDbEntity
  8
0
100
AcDbLine
 62
6
  6
CONTINUOUS
 10
238.6038745387
 20
145.9579457292
 11
238.7512566778
 21
145.9579457292
  0
LINE
  5
226
100
AcDbEntity
  8
0
100
AcDbLine
 62
6
  6
CONTINUOUS
 10
250.4564925145
 20
145.9579457292
 11
250.6038745387
 21
145.9579457292
  0
LINE
  5
227
100
AcDbEntity
  8
0
100
AcDbLine
 62
6
  6
CONTINUOUS
 10
239.8025657079
 20
145.9395950618
 11
238.7512566778
 21
145.9579457292
  0
LINE
  5
228
100
AcDbEntity
  8
0
100
AcDbLine
 62
6
  6
CONTINUOUS
 10
238.6038745387
 20
145.9579457292
 11
238.6038745387
 21
165.9560946305
  0
LINE
  5
229
100
AcDbEntity
  8
0
100
AcDbLine
 62
6
  6
CONTINUOUS
 10
238.7512566778
 20
153.9678013636
 11
238.7512566778
 21
145.9579457292
  0
LINE
  5
22A
100
AcDbEntity
  8
0
100
AcDbLine
 62
6
  6
CONTINUOUS
 10
238.7538745387
 20
166.1061410151
 11
238.7512465975
 21
155.2875885275
  0
LINE
  5
22B
100
AcDbEntity
  8
0
100
AcDbLine
 62
6
  6
CONTINUOUS
 10
240.1538745387
 20
165.6096979577
 11
240.1538745387
 21
166.0819343462
  0
LINE
  5
22C
100
AcDbEntity
  8
0
100
AcDbLine
 62
6
  6
CONTINUOUS
 10
244.6038745387
 20
159.2895950192
 11
244.6038745387
 21
163.6789980543
  0
LINE
  5
22D
100
AcDbEntity
  8
0
100
AcDbLine
 62
6
  6
CONTINUOUS
 10
244.6038745387
 20
149.2896243979
 11
244.6038745365
 21
145.7895950622
  0
LINE
  5
22E
100
AcDbEntity
  8
0
100
AcDbLine
 62
6
  6
CONTINUOUS
 10
244.6038747037
 20
149.2913335595
 11
244.6038809804
 21
151.2895950618
  0
LINE
  5
22F
100
AcDbEntity
  8
0
100
AcDbLine
 62
6
  6
CONTINUOUS
 10
250.4565034455
 20
155.2895950618
 11
250.6038745387
 21
155.2895950618
  0
LINE
  5
230
100
AcDbEntity
  8
0
100
AcDbLine
 62
6
  6
CONTINUOUS
 10
238.6038745388
 20
155.2895955442
 11
238.7512469481
 21
155.2896061875
  0
LINE
  5
231
100
AcDbEntity
  8
0
100
AcDbLine
 62
6
  6
CONTINUOUS
 10
241.1468982967
 20
155.3024115387
 11
240.6039020284
 21
155.3044246561
  0
LINE
  5
232
100
AcDbEntity
  8
0
100
AcDbLine
 62
6
  6
CONTINUOUS
 10
249.0538745387
 20
166.0819343462
 11
249.0538745387
 21
165.6096979577
  0
LINE
  5
233
100
AcDbEntity
  8
0
100
AcDbLine
 62
6
  6
CONTINUOUS
 10
250.4565035138
 20
155.2895268521
 11
250.4538745387
 21
166.1058516359
  0
LINE
  5
234
100
AcDbEntity
  8
0
100
AcDbLine
 62
6
  6
CONTINUOUS
 10
250.4564923997
 20
145.9579457292
 11
250.4564926293
 21
153.9677954721
  0
LINE
  5
235
100
AcDbEntity
  8
0
100
AcDbLine
 62
6
  6
CONTINUOUS
 10
250.6038745387
 20
145.9579457292
 11
250.6038745387
 21
165.9558744816
  0
LINE
  5
236
100
AcDbEntity
  8
0
100
AcDbLine
 62
6
  6
CONTINUOUS
 10
238.7538745387
 20
165.5787086751
 11
250.4538745387
 21
165.5787086751
  0
LINE
  5
237
100
AcDbEntity
  8
0
100
AcDbLine
 62
6
  6
CONTINUOUS
 10
250.4538745387
 20
166.1058516359
 11
238.7538745387
 21
166.1058516359
  0
ARC
  5
238
100
AcDbEntity
  8
0
100
AcDbCircle
 62
6
  6
CONTINUOUS
 10
238.7538745387
 20
145.9579457292
 40
0.15
100
AcDbArc
 50
179.9999985337
 51
268.9999988248
  0
ARC
  5
239
100
AcDbEntity
  8
0
100
AcDbCircle
 62
6
  6
CONTINUOUS
 10
238.7538198101
 20
165.428738038
 40
0.1499452715
100
AcDbArc
 50
89.9960624257
 51
180.0024902998
  0
CIRCLE
  5
23A
100
AcDbEntity
  8
0
100
AcDbCircle
 62
6
  6
CONTINUOUS
 10
242.9038745387
 20
154.7895950618
 40
0.5
  0
CIRCLE
  5
23B
100
AcDbEntity
  8
0
100
AcDbCircle
 62
6
  6
CONTINUOUS
 10
243.5288745387
 20
156.7395950618
 40
0.5
  0
ARC
  5
23C
100
AcDbEntity
  8
0
100
AcDbCircle
 62
6
  6
CONTINUOUS
 10
238.7538745387
 20
165.9561410151
 40
0.15
100
AcDbArc
 50
90.0
 51
180.0
  0
ARC
  5
23D
100
AcDbEntity
  8
0
100
AcDbCircle
 62
6
  6
CONTINUOUS
 10
244.6038745387
 20
-594.8055959903
 40
760.7944441569
100
AcDbArc
 50
89.6648665423
 51
90.3351334577
  0
ARC
  5
23E
100
AcDbEntity
  8
0
100
AcDbCircle
 62
6
  6
CONTINUOUS
 10
244.6038745387
 20
-594.6994953412
 40
760.7944441551
100
AcDbArc
 50
89.6648665423
 51
90.3351334577
  0
ARC
  5
23F
100
AcDbEntity
  8
0
100
AcDbCircle
 62
6
  6
CONTINUOUS
 10
244.6038745387
 20
155.2895950618
 40
6.0
100
AcDbArc
 50
180.0
 51
0.0000004179
  0
ARC
  5
240
100
AcDbEntity
  8
0
100
AcDbCircle
 62
6
  6
CONTINUOUS
 10
244.6038745387
 20
155.2895950618
 40
4.0
100
AcDbArc
 50
224.8595193756
 51
224.3692570049
  0
ARC
  5
241
100
AcDbEntity
  8
0
100
AcDbCircle
 62
6
  6
CONTINUOUS
 10
244.6900159907
 20
155.2602266364
 40
3.5403821225
100
AcDbArc
 50
140.7639737706
 51
146.429056707
  0
CIRCLE
  5
242
100
AcDbEntity
  8
0
100
AcDbCircle
 62
6
  6
CONTINUOUS
 10
244.6038745387
 20
155.2895950618
 40
3.45
  0
CIRCLE
  5
243
100
AcDbEntity
  8
0
100
AcDbCircle
 62
6
  6
CONTINUOUS
 10
244.6038745387
 20
155.2895950618
 40
3.276944304
  0
CIRCLE
  5
244
100
AcDbEntity
  8
0
100
AcDbCircle
 62
6
  6
CONTINUOUS
 10
244.6038745387
 20
155.2895950618
 40
3.0794561776
  0
CIRCLE
  5
245
100
AcDbEntity
  8
0
100
AcDbCircle
 62
6
  6
CONTINUOUS
 10
244.6038745387
 20
155.2895950618
 40
2.9
  0
CIRCLE
  5
246
100
AcDbEntity
  8
0
100
AcDbCircle
 62
6
  6
CONTINUOUS
 10
246.3038745387
 20
154.7895950618
 40
0.5
  0
CIRCLE
  5
247
100
AcDbEntity
  8
0
100
AcDbCircle
 62
6
  6
CONTINUOUS
 10
245.6788745387
 20
156.7395950618
 40
0.5
  0
ARC
  5
248
100
AcDbEntity
  8
0
100
AcDbCircle
 62
6
  6
CONTINUOUS
 10
250.4538745387
 20
145.9579457292
 40
0.15
100
AcDbArc
 50
271.0000029626
 51
360.0
  0
ARC
  5
249
100
AcDbEntity
  8
0
100
AcDbCircle
 62
6
  6
CONTINUOUS
 10
250.4539292674
 20
165.428738038
 40
0.1499452715
100
AcDbArc
 50
359.9975097033
 51
90.0039375743
  0
ARC
  5
24A
100
AcDbEntity
  8
0
100
AcDbCircle
 62
6
  6
CONTINUOUS
 10
244.6038745387
 20
926.3911276451
 40
760.7944441551
100
AcDbArc
 50
269.6648665423
 51
270.3351334577
  0
ARC
  5
24B
100
AcDbEntity
  8
0
100
AcDbCircle
 62
6
  6
CONTINUOUS
 10
250.4538745387
 20
165.9561410151
 40
0.15
100
AcDbArc
 50
0.0
 51
90.0
  0
SPLINE
  5
24C
100
AcDbEntity
  8
0
100
AcDbSpline
 62
6
  6
CONTINUOUS
 70
0
 71
3
 72
12
 73
8
 74
0
 42
0.0000001
 43
0.0000001
 44
0.0000000001
 40
0.0
 40
0.0
 40
0.0
 40
0.0
 40
0.2499203485
 40
0.3750352546
 40
0.5001531228
 40
0.7500618557
 40
1.0
 40
1.0
 40
1.0
 40
1.0
 10
241.7405095927
 20
152.4952304992
 30
0.0
 10
241.9293052591
 20
152.3137209732
 30
0.0
 10
242.240542233
 20
152.0678967789
 30
0.0
 10
242.6986087434
 20
151.811781639
 30
0.0
 10
243.1794907207
 20
151.6014736934
 30
0.0
 10
243.8155470227
 20
151.428177941
 30
0.0
 10
244.3420858699
 20
151.3918771334
 30
0.0
 10
244.6038745387
 20
151.3999994992
 30
0.0
  0
SPLINE
  5
24D
100
AcDbEntity
  8
0
100
AcDbSpline
 62
6
  6
CONTINUOUS
 70
0
 71
3
 72
23
 73
19
 74
0
 42
0.0000001
 43
0.0000001
 44
0.0000000001
 40
0.0
 40
0.0
 40
0.0
 40
0.0
 40
0.0625120086
 40
0.125026086
 40
0.1875344009
 40
0.2500410274
 40
0.3125500502
 40
0.375059904
 40
0.4375544031
 40
0.5000501546
 40
0.5625468169
 40
0.6250454869
 40
0.6875450196
 40
0.7500338298
 40
0.8125224069
 40
0.8750176962
 40
0.9375120214
 40
1.0
 40
1.0
 40
1.0
 40
1.0
 10
244.6038745387
 20
151.399997818
 30
0.0
 10
244.8439908016
 20
151.4074477666
 30
0.0
 10
245.3242612412
 20
151.4664958076
 30
0.0
 10
246.0131118608
 20
151.6927908656
 30
0.0
 10
246.6464403959
 20
152.0455621537
 30
0.0
 10
247.2035606736
 20
152.5091537554
 30
0.0
 10
247.665379692
 20
153.0678375725
 30
0.0
 10
248.013687266
 20
153.7039586957
 30
0.0
 10
248.2280459532
 20
154.3970359855
 30
0.0
 10
248.3014150076
 20
155.1183956827
 30
0.0
 10
248.2354894943
 20
155.8403402448
 30
0.0
 10
248.0326697623
 20
156.5364228952
 30
0.0
 10
247.6973826242
 20
157.1798157438
 30
0.0
 10
247.2357240951
 20
157.7397955834
 30
0.0
 10
246.6699191261
 20
158.1936774131
 30
0.0
 10
246.0251672869
 20
158.5258893099
 30
0.0
 10
245.3273346384
 20
158.7232669552
 30
0.0
 10
244.8438618756
 20
158.7558675826
 30
0.0
 10
244.6039129267
 20
158.7463039658
 30
0.0
  0
SPLINE
  5
24E
100
AcDbEntity
  8
0
100
AcDbSpline
 62
6
  6
CONTINUOUS
 70
0
 71
3
 72
9
 73
5
 74
0
 42
0.0000001
 43
0.0000001
 44
0.0000000001
 40
0.0
 40
0.0
 40
0.0
 40
0.0
 40
0.2758234434
 40
1.0
 40
1.0
 40
1.0
 40
1.0
 10
238.7512566778
 20
145.9579457292
 30
0.0
 10
238.7510865786
 20
145.9481977861
 30
0.0
 10
238.7505349041
 20
145.9128556156
 30
0.0
 10
238.750172888
 20
145.8775092086
 30
0.0
 10
238.750172888
 20
145.8519120133
 30
0.0
  0
SPLINE
  5
24F
100
AcDbEntity
  8
0
100
AcDbSpline
 62
6
  6
CONTINUOUS
 70
0
 71
3
 72
13
 73
9
 74
0
 42
0.0000001
 43
0.0000001
 44
0.0000000001
 40
0.0
 40
0.0
 40
0.0
 40
0.0
 40
0.4237470351
 40
0.7390280497
 40
0.8517921323
 40
0.9331784576
 40
0.9825599017
 40
1.0
 40
1.0
 40
1.0
 40
1.0
 10
238.750172888
 20
145.8519120133
 30
0.0
 10
238.750172888
 20
145.8456966367
 30
0.0
 10
238.7502236136
 20
145.8348977227
 30
0.0
 10
238.7503276028
 20
145.8222871227
 30
0.0
 10
238.7506140749
 20
145.8149763411
 30
0.0
 10
238.7506696868
 20
145.8111421326
 30
0.0
 10
238.751054059
 20
145.8094529888
 30
0.0
 10
238.7510011015
 20
145.8079724782
 30
0.0
 10
238.7512568771
 20
145.8079685718
 30
0.0
  0
SPLINE
  5
250
100
AcDbEntity
  8
0
100
AcDbSpline
 62
6
  6
CONTINUOUS
 70
0
 71
3
 72
8
 73
4
 74
0
 42
0.0000001
 43
0.0000001
 44
0.0000000001
 40
0.0
 40
0.0
 40
0.0
 40
0.0
 40
1.0
 40
1.0
 40
1.0
 40
1.0
 10
241.156212361
 20
155.3128258331
 30
0.0
 10
241.1543202706
 20
155.3085702581
 30
0.0
 10
241.151555509
 20
155.3023942724
 30
0.0
 10
241.1468982967
 20
155.3024115387
 30
0.0
  0
SPLINE
  5
251
100
AcDbEntity
  8
0
100
AcDbSpline
 62
6
  6
CONTINUOUS
 70
0
 71
3
 72
9
 73
5
 74
0
 42
0.0000001
 43
0.0000001
 44
0.0000000001
 40
0.0
 40
0.0
 40
0.0
 40
0.0
 40
0.2757889559
 40
1.0
 40
1.0
 40
1.0
 40
1.0
 10
239.8025656973
 20
145.939595062
 30
0.0
 10
239.8024825547
 20
145.9298491075
 30
0.0
 10
239.8022374046
 20
145.8945103931
 30
0.0
 10
239.8021778352
 20
145.8591689826
 30
0.0
 10
239.802406749
 20
145.8335765788
 30
0.0
  0
SPLINE
  5
252
100
AcDbEntity
  8
0
100
AcDbSpline
 62
6
  6
CONTINUOUS
 70
0
 71
3
 72
13
 73
9
 74
0
 42
0.0000001
 43
0.0000001
 44
0.0000000001
 40
0.0
 40
0.0
 40
0.0
 40
0.0
 40
0.4236610323
 40
0.7389200772
 40
0.8516934841
 40
0.9331052374
 40
0.9825222853
 40
1.0
 40
1.0
 40
1.0
 40
1.0
 10
239.802406749
 20
145.8335765788
 30
0.0
 10
239.8024618705
 20
145.8273557717
 30
0.0
 10
239.8026063395
 20
145.8165469253
 30
0.0
 10
239.8028194198
 20
145.8039259631
 30
0.0
 10
239.803170343
 20
145.7966084214
 30
0.0
 10
239.8032589286
 20
145.792771432
 30
0.0
 10
239.8036589297
 20
145.7910791736
 30
0.0
 10
239.8036176922
 20
145.7895984279
 30
0.0
 10
239.8038743135
 20
145.7895950661
 30
0.0
  0
SPLINE
  5
253
100
AcDbEntity
  8
0
100
AcDbSpline
 62
6
  6
CONTINUOUS
 70
0
 71
3
 72
15
 73
11
 74
0
 42
0.0000001
 43
0.0000001
 44
0.0000000001
 40
0.0
 40
0.0
 40
0.0
 40
0.0
 40
0.1250129863
 40
0.2500176076
 40
0.3750231579
 40
0.5000243806
 40
0.6250218914
 40
0.7500168625
 40
0.8750056669
 40
1.0
 40
1.0
 40
1.0
 40
1.0
 10
250.4565035138
 20
155.2895268521
 30
0.0
 10
250.455856708
 20
154.9071138843
 30
0.0
 10
250.38120687
 20
154.1401897869
 30
0.0
 10
250.045350183
 20
153.0357873796
 30
0.0
 10
249.5010990872
 20
152.017522934
 30
0.0
 10
248.7684432038
 20
151.1252511692
 30
0.0
 10
247.8759273916
 20
150.3929423691
 30
0.0
 10
246.8575300841
 20
149.8491315764
 30
0.0
 10
245.7531109587
 20
149.5137921442
 30
0.0
 10
244.9862530605
 20
149.4395319652
 30
0.0
 10
244.6038968741
 20
149.4390789622
 30
0.0
  0
SPLINE
  5
254
100
AcDbEntity
  8
0
100
AcDbSpline
 62
6
  6
CONTINUOUS
 70
0
 71
3
 72
9
 73
5
 74
0
 42
0.0000001
 43
0.0000001
 44
0.0000000001
 40
0.0
 40
0.0
 40
0.0
 40
0.0
 40
0.2757987837
 40
1.0
 40
1.0
 40
1.0
 40
1.0
 10
249.4051833589
 20
145.9395950618
 30
0.0
 10
249.4052702813
 20
145.9298474691
 30
0.0
 10
249.4055117729
 20
145.8945038772
 30
0.0
 10
249.4055594962
 20
145.8591578214
 30
0.0
 10
249.4053422205
 20
145.8335621871
 30
0.0
  0
SPLINE
  5
255
100
AcDbEntity
  8
0
100
AcDbSpline
 62
6
  6
CONTINUOUS
 70
0
 71
3
 72
13
 73
9
 74
0
 42
0.0000001
 43
0.0000001
 44
0.0000000001
 40
0.0
 40
0.0
 40
0.0
 40
0.0
 40
0.4237363344
 40
0.7390215666
 40
0.8517883812
 40
0.9331811038
 40
0.982567176
 40
1.0
 40
1.0
 40
1.0
 40
1.0
 10
249.4053422205
 20
145.8335621871
 30
0.0
 10
249.4052889468
 20
145.8273422832
 30
0.0
 10
249.4051434638
 20
145.816535899
 30
0.0
 10
249.4049287731
 20
145.8039164496
 30
0.0
 10
249.4045785347
 20
145.7966029333
 30
0.0
 10
249.4044896772
 20
145.792765307
 30
0.0
 10
249.4040897052
 20
145.7910796497
 30
0.0
 10
249.4041302637
 20
145.7895961813
 30
0.0
 10
249.4038743654
 20
145.7895950622
 30
0.0
  0
SPLINE
  5
256
100
AcDbEntity
  8
0
100
AcDbSpline
 62
6
  6
CONTINUOUS
 70
0
 71
3
 72
15
 73
11
 74
0
 42
0.0000001
 43
0.0000001
 44
0.0000000001
 40
0.0
 40
0.0
 40
0.0
 40
0.0
 40
0.1249946243
 40
0.249983579
 40
0.3749785633
 40
0.4999761503
 40
0.6249773934
 40
0.7499831014
 40
0.8749875459
 40
1.0
 40
1.0
 40
1.0
 40
1.0
 10
244.6038535377
 20
149.4391479685
 30
0.0
 10
244.2215772549
 20
149.4396829925
 30
0.0
 10
243.454889058
 20
149.5138667166
 30
0.0
 10
242.3506730748
 20
149.8490556309
 30
0.0
 10
241.3324246558
 20
150.3926167753
 30
0.0
 10
240.4399731383
 20
151.1246174751
 30
0.0
 10
239.7072846129
 20
152.0165408425
 30
0.0
 10
239.1628760203
 20
153.0344482621
 30
0.0
 10
238.8267916139
 20
154.1385027786
 30
0.0
 10
238.7518143491
 20
154.9052577622
 30
0.0
 10
238.7512465975
 20
155.2875885275
 30
0.0
  0
SPLINE
  5
257
100
AcDbEntity
  8
0
100
AcDbSpline
 62
6
  6
CONTINUOUS
 70
0
 71
3
 72
28
 73
24
 74
0
 42
0.0000001
 43
0.0000001
 44
0.0000000001
 40
0.0
 40
0.0
 40
0.0
 40
0.0
 40
0.1250307416
 40
0.2500614578
 40
0.3750921167
 40
0.4376075151
 40
0.5001229077
 40
0.5626382879
 40
0.6251536421
 40
0.6876689401
 40
0.7501841055
 40
0.7814418082
 40
0.8126994844
 40
0.8439571057
 40
0.8752145928
 40
0.9064717021
 40
0.9221004976
 40
0.9377291566
 40
0.9533574245
 40
0.9689841452
 40
0.9845996666
 40
0.9924012036
 40
1.0
 40
1.0
 40
1.0
 40
1.0
 10
238.7525655928
 20
164.2935416122
 30
0.0
 10
238.9988642189
 20
164.2809627467
 30
0.0
 10
239.4914200023
 20
164.2549796098
 30
0.0
 10
240.2300794824
 20
164.2128295801
 30
0.0
 10
240.845437887
 20
164.1744642521
 30
0.0
 10
241.3375555312
 20
164.1412049899
 30
0.0
 10
241.7065393825
 20
164.1147529825
 30
0.0
 10
242.0753906192
 20
164.08650693
 30
0.0
 10
242.4440687094
 20
164.0560732024
 30
0.0
 10
242.8125096992
 20
164.022884912
 30
0.0
 10
243.119263569
 20
163.9922279985
 30
0.0
 10
243.3643966234
 20
163.96517357
 30
0.0
 10
243.5480685677
 20
163.9433211832
 30
0.0
 10
243.7314978011
 20
163.9195054577
 30
0.0
 10
243.9145734846
 20
163.8930964971
 30
0.0
 10
244.0666836837
 20
163.8680942127
 30
0.0
 10
244.1878740697
 20
163.8452748992
 30
0.0
 10
244.2783770926
 20
163.8262931592
 30
0.0
 10
244.3683637026
 20
163.8046102689
 30
0.0
 10
244.4570148929
 20
163.7791135237
 30
0.0
 10
244.5297614905
 20
163.7509866881
 30
0.0
 10
244.5817856345
 20
163.7211843031
 30
0.0
 10
244.6038745387
 20
163.6939864669
 30
0.0
 10
244.6038745387
 20
163.6789980543
 30
0.0
  0
SPLINE
  5
258
100
AcDbEntity
  8
0
100
AcDbSpline
 62
6
  6
CONTINUOUS
 70
0
 71
3
 72
9
 73
5
 74
0
 42
0.0000001
 43
0.0000001
 44
0.0000000001
 40
0.0
 40
0.0
 40
0.0
 40
0.0
 40
0.2142633003
 40
1.0
 40
1.0
 40
1.0
 40
1.0
 10
250.4575761895
 20
145.8519120133
 30
0.0
 10
250.4575761895
 20
145.8594855055
 30
0.0
 10
250.4574465991
 20
145.8948321129
 30
0.0
 10
250.4569769607
 20
145.9301767883
 30
0.0
 10
250.4564923997
 20
145.9579457292
 30
0.0
  0
SPLINE
  5
259
100
AcDbEntity
  8
0
100
AcDbSpline
 62
6
  6
CONTINUOUS
 70
0
 71
3
 72
13
 73
9
 74
0
 42
0.0000001
 43
0.0000001
 44
0.0000000001
 40
0.0
 40
0.0
 40
0.0
 40
0.0
 40
0.0174400983
 40
0.0668215424
 40
0.1482078677
 40
0.2609719503
 40
0.5762529649
 40
1.0
 40
1.0
 40
1.0
 40
1.0
 10
250.4564922004
 20
145.8079685718
 30
0.0
 10
250.456747976
 20
145.8079724782
 30
0.0
 10
250.4566950185
 20
145.8094529888
 30
0.0
 10
250.4570793907
 20
145.8111421326
 30
0.0
 10
250.4571350026
 20
145.8149763411
 30
0.0
 10
250.4574214747
 20
145.8222871227
 30
0.0
 10
250.4575254639
 20
145.8348977227
 30
0.0
 10
250.4575761895
 20
145.8456966367
 30
0.0
 10
250.4575761895
 20
145.8519120133
 30
0.0
  0
SPLINE
  5
25A
100
AcDbEntity
  8
0
100
AcDbSpline
 62
6
  6
CONTINUOUS
 70
0
 71
3
 72
9
 73
5
 74
0
 42
0.0000001
 43
0.0000001
 44
0.0000000001
 40
0.0
 40
0.0
 40
0.0
 40
0.0
 40
0.3099480457
 40
1.0
 40
1.0
 40
1.0
 40
1.0
 10
250.6038745387
 20
164.2681005142
 30
0.0
 10
250.6038741444
 20
164.2730305506
 30
0.0
 10
250.5851013771
 20
164.2817841399
 30
0.0
 10
250.5716806648
 20
164.2842018975
 30
0.0
 10
250.5608621061
 20
164.2860541294
 30
0.0
  0
SPLINE
  5
25B
100
AcDbEntity
  8
0
100
AcDbSpline
 62
6
  6
CONTINUOUS
 70
0
 71
3
 72
9
 73
5
 74
0
 42
0.0000001
 43
0.0000001
 44
0.0000000001
 40
0.0
 40
0.0
 40
0.0
 40
0.0
 40
0.4582131604
 40
1.0
 40
1.0
 40
1.0
 40
1.0
 10
250.5608621061
 20
164.2860541294
 30
0.0
 10
250.5449005196
 20
164.2887868927
 30
0.0
 10
250.5096707969
 20
164.2921019656
 30
0.0
 10
250.474324623
 20
164.2940302696
 30
0.0
 10
250.455183427
 20
164.2935415892
 30
0.0
  0
SPLINE
  5
25C
100
AcDbEntity
  8
0
100
AcDbSpline
 62
6
  6
CONTINUOUS
 70
0
 71
3
 72
28
 73
24
 74
0
 42
0.0000001
 43
0.0000001
 44
0.0000000001
 40
0.0
 40
0.0
 40
0.0
 40
0.0
 40
0.1250307416
 40
0.2500614578
 40
0.3750921167
 40
0.4376075151
 40
0.5001229078
 40
0.5626382879
 40
0.6251536421
 40
0.6876689401
 40
0.7501841055
 40
0.7814418082
 40
0.8126994844
 40
0.8439571057
 40
0.8752145929
 40
0.9064717021
 40
0.9221004976
 40
0.9377291567
 40
0.9533574245
 40
0.9689841452
 40
0.9845996666
 40
0.9924012036
 40
1.0
 40
1.0
 40
1.0
 40
1.0
 10
250.4551834845
 20
164.2935415892
 30
0.0
 10
250.2088848586
 20
164.2809627232
 30
0.0
 10
249.7163290732
 20
164.2549796247
 30
0.0
 10
248.9776695943
 20
164.2128295762
 30
0.0
 10
248.3623111896
 20
164.1744642525
 30
0.0
 10
247.8701935455
 20
164.1412049897
 30
0.0
 10
247.5012096943
 20
164.1147529825
 30
0.0
 10
247.1323584576
 20
164.0865069299
 30
0.0
 10
246.7636803675
 20
164.0560732023
 30
0.0
 10
246.3952393777
 20
164.022884912
 30
0.0
 10
246.088485508
 20
163.9922279985
 30
0.0
 10
245.8433524537
 20
163.9651735699
 30
0.0
 10
245.6596805094
 20
163.9433211832
 30
0.0
 10
245.476251276
 20
163.9195054577
 30
0.0
 10
245.2931755926
 20
163.893096497
 30
0.0
 10
245.1410653935
 20
163.8680942126
 30
0.0
 10
245.0198750076
 20
163.8452748992
 30
0.0
 10
244.9293719846
 20
163.8262931592
 30
0.0
 10
244.8393853747
 20
163.8046102688
 30
0.0
 10
244.7507341844
 20
163.7791135236
 30
0.0
 10
244.6779875868
 20
163.7509866881
 30
0.0
 10
244.6259634429
 20
163.7211843031
 30
0.0
 10
244.6038745387
 20
163.6939864669
 30
0.0
 10
244.6038745387
 20
163.6789980543
 30
0.0
  0
SPLINE
  5
25D
100
AcDbEntity
  8
0
100
AcDbSpline
 62
6
  6
CONTINUOUS
 70
0
 71
3
 72
9
 73
5
 74
0
 42
0.0000001
 43
0.0000001
 44
0.0000000001
 40
0.0
 40
0.0
 40
0.0
 40
0.0
 40
0.458278533
 40
1.0
 40
1.0
 40
1.0
 40
1.0
 10
238.6468869714
 20
164.2860541294
 30
0.0
 10
238.6628508674
 20
164.288787288
 30
0.0
 10
238.6980801722
 20
164.2921075574
 30
0.0
 10
238.7334267253
 20
164.2940302343
 30
0.0
 10
238.7525656504
 20
164.2935416122
 30
0.0
  0
SPLINE
  5
25E
100
AcDbEntity
  8
0
100
AcDbSpline
 62
6
  6
CONTINUOUS
 70
0
 71
3
 72
9
 73
5
 74
0
 42
0.0000001
 43
0.0000001
 44
0.0000000001
 40
0.0
 40
0.0
 40
0.0
 40
0.0
 40
0.3099308333
 40
1.0
 40
1.0
 40
1.0
 40
1.0
 10
238.6038745388
 20
164.268100112
 30
0.0
 10
238.6038747095
 20
164.2730298595
 30
0.0
 10
238.6226483815
 20
164.2817825889
 30
0.0
 10
238.6360681761
 20
164.284201857
 30
0.0
 10
238.6468869714
 20
164.2860541294
 30
0.0
  0
SPLINE
  5
25F
100
AcDbEntity
  8
0
100
AcDbSpline
 62
6
  6
CONTINUOUS
 70
0
 71
3
 72
11
 73
7
 74
0
 42
0.0000001
 43
0.0000001
 44
0.0000000001
 40
0.0
 40
0.0
 40
0.0
 40
0.0
 40
0.2500221091
 40
0.5000214289
 40
0.7499954269
 40
1.0
 40
1.0
 40
1.0
 40
1.0
 10
243.9077528393
 20
158.6708352627
 30
0.0
 10
243.7177106586
 20
158.6322467091
 30
0.0
 10
243.3431458448
 20
158.524351502
 30
0.0
 10
242.8156974633
 20
158.2724535314
 30
0.0
 10
242.3413371066
 20
157.9304213845
 30
0.0
 10
242.0705063981
 20
157.6497392369
 30
0.0
 10
241.9478238849
 20
157.4995765485
 30
0.0
  0
SPLINE
  5
260
100
AcDbEntity
  8
0
100
AcDbSpline
 62
6
  6
CONTINUOUS
 70
0
 71
3
 72
9
 73
5
 74
0
 42
0.0000001
 43
0.0000001
 44
0.0000000001
 40
0.0
 40
0.0
 40
0.0
 40
0.0
 40
0.5000388786
 40
1.0
 40
1.0
 40
1.0
 40
1.0
 10
241.4050377041
 20
156.5839594264
 30
0.0
 10
241.3224970188
 20
156.3812227923
 30
0.0
 10
241.1940935375
 20
155.9598122299
 30
0.0
 10
241.1477074214
 20
155.5212712019
 30
0.0
 10
241.1468982967
 20
155.3024115387
 30
0.0
  0
ENDSEC
  0
SECTION
  2
OBJECTS
  0
DICTIONARY
  5
C
100
AcDbDictionary
280
0
281
1
  3
ACAD_GROUP
350
D
  3
ACAD_MLINESTYLE
350
17
  3
ACAD_LAYOUT
350
1A
  3
ACAD_PLOTSETTINGS
350
19
  3
ACAD_PLOTSTYLENAME
350
E
  0
DICTIONARY
  5
D
102
{ACAD_REACTORS
330
C
102
}
100
AcDbDictionary
280
0
281
1
  0
ACDBDICTIONARYWDFLT
  5
E
102
{ACAD_REACTORS
330
C
102
}
100
AcDbDictionary
281
1
  3
Normal
350
F
100
AcDbDictionaryWithDefault
340
F
  0
DICTIONARY
  5
17
102
{ACAD_REACTORS
330
C
102
}
100
AcDbDictionary
280
0
281
1
  3
Standard
350
18
  0
DICTIONARY
  5
19
102
{ACAD_REACTORS
330
C
102
}
100
AcDbDictionary
281
1
  0
DICTIONARY
  5
1A
102
{ACAD_REACTORS
330
C
102
}
100
AcDbDictionary
281
1
  3
Model
350
261
  3
Layout1
350
262
  0
ACDBPLACEHOLDER
  5
F
102
{ACAD_REACTORS
330
E
102
}
  0
MLINESTYLE
  5
18
102
{ACAD_REACTORS
330
17
102
}
100
AcDbMlineStyle
  2
STANDARD
 70
0
  3

 62
256
 51
90.0
 52
90.0
 71
2
 49
0.5
 62
256
  6
BYLAYER
 49
-0.5
 62
256
  6
BYLAYER
  0
LAYOUT
  5
261
102
{ACAD_REACTORS
330
1A
102
}
100
AcDbPlotSettings
  1

  2
none_device
  4
ANSI_C_(22.00_x_17.00_Inches)
  6

 40
0.0
 41
0.0
 42
0.0
 43
0.0
 44
558.8
 45
431.8
 46
0.0
 47
0.0
 48
0.0
 49
0.0
140
0.0
141
0.0
142
1.0
143
1.0
 70
1024
 72
1
 73
0
 74
0
  7

 75
0
147
1.0
148
0.0
149
0.0
100
AcDbLayout
  1
Model
 70
0
 71
0
 10
0.0
 20
0.0
 11
558.8
 21
431.8
 12
0.0
 22
0.0
 32
0.0
 14
0.0
 24
0.0
 34
0.0
 15
0.0
 25
0.0
 35
0.0
146
0.0
 13
0.0
 23
0.0
 33
0.0
 16
1.0
 26
0.0
 36
0.0
 17
0.0
 27
1.0
 37
0.0
 76
0
330
216
345
0
346
0
  0
LAYOUT
  5
262
102
{ACAD_REACTORS
330
1A
102
}
100
AcDbPlotSettings
  1

  2
none_device
  4
ANSI_C_(22.00_x_17.00_Inches)
  6

 40
0.0
 41
0.0
 42
0.0
 43
0.0
 44
558.8
 45
431.8
 46
0.0
 47
0.0
 48
0.0
 49
0.0
140
0.0
141
0.0
142
1.0
143
1.0
 70
0
 72
1
 73
0
 74
0
  7

 75
0
147
1.0
148
0.0
149
0.0
100
AcDbLayout
  1
Layout1
 70
0
 71
1
 10
0.0
 20
0.0
 11
558.8
 21
431.8
 12
0.0
 22
0.0
 32
0.0
 14
0.0
 24
0.0
 34
0.0
 15
0.0
 25
0.0
 35
0.0
146
0.0
 13
0.0
 23
0.0
 33
0.0
 16
1.0
 26
0.0
 36
0.0
 17
0.0
 27
1.0
 37
0.0
 76
0
330
217
345
0
346
0
  0
ENDSEC
  0
EOF
