ISO-10303-21;
HEADER;
FILE_DESCRIPTION(('STEP AP242'),'1');
FILE_NAME('xuzc16.stp','2020-07-29T19:09:03',('TraceParts'),('TraceParts S.A.'),'Spatial InterOp 3D',' ',' ');
FILE_SCHEMA(('AP242_MANAGED_MODEL_BASED_3D_ENGINEERING_MIM_LF  {1 0 10303 442 1 1 4}'));
ENDSEC;
DATA;
#1=PRODUCT_DEFINITION_CONTEXT('',#9,'design');
#2=APPLICATION_PROTOCOL_DEFINITION('INTERNATIONAL STANDARD','ap242_managed_model_based_3d_engineering',2014,#9);
#3=PRODUCT_CATEGORY_RELATIONSHIP('NONE','NONE',#10,#11);
#4=SHAPE_DEFINITION_REPRESENTATION(#12,#13);
#5= (GEOMETRIC_REPRESENTATION_CONTEXT(3)GLOBAL_UNCERTAINTY_ASSIGNED_CONTEXT((#16))GLOBAL_UNIT_ASSIGNED_CONTEXT((#18,#19,#20))REPRESENTATION_CONTEXT('NONE','WORKSPACE'));
#9=APPLICATION_CONTEXT('managed model based 3d engineering');
#10=PRODUCT_CATEGORY('part','NONE');
#11=PRODUCT_RELATED_PRODUCT_CATEGORY('detail',' ',(#22));
#12=PRODUCT_DEFINITION_SHAPE('NONE','NONE',#23);
#13=ADVANCED_BREP_SHAPE_REPRESENTATION('xuzc16',(#24,#25),#5);
#16=UNCERTAINTY_MEASURE_WITH_UNIT(LENGTH_MEASURE(1.0E-06),#18,'','');
#18= (CONVERSION_BASED_UNIT('MILLIMETRE',#28)LENGTH_UNIT()NAMED_UNIT(#31));
#19= (NAMED_UNIT(#33)PLANE_ANGLE_UNIT()SI_UNIT($,.RADIAN.));
#20= (NAMED_UNIT(#33)SOLID_ANGLE_UNIT()SI_UNIT($,.STERADIAN.));
#22=PRODUCT('xuzc16','xuzc16','PART-xuzc16-DESC',(#39));
#23=PRODUCT_DEFINITION('','NONE',#40,#1);
#24=MANIFOLD_SOLID_BREP('xuzc16',#41);
#25=AXIS2_PLACEMENT_3D('',#42,#43,#44);
#28=LENGTH_MEASURE_WITH_UNIT(LENGTH_MEASURE(1.0),#45);
#31=DIMENSIONAL_EXPONENTS(1.0,0.0,0.0,0.0,0.0,0.0,0.0);
#33=DIMENSIONAL_EXPONENTS(0.0,0.0,0.0,0.0,0.0,0.0,0.0);
#39=PRODUCT_CONTEXT('',#9,'mechanical');
#40=PRODUCT_DEFINITION_FORMATION_WITH_SPECIFIED_SOURCE(' ','NONE',#22,.NOT_KNOWN.);
#41=CLOSED_SHELL('',(#46,#47,#48,#49,#50,#51,#52,#53,#54,#55));
#42=CARTESIAN_POINT('',(0.0,0.0,0.0));
#43=DIRECTION('',(0.0,0.0,1.0));
#44=DIRECTION('',(1.0,0.0,0.0));
#45= (NAMED_UNIT(#31)LENGTH_UNIT()SI_UNIT(.MILLI.,.METRE.));
#46=ADVANCED_FACE('',(#57,#58),#59,.T.);
#47=ADVANCED_FACE('',(#60),#61,.T.);
#48=ADVANCED_FACE('',(#62),#63,.T.);
#49=ADVANCED_FACE('',(#64),#65,.F.);
#50=ADVANCED_FACE('',(#66),#67,.T.);
#51=ADVANCED_FACE('',(#68),#69,.T.);
#52=ADVANCED_FACE('',(#70,#71),#72,.T.);
#53=ADVANCED_FACE('',(#73),#74,.F.);
#54=ADVANCED_FACE('',(#75),#76,.F.);
#55=ADVANCED_FACE('',(#77),#78,.T.);
#57=FACE_OUTER_BOUND('',#79,.T.);
#58=FACE_BOUND('',#80,.T.);
#59=PLANE('',#81);
#60=FACE_OUTER_BOUND('',#82,.T.);
#61=CYLINDRICAL_SURFACE('',#83,10.5);
#62=FACE_OUTER_BOUND('',#84,.T.);
#63=CYLINDRICAL_SURFACE('',#85,10.5);
#64=FACE_OUTER_BOUND('',#86,.T.);
#65=PLANE('',#87);
#66=FACE_OUTER_BOUND('',#88,.T.);
#67=CYLINDRICAL_SURFACE('',#89,8.5);
#68=FACE_OUTER_BOUND('',#90,.T.);
#69=CYLINDRICAL_SURFACE('',#91,8.5);
#70=FACE_OUTER_BOUND('',#92,.T.);
#71=FACE_BOUND('',#93,.T.);
#72=PLANE('',#94);
#73=FACE_OUTER_BOUND('',#95,.T.);
#74=CYLINDRICAL_SURFACE('',#96,8.1);
#75=FACE_OUTER_BOUND('',#97,.T.);
#76=CYLINDRICAL_SURFACE('',#98,8.1);
#77=FACE_OUTER_BOUND('',#99,.T.);
#78=PLANE('',#100);
#79=EDGE_LOOP('',(#101,#102));
#80=EDGE_LOOP('',(#103,#104));
#81=AXIS2_PLACEMENT_3D('',#105,#106,#107);
#82=EDGE_LOOP('',(#108,#109,#110,#111));
#83=AXIS2_PLACEMENT_3D('',#112,#113,#114);
#84=EDGE_LOOP('',(#115,#116,#117,#118));
#85=AXIS2_PLACEMENT_3D('',#119,#120,#121);
#86=EDGE_LOOP('',(#122,#123));
#87=AXIS2_PLACEMENT_3D('',#124,#125,#126);
#88=EDGE_LOOP('',(#127,#128,#129,#130));
#89=AXIS2_PLACEMENT_3D('',#131,#132,#133);
#90=EDGE_LOOP('',(#134,#135,#136,#137));
#91=AXIS2_PLACEMENT_3D('',#138,#139,#140);
#92=EDGE_LOOP('',(#141,#142));
#93=EDGE_LOOP('',(#143,#144));
#94=AXIS2_PLACEMENT_3D('',#145,#146,#147);
#95=EDGE_LOOP('',(#148,#149,#150,#151));
#96=AXIS2_PLACEMENT_3D('',#152,#153,#154);
#97=EDGE_LOOP('',(#155,#156,#157,#158));
#98=AXIS2_PLACEMENT_3D('',#159,#160,#161);
#99=EDGE_LOOP('',(#162,#163));
#100=AXIS2_PLACEMENT_3D('',#164,#165,#166);
#101=ORIENTED_EDGE('',*,*,#167,.F.);
#102=ORIENTED_EDGE('',*,*,#168,.F.);
#103=ORIENTED_EDGE('',*,*,#169,.F.);
#104=ORIENTED_EDGE('',*,*,#170,.F.);
#105=CARTESIAN_POINT('',(0.0,0.0,0.0));
#106=DIRECTION('',(0.0,0.0,1.0));
#107=DIRECTION('',(1.0,-0.0,0.0));
#108=ORIENTED_EDGE('',*,*,#171,.F.);
#109=ORIENTED_EDGE('',*,*,#172,.T.);
#110=ORIENTED_EDGE('',*,*,#173,.T.);
#111=ORIENTED_EDGE('',*,*,#168,.T.);
#112=CARTESIAN_POINT('',(0.0,0.0,0.0));
#113=DIRECTION('',(0.0,0.0,-1.0));
#114=DIRECTION('',(1.0,0.0,0.0));
#115=ORIENTED_EDGE('',*,*,#173,.F.);
#116=ORIENTED_EDGE('',*,*,#174,.T.);
#117=ORIENTED_EDGE('',*,*,#171,.T.);
#118=ORIENTED_EDGE('',*,*,#167,.T.);
#119=CARTESIAN_POINT('',(0.0,0.0,0.0));
#120=DIRECTION('',(0.0,0.0,-1.0));
#121=DIRECTION('',(1.0,0.0,0.0));
#122=ORIENTED_EDGE('',*,*,#174,.F.);
#123=ORIENTED_EDGE('',*,*,#172,.F.);
#124=CARTESIAN_POINT('',(0.0,0.0,-2.75));
#125=DIRECTION('',(0.0,0.0,1.0));
#126=DIRECTION('',(1.0,-0.0,0.0));
#127=ORIENTED_EDGE('',*,*,#175,.F.);
#128=ORIENTED_EDGE('',*,*,#176,.T.);
#129=ORIENTED_EDGE('',*,*,#177,.T.);
#130=ORIENTED_EDGE('',*,*,#170,.T.);
#131=CARTESIAN_POINT('',(0.0,0.0,0.0));
#132=DIRECTION('',(0.0,0.0,-1.0));
#133=DIRECTION('',(1.0,0.0,0.0));
#134=ORIENTED_EDGE('',*,*,#177,.F.);
#135=ORIENTED_EDGE('',*,*,#178,.T.);
#136=ORIENTED_EDGE('',*,*,#175,.T.);
#137=ORIENTED_EDGE('',*,*,#169,.T.);
#138=CARTESIAN_POINT('',(0.0,0.0,0.0));
#139=DIRECTION('',(0.0,0.0,-1.0));
#140=DIRECTION('',(1.0,0.0,0.0));
#141=ORIENTED_EDGE('',*,*,#178,.F.);
#142=ORIENTED_EDGE('',*,*,#176,.F.);
#143=ORIENTED_EDGE('',*,*,#179,.F.);
#144=ORIENTED_EDGE('',*,*,#180,.F.);
#145=CARTESIAN_POINT('',(0.0,0.0,2.75));
#146=DIRECTION('',(0.0,0.0,1.0));
#147=DIRECTION('',(1.0,-0.0,0.0));
#148=ORIENTED_EDGE('',*,*,#181,.T.);
#149=ORIENTED_EDGE('',*,*,#182,.F.);
#150=ORIENTED_EDGE('',*,*,#183,.F.);
#151=ORIENTED_EDGE('',*,*,#180,.T.);
#152=CARTESIAN_POINT('',(0.0,0.0,2.75));
#153=DIRECTION('',(0.0,0.0,-1.0));
#154=DIRECTION('',(1.0,0.0,0.0));
#155=ORIENTED_EDGE('',*,*,#183,.T.);
#156=ORIENTED_EDGE('',*,*,#184,.F.);
#157=ORIENTED_EDGE('',*,*,#181,.F.);
#158=ORIENTED_EDGE('',*,*,#179,.T.);
#159=CARTESIAN_POINT('',(0.0,0.0,2.75));
#160=DIRECTION('',(0.0,0.0,-1.0));
#161=DIRECTION('',(1.0,0.0,0.0));
#162=ORIENTED_EDGE('',*,*,#184,.T.);
#163=ORIENTED_EDGE('',*,*,#182,.T.);
#164=CARTESIAN_POINT('',(0.0,0.0,2.5));
#165=DIRECTION('',(0.0,0.0,1.0));
#166=DIRECTION('',(1.0,-0.0,0.0));
#167=EDGE_CURVE('',#185,#186,#187,.T.);
#168=EDGE_CURVE('',#186,#185,#188,.T.);
#169=EDGE_CURVE('',#189,#190,#191,.T.);
#170=EDGE_CURVE('',#190,#189,#192,.T.);
#171=EDGE_CURVE('',#193,#185,#194,.T.);
#172=EDGE_CURVE('',#193,#195,#196,.T.);
#173=EDGE_CURVE('',#195,#186,#197,.T.);
#174=EDGE_CURVE('',#195,#193,#198,.T.);
#175=EDGE_CURVE('',#199,#189,#200,.T.);
#176=EDGE_CURVE('',#199,#201,#202,.T.);
#177=EDGE_CURVE('',#201,#190,#203,.T.);
#178=EDGE_CURVE('',#201,#199,#204,.T.);
#179=EDGE_CURVE('',#205,#206,#207,.T.);
#180=EDGE_CURVE('',#206,#205,#208,.T.);
#181=EDGE_CURVE('',#205,#209,#210,.T.);
#182=EDGE_CURVE('',#211,#209,#212,.T.);
#183=EDGE_CURVE('',#206,#211,#213,.T.);
#184=EDGE_CURVE('',#209,#211,#214,.T.);
#185=VERTEX_POINT('',#215);
#186=VERTEX_POINT('',#216);
#187=CIRCLE('',#217,10.5);
#188=CIRCLE('',#218,10.5);
#189=VERTEX_POINT('',#219);
#190=VERTEX_POINT('',#220);
#191=CIRCLE('',#221,8.5);
#192=CIRCLE('',#222,8.5);
#193=VERTEX_POINT('',#223);
#194=LINE('',#224,#225);
#195=VERTEX_POINT('',#226);
#196=CIRCLE('',#227,10.5);
#197=LINE('',#228,#229);
#198=CIRCLE('',#230,10.5);
#199=VERTEX_POINT('',#231);
#200=LINE('',#232,#233);
#201=VERTEX_POINT('',#234);
#202=CIRCLE('',#235,8.5);
#203=LINE('',#236,#237);
#204=CIRCLE('',#238,8.5);
#205=VERTEX_POINT('',#239);
#206=VERTEX_POINT('',#240);
#207=CIRCLE('',#241,8.1);
#208=CIRCLE('',#242,8.1);
#209=VERTEX_POINT('',#243);
#210=LINE('',#244,#245);
#211=VERTEX_POINT('',#246);
#212=CIRCLE('',#247,8.1);
#213=LINE('',#248,#249);
#214=CIRCLE('',#250,8.1);
#215=CARTESIAN_POINT('',(10.5,0.0,0.0));
#216=CARTESIAN_POINT('',(-10.5,0.0,0.0));
#217=AXIS2_PLACEMENT_3D('',#251,#252,#253);
#218=AXIS2_PLACEMENT_3D('',#254,#255,#256);
#219=CARTESIAN_POINT('',(-8.5,0.0,0.0));
#220=CARTESIAN_POINT('',(8.5,0.0,0.0));
#221=AXIS2_PLACEMENT_3D('',#257,#258,#259);
#222=AXIS2_PLACEMENT_3D('',#260,#261,#262);
#223=CARTESIAN_POINT('',(10.5,0.0,-2.75));
#224=CARTESIAN_POINT('',(10.5,0.0,-2.75));
#225=VECTOR('',#263,2.75);
#226=CARTESIAN_POINT('',(-10.5,0.0,-2.75));
#227=AXIS2_PLACEMENT_3D('',#264,#265,#266);
#228=CARTESIAN_POINT('',(-10.5,0.0,-2.75));
#229=VECTOR('',#267,2.75);
#230=AXIS2_PLACEMENT_3D('',#268,#269,#270);
#231=CARTESIAN_POINT('',(-8.5,0.0,2.75));
#232=CARTESIAN_POINT('',(-8.5,0.0,2.75));
#233=VECTOR('',#271,2.75);
#234=CARTESIAN_POINT('',(8.5,0.0,2.75));
#235=AXIS2_PLACEMENT_3D('',#272,#273,#274);
#236=CARTESIAN_POINT('',(8.5,0.0,2.75));
#237=VECTOR('',#275,2.75);
#238=AXIS2_PLACEMENT_3D('',#276,#277,#278);
#239=CARTESIAN_POINT('',(-8.1,0.0,2.75));
#240=CARTESIAN_POINT('',(8.1,0.0,2.75));
#241=AXIS2_PLACEMENT_3D('',#279,#280,#281);
#242=AXIS2_PLACEMENT_3D('',#282,#283,#284);
#243=CARTESIAN_POINT('',(-8.1,0.0,2.5));
#244=CARTESIAN_POINT('',(-8.1,0.0,2.75));
#245=VECTOR('',#285,0.25);
#246=CARTESIAN_POINT('',(8.1,0.0,2.5));
#247=AXIS2_PLACEMENT_3D('',#286,#287,#288);
#248=CARTESIAN_POINT('',(8.1,0.0,2.75));
#249=VECTOR('',#289,0.25);
#250=AXIS2_PLACEMENT_3D('',#290,#291,#292);
#251=CARTESIAN_POINT('',(0.0,0.0,0.0));
#252=DIRECTION('',(0.0,0.0,-1.0));
#253=DIRECTION('',(1.0,0.0,0.0));
#254=CARTESIAN_POINT('',(0.0,0.0,0.0));
#255=DIRECTION('',(0.0,0.0,-1.0));
#256=DIRECTION('',(-1.0,0.0,0.0));
#257=CARTESIAN_POINT('',(0.0,0.0,0.0));
#258=DIRECTION('',(0.0,0.0,1.0));
#259=DIRECTION('',(-1.0,0.0,0.0));
#260=CARTESIAN_POINT('',(0.0,0.0,0.0));
#261=DIRECTION('',(0.0,0.0,1.0));
#262=DIRECTION('',(1.0,0.0,0.0));
#263=DIRECTION('',(0.0,0.0,1.0));
#264=CARTESIAN_POINT('',(0.0,0.0,-2.75));
#265=DIRECTION('',(0.0,0.0,1.0));
#266=DIRECTION('',(1.0,0.0,0.0));
#267=DIRECTION('',(0.0,0.0,1.0));
#268=CARTESIAN_POINT('',(0.0,0.0,-2.75));
#269=DIRECTION('',(0.0,0.0,1.0));
#270=DIRECTION('',(-1.0,0.0,0.0));
#271=DIRECTION('',(0.0,0.0,-1.0));
#272=CARTESIAN_POINT('',(0.0,0.0,2.75));
#273=DIRECTION('',(0.0,0.0,-1.0));
#274=DIRECTION('',(-1.0,0.0,0.0));
#275=DIRECTION('',(0.0,0.0,-1.0));
#276=CARTESIAN_POINT('',(0.0,0.0,2.75));
#277=DIRECTION('',(0.0,0.0,-1.0));
#278=DIRECTION('',(1.0,0.0,0.0));
#279=CARTESIAN_POINT('',(0.0,0.0,2.75));
#280=DIRECTION('',(0.0,0.0,1.0));
#281=DIRECTION('',(-1.0,0.0,0.0));
#282=CARTESIAN_POINT('',(0.0,0.0,2.75));
#283=DIRECTION('',(0.0,0.0,1.0));
#284=DIRECTION('',(1.0,0.0,0.0));
#285=DIRECTION('',(0.0,0.0,-1.0));
#286=CARTESIAN_POINT('',(0.0,0.0,2.5));
#287=DIRECTION('',(0.0,0.0,1.0));
#288=DIRECTION('',(1.0,0.0,0.0));
#289=DIRECTION('',(0.0,0.0,-1.0));
#290=CARTESIAN_POINT('',(0.0,0.0,2.5));
#291=DIRECTION('',(0.0,0.0,1.0));
#292=DIRECTION('',(-1.0,0.0,0.0));
ENDSEC;
END-ISO-10303-21;
