  0
SECTION
  2
HEADER
  9
$ACADVER
  1
AC1006
  9
$EXTMIN
 10
-2.304000
 20
-4.071862
  9
$EXTMAX
 10
2.109268
 20
4.136000
  9
$LTSCALE
 40
0.000394
  9
$PDMODE
 70
    35
  9
$PDSIZE
 40
0.000315
  0
ENDSEC
  0
SECTION
  2
TABLES
  0
TABLE
  2
LTYPE
 70
     9
  0
LTYPE
  2
CONTINUOUS
 70
    64
  3
Solid line
 72
    65
 73
     0
 40
0.000000
  0
LTYPE
  2
DASHED
 70
    64
  3
__ __ __ __ __ __ __ __ __ __ __ __ __ __ __
 72
    65
 73
     2
 40
0.000003
 49
0.000002
 49
-0.000001
  0
LTYPE
  2
HIDDEN
 70
    64
  3
 _ _ _ _ _ _ _ _ _ _ _ _ _ _ _ _ _ _ _ _ _ _
 72
    65
 73
     2
 40
0.000001
 49
0.000001
 49
-0.000000
  0
LTYPE
  2
CENTER
 70
    64
  3
____ _ ____ _ ____ _ ____ _ ____ _ ____ _ ____
 72
    65
 73
     4
 40
0.000008
 49
0.000005
 49
-0.000001
 49
0.000001
 49
-0.000001
  0
LTYPE
  2
PHANTOM
 70
    64
  3
_____ _ _ _____ _ _ _____ _ _ _____ _ _ ____
 72
    65
 73
     6
 40
0.000010
 49
0.000005
 49
-0.000001
 49
0.000001
 49
-0.000001
 49
0.000001
 49
-0.000001
  0
LTYPE
  2
DOT
 70
    64
  3
...............................................
 72
    65
 73
     2
 40
0.000001
 49
0.000000
 49
-0.000001
  0
LTYPE
  2
DASHDOT
 70
    64
  3
__ . __ . __ . __ . __ . __ . __ . __ . __ . __
 72
    65
 73
     4
 40
0.000004
 49
0.000002
 49
-0.000001
 49
0.000000
 49
-0.000001
  0
LTYPE
  2
BORDER
 70
    64
  3
__ __ . __ __ . __ __ . __ __ . __ __ . __ __
 72
    65
 73
     6
 40
0.000007
 49
0.000002
 49
-0.000001
 49
0.000002
 49
-0.000001
 49
0.000000
 49
-0.000001
  0
LTYPE
  2
DIVIDE
 70
    64
  3
__ . . __ . . __ . . __ . . __ . . __ . . __
 72
    65
 73
     6
 40
0.000005
 49
0.000002
 49
-0.000001
 49
0.000000
 49
-0.000001
 49
0.000000
 49
-0.000001
  0
LTYPE
  2
DOTDOT
 70
    64
  3
 . .  . .  . .  . .  . .  . . 
 72
    65
 73
     5
 40
0.000002
 49
-0.000001
 49
0.000000
 49
-0.000001
 49
0.000000
 49
-0.000001
  0
ENDTAB
  0
TABLE
  2
STYLE
 70
     2
  0
STYLE
 70
     0
  2
SN0
 40
0.000000
 41
0.000004
 50
0.000000
 71
     0
 42
0.000000
  3
Helvetica
  0
STYLE
 70
    68
  2
SV0
 40
0.000000
 41
0.000004
 50
0.000000
 71
     0
 42
0.000000
  3
Helvetica
  0
ENDTAB
  0
TABLE
  2
LAYER
 70
     3
  0
LAYER
  2
FOREGROUND
 70
    64
 62
     7
  6
CONTINUOUS
  0
LAYER
  2
BACKGROUND
 70
    65
 62
    -7
  6
CONTINUOUS
  0
LAYER
  2
PLAN_1
 70
    64
 62
     7
  6
CONTINUOUS
  0
ENDTAB
  0
ENDSEC
  0
SECTION
  2
ENTITIES
  0
TEXT
  8
PLAN_1
 10
0.243000
 20
-4.071854
 40
0.230239
  1
Z
 41
1.000000
  7
SN0
 71
     0
 72
     5
 11
0.412492
 21
-4.071854
  0
TEXT
  8
PLAN_1
 10
0.412799
 20
-4.071854
 40
0.230239
  1
C
 41
1.000000
  7
SN0
 71
     0
 72
     5
 11
0.613071
 21
-4.071854
  0
TEXT
  8
PLAN_1
 10
0.612866
 20
-4.071854
 40
0.230239
  1
K
 41
1.000000
  7
SN0
 71
     0
 72
     5
 11
0.797953
 21
-4.071854
  0
TEXT
  8
PLAN_1
 10
0.798055
 20
-4.071854
 40
0.230239
  1
D
 41
1.000000
  7
SN0
 71
     0
 72
     5
 11
0.998327
 21
-4.071854
  0
TEXT
  8
PLAN_1
 10
0.998634
 20
-4.071854
 40
0.230239
  1
5
 41
1.000000
  7
SN0
 71
     0
 72
     5
 11
1.152942
 21
-4.071854
  0
TEXT
  8
PLAN_1
 10
1.153047
 20
-4.071854
 40
0.230239
  1
5
 41
1.000000
  7
SN0
 71
     0
 72
     5
 11
1.307355
 21
-4.071854
  0
TEXT
  8
PLAN_1
 10
1.307457
 20
-4.071854
 40
0.230239
  1
_
 41
1.000000
  7
SN0
 71
     0
 72
     5
 11
1.461765
 21
-4.071854
  0
TEXT
  8
PLAN_1
 10
1.461354
 20
-4.071854
 40
0.230239
  1
R
 41
1.000000
  7
SN0
 71
     0
 72
     5
 11
1.661626
 21
-4.071854
  0
TEXT
  8
PLAN_1
 10
1.661933
 20
-4.071854
 40
0.230239
  1
.
 41
1.000000
  7
SN0
 71
     0
 72
     5
 11
1.739087
 21
-4.071854
  0
TEXT
  8
PLAN_1
 10
1.739394
 20
-4.071854
 40
0.230239
  1
E
 41
1.000000
  7
SN0
 71
     0
 72
     5
 11
1.924481
 21
-4.071854
  0
TEXT
  8
PLAN_1
 10
1.924583
 20
-4.071854
 40
0.230239
  1
P
 41
1.000000
  7
SN0
 71
     0
 72
     5
 11
2.109670
 21
-4.071854
  0
TEXT
  8
PLAN_1
 10
2.109260
 20
-4.071854
 40
0.230239
  1
S
 41
1.000000
  7
SN0
 71
     0
 72
     5
 11
2.294347
 21
-4.071854
  0
POLYLINE
  8
PLAN_1
  6
CONTINUOUS
 66
     1
 40
0.008205
 41
0.008205
  0
VERTEX
  8
PLAN_1
  6
CONTINUOUS
 10
-2.093673
 20
0.346535
  0
VERTEX
  8
PLAN_1
  6
CONTINUOUS
 10
-2.093673
 20
0.883638
  0
VERTEX
  8
PLAN_1
  6
CONTINUOUS
 10
-2.220894
 20
0.883638
  0
VERTEX
  8
PLAN_1
  6
CONTINUOUS
 10
-2.220894
 20
0.346535
  0
VERTEX
  8
PLAN_1
  6
CONTINUOUS
 10
-2.093673
 20
0.346535
  0
SEQEND
  8
0
  0
POLYLINE
  8
PLAN_1
  6
CONTINUOUS
 66
     1
 40
0.005642
 41
0.005642
  0
VERTEX
  8
PLAN_1
  6
CONTINUOUS
 10
-2.192169
 20
0.746157
  0
VERTEX
  8
PLAN_1
  6
CONTINUOUS
 10
-2.097264
 20
0.746157
  0
SEQEND
  8
0
  0
POLYLINE
  8
PLAN_1
  6
CONTINUOUS
 66
     1
 40
0.005642
 41
0.005642
  0
VERTEX
  8
PLAN_1
  6
CONTINUOUS
 10
-2.192169
 20
0.482992
  0
VERTEX
  8
PLAN_1
  6
CONTINUOUS
 10
-2.097264
 20
0.482992
  0
SEQEND
  8
0
  0
POLYLINE
  8
PLAN_1
  6
CONTINUOUS
 66
     1
 40
0.005642
 41
0.005642
  0
VERTEX
  8
PLAN_1
  6
CONTINUOUS
 10
-2.196272
 20
0.883126
  0
VERTEX
  8
PLAN_1
  6
CONTINUOUS
 10
-2.197811
 20
0.880047
  0
VERTEX
  8
PLAN_1
  6
CONTINUOUS
 10
-2.201402
 20
0.871327
  0
VERTEX
  8
PLAN_1
  6
CONTINUOUS
 10
-2.203453
 20
0.865169
  0
VERTEX
  8
PLAN_1
  6
CONTINUOUS
 10
-2.205504
 20
0.857476
  0
VERTEX
  8
PLAN_1
  6
CONTINUOUS
 10
-2.207559
 20
0.849268
  0
VERTEX
  8
PLAN_1
  6
CONTINUOUS
 10
-2.209610
 20
0.840031
  0
VERTEX
  8
PLAN_1
  6
CONTINUOUS
 10
-2.210634
 20
0.829772
  0
VERTEX
  8
PLAN_1
  6
CONTINUOUS
 10
-2.211661
 20
0.819000
  0
VERTEX
  8
PLAN_1
  6
CONTINUOUS
 10
-2.211150
 20
0.807717
  0
VERTEX
  8
PLAN_1
  6
CONTINUOUS
 10
-2.210122
 20
0.795917
  0
VERTEX
  8
PLAN_1
  6
CONTINUOUS
 10
-2.209098
 20
0.789760
  0
VERTEX
  8
PLAN_1
  6
CONTINUOUS
 10
-2.208071
 20
0.783602
  0
VERTEX
  8
PLAN_1
  6
CONTINUOUS
 10
-2.206531
 20
0.777449
  0
VERTEX
  8
PLAN_1
  6
CONTINUOUS
 10
-2.204480
 20
0.771291
  0
VERTEX
  8
PLAN_1
  6
CONTINUOUS
 10
-2.202429
 20
0.765138
  0
VERTEX
  8
PLAN_1
  6
CONTINUOUS
 10
-2.199862
 20
0.758469
  0
VERTEX
  8
PLAN_1
  6
CONTINUOUS
 10
-2.196783
 20
0.752311
  0
VERTEX
  8
PLAN_1
  6
CONTINUOUS
 10
-2.193193
 20
0.746157
  0
VERTEX
  8
PLAN_1
  6
CONTINUOUS
 10
-2.194732
 20
0.741028
  0
VERTEX
  8
PLAN_1
  6
CONTINUOUS
 10
-2.198839
 20
0.727177
  0
VERTEX
  8
PLAN_1
  6
CONTINUOUS
 10
-2.201402
 20
0.716402
  0
VERTEX
  8
PLAN_1
  6
CONTINUOUS
 10
-2.203453
 20
0.704091
  0
VERTEX
  8
PLAN_1
  6
CONTINUOUS
 10
-2.206020
 20
0.689728
  0
VERTEX
  8
PLAN_1
  6
CONTINUOUS
 10
-2.208071
 20
0.673311
  0
VERTEX
  8
PLAN_1
  6
CONTINUOUS
 10
-2.210122
 20
0.655358
  0
VERTEX
  8
PLAN_1
  6
CONTINUOUS
 10
-2.211150
 20
0.635350
  0
VERTEX
  8
PLAN_1
  6
CONTINUOUS
 10
-2.211661
 20
0.613803
  0
VERTEX
  8
PLAN_1
  6
CONTINUOUS
 10
-2.211150
 20
0.590205
  0
VERTEX
  8
PLAN_1
  6
CONTINUOUS
 10
-2.210634
 20
0.578409
  0
VERTEX
  8
PLAN_1
  6
CONTINUOUS
 10
-2.209610
 20
0.565583
  0
VERTEX
  8
PLAN_1
  6
CONTINUOUS
 10
-2.208071
 20
0.552760
  0
VERTEX
  8
PLAN_1
  6
CONTINUOUS
 10
-2.206531
 20
0.539421
  0
VERTEX
  8
PLAN_1
  6
CONTINUOUS
 10
-2.204992
 20
0.526083
  0
VERTEX
  8
PLAN_1
  6
CONTINUOUS
 10
-2.202429
 20
0.511720
  0
VERTEX
  8
PLAN_1
  6
CONTINUOUS
 10
-2.199862
 20
0.497870
  0
VERTEX
  8
PLAN_1
  6
CONTINUOUS
 10
-2.196783
 20
0.482992
  0
VERTEX
  8
PLAN_1
  6
CONTINUOUS
 10
-2.198323
 20
0.479913
  0
VERTEX
  8
PLAN_1
  6
CONTINUOUS
 10
-2.201913
 20
0.471193
  0
VERTEX
  8
PLAN_1
  6
CONTINUOUS
 10
-2.203969
 20
0.465551
  0
VERTEX
  8
PLAN_1
  6
CONTINUOUS
 10
-2.206020
 20
0.457854
  0
VERTEX
  8
PLAN_1
  6
CONTINUOUS
 10
-2.208071
 20
0.449646
  0
VERTEX
  8
PLAN_1
  6
CONTINUOUS
 10
-2.210122
 20
0.440925
  0
VERTEX
  8
PLAN_1
  6
CONTINUOUS
 10
-2.211150
 20
0.430665
  0
VERTEX
  8
PLAN_1
  6
CONTINUOUS
 10
-2.211661
 20
0.420406
  0
VERTEX
  8
PLAN_1
  6
CONTINUOUS
 10
-2.211661
 20
0.409122
  0
VERTEX
  8
PLAN_1
  6
CONTINUOUS
 10
-2.210634
 20
0.397323
  0
VERTEX
  8
PLAN_1
  6
CONTINUOUS
 10
-2.209610
 20
0.391681
  0
VERTEX
  8
PLAN_1
  6
CONTINUOUS
 10
-2.208583
 20
0.385524
  0
VERTEX
  8
PLAN_1
  6
CONTINUOUS
 10
-2.207043
 20
0.379366
  0
VERTEX
  8
PLAN_1
  6
CONTINUOUS
 10
-2.204992
 20
0.373213
  0
VERTEX
  8
PLAN_1
  6
CONTINUOUS
 10
-2.202941
 20
0.366543
  0
VERTEX
  8
PLAN_1
  6
CONTINUOUS
 10
-2.200374
 20
0.360386
  0
VERTEX
  8
PLAN_1
  6
CONTINUOUS
 10
-2.197299
 20
0.354232
  0
VERTEX
  8
PLAN_1
  6
CONTINUOUS
 10
-2.193709
 20
0.348075
  0
SEQEND
  8
0
  0
POLYLINE
  8
PLAN_1
  6
CONTINUOUS
 66
     1
 40
0.008205
 41
0.008205
  0
VERTEX
  8
PLAN_1
  6
CONTINUOUS
 10
-2.261421
 20
0.460933
  0
VERTEX
  8
PLAN_1
  6
CONTINUOUS
 10
-2.299898
 20
0.498894
  0
VERTEX
  8
PLAN_1
  6
CONTINUOUS
 10
-2.299898
 20
0.726661
  0
VERTEX
  8
PLAN_1
  6
CONTINUOUS
 10
-2.261421
 20
0.764622
  0
VERTEX
  8
PLAN_1
  6
CONTINUOUS
 10
-2.220894
 20
0.765650
  0
VERTEX
  8
PLAN_1
  6
CONTINUOUS
 10
-2.220894
 20
0.460933
  0
VERTEX
  8
PLAN_1
  6
CONTINUOUS
 10
-2.261421
 20
0.460933
  0
SEQEND
  8
0
  0
POLYLINE
  8
PLAN_1
  6
CONTINUOUS
 66
     1
 40
0.005642
 41
0.005642
  0
VERTEX
  8
PLAN_1
  6
CONTINUOUS
 10
-0.846079
 20
-0.481945
  0
VERTEX
  8
PLAN_1
  6
CONTINUOUS
 10
-0.995358
 20
-0.508618
  0
VERTEX
  8
PLAN_1
  6
CONTINUOUS
 10
-1.005106
 20
-0.510157
  0
SEQEND
  8
0
  0
POLYLINE
  8
PLAN_1
  6
CONTINUOUS
 66
     1
 40
0.005642
 41
0.005642
  0
VERTEX
  8
PLAN_1
  6
CONTINUOUS
 10
-1.005106
 20
-0.510157
  0
VERTEX
  8
PLAN_1
  6
CONTINUOUS
 10
-1.009724
 20
-0.511697
  0
VERTEX
  8
PLAN_1
  6
CONTINUOUS
 10
-1.013827
 20
-0.513748
  0
VERTEX
  8
PLAN_1
  6
CONTINUOUS
 10
-1.017417
 20
-0.516315
  0
VERTEX
  8
PLAN_1
  6
CONTINUOUS
 10
-1.020496
 20
-0.519906
  0
VERTEX
  8
PLAN_1
  6
CONTINUOUS
 10
-1.022547
 20
-0.524008
  0
VERTEX
  8
PLAN_1
  6
CONTINUOUS
 10
-1.024087
 20
-0.528626
  0
VERTEX
  8
PLAN_1
  6
CONTINUOUS
 10
-1.024602
 20
-0.533244
  0
VERTEX
  8
PLAN_1
  6
CONTINUOUS
 10
-1.024087
 20
-0.537862
  0
VERTEX
  8
PLAN_1
  6
CONTINUOUS
 10
-1.023063
 20
-0.542476
  0
VERTEX
  8
PLAN_1
  6
CONTINUOUS
 10
-1.021008
 20
-0.547094
  0
VERTEX
  8
PLAN_1
  6
CONTINUOUS
 10
-1.017933
 20
-0.550685
  0
VERTEX
  8
PLAN_1
  6
CONTINUOUS
 10
-1.014343
 20
-0.553252
  0
VERTEX
  8
PLAN_1
  6
CONTINUOUS
 10
-1.010236
 20
-0.555815
  0
VERTEX
  8
PLAN_1
  6
CONTINUOUS
 10
-1.006134
 20
-0.557354
  0
VERTEX
  8
PLAN_1
  6
CONTINUOUS
 10
-1.001516
 20
-0.557866
  0
VERTEX
  8
PLAN_1
  6
CONTINUOUS
 10
-0.996386
 20
-0.557354
  0
SEQEND
  8
0
  0
POLYLINE
  8
PLAN_1
  6
CONTINUOUS
 66
     1
 40
0.005642
 41
0.005642
  0
VERTEX
  8
PLAN_1
  6
CONTINUOUS
 10
-0.996386
 20
-0.557354
  0
VERTEX
  8
PLAN_1
  6
CONTINUOUS
 10
-0.987154
 20
-0.555815
  0
VERTEX
  8
PLAN_1
  6
CONTINUOUS
 10
-0.571118
 20
-0.482457
  0
VERTEX
  8
PLAN_1
  6
CONTINUOUS
 10
-0.846079
 20
-0.481945
  0
SEQEND
  8
0
  0
POLYLINE
  8
PLAN_1
  6
CONTINUOUS
 66
     1
 40
0.005642
 41
0.005642
  0
VERTEX
  8
PLAN_1
  6
CONTINUOUS
 10
-0.407472
 20
-0.662516
  0
VERTEX
  8
PLAN_1
  6
CONTINUOUS
 10
-0.402854
 20
-0.660976
  0
VERTEX
  8
PLAN_1
  6
CONTINUOUS
 10
-0.398752
 20
-0.658925
  0
VERTEX
  8
PLAN_1
  6
CONTINUOUS
 10
-0.394650
 20
-0.655846
  0
VERTEX
  8
PLAN_1
  6
CONTINUOUS
 10
-0.392083
 20
-0.652256
  0
VERTEX
  8
PLAN_1
  6
CONTINUOUS
 10
-0.389520
 20
-0.648665
  0
VERTEX
  8
PLAN_1
  6
CONTINUOUS
 10
-0.387980
 20
-0.644051
  0
VERTEX
  8
PLAN_1
  6
CONTINUOUS
 10
-0.387465
 20
-0.639433
  0
VERTEX
  8
PLAN_1
  6
CONTINUOUS
 10
-0.387980
 20
-0.634815
  0
VERTEX
  8
PLAN_1
  6
CONTINUOUS
 10
-0.389520
 20
-0.629685
  0
VERTEX
  8
PLAN_1
  6
CONTINUOUS
 10
-0.391571
 20
-0.625583
  0
VERTEX
  8
PLAN_1
  6
CONTINUOUS
 10
-0.394134
 20
-0.621992
  0
VERTEX
  8
PLAN_1
  6
CONTINUOUS
 10
-0.397724
 20
-0.618913
  0
VERTEX
  8
PLAN_1
  6
CONTINUOUS
 10
-0.401831
 20
-0.616862
  0
VERTEX
  8
PLAN_1
  6
CONTINUOUS
 10
-0.406445
 20
-0.615323
  0
VERTEX
  8
PLAN_1
  6
CONTINUOUS
 10
-0.411063
 20
-0.614811
  0
VERTEX
  8
PLAN_1
  6
CONTINUOUS
 10
-0.415681
 20
-0.615323
  0
SEQEND
  8
0
  0
POLYLINE
  8
PLAN_1
  6
CONTINUOUS
 66
     1
 40
0.005642
 41
0.005642
  0
VERTEX
  8
PLAN_1
  6
CONTINUOUS
 10
-0.415681
 20
-0.615323
  0
VERTEX
  8
PLAN_1
  6
CONTINUOUS
 10
-0.430559
 20
-0.617886
  0
VERTEX
  8
PLAN_1
  6
CONTINUOUS
 10
-0.994846
 20
-0.717406
  0
VERTEX
  8
PLAN_1
  6
CONTINUOUS
 10
-1.004594
 20
-0.718945
  0
SEQEND
  8
0
  0
POLYLINE
  8
PLAN_1
  6
CONTINUOUS
 66
     1
 40
0.005642
 41
0.005642
  0
VERTEX
  8
PLAN_1
  6
CONTINUOUS
 10
-1.004594
 20
-0.718945
  0
VERTEX
  8
PLAN_1
  6
CONTINUOUS
 10
-1.009213
 20
-0.720484
  0
VERTEX
  8
PLAN_1
  6
CONTINUOUS
 10
-1.013315
 20
-0.722535
  0
VERTEX
  8
PLAN_1
  6
CONTINUOUS
 10
-1.016906
 20
-0.725614
  0
VERTEX
  8
PLAN_1
  6
CONTINUOUS
 10
-1.019984
 20
-0.729205
  0
VERTEX
  8
PLAN_1
  6
CONTINUOUS
 10
-1.022547
 20
-0.733311
  0
VERTEX
  8
PLAN_1
  6
CONTINUOUS
 10
-1.024087
 20
-0.737413
  0
VERTEX
  8
PLAN_1
  6
CONTINUOUS
 10
-1.024602
 20
-0.742031
  0
VERTEX
  8
PLAN_1
  6
CONTINUOUS
 10
-1.024087
 20
-0.747161
  0
VERTEX
  8
PLAN_1
  6
CONTINUOUS
 10
-1.022547
 20
-0.751780
  0
VERTEX
  8
PLAN_1
  6
CONTINUOUS
 10
-1.020496
 20
-0.755882
  0
VERTEX
  8
PLAN_1
  6
CONTINUOUS
 10
-1.017933
 20
-0.759472
  0
VERTEX
  8
PLAN_1
  6
CONTINUOUS
 10
-1.014343
 20
-0.762551
  0
VERTEX
  8
PLAN_1
  6
CONTINUOUS
 10
-1.010236
 20
-0.764602
  0
VERTEX
  8
PLAN_1
  6
CONTINUOUS
 10
-1.005618
 20
-0.766142
  0
VERTEX
  8
PLAN_1
  6
CONTINUOUS
 10
-1.001004
 20
-0.766654
  0
VERTEX
  8
PLAN_1
  6
CONTINUOUS
 10
-0.996386
 20
-0.766654
  0
SEQEND
  8
0
  0
POLYLINE
  8
PLAN_1
  6
CONTINUOUS
 66
     1
 40
0.005642
 41
0.005642
  0
VERTEX
  8
PLAN_1
  6
CONTINUOUS
 10
-0.996386
 20
-0.766654
  0
VERTEX
  8
PLAN_1
  6
CONTINUOUS
 10
-0.986638
 20
-0.764602
  0
VERTEX
  8
PLAN_1
  6
CONTINUOUS
 10
-0.422350
 20
-0.665083
  0
VERTEX
  8
PLAN_1
  6
CONTINUOUS
 10
-0.407472
 20
-0.662516
  0
SEQEND
  8
0
  0
POLYLINE
  8
PLAN_1
  6
CONTINUOUS
 66
     1
 40
0.005642
 41
0.005642
  0
VERTEX
  8
PLAN_1
  6
CONTINUOUS
 10
-0.401831
 20
-0.975441
  0
VERTEX
  8
PLAN_1
  6
CONTINUOUS
 10
-0.397213
 20
-0.974929
  0
VERTEX
  8
PLAN_1
  6
CONTINUOUS
 10
-0.392594
 20
-0.973390
  0
VERTEX
  8
PLAN_1
  6
CONTINUOUS
 10
-0.388492
 20
-0.971339
  0
VERTEX
  8
PLAN_1
  6
CONTINUOUS
 10
-0.384902
 20
-0.968260
  0
VERTEX
  8
PLAN_1
  6
CONTINUOUS
 10
-0.382335
 20
-0.964669
  0
VERTEX
  8
PLAN_1
  6
CONTINUOUS
 10
-0.379772
 20
-0.960563
  0
VERTEX
  8
PLAN_1
  6
CONTINUOUS
 10
-0.378744
 20
-0.955949
  0
VERTEX
  8
PLAN_1
  6
CONTINUOUS
 10
-0.378232
 20
-0.951331
  0
VERTEX
  8
PLAN_1
  6
CONTINUOUS
 10
-0.378744
 20
-0.946713
  0
VERTEX
  8
PLAN_1
  6
CONTINUOUS
 10
-0.379772
 20
-0.942098
  0
VERTEX
  8
PLAN_1
  6
CONTINUOUS
 10
-0.382335
 20
-0.937992
  0
VERTEX
  8
PLAN_1
  6
CONTINUOUS
 10
-0.384902
 20
-0.934402
  0
VERTEX
  8
PLAN_1
  6
CONTINUOUS
 10
-0.388492
 20
-0.931323
  0
VERTEX
  8
PLAN_1
  6
CONTINUOUS
 10
-0.392594
 20
-0.929272
  0
VERTEX
  8
PLAN_1
  6
CONTINUOUS
 10
-0.397213
 20
-0.927732
  0
VERTEX
  8
PLAN_1
  6
CONTINUOUS
 10
-0.401831
 20
-0.927220
  0
SEQEND
  8
0
  0
POLYLINE
  8
PLAN_1
  6
CONTINUOUS
 66
     1
 40
0.005642
 41
0.005642
  0
VERTEX
  8
PLAN_1
  6
CONTINUOUS
 10
-0.401831
 20
-0.927220
  0
VERTEX
  8
PLAN_1
  6
CONTINUOUS
 10
-0.417220
 20
-0.927220
  0
VERTEX
  8
PLAN_1
  6
CONTINUOUS
 10
-0.990228
 20
-0.927732
  0
VERTEX
  8
PLAN_1
  6
CONTINUOUS
 10
-0.999976
 20
-0.927732
  0
SEQEND
  8
0
  0
POLYLINE
  8
PLAN_1
  6
CONTINUOUS
 66
     1
 40
0.005642
 41
0.005642
  0
VERTEX
  8
PLAN_1
  6
CONTINUOUS
 10
-0.999976
 20
-0.927732
  0
VERTEX
  8
PLAN_1
  6
CONTINUOUS
 10
-1.005106
 20
-0.928248
  0
VERTEX
  8
PLAN_1
  6
CONTINUOUS
 10
-1.009213
 20
-0.929272
  0
VERTEX
  8
PLAN_1
  6
CONTINUOUS
 10
-1.013315
 20
-0.931839
  0
VERTEX
  8
PLAN_1
  6
CONTINUOUS
 10
-1.016906
 20
-0.934402
  0
VERTEX
  8
PLAN_1
  6
CONTINUOUS
 10
-1.019984
 20
-0.937992
  0
VERTEX
  8
PLAN_1
  6
CONTINUOUS
 10
-1.022035
 20
-0.942098
  0
VERTEX
  8
PLAN_1
  6
CONTINUOUS
 10
-1.023575
 20
-0.946713
  0
VERTEX
  8
PLAN_1
  6
CONTINUOUS
 10
-1.024087
 20
-0.951331
  0
VERTEX
  8
PLAN_1
  6
CONTINUOUS
 10
-1.023575
 20
-0.956461
  0
VERTEX
  8
PLAN_1
  6
CONTINUOUS
 10
-1.022035
 20
-0.961079
  0
VERTEX
  8
PLAN_1
  6
CONTINUOUS
 10
-1.019984
 20
-0.965181
  0
VERTEX
  8
PLAN_1
  6
CONTINUOUS
 10
-1.016906
 20
-0.968772
  0
VERTEX
  8
PLAN_1
  6
CONTINUOUS
 10
-1.013315
 20
-0.971339
  0
VERTEX
  8
PLAN_1
  6
CONTINUOUS
 10
-1.009213
 20
-0.973902
  0
VERTEX
  8
PLAN_1
  6
CONTINUOUS
 10
-1.005106
 20
-0.974929
  0
VERTEX
  8
PLAN_1
  6
CONTINUOUS
 10
-0.999976
 20
-0.975441
  0
SEQEND
  8
0
  0
POLYLINE
  8
PLAN_1
  6
CONTINUOUS
 66
     1
 40
0.005642
 41
0.005642
  0
VERTEX
  8
PLAN_1
  6
CONTINUOUS
 10
-0.999976
 20
-0.975441
  0
VERTEX
  8
PLAN_1
  6
CONTINUOUS
 10
-0.990228
 20
-0.975441
  0
VERTEX
  8
PLAN_1
  6
CONTINUOUS
 10
-0.417220
 20
-0.975441
  0
VERTEX
  8
PLAN_1
  6
CONTINUOUS
 10
-0.401831
 20
-0.975441
  0
SEQEND
  8
0
  0
POLYLINE
  8
PLAN_1
  6
CONTINUOUS
 66
     1
 40
0.008205
 41
0.008205
  0
VERTEX
  8
PLAN_1
  6
CONTINUOUS
 10
-1.653016
 20
0.154677
  0
VERTEX
  8
PLAN_1
  6
CONTINUOUS
 10
-1.653016
 20
1.058055
  0
VERTEX
  8
PLAN_1
  6
CONTINUOUS
 10
-1.355480
 20
1.109354
  0
VERTEX
  8
PLAN_1
  6
CONTINUOUS
 10
-1.355480
 20
0.119280
  0
VERTEX
  8
PLAN_1
  6
CONTINUOUS
 10
-1.653016
 20
0.154677
  0
SEQEND
  8
0
  0
POLYLINE
  8
PLAN_1
  6
CONTINUOUS
 66
     1
 40
0.008205
 41
0.008205
  0
VERTEX
  8
PLAN_1
  6
CONTINUOUS
 10
-0.060689
 20
1.237602
  0
VERTEX
  8
PLAN_1
  6
CONTINUOUS
 10
-0.060689
 20
-0.024358
  0
VERTEX
  8
PLAN_1
  6
CONTINUOUS
 10
-1.355480
 20
-0.024358
  0
VERTEX
  8
PLAN_1
  6
CONTINUOUS
 10
-1.355480
 20
1.237602
  0
VERTEX
  8
PLAN_1
  6
CONTINUOUS
 10
-0.060689
 20
1.237602
  0
SEQEND
  8
0
  0
POLYLINE
  8
PLAN_1
  6
CONTINUOUS
 66
     1
 40
0.007181
 41
0.007181
  0
VERTEX
  8
PLAN_1
  6
CONTINUOUS
 10
-0.060689
 20
1.094988
  0
VERTEX
  8
PLAN_1
  6
CONTINUOUS
 10
-0.418244
 20
1.094988
  0
VERTEX
  8
PLAN_1
  6
CONTINUOUS
 10
-0.418244
 20
1.237602
  0
VERTEX
  8
PLAN_1
  6
CONTINUOUS
 10
-0.993823
 20
1.237602
  0
VERTEX
  8
PLAN_1
  6
CONTINUOUS
 10
-0.993823
 20
1.094988
  0
VERTEX
  8
PLAN_1
  6
CONTINUOUS
 10
-1.355992
 20
1.094988
  0
SEQEND
  8
0
  0
POLYLINE
  8
PLAN_1
  6
CONTINUOUS
 66
     1
 40
0.007181
 41
0.007181
  0
VERTEX
  8
PLAN_1
  6
CONTINUOUS
 10
-1.159004
 20
1.129358
  0
VERTEX
  8
PLAN_1
  6
CONTINUOUS
 10
-1.234413
 20
1.129358
  0
VERTEX
  8
PLAN_1
  6
CONTINUOUS
 10
-1.234413
 20
1.166295
  0
VERTEX
  8
PLAN_1
  6
CONTINUOUS
 10
-1.348811
 20
1.166295
  0
VERTEX
  8
PLAN_1
  6
CONTINUOUS
 10
-1.348811
 20
1.094476
  0
VERTEX
  8
PLAN_1
  6
CONTINUOUS
 10
-1.041528
 20
1.094476
  0
VERTEX
  8
PLAN_1
  6
CONTINUOUS
 10
-1.041528
 20
1.166295
  0
VERTEX
  8
PLAN_1
  6
CONTINUOUS
 10
-1.159004
 20
1.166295
  0
VERTEX
  8
PLAN_1
  6
CONTINUOUS
 10
-1.159004
 20
1.129358
  0
SEQEND
  8
0
  0
POLYLINE
  8
PLAN_1
  6
CONTINUOUS
 66
     1
 40
0.007181
 41
0.007181
  0
VERTEX
  8
PLAN_1
  6
CONTINUOUS
 10
-0.186374
 20
1.129358
  0
VERTEX
  8
PLAN_1
  6
CONTINUOUS
 10
-0.261783
 20
1.129358
  0
VERTEX
  8
PLAN_1
  6
CONTINUOUS
 10
-0.261783
 20
1.166295
  0
VERTEX
  8
PLAN_1
  6
CONTINUOUS
 10
-0.376181
 20
1.166295
  0
VERTEX
  8
PLAN_1
  6
CONTINUOUS
 10
-0.376181
 20
1.094476
  0
VERTEX
  8
PLAN_1
  6
CONTINUOUS
 10
-0.068898
 20
1.094476
  0
VERTEX
  8
PLAN_1
  6
CONTINUOUS
 10
-0.068898
 20
1.166295
  0
VERTEX
  8
PLAN_1
  6
CONTINUOUS
 10
-0.186374
 20
1.166295
  0
VERTEX
  8
PLAN_1
  6
CONTINUOUS
 10
-0.186374
 20
1.129358
  0
SEQEND
  8
0
  0
POLYLINE
  8
PLAN_1
  6
CONTINUOUS
 66
     1
 40
0.008205
 41
0.008205
  0
VERTEX
  8
PLAN_1
  6
CONTINUOUS
 10
-0.173547
 20
-0.099252
  0
VERTEX
  8
PLAN_1
  6
CONTINUOUS
 10
-0.168417
 20
-0.098740
  0
VERTEX
  8
PLAN_1
  6
CONTINUOUS
 10
-0.163803
 20
-0.098228
  0
VERTEX
  8
PLAN_1
  6
CONTINUOUS
 10
-0.159185
 20
-0.097201
  0
VERTEX
  8
PLAN_1
  6
CONTINUOUS
 10
-0.155083
 20
-0.095661
  0
VERTEX
  8
PLAN_1
  6
CONTINUOUS
 10
-0.151488
 20
-0.094122
  0
VERTEX
  8
PLAN_1
  6
CONTINUOUS
 10
-0.147898
 20
-0.092071
  0
VERTEX
  8
PLAN_1
  6
CONTINUOUS
 10
-0.144823
 20
-0.090020
  0
VERTEX
  8
PLAN_1
  6
CONTINUOUS
 10
-0.141744
 20
-0.087453
  0
VERTEX
  8
PLAN_1
  6
CONTINUOUS
 10
-0.139693
 20
-0.084378
  0
VERTEX
  8
PLAN_1
  6
CONTINUOUS
 10
-0.137126
 20
-0.081811
  0
VERTEX
  8
PLAN_1
  6
CONTINUOUS
 10
-0.135075
 20
-0.078732
  0
VERTEX
  8
PLAN_1
  6
CONTINUOUS
 10
-0.133535
 20
-0.075657
  0
VERTEX
  8
PLAN_1
  6
CONTINUOUS
 10
-0.130457
 20
-0.068472
  0
VERTEX
  8
PLAN_1
  6
CONTINUOUS
 10
-0.128917
 20
-0.061803
  0
VERTEX
  8
PLAN_1
  6
CONTINUOUS
 10
-0.127378
 20
-0.054622
  0
VERTEX
  8
PLAN_1
  6
CONTINUOUS
 10
-0.126354
 20
-0.047953
  0
VERTEX
  8
PLAN_1
  6
CONTINUOUS
 10
-0.126354
 20
-0.041799
  0
VERTEX
  8
PLAN_1
  6
CONTINUOUS
 10
-0.126354
 20
-0.036154
  0
VERTEX
  8
PLAN_1
  6
CONTINUOUS
 10
-0.126866
 20
-0.027433
  0
VERTEX
  8
PLAN_1
  6
CONTINUOUS
 10
-0.127378
 20
-0.024358
  0
SEQEND
  8
0
  0
POLYLINE
  8
PLAN_1
  6
CONTINUOUS
 66
     1
 40
0.008205
 41
0.008205
  0
VERTEX
  8
PLAN_1
  6
CONTINUOUS
 10
-0.127378
 20
-0.024358
  0
VERTEX
  8
PLAN_1
  6
CONTINUOUS
 10
-1.278531
 20
-0.024358
  0
SEQEND
  8
0
  0
POLYLINE
  8
PLAN_1
  6
CONTINUOUS
 66
     1
 40
0.008205
 41
0.008205
  0
VERTEX
  8
PLAN_1
  6
CONTINUOUS
 10
-1.278531
 20
-0.024358
  0
VERTEX
  8
PLAN_1
  6
CONTINUOUS
 10
-1.279559
 20
-0.027433
  0
VERTEX
  8
PLAN_1
  6
CONTINUOUS
 10
-1.281610
 20
-0.036154
  0
VERTEX
  8
PLAN_1
  6
CONTINUOUS
 10
-1.283150
 20
-0.041799
  0
VERTEX
  8
PLAN_1
  6
CONTINUOUS
 10
-1.283661
 20
-0.047953
  0
VERTEX
  8
PLAN_1
  6
CONTINUOUS
 10
-1.284173
 20
-0.054622
  0
VERTEX
  8
PLAN_1
  6
CONTINUOUS
 10
-1.284173
 20
-0.061803
  0
VERTEX
  8
PLAN_1
  6
CONTINUOUS
 10
-1.283150
 20
-0.068472
  0
VERTEX
  8
PLAN_1
  6
CONTINUOUS
 10
-1.281610
 20
-0.075657
  0
VERTEX
  8
PLAN_1
  6
CONTINUOUS
 10
-1.280583
 20
-0.078732
  0
VERTEX
  8
PLAN_1
  6
CONTINUOUS
 10
-1.279043
 20
-0.081811
  0
VERTEX
  8
PLAN_1
  6
CONTINUOUS
 10
-1.276992
 20
-0.084890
  0
VERTEX
  8
PLAN_1
  6
CONTINUOUS
 10
-1.274941
 20
-0.087453
  0
VERTEX
  8
PLAN_1
  6
CONTINUOUS
 10
-1.272374
 20
-0.090020
  0
VERTEX
  8
PLAN_1
  6
CONTINUOUS
 10
-1.269299
 20
-0.092071
  0
VERTEX
  8
PLAN_1
  6
CONTINUOUS
 10
-1.266220
 20
-0.094122
  0
VERTEX
  8
PLAN_1
  6
CONTINUOUS
 10
-1.262114
 20
-0.095661
  0
VERTEX
  8
PLAN_1
  6
CONTINUOUS
 10
-1.258012
 20
-0.097201
  0
VERTEX
  8
PLAN_1
  6
CONTINUOUS
 10
-1.253394
 20
-0.098228
  0
VERTEX
  8
PLAN_1
  6
CONTINUOUS
 10
-1.248264
 20
-0.098740
  0
VERTEX
  8
PLAN_1
  6
CONTINUOUS
 10
-1.242622
 20
-0.099252
  0
VERTEX
  8
PLAN_1
  6
CONTINUOUS
 10
-1.188244
 20
-0.099252
  0
VERTEX
  8
PLAN_1
  6
CONTINUOUS
 10
-1.069232
 20
-0.099252
  0
VERTEX
  8
PLAN_1
  6
CONTINUOUS
 10
-0.906614
 20
-0.099252
  0
VERTEX
  8
PLAN_1
  6
CONTINUOUS
 10
-0.721937
 20
-0.099252
  0
VERTEX
  8
PLAN_1
  6
CONTINUOUS
 10
-0.535209
 20
-0.099252
  0
VERTEX
  8
PLAN_1
  6
CONTINUOUS
 10
-0.367972
 20
-0.099252
  0
VERTEX
  8
PLAN_1
  6
CONTINUOUS
 10
-0.240236
 20
-0.099252
  0
VERTEX
  8
PLAN_1
  6
CONTINUOUS
 10
-0.173547
 20
-0.099252
  0
SEQEND
  8
0
  0
POLYLINE
  8
PLAN_1
  6
CONTINUOUS
 66
     1
 40
0.008205
 41
0.008205
  0
VERTEX
  8
PLAN_1
  6
CONTINUOUS
 10
-1.186193
 20
-0.099252
  0
VERTEX
  8
PLAN_1
  6
CONTINUOUS
 10
-1.186193
 20
-0.482969
  0
VERTEX
  8
PLAN_1
  6
CONTINUOUS
 10
-1.135406
 20
-0.482969
  0
VERTEX
  8
PLAN_1
  6
CONTINUOUS
 10
-1.135406
 20
-0.535807
  0
VERTEX
  8
PLAN_1
  6
CONTINUOUS
 10
-1.070772
 20
-0.535807
  0
VERTEX
  8
PLAN_1
  6
CONTINUOUS
 10
-1.070772
 20
-0.482969
  0
VERTEX
  8
PLAN_1
  6
CONTINUOUS
 10
-0.354634
 20
-0.482969
  0
VERTEX
  8
PLAN_1
  6
CONTINUOUS
 10
-0.354634
 20
-0.535807
  0
VERTEX
  8
PLAN_1
  6
CONTINUOUS
 10
-0.289484
 20
-0.535807
  0
VERTEX
  8
PLAN_1
  6
CONTINUOUS
 10
-0.289484
 20
-0.482969
  0
VERTEX
  8
PLAN_1
  6
CONTINUOUS
 10
-0.226902
 20
-0.482969
  0
VERTEX
  8
PLAN_1
  6
CONTINUOUS
 10
-0.226902
 20
-0.099252
  0
VERTEX
  8
PLAN_1
  6
CONTINUOUS
 10
-1.186193
 20
-0.099252
  0
SEQEND
  8
0
  0
POLYLINE
  8
PLAN_1
  6
CONTINUOUS
 66
     1
 40
0.004102
 41
0.004102
  0
VERTEX
  8
PLAN_1
  6
CONTINUOUS
 10
-0.064795
 20
-0.258280
  0
VERTEX
  8
PLAN_1
  6
CONTINUOUS
 10
0.231713
 20
-0.258280
  0
SEQEND
  8
0
  0
POLYLINE
  8
PLAN_1
  6
CONTINUOUS
 66
     1
 40
0.004102
 41
0.004102
  0
VERTEX
  8
PLAN_1
  6
CONTINUOUS
 10
-1.493472
 20
-0.256228
  0
VERTEX
  8
PLAN_1
  6
CONTINUOUS
 10
-1.196965
 20
-0.256228
  0
SEQEND
  8
0
  0
POLYLINE
  8
PLAN_1
  6
CONTINUOUS
 66
     1
 40
0.004102
 41
0.004102
  0
VERTEX
  8
PLAN_1
  6
CONTINUOUS
 10
-1.660709
 20
-0.824622
  0
VERTEX
  8
PLAN_1
  6
CONTINUOUS
 10
-1.660709
 20
-0.494256
  0
VERTEX
  8
PLAN_1
  6
CONTINUOUS
 10
-1.357531
 20
-0.494256
  0
VERTEX
  8
PLAN_1
  6
CONTINUOUS
 10
-1.357531
 20
-0.024870
  0
VERTEX
  8
PLAN_1
  6
CONTINUOUS
 10
0.066531
 20
-0.024358
  0
VERTEX
  8
PLAN_1
  6
CONTINUOUS
 10
0.066531
 20
-0.822571
  0
SEQEND
  8
0
  0
POLYLINE
  8
PLAN_1
  6
CONTINUOUS
 66
     1
 40
0.005642
 41
0.005642
  0
VERTEX
  8
PLAN_1
  6
CONTINUOUS
 10
-2.261421
 20
0.765650
  0
VERTEX
  8
PLAN_1
  6
CONTINUOUS
 10
-2.261421
 20
0.460933
  0
SEQEND
  8
0
  0
POLYLINE
  8
PLAN_1
  6
CONTINUOUS
 66
     1
 40
0.008205
 41
0.008205
  0
VERTEX
  8
PLAN_1
  6
CONTINUOUS
 10
-2.016724
 20
2.553421
  0
VERTEX
  8
PLAN_1
  6
CONTINUOUS
 10
-2.016724
 20
0.928780
  0
SEQEND
  8
0
  0
POLYLINE
  8
PLAN_1
  6
CONTINUOUS
 66
     1
 40
0.008205
 41
0.008205
  0
VERTEX
  8
PLAN_1
  6
CONTINUOUS
 10
-2.016724
 20
0.274717
  0
VERTEX
  8
PLAN_1
  6
CONTINUOUS
 10
-2.016724
 20
-0.598394
  0
VERTEX
  8
PLAN_1
  6
CONTINUOUS
 10
-1.728425
 20
-0.598394
  0
VERTEX
  8
PLAN_1
  6
CONTINUOUS
 10
-1.728425
 20
0.274717
  0
SEQEND
  8
0
  0
POLYLINE
  8
PLAN_1
  6
CONTINUOUS
 66
     1
 40
0.008205
 41
0.008205
  0
VERTEX
  8
PLAN_1
  6
CONTINUOUS
 10
-1.728425
 20
0.927240
  0
VERTEX
  8
PLAN_1
  6
CONTINUOUS
 10
-1.728425
 20
2.717579
  0
SEQEND
  8
0
  0
POLYLINE
  8
PLAN_1
  6
CONTINUOUS
 66
     1
 40
0.008205
 41
0.008205
  0
VERTEX
  8
PLAN_1
  6
CONTINUOUS
 10
-1.728425
 20
2.955606
  0
VERTEX
  8
PLAN_1
  6
CONTINUOUS
 10
-1.728425
 20
3.886685
  0
VERTEX
  8
PLAN_1
  6
CONTINUOUS
 10
-2.016724
 20
3.886685
  0
VERTEX
  8
PLAN_1
  6
CONTINUOUS
 10
-2.016724
 20
2.791449
  0
SEQEND
  8
0
  0
POLYLINE
  8
PLAN_1
  6
CONTINUOUS
 66
     1
 40
0.004102
 41
0.004102
  0
VERTEX
  8
PLAN_1
  6
CONTINUOUS
 10
-2.201402
 20
2.684748
  0
VERTEX
  8
PLAN_1
  6
CONTINUOUS
 10
-1.591457
 20
3.029992
  0
SEQEND
  8
0
  0
POLYLINE
  8
PLAN_1
  6
CONTINUOUS
 66
     1
 40
0.004102
 41
0.004102
  0
VERTEX
  8
PLAN_1
  6
CONTINUOUS
 10
-2.201402
 20
2.445181
  0
VERTEX
  8
PLAN_1
  6
CONTINUOUS
 10
-1.591457
 20
2.790425
  0
SEQEND
  8
0
  0
POLYLINE
  8
PLAN_1
  6
CONTINUOUS
 66
     1
 40
0.004102
 41
0.004102
  0
VERTEX
  8
PLAN_1
  6
CONTINUOUS
 10
-1.866417
 20
3.961583
  0
VERTEX
  8
PLAN_1
  6
CONTINUOUS
 10
-1.866417
 20
2.922776
  0
SEQEND
  8
0
  0
POLYLINE
  8
PLAN_1
  6
CONTINUOUS
 66
     1
 40
0.005642
 41
0.005642
  0
VERTEX
  8
PLAN_1
  6
CONTINUOUS
 10
-1.704315
 20
0.275228
  0
VERTEX
  8
PLAN_1
  6
CONTINUOUS
 10
-1.704315
 20
0.926728
  0
VERTEX
  8
PLAN_1
  6
CONTINUOUS
 10
-2.041350
 20
0.926728
  0
VERTEX
  8
PLAN_1
  6
CONTINUOUS
 10
-2.041350
 20
0.275228
  0
VERTEX
  8
PLAN_1
  6
CONTINUOUS
 10
-1.704315
 20
0.275228
  0
SEQEND
  8
0
  0
POLYLINE
  8
PLAN_1
  6
CONTINUOUS
 66
     1
 40
0.005642
 41
0.005642
  0
VERTEX
  8
PLAN_1
  6
CONTINUOUS
 10
-1.704315
 20
0.275228
  0
VERTEX
  8
PLAN_1
  6
CONTINUOUS
 10
-1.657630
 20
0.221366
  0
SEQEND
  8
0
  0
POLYLINE
  8
PLAN_1
  6
CONTINUOUS
 66
     1
 40
0.005642
 41
0.005642
  0
VERTEX
  8
PLAN_1
  6
CONTINUOUS
 10
-2.091110
 20
0.217264
  0
VERTEX
  8
PLAN_1
  6
CONTINUOUS
 10
-2.041350
 20
0.275228
  0
SEQEND
  8
0
  0
POLYLINE
  8
PLAN_1
  6
CONTINUOUS
 66
     1
 40
0.005642
 41
0.005642
  0
VERTEX
  8
PLAN_1
  6
CONTINUOUS
 10
-1.704315
 20
0.926728
  0
VERTEX
  8
PLAN_1
  6
CONTINUOUS
 10
-1.651988
 20
0.986236
  0
SEQEND
  8
0
  0
POLYLINE
  8
PLAN_1
  6
CONTINUOUS
 66
     1
 40
0.005642
 41
0.005642
  0
VERTEX
  8
PLAN_1
  6
CONTINUOUS
 10
-2.087004
 20
0.986236
  0
VERTEX
  8
PLAN_1
  6
CONTINUOUS
 10
-2.041350
 20
0.926728
  0
SEQEND
  8
0
  0
POLYLINE
  8
PLAN_1
  6
CONTINUOUS
 66
     1
 40
0.008205
 41
0.008205
  0
VERTEX
  8
PLAN_1
  6
CONTINUOUS
 10
-2.018264
 20
0.990339
  0
VERTEX
  8
PLAN_1
  6
CONTINUOUS
 10
-2.093161
 20
0.990339
  0
VERTEX
  8
PLAN_1
  6
CONTINUOUS
 10
-2.093161
 20
0.217264
  0
VERTEX
  8
PLAN_1
  6
CONTINUOUS
 10
-2.019291
 20
0.217264
  0
SEQEND
  8
0
  0
POLYLINE
  8
PLAN_1
  6
CONTINUOUS
 66
     1
 40
0.008205
 41
0.008205
  0
VERTEX
  8
PLAN_1
  6
CONTINUOUS
 10
-1.729449
 20
0.217264
  0
VERTEX
  8
PLAN_1
  6
CONTINUOUS
 10
-1.654039
 20
0.217264
  0
VERTEX
  8
PLAN_1
  6
CONTINUOUS
 10
-1.654039
 20
0.990339
  0
VERTEX
  8
PLAN_1
  6
CONTINUOUS
 10
-1.727909
 20
0.990339
  0
SEQEND
  8
0
  0
POLYLINE
  8
PLAN_1
  6
CONTINUOUS
 66
     1
 40
0.005642
 41
0.005642
  0
VERTEX
  8
PLAN_1
  6
CONTINUOUS
 10
-0.725016
 20
-0.927220
  0
VERTEX
  8
PLAN_1
  6
CONTINUOUS
 10
-0.422350
 20
-0.873870
  0
VERTEX
  8
PLAN_1
  6
CONTINUOUS
 10
-0.407472
 20
-0.871303
  0
SEQEND
  8
0
  0
POLYLINE
  8
PLAN_1
  6
CONTINUOUS
 66
     1
 40
0.005642
 41
0.005642
  0
VERTEX
  8
PLAN_1
  6
CONTINUOUS
 10
-0.407472
 20
-0.871303
  0
VERTEX
  8
PLAN_1
  6
CONTINUOUS
 10
-0.402854
 20
-0.869764
  0
VERTEX
  8
PLAN_1
  6
CONTINUOUS
 10
-0.398240
 20
-0.867713
  0
VERTEX
  8
PLAN_1
  6
CONTINUOUS
 10
-0.394650
 20
-0.864634
  0
VERTEX
  8
PLAN_1
  6
CONTINUOUS
 10
-0.391571
 20
-0.861043
  0
VERTEX
  8
PLAN_1
  6
CONTINUOUS
 10
-0.389520
 20
-0.857453
  0
VERTEX
  8
PLAN_1
  6
CONTINUOUS
 10
-0.387980
 20
-0.852839
  0
VERTEX
  8
PLAN_1
  6
CONTINUOUS
 10
-0.387465
 20
-0.848220
  0
VERTEX
  8
PLAN_1
  6
CONTINUOUS
 10
-0.387980
 20
-0.843602
  0
VERTEX
  8
PLAN_1
  6
CONTINUOUS
 10
-0.389004
 20
-0.838472
  0
VERTEX
  8
PLAN_1
  6
CONTINUOUS
 10
-0.391571
 20
-0.834370
  0
VERTEX
  8
PLAN_1
  6
CONTINUOUS
 10
-0.394134
 20
-0.830780
  0
VERTEX
  8
PLAN_1
  6
CONTINUOUS
 10
-0.397724
 20
-0.827701
  0
VERTEX
  8
PLAN_1
  6
CONTINUOUS
 10
-0.401831
 20
-0.825650
  0
VERTEX
  8
PLAN_1
  6
CONTINUOUS
 10
-0.405933
 20
-0.824110
  0
VERTEX
  8
PLAN_1
  6
CONTINUOUS
 10
-0.410551
 20
-0.823594
  0
VERTEX
  8
PLAN_1
  6
CONTINUOUS
 10
-0.415681
 20
-0.824110
  0
SEQEND
  8
0
  0
POLYLINE
  8
PLAN_1
  6
CONTINUOUS
 66
     1
 40
0.005642
 41
0.005642
  0
VERTEX
  8
PLAN_1
  6
CONTINUOUS
 10
-0.415681
 20
-0.824110
  0
VERTEX
  8
PLAN_1
  6
CONTINUOUS
 10
-0.430559
 20
-0.826673
  0
VERTEX
  8
PLAN_1
  6
CONTINUOUS
 10
-0.994846
 20
-0.926193
  0
VERTEX
  8
PLAN_1
  6
CONTINUOUS
 10
-1.004594
 20
-0.927732
  0
SEQEND
  8
0
  0
POLYLINE
  8
PLAN_1
  6
CONTINUOUS
 66
     1
 40
0.005642
 41
0.005642
  0
VERTEX
  8
PLAN_1
  6
CONTINUOUS
 10
-1.004594
 20
-0.927732
  0
VERTEX
  8
PLAN_1
  6
CONTINUOUS
 10
-1.009213
 20
-0.929272
  0
VERTEX
  8
PLAN_1
  6
CONTINUOUS
 10
-1.013315
 20
-0.931323
  0
VERTEX
  8
PLAN_1
  6
CONTINUOUS
 10
-1.016906
 20
-0.934402
  0
VERTEX
  8
PLAN_1
  6
CONTINUOUS
 10
-1.019984
 20
-0.937992
  0
VERTEX
  8
PLAN_1
  6
CONTINUOUS
 10
-1.022035
 20
-0.942098
  0
VERTEX
  8
PLAN_1
  6
CONTINUOUS
 10
-1.023575
 20
-0.946201
  0
VERTEX
  8
PLAN_1
  6
CONTINUOUS
 10
-1.024602
 20
-0.950819
  0
VERTEX
  8
PLAN_1
  6
CONTINUOUS
 10
-1.024087
 20
-0.955949
  0
VERTEX
  8
PLAN_1
  6
CONTINUOUS
 10
-1.022547
 20
-0.960563
  0
VERTEX
  8
PLAN_1
  6
CONTINUOUS
 10
-1.020496
 20
-0.964669
  0
VERTEX
  8
PLAN_1
  6
CONTINUOUS
 10
-1.017417
 20
-0.968260
  0
VERTEX
  8
PLAN_1
  6
CONTINUOUS
 10
-1.014343
 20
-0.971339
  0
VERTEX
  8
PLAN_1
  6
CONTINUOUS
 10
-1.010236
 20
-0.973390
  0
VERTEX
  8
PLAN_1
  6
CONTINUOUS
 10
-1.005618
 20
-0.974929
  0
VERTEX
  8
PLAN_1
  6
CONTINUOUS
 10
-1.001004
 20
-0.975441
  0
VERTEX
  8
PLAN_1
  6
CONTINUOUS
 10
-0.996386
 20
-0.975441
  0
SEQEND
  8
0
  0
POLYLINE
  8
PLAN_1
  6
CONTINUOUS
 66
     1
 40
0.005642
 41
0.005642
  0
VERTEX
  8
PLAN_1
  6
CONTINUOUS
 10
-0.551622
 20
-0.847193
  0
VERTEX
  8
PLAN_1
  6
CONTINUOUS
 10
-0.994846
 20
-0.768705
  0
VERTEX
  8
PLAN_1
  6
CONTINUOUS
 10
-1.004594
 20
-0.767169
  0
SEQEND
  8
0
  0
POLYLINE
  8
PLAN_1
  6
CONTINUOUS
 66
     1
 40
0.005642
 41
0.005642
  0
VERTEX
  8
PLAN_1
  6
CONTINUOUS
 10
-1.004594
 20
-0.767169
  0
VERTEX
  8
PLAN_1
  6
CONTINUOUS
 10
-1.009213
 20
-0.765630
  0
VERTEX
  8
PLAN_1
  6
CONTINUOUS
 10
-1.013315
 20
-0.763575
  0
VERTEX
  8
PLAN_1
  6
CONTINUOUS
 10
-1.016906
 20
-0.760500
  0
VERTEX
  8
PLAN_1
  6
CONTINUOUS
 10
-1.019984
 20
-0.756909
  0
VERTEX
  8
PLAN_1
  6
CONTINUOUS
 10
-1.022035
 20
-0.753315
  0
VERTEX
  8
PLAN_1
  6
CONTINUOUS
 10
-1.023575
 20
-0.748701
  0
VERTEX
  8
PLAN_1
  6
CONTINUOUS
 10
-1.024087
 20
-0.744083
  0
VERTEX
  8
PLAN_1
  6
CONTINUOUS
 10
-1.024087
 20
-0.739465
  0
VERTEX
  8
PLAN_1
  6
CONTINUOUS
 10
-1.022547
 20
-0.734335
  0
VERTEX
  8
PLAN_1
  6
CONTINUOUS
 10
-1.020496
 20
-0.730232
  0
VERTEX
  8
PLAN_1
  6
CONTINUOUS
 10
-1.017417
 20
-0.726642
  0
VERTEX
  8
PLAN_1
  6
CONTINUOUS
 10
-1.013827
 20
-0.723563
  0
VERTEX
  8
PLAN_1
  6
CONTINUOUS
 10
-1.010236
 20
-0.721512
  0
VERTEX
  8
PLAN_1
  6
CONTINUOUS
 10
-1.005618
 20
-0.719972
  0
VERTEX
  8
PLAN_1
  6
CONTINUOUS
 10
-1.001004
 20
-0.719461
  0
VERTEX
  8
PLAN_1
  6
CONTINUOUS
 10
-0.995874
 20
-0.719972
  0
SEQEND
  8
0
  0
POLYLINE
  8
PLAN_1
  6
CONTINUOUS
 66
     1
 40
0.005642
 41
0.005642
  0
VERTEX
  8
PLAN_1
  6
CONTINUOUS
 10
-0.864035
 20
-0.743055
  0
VERTEX
  8
PLAN_1
  6
CONTINUOUS
 10
-0.421835
 20
-0.821031
  0
VERTEX
  8
PLAN_1
  6
CONTINUOUS
 10
-0.406961
 20
-0.823594
  0
SEQEND
  8
0
  0
POLYLINE
  8
PLAN_1
  6
CONTINUOUS
 66
     1
 40
0.005642
 41
0.005642
  0
VERTEX
  8
PLAN_1
  6
CONTINUOUS
 10
-0.406961
 20
-0.823594
  0
VERTEX
  8
PLAN_1
  6
CONTINUOUS
 10
-0.402343
 20
-0.825134
  0
VERTEX
  8
PLAN_1
  6
CONTINUOUS
 10
-0.398240
 20
-0.827189
  0
VERTEX
  8
PLAN_1
  6
CONTINUOUS
 10
-0.394650
 20
-0.830264
  0
VERTEX
  8
PLAN_1
  6
CONTINUOUS
 10
-0.391571
 20
-0.833854
  0
VERTEX
  8
PLAN_1
  6
CONTINUOUS
 10
-0.389520
 20
-0.837961
  0
VERTEX
  8
PLAN_1
  6
CONTINUOUS
 10
-0.387980
 20
-0.842063
  0
VERTEX
  8
PLAN_1
  6
CONTINUOUS
 10
-0.387465
 20
-0.846681
  0
VERTEX
  8
PLAN_1
  6
CONTINUOUS
 10
-0.387465
 20
-0.851811
  0
VERTEX
  8
PLAN_1
  6
CONTINUOUS
 10
-0.389004
 20
-0.856429
  0
VERTEX
  8
PLAN_1
  6
CONTINUOUS
 10
-0.391055
 20
-0.860531
  0
VERTEX
  8
PLAN_1
  6
CONTINUOUS
 10
-0.394134
 20
-0.864122
  0
VERTEX
  8
PLAN_1
  6
CONTINUOUS
 10
-0.397724
 20
-0.867201
  0
VERTEX
  8
PLAN_1
  6
CONTINUOUS
 10
-0.401831
 20
-0.869252
  0
VERTEX
  8
PLAN_1
  6
CONTINUOUS
 10
-0.405933
 20
-0.870791
  0
VERTEX
  8
PLAN_1
  6
CONTINUOUS
 10
-0.410551
 20
-0.871303
  0
VERTEX
  8
PLAN_1
  6
CONTINUOUS
 10
-0.415681
 20
-0.871303
  0
SEQEND
  8
0
  0
POLYLINE
  8
PLAN_1
  6
CONTINUOUS
 66
     1
 40
0.005642
 41
0.005642
  0
VERTEX
  8
PLAN_1
  6
CONTINUOUS
 10
-0.867626
 20
-0.533244
  0
VERTEX
  8
PLAN_1
  6
CONTINUOUS
 10
-0.421835
 20
-0.612244
  0
VERTEX
  8
PLAN_1
  6
CONTINUOUS
 10
-0.406961
 20
-0.614811
  0
SEQEND
  8
0
  0
POLYLINE
  8
PLAN_1
  6
CONTINUOUS
 66
     1
 40
0.005642
 41
0.005642
  0
VERTEX
  8
PLAN_1
  6
CONTINUOUS
 10
-0.406961
 20
-0.614811
  0
VERTEX
  8
PLAN_1
  6
CONTINUOUS
 10
-0.402343
 20
-0.615835
  0
VERTEX
  8
PLAN_1
  6
CONTINUOUS
 10
-0.398240
 20
-0.617886
  0
VERTEX
  8
PLAN_1
  6
CONTINUOUS
 10
-0.394650
 20
-0.620965
  0
VERTEX
  8
PLAN_1
  6
CONTINUOUS
 10
-0.391571
 20
-0.624555
  0
VERTEX
  8
PLAN_1
  6
CONTINUOUS
 10
-0.389520
 20
-0.628661
  0
VERTEX
  8
PLAN_1
  6
CONTINUOUS
 10
-0.387980
 20
-0.632764
  0
VERTEX
  8
PLAN_1
  6
CONTINUOUS
 10
-0.387465
 20
-0.637382
  0
VERTEX
  8
PLAN_1
  6
CONTINUOUS
 10
-0.387465
 20
-0.642512
  0
VERTEX
  8
PLAN_1
  6
CONTINUOUS
 10
-0.389004
 20
-0.647126
  0
VERTEX
  8
PLAN_1
  6
CONTINUOUS
 10
-0.391055
 20
-0.651232
  0
VERTEX
  8
PLAN_1
  6
CONTINUOUS
 10
-0.394134
 20
-0.654823
  0
VERTEX
  8
PLAN_1
  6
CONTINUOUS
 10
-0.397724
 20
-0.657902
  0
VERTEX
  8
PLAN_1
  6
CONTINUOUS
 10
-0.401315
 20
-0.659953
  0
VERTEX
  8
PLAN_1
  6
CONTINUOUS
 10
-0.405933
 20
-0.661492
  0
VERTEX
  8
PLAN_1
  6
CONTINUOUS
 10
-0.410551
 20
-0.662004
  0
VERTEX
  8
PLAN_1
  6
CONTINUOUS
 10
-0.415681
 20
-0.662004
  0
SEQEND
  8
0
  0
POLYLINE
  8
PLAN_1
  6
CONTINUOUS
 66
     1
 40
0.005642
 41
0.005642
  0
VERTEX
  8
PLAN_1
  6
CONTINUOUS
 10
-0.548031
 20
-0.638406
  0
VERTEX
  8
PLAN_1
  6
CONTINUOUS
 10
-0.994846
 20
-0.559406
  0
VERTEX
  8
PLAN_1
  6
CONTINUOUS
 10
-1.004083
 20
-0.557866
  0
SEQEND
  8
0
  0
POLYLINE
  8
PLAN_1
  6
CONTINUOUS
 66
     1
 40
0.005642
 41
0.005642
  0
VERTEX
  8
PLAN_1
  6
CONTINUOUS
 10
-1.004083
 20
-0.557866
  0
VERTEX
  8
PLAN_1
  6
CONTINUOUS
 10
-1.009213
 20
-0.556327
  0
VERTEX
  8
PLAN_1
  6
CONTINUOUS
 10
-1.013315
 20
-0.554276
  0
VERTEX
  8
PLAN_1
  6
CONTINUOUS
 10
-1.016906
 20
-0.551197
  0
VERTEX
  8
PLAN_1
  6
CONTINUOUS
 10
-1.019984
 20
-0.548122
  0
VERTEX
  8
PLAN_1
  6
CONTINUOUS
 10
-1.022035
 20
-0.544016
  0
VERTEX
  8
PLAN_1
  6
CONTINUOUS
 10
-1.023575
 20
-0.539398
  0
VERTEX
  8
PLAN_1
  6
CONTINUOUS
 10
-1.024087
 20
-0.534783
  0
VERTEX
  8
PLAN_1
  6
CONTINUOUS
 10
-1.023575
 20
-0.530165
  0
VERTEX
  8
PLAN_1
  6
CONTINUOUS
 10
-1.022547
 20
-0.525547
  0
VERTEX
  8
PLAN_1
  6
CONTINUOUS
 10
-1.020496
 20
-0.520933
  0
VERTEX
  8
PLAN_1
  6
CONTINUOUS
 10
-1.017417
 20
-0.517343
  0
VERTEX
  8
PLAN_1
  6
CONTINUOUS
 10
-1.013827
 20
-0.514264
  0
VERTEX
  8
PLAN_1
  6
CONTINUOUS
 10
-1.009724
 20
-0.512213
  0
VERTEX
  8
PLAN_1
  6
CONTINUOUS
 10
-1.005618
 20
-0.510673
  0
VERTEX
  8
PLAN_1
  6
CONTINUOUS
 10
-1.001004
 20
-0.510157
  0
VERTEX
  8
PLAN_1
  6
CONTINUOUS
 10
-0.995874
 20
-0.510673
  0
SEQEND
  8
0
  0
POLYLINE
  8
PLAN_1
 62
     2
  6
CONTINUOUS
 66
     1
 40
0.004102
 41
0.004102
  0
VERTEX
  8
PLAN_1
 62
     2
  6
CONTINUOUS
 10
-1.832563
 20
4.039043
  0
VERTEX
  8
PLAN_1
 62
     2
  6
CONTINUOUS
 10
0.036264
 20
4.039043
  0
SEQEND
  8
0
  0
SOLID
  8
PLAN_1
 62
     2
 10
0.065504
 20
4.039043
 11
0.006512
 21
4.054949
 12
0.065504
 22
4.039043
 13
0.006512
 23
4.023654
  0
POLYLINE
  8
PLAN_1
 62
     2
  6
CONTINUOUS
 66
     1
 40
0.003000
 41
0.003000
  0
VERTEX
  8
PLAN_1
 62
     2
  6
CONTINUOUS
 10
0.065504
 20
4.039043
  0
VERTEX
  8
PLAN_1
 62
     2
  6
CONTINUOUS
 10
0.006512
 20
4.054949
  0
VERTEX
  8
PLAN_1
 62
     2
  6
CONTINUOUS
 10
0.006512
 20
4.023654
  0
VERTEX
  8
PLAN_1
 62
     2
  6
CONTINUOUS
 10
0.065504
 20
4.039043
  0
SEQEND
  8
0
  0
SOLID
  8
PLAN_1
 62
     2
 10
-1.861803
 20
4.039043
 11
-1.802807
 21
4.054949
 12
-1.861803
 22
4.039043
 13
-1.802807
 23
4.023654
  0
POLYLINE
  8
PLAN_1
 62
     2
  6
CONTINUOUS
 66
     1
 40
0.003000
 41
0.003000
  0
VERTEX
  8
PLAN_1
 62
     2
  6
CONTINUOUS
 10
-1.861803
 20
4.039043
  0
VERTEX
  8
PLAN_1
 62
     2
  6
CONTINUOUS
 10
-1.802807
 20
4.054949
  0
VERTEX
  8
PLAN_1
 62
     2
  6
CONTINUOUS
 10
-1.802807
 20
4.023654
  0
VERTEX
  8
PLAN_1
 62
     2
  6
CONTINUOUS
 10
-1.861803
 20
4.039043
  0
SEQEND
  8
0
  0
POLYLINE
  8
PLAN_1
 62
     2
  6
CONTINUOUS
 66
     1
 40
0.003000
 41
0.003000
  0
VERTEX
  8
PLAN_1
 62
     2
  6
CONTINUOUS
 10
-0.912256
 20
4.080598
  0
VERTEX
  8
PLAN_1
 62
     2
  6
CONTINUOUS
 10
-0.912256
 20
4.062642
  0
VERTEX
  8
PLAN_1
 62
     2
  6
CONTINUOUS
 10
-0.921488
 20
4.062642
  0
VERTEX
  8
PLAN_1
 62
     2
  6
CONTINUOUS
 10
-0.921488
 20
4.080598
  0
VERTEX
  8
PLAN_1
 62
     2
  6
CONTINUOUS
 10
-0.953295
 20
4.080598
  0
VERTEX
  8
PLAN_1
 62
     2
  6
CONTINUOUS
 10
-0.953295
 20
4.089831
  0
VERTEX
  8
PLAN_1
 62
     2
  6
CONTINUOUS
 10
-0.919949
 20
4.136000
  0
VERTEX
  8
PLAN_1
 62
     2
  6
CONTINUOUS
 10
-0.912256
 20
4.136000
  0
VERTEX
  8
PLAN_1
 62
     2
  6
CONTINUOUS
 10
-0.912256
 20
4.088803
  0
VERTEX
  8
PLAN_1
 62
     2
  6
CONTINUOUS
 10
-0.901484
 20
4.088803
  0
VERTEX
  8
PLAN_1
 62
     2
  6
CONTINUOUS
 10
-0.901484
 20
4.080598
  0
VERTEX
  8
PLAN_1
 62
     2
  6
CONTINUOUS
 10
-0.912256
 20
4.080598
  0
SEQEND
  8
0
  0
SOLID
  8
PLAN_1
 62
     2
 10
-0.945087
 20
4.088803
 11
-0.921488
 21
4.088803
 12
-0.945087
 22
4.088803
 13
-0.921488
 23
4.121638
  0
POLYLINE
  8
PLAN_1
 62
     2
  6
CONTINUOUS
 66
     1
 40
0.003000
 41
0.003000
  0
VERTEX
  8
PLAN_1
 62
     2
  6
CONTINUOUS
 10
-0.945087
 20
4.088803
  0
VERTEX
  8
PLAN_1
 62
     2
  6
CONTINUOUS
 10
-0.921488
 20
4.088803
  0
VERTEX
  8
PLAN_1
 62
     2
  6
CONTINUOUS
 10
-0.921488
 20
4.121638
  0
VERTEX
  8
PLAN_1
 62
     2
  6
CONTINUOUS
 10
-0.945087
 20
4.088803
  0
SEQEND
  8
0
  0
POLYLINE
  8
PLAN_1
 62
     2
  6
CONTINUOUS
 66
     1
 40
0.003000
 41
0.003000
  0
VERTEX
  8
PLAN_1
 62
     2
  6
CONTINUOUS
 10
-0.893787
 20
4.110862
  0
VERTEX
  8
PLAN_1
 62
     2
  6
CONTINUOUS
 10
-0.893276
 20
4.115992
  0
VERTEX
  8
PLAN_1
 62
     2
  6
CONTINUOUS
 10
-0.892248
 20
4.120610
  0
VERTEX
  8
PLAN_1
 62
     2
  6
CONTINUOUS
 10
-0.890197
 20
4.124713
  0
VERTEX
  8
PLAN_1
 62
     2
  6
CONTINUOUS
 10
-0.887634
 20
4.128307
  0
VERTEX
  8
PLAN_1
 62
     2
  6
CONTINUOUS
 10
-0.884555
 20
4.131382
  0
VERTEX
  8
PLAN_1
 62
     2
  6
CONTINUOUS
 10
-0.880449
 20
4.133949
  0
VERTEX
  8
PLAN_1
 62
     2
  6
CONTINUOUS
 10
-0.878398
 20
4.134972
  0
VERTEX
  8
PLAN_1
 62
     2
  6
CONTINUOUS
 10
-0.875835
 20
4.135488
  0
VERTEX
  8
PLAN_1
 62
     2
  6
CONTINUOUS
 10
-0.873268
 20
4.136000
  0
VERTEX
  8
PLAN_1
 62
     2
  6
CONTINUOUS
 10
-0.870189
 20
4.136000
  0
VERTEX
  8
PLAN_1
 62
     2
  6
CONTINUOUS
 10
-0.866087
 20
4.136000
  0
VERTEX
  8
PLAN_1
 62
     2
  6
CONTINUOUS
 10
-0.862496
 20
4.134972
  0
VERTEX
  8
PLAN_1
 62
     2
  6
CONTINUOUS
 10
-0.859417
 20
4.133949
  0
VERTEX
  8
PLAN_1
 62
     2
  6
CONTINUOUS
 10
-0.856339
 20
4.132409
  0
VERTEX
  8
PLAN_1
 62
     2
  6
CONTINUOUS
 10
-0.854287
 20
4.130358
  0
VERTEX
  8
PLAN_1
 62
     2
  6
CONTINUOUS
 10
-0.851724
 20
4.128307
  0
VERTEX
  8
PLAN_1
 62
     2
  6
CONTINUOUS
 10
-0.850185
 20
4.126252
  0
VERTEX
  8
PLAN_1
 62
     2
  6
CONTINUOUS
 10
-0.848646
 20
4.123689
  0
VERTEX
  8
PLAN_1
 62
     2
  6
CONTINUOUS
 10
-0.846594
 20
4.118047
  0
VERTEX
  8
PLAN_1
 62
     2
  6
CONTINUOUS
 10
-0.845567
 20
4.112402
  0
VERTEX
  8
PLAN_1
 62
     2
  6
CONTINUOUS
 10
-0.845055
 20
4.106760
  0
VERTEX
  8
PLAN_1
 62
     2
  6
CONTINUOUS
 10
-0.844539
 20
4.102142
  0
VERTEX
  8
PLAN_1
 62
     2
  6
CONTINUOUS
 10
-0.845055
 20
4.098039
  0
VERTEX
  8
PLAN_1
 62
     2
  6
CONTINUOUS
 10
-0.845055
 20
4.092398
  0
VERTEX
  8
PLAN_1
 62
     2
  6
CONTINUOUS
 10
-0.846594
 20
4.085728
  0
VERTEX
  8
PLAN_1
 62
     2
  6
CONTINUOUS
 10
-0.848646
 20
4.078543
  0
VERTEX
  8
PLAN_1
 62
     2
  6
CONTINUOUS
 10
-0.850185
 20
4.074953
  0
VERTEX
  8
PLAN_1
 62
     2
  6
CONTINUOUS
 10
-0.851724
 20
4.071878
  0
VERTEX
  8
PLAN_1
 62
     2
  6
CONTINUOUS
 10
-0.853776
 20
4.068799
  0
VERTEX
  8
PLAN_1
 62
     2
  6
CONTINUOUS
 10
-0.856339
 20
4.066232
  0
VERTEX
  8
PLAN_1
 62
     2
  6
CONTINUOUS
 10
-0.859417
 20
4.064181
  0
VERTEX
  8
PLAN_1
 62
     2
  6
CONTINUOUS
 10
-0.863008
 20
4.062130
  0
VERTEX
  8
PLAN_1
 62
     2
  6
CONTINUOUS
 10
-0.866598
 20
4.061102
  0
VERTEX
  8
PLAN_1
 62
     2
  6
CONTINUOUS
 10
-0.871217
 20
4.061102
  0
VERTEX
  8
PLAN_1
 62
     2
  6
CONTINUOUS
 10
-0.874295
 20
4.061102
  0
VERTEX
  8
PLAN_1
 62
     2
  6
CONTINUOUS
 10
-0.876858
 20
4.061618
  0
VERTEX
  8
PLAN_1
 62
     2
  6
CONTINUOUS
 10
-0.879425
 20
4.062130
  0
VERTEX
  8
PLAN_1
 62
     2
  6
CONTINUOUS
 10
-0.881988
 20
4.063154
  0
VERTEX
  8
PLAN_1
 62
     2
  6
CONTINUOUS
 10
-0.885579
 20
4.065209
  0
VERTEX
  8
PLAN_1
 62
     2
  6
CONTINUOUS
 10
-0.888657
 20
4.068283
  0
VERTEX
  8
PLAN_1
 62
     2
  6
CONTINUOUS
 10
-0.890709
 20
4.071362
  0
VERTEX
  8
PLAN_1
 62
     2
  6
CONTINUOUS
 10
-0.891736
 20
4.074441
  0
VERTEX
  8
PLAN_1
 62
     2
  6
CONTINUOUS
 10
-0.892764
 20
4.077520
  0
VERTEX
  8
PLAN_1
 62
     2
  6
CONTINUOUS
 10
-0.892764
 20
4.080598
  0
VERTEX
  8
PLAN_1
 62
     2
  6
CONTINUOUS
 10
-0.884039
 20
4.080598
  0
VERTEX
  8
PLAN_1
 62
     2
  6
CONTINUOUS
 10
-0.883528
 20
4.078031
  0
VERTEX
  8
PLAN_1
 62
     2
  6
CONTINUOUS
 10
-0.882504
 20
4.075469
  0
VERTEX
  8
PLAN_1
 62
     2
  6
CONTINUOUS
 10
-0.881476
 20
4.073413
  0
VERTEX
  8
PLAN_1
 62
     2
  6
CONTINUOUS
 10
-0.880449
 20
4.071878
  0
VERTEX
  8
PLAN_1
 62
     2
  6
CONTINUOUS
 10
-0.878398
 20
4.070339
  0
VERTEX
  8
PLAN_1
 62
     2
  6
CONTINUOUS
 10
-0.876346
 20
4.069311
  0
VERTEX
  8
PLAN_1
 62
     2
  6
CONTINUOUS
 10
-0.874295
 20
4.068799
  0
VERTEX
  8
PLAN_1
 62
     2
  6
CONTINUOUS
 10
-0.871217
 20
4.068283
  0
VERTEX
  8
PLAN_1
 62
     2
  6
CONTINUOUS
 10
-0.868138
 20
4.068799
  0
VERTEX
  8
PLAN_1
 62
     2
  6
CONTINUOUS
 10
-0.864547
 20
4.070339
  0
VERTEX
  8
PLAN_1
 62
     2
  6
CONTINUOUS
 10
-0.861984
 20
4.072390
  0
VERTEX
  8
PLAN_1
 62
     2
  6
CONTINUOUS
 10
-0.859929
 20
4.074953
  0
VERTEX
  8
PLAN_1
 62
     2
  6
CONTINUOUS
 10
-0.857878
 20
4.079059
  0
VERTEX
  8
PLAN_1
 62
     2
  6
CONTINUOUS
 10
-0.856339
 20
4.083673
  0
VERTEX
  8
PLAN_1
 62
     2
  6
CONTINUOUS
 10
-0.854799
 20
4.089319
  0
VERTEX
  8
PLAN_1
 62
     2
  6
CONTINUOUS
 10
-0.853776
 20
4.095988
  0
VERTEX
  8
PLAN_1
 62
     2
  6
CONTINUOUS
 10
-0.854287
 20
4.095988
  0
VERTEX
  8
PLAN_1
 62
     2
  6
CONTINUOUS
 10
-0.855315
 20
4.093933
  0
VERTEX
  8
PLAN_1
 62
     2
  6
CONTINUOUS
 10
-0.856854
 20
4.092398
  0
VERTEX
  8
PLAN_1
 62
     2
  6
CONTINUOUS
 10
-0.858906
 20
4.090858
  0
VERTEX
  8
PLAN_1
 62
     2
  6
CONTINUOUS
 10
-0.860957
 20
4.089831
  0
VERTEX
  8
PLAN_1
 62
     2
  6
CONTINUOUS
 10
-0.863008
 20
4.088803
  0
VERTEX
  8
PLAN_1
 62
     2
  6
CONTINUOUS
 10
-0.865575
 20
4.087780
  0
VERTEX
  8
PLAN_1
 62
     2
  6
CONTINUOUS
 10
-0.868138
 20
4.087268
  0
VERTEX
  8
PLAN_1
 62
     2
  6
CONTINUOUS
 10
-0.870705
 20
4.087268
  0
VERTEX
  8
PLAN_1
 62
     2
  6
CONTINUOUS
 10
-0.875835
 20
4.087780
  0
VERTEX
  8
PLAN_1
 62
     2
  6
CONTINUOUS
 10
-0.879937
 20
4.088803
  0
VERTEX
  8
PLAN_1
 62
     2
  6
CONTINUOUS
 10
-0.884039
 20
4.090858
  0
VERTEX
  8
PLAN_1
 62
     2
  6
CONTINUOUS
 10
-0.887118
 20
4.093421
  0
VERTEX
  8
PLAN_1
 62
     2
  6
CONTINUOUS
 10
-0.890197
 20
4.097012
  0
VERTEX
  8
PLAN_1
 62
     2
  6
CONTINUOUS
 10
-0.892248
 20
4.101118
  0
VERTEX
  8
PLAN_1
 62
     2
  6
CONTINUOUS
 10
-0.893276
 20
4.105732
  0
VERTEX
  8
PLAN_1
 62
     2
  6
CONTINUOUS
 10
-0.893787
 20
4.110862
  0
SEQEND
  8
0
  0
POLYLINE
  8
PLAN_1
 62
     2
  6
CONTINUOUS
 66
     1
 40
0.003000
 41
0.003000
  0
VERTEX
  8
PLAN_1
 62
     2
  6
CONTINUOUS
 10
-0.855315
 20
4.112402
  0
VERTEX
  8
PLAN_1
 62
     2
  6
CONTINUOUS
 10
-0.855827
 20
4.115480
  0
VERTEX
  8
PLAN_1
 62
     2
  6
CONTINUOUS
 10
-0.856339
 20
4.118047
  0
VERTEX
  8
PLAN_1
 62
     2
  6
CONTINUOUS
 10
-0.857366
 20
4.120610
  0
VERTEX
  8
PLAN_1
 62
     2
  6
CONTINUOUS
 10
-0.858906
 20
4.123177
  0
VERTEX
  8
PLAN_1
 62
     2
  6
CONTINUOUS
 10
-0.860957
 20
4.125228
  0
VERTEX
  8
PLAN_1
 62
     2
  6
CONTINUOUS
 10
-0.863520
 20
4.126768
  0
VERTEX
  8
PLAN_1
 62
     2
  6
CONTINUOUS
 10
-0.866598
 20
4.127280
  0
VERTEX
  8
PLAN_1
 62
     2
  6
CONTINUOUS
 10
-0.870189
 20
4.127791
  0
VERTEX
  8
PLAN_1
 62
     2
  6
CONTINUOUS
 10
-0.873268
 20
4.127280
  0
VERTEX
  8
PLAN_1
 62
     2
  6
CONTINUOUS
 10
-0.875835
 20
4.126768
  0
VERTEX
  8
PLAN_1
 62
     2
  6
CONTINUOUS
 10
-0.878398
 20
4.125228
  0
VERTEX
  8
PLAN_1
 62
     2
  6
CONTINUOUS
 10
-0.880449
 20
4.123177
  0
VERTEX
  8
PLAN_1
 62
     2
  6
CONTINUOUS
 10
-0.881988
 20
4.120610
  0
VERTEX
  8
PLAN_1
 62
     2
  6
CONTINUOUS
 10
-0.883528
 20
4.118047
  0
VERTEX
  8
PLAN_1
 62
     2
  6
CONTINUOUS
 10
-0.884039
 20
4.114969
  0
VERTEX
  8
PLAN_1
 62
     2
  6
CONTINUOUS
 10
-0.884555
 20
4.111378
  0
VERTEX
  8
PLAN_1
 62
     2
  6
CONTINUOUS
 10
-0.884039
 20
4.106760
  0
VERTEX
  8
PLAN_1
 62
     2
  6
CONTINUOUS
 10
-0.883016
 20
4.103169
  0
VERTEX
  8
PLAN_1
 62
     2
  6
CONTINUOUS
 10
-0.881476
 20
4.100091
  0
VERTEX
  8
PLAN_1
 62
     2
  6
CONTINUOUS
 10
-0.879425
 20
4.098039
  0
VERTEX
  8
PLAN_1
 62
     2
  6
CONTINUOUS
 10
-0.876858
 20
4.097012
  0
VERTEX
  8
PLAN_1
 62
     2
  6
CONTINUOUS
 10
-0.874295
 20
4.095988
  0
VERTEX
  8
PLAN_1
 62
     2
  6
CONTINUOUS
 10
-0.871728
 20
4.095472
  0
VERTEX
  8
PLAN_1
 62
     2
  6
CONTINUOUS
 10
-0.869677
 20
4.095472
  0
VERTEX
  8
PLAN_1
 62
     2
  6
CONTINUOUS
 10
-0.867626
 20
4.095472
  0
VERTEX
  8
PLAN_1
 62
     2
  6
CONTINUOUS
 10
-0.865059
 20
4.095988
  0
VERTEX
  8
PLAN_1
 62
     2
  6
CONTINUOUS
 10
-0.863008
 20
4.097012
  0
VERTEX
  8
PLAN_1
 62
     2
  6
CONTINUOUS
 10
-0.860445
 20
4.098551
  0
VERTEX
  8
PLAN_1
 62
     2
  6
CONTINUOUS
 10
-0.858390
 20
4.100602
  0
VERTEX
  8
PLAN_1
 62
     2
  6
CONTINUOUS
 10
-0.856854
 20
4.103681
  0
VERTEX
  8
PLAN_1
 62
     2
  6
CONTINUOUS
 10
-0.855827
 20
4.107272
  0
VERTEX
  8
PLAN_1
 62
     2
  6
CONTINUOUS
 10
-0.855315
 20
4.112402
  0
SEQEND
  8
0
  0
POLYLINE
  8
PLAN_1
 62
     2
  6
CONTINUOUS
 66
     1
 40
0.004102
 41
0.004102
  0
VERTEX
  8
PLAN_1
 62
     2
  6
CONTINUOUS
 10
-2.270142
 20
-1.129850
  0
VERTEX
  8
PLAN_1
 62
     2
  6
CONTINUOUS
 10
0.036264
 20
-1.129850
  0
SEQEND
  8
0
  0
SOLID
  8
PLAN_1
 62
     2
 10
0.065504
 20
-1.129850
 11
0.006512
 21
-1.113949
 12
0.065504
 22
-1.129850
 13
0.006512
 23
-1.145240
  0
POLYLINE
  8
PLAN_1
 62
     2
  6
CONTINUOUS
 66
     1
 40
0.003000
 41
0.003000
  0
VERTEX
  8
PLAN_1
 62
     2
  6
CONTINUOUS
 10
0.065504
 20
-1.129850
  0
VERTEX
  8
PLAN_1
 62
     2
  6
CONTINUOUS
 10
0.006512
 20
-1.113949
  0
VERTEX
  8
PLAN_1
 62
     2
  6
CONTINUOUS
 10
0.006512
 20
-1.145240
  0
VERTEX
  8
PLAN_1
 62
     2
  6
CONTINUOUS
 10
0.065504
 20
-1.129850
  0
SEQEND
  8
0
  0
SOLID
  8
PLAN_1
 62
     2
 10
-2.299898
 20
-1.129850
 11
-2.240902
 21
-1.113949
 12
-2.299898
 22
-1.129850
 13
-2.240902
 23
-1.145240
  0
POLYLINE
  8
PLAN_1
 62
     2
  6
CONTINUOUS
 66
     1
 40
0.003000
 41
0.003000
  0
VERTEX
  8
PLAN_1
 62
     2
  6
CONTINUOUS
 10
-2.299898
 20
-1.129850
  0
VERTEX
  8
PLAN_1
 62
     2
  6
CONTINUOUS
 10
-2.240902
 20
-1.113949
  0
VERTEX
  8
PLAN_1
 62
     2
  6
CONTINUOUS
 10
-2.240902
 20
-1.145240
  0
VERTEX
  8
PLAN_1
 62
     2
  6
CONTINUOUS
 10
-2.299898
 20
-1.129850
  0
SEQEND
  8
0
  0
POLYLINE
  8
PLAN_1
 62
     2
  6
CONTINUOUS
 66
     1
 40
0.003000
 41
0.003000
  0
VERTEX
  8
PLAN_1
 62
     2
  6
CONTINUOUS
 10
-1.159516
 20
-1.063677
  0
VERTEX
  8
PLAN_1
 62
     2
  6
CONTINUOUS
 10
-1.158492
 20
-1.062650
  0
VERTEX
  8
PLAN_1
 62
     2
  6
CONTINUOUS
 10
-1.156953
 20
-1.061626
  0
VERTEX
  8
PLAN_1
 62
     2
  6
CONTINUOUS
 10
-1.155413
 20
-1.061110
  0
VERTEX
  8
PLAN_1
 62
     2
  6
CONTINUOUS
 10
-1.153874
 20
-1.060598
  0
VERTEX
  8
PLAN_1
 62
     2
  6
CONTINUOUS
 10
-1.151823
 20
-1.059571
  0
VERTEX
  8
PLAN_1
 62
     2
  6
CONTINUOUS
 10
-1.149772
 20
-1.059571
  0
VERTEX
  8
PLAN_1
 62
     2
  6
CONTINUOUS
 10
-1.147717
 20
-1.059059
  0
VERTEX
  8
PLAN_1
 62
     2
  6
CONTINUOUS
 10
-1.145665
 20
-1.059059
  0
VERTEX
  8
PLAN_1
 62
     2
  6
CONTINUOUS
 10
-1.141051
 20
-1.059571
  0
VERTEX
  8
PLAN_1
 62
     2
  6
CONTINUOUS
 10
-1.136945
 20
-1.060598
  0
VERTEX
  8
PLAN_1
 62
     2
  6
CONTINUOUS
 10
-1.132843
 20
-1.062650
  0
VERTEX
  8
PLAN_1
 62
     2
  6
CONTINUOUS
 10
-1.129252
 20
-1.065217
  0
VERTEX
  8
PLAN_1
 62
     2
  6
CONTINUOUS
 10
-1.126173
 20
-1.068291
  0
VERTEX
  8
PLAN_1
 62
     2
  6
CONTINUOUS
 10
-1.123606
 20
-1.072398
  0
VERTEX
  8
PLAN_1
 62
     2
  6
CONTINUOUS
 10
-1.122583
 20
-1.074449
  0
VERTEX
  8
PLAN_1
 62
     2
  6
CONTINUOUS
 10
-1.122067
 20
-1.077016
  0
VERTEX
  8
PLAN_1
 62
     2
  6
CONTINUOUS
 10
-1.121555
 20
-1.079579
  0
VERTEX
  8
PLAN_1
 62
     2
  6
CONTINUOUS
 10
-1.121555
 20
-1.082146
  0
VERTEX
  8
PLAN_1
 62
     2
  6
CONTINUOUS
 10
-1.121555
 20
-1.085736
  0
VERTEX
  8
PLAN_1
 62
     2
  6
CONTINUOUS
 10
-1.122583
 20
-1.089839
  0
VERTEX
  8
PLAN_1
 62
     2
  6
CONTINUOUS
 10
-1.123606
 20
-1.093941
  0
VERTEX
  8
PLAN_1
 62
     2
  6
CONTINUOUS
 10
-1.126173
 20
-1.098047
  0
VERTEX
  8
PLAN_1
 62
     2
  6
CONTINUOUS
 10
-1.127713
 20
-1.100098
  0
VERTEX
  8
PLAN_1
 62
     2
  6
CONTINUOUS
 10
-1.129764
 20
-1.102150
  0
VERTEX
  8
PLAN_1
 62
     2
  6
CONTINUOUS
 10
-1.131815
 20
-1.103689
  0
VERTEX
  8
PLAN_1
 62
     2
  6
CONTINUOUS
 10
-1.134382
 20
-1.105228
  0
VERTEX
  8
PLAN_1
 62
     2
  6
CONTINUOUS
 10
-1.136945
 20
-1.106256
  0
VERTEX
  8
PLAN_1
 62
     2
  6
CONTINUOUS
 10
-1.140024
 20
-1.107280
  0
VERTEX
  8
PLAN_1
 62
     2
  6
CONTINUOUS
 10
-1.144126
 20
-1.107795
  0
VERTEX
  8
PLAN_1
 62
     2
  6
CONTINUOUS
 10
-1.147717
 20
-1.108307
  0
VERTEX
  8
PLAN_1
 62
     2
  6
CONTINUOUS
 10
-1.151823
 20
-1.107795
  0
VERTEX
  8
PLAN_1
 62
     2
  6
CONTINUOUS
 10
-1.155413
 20
-1.107280
  0
VERTEX
  8
PLAN_1
 62
     2
  6
CONTINUOUS
 10
-1.159004
 20
-1.106256
  0
VERTEX
  8
PLAN_1
 62
     2
  6
CONTINUOUS
 10
-1.162594
 20
-1.104201
  0
VERTEX
  8
PLAN_1
 62
     2
  6
CONTINUOUS
 10
-1.165673
 20
-1.101638
  0
VERTEX
  8
PLAN_1
 62
     2
  6
CONTINUOUS
 10
-1.168236
 20
-1.098047
  0
VERTEX
  8
PLAN_1
 62
     2
  6
CONTINUOUS
 10
-1.169776
 20
-1.095996
  0
VERTEX
  8
PLAN_1
 62
     2
  6
CONTINUOUS
 10
-1.170291
 20
-1.093429
  0
VERTEX
  8
PLAN_1
 62
     2
  6
CONTINUOUS
 10
-1.171315
 20
-1.090866
  0
VERTEX
  8
PLAN_1
 62
     2
  6
CONTINUOUS
 10
-1.171315
 20
-1.087787
  0
VERTEX
  8
PLAN_1
 62
     2
  6
CONTINUOUS
 10
-1.162083
 20
-1.087787
  0
VERTEX
  8
PLAN_1
 62
     2
  6
CONTINUOUS
 10
-1.161571
 20
-1.090866
  0
VERTEX
  8
PLAN_1
 62
     2
  6
CONTINUOUS
 10
-1.160543
 20
-1.093429
  0
VERTEX
  8
PLAN_1
 62
     2
  6
CONTINUOUS
 10
-1.159004
 20
-1.095480
  0
VERTEX
  8
PLAN_1
 62
     2
  6
CONTINUOUS
 10
-1.156953
 20
-1.097020
  0
VERTEX
  8
PLAN_1
 62
     2
  6
CONTINUOUS
 10
-1.154902
 20
-1.098559
  0
VERTEX
  8
PLAN_1
 62
     2
  6
CONTINUOUS
 10
-1.152335
 20
-1.099587
  0
VERTEX
  8
PLAN_1
 62
     2
  6
CONTINUOUS
 10
-1.149772
 20
-1.100098
  0
VERTEX
  8
PLAN_1
 62
     2
  6
CONTINUOUS
 10
-1.146693
 20
-1.100098
  0
VERTEX
  8
PLAN_1
 62
     2
  6
CONTINUOUS
 10
-1.143102
 20
-1.099587
  0
VERTEX
  8
PLAN_1
 62
     2
  6
CONTINUOUS
 10
-1.140024
 20
-1.099071
  0
VERTEX
  8
PLAN_1
 62
     2
  6
CONTINUOUS
 10
-1.137457
 20
-1.097535
  0
VERTEX
  8
PLAN_1
 62
     2
  6
CONTINUOUS
 10
-1.135406
 20
-1.095480
  0
VERTEX
  8
PLAN_1
 62
     2
  6
CONTINUOUS
 10
-1.133354
 20
-1.092917
  0
VERTEX
  8
PLAN_1
 62
     2
  6
CONTINUOUS
 10
-1.132327
 20
-1.089839
  0
VERTEX
  8
PLAN_1
 62
     2
  6
CONTINUOUS
 10
-1.131303
 20
-1.086760
  0
VERTEX
  8
PLAN_1
 62
     2
  6
CONTINUOUS
 10
-1.131303
 20
-1.083169
  0
VERTEX
  8
PLAN_1
 62
     2
  6
CONTINUOUS
 10
-1.131303
 20
-1.079579
  0
VERTEX
  8
PLAN_1
 62
     2
  6
CONTINUOUS
 10
-1.132327
 20
-1.076500
  0
VERTEX
  8
PLAN_1
 62
     2
  6
CONTINUOUS
 10
-1.133866
 20
-1.073421
  0
VERTEX
  8
PLAN_1
 62
     2
  6
CONTINUOUS
 10
-1.135921
 20
-1.071370
  0
VERTEX
  8
PLAN_1
 62
     2
  6
CONTINUOUS
 10
-1.138484
 20
-1.069319
  0
VERTEX
  8
PLAN_1
 62
     2
  6
CONTINUOUS
 10
-1.141051
 20
-1.068291
  0
VERTEX
  8
PLAN_1
 62
     2
  6
CONTINUOUS
 10
-1.144126
 20
-1.067268
  0
VERTEX
  8
PLAN_1
 62
     2
  6
CONTINUOUS
 10
-1.147205
 20
-1.067268
  0
VERTEX
  8
PLAN_1
 62
     2
  6
CONTINUOUS
 10
-1.149256
 20
-1.067268
  0
VERTEX
  8
PLAN_1
 62
     2
  6
CONTINUOUS
 10
-1.151311
 20
-1.067780
  0
VERTEX
  8
PLAN_1
 62
     2
  6
CONTINUOUS
 10
-1.153362
 20
-1.068291
  0
VERTEX
  8
PLAN_1
 62
     2
  6
CONTINUOUS
 10
-1.154902
 20
-1.068807
  0
VERTEX
  8
PLAN_1
 62
     2
  6
CONTINUOUS
 10
-1.156441
 20
-1.069831
  0
VERTEX
  8
PLAN_1
 62
     2
  6
CONTINUOUS
 10
-1.157976
 20
-1.071370
  0
VERTEX
  8
PLAN_1
 62
     2
  6
CONTINUOUS
 10
-1.159516
 20
-1.072398
  0
VERTEX
  8
PLAN_1
 62
     2
  6
CONTINUOUS
 10
-1.161055
 20
-1.073937
  0
VERTEX
  8
PLAN_1
 62
     2
  6
CONTINUOUS
 10
-1.168752
 20
-1.073937
  0
VERTEX
  8
PLAN_1
 62
     2
  6
CONTINUOUS
 10
-1.163106
 20
-1.034437
  0
VERTEX
  8
PLAN_1
 62
     2
  6
CONTINUOUS
 10
-1.125661
 20
-1.034437
  0
VERTEX
  8
PLAN_1
 62
     2
  6
CONTINUOUS
 10
-1.125661
 20
-1.043669
  0
VERTEX
  8
PLAN_1
 62
     2
  6
CONTINUOUS
 10
-1.156441
 20
-1.043669
  0
VERTEX
  8
PLAN_1
 62
     2
  6
CONTINUOUS
 10
-1.159516
 20
-1.063677
  0
SEQEND
  8
0
  0
POLYLINE
  8
PLAN_1
 62
     2
  6
CONTINUOUS
 66
     1
 40
0.003000
 41
0.003000
  0
VERTEX
  8
PLAN_1
 62
     2
  6
CONTINUOUS
 10
-1.113346
 20
-1.034437
  0
VERTEX
  8
PLAN_1
 62
     2
  6
CONTINUOUS
 10
-1.062563
 20
-1.034437
  0
VERTEX
  8
PLAN_1
 62
     2
  6
CONTINUOUS
 10
-1.062563
 20
-1.042642
  0
VERTEX
  8
PLAN_1
 62
     2
  6
CONTINUOUS
 10
-1.065642
 20
-1.046236
  0
VERTEX
  8
PLAN_1
 62
     2
  6
CONTINUOUS
 10
-1.069744
 20
-1.050850
  0
VERTEX
  8
PLAN_1
 62
     2
  6
CONTINUOUS
 10
-1.073846
 20
-1.057520
  0
VERTEX
  8
PLAN_1
 62
     2
  6
CONTINUOUS
 10
-1.078465
 20
-1.064701
  0
VERTEX
  8
PLAN_1
 62
     2
  6
CONTINUOUS
 10
-1.082567
 20
-1.073421
  0
VERTEX
  8
PLAN_1
 62
     2
  6
CONTINUOUS
 10
-1.086673
 20
-1.083681
  0
VERTEX
  8
PLAN_1
 62
     2
  6
CONTINUOUS
 10
-1.088724
 20
-1.088811
  0
VERTEX
  8
PLAN_1
 62
     2
  6
CONTINUOUS
 10
-1.090264
 20
-1.094457
  0
VERTEX
  8
PLAN_1
 62
     2
  6
CONTINUOUS
 10
-1.091803
 20
-1.100098
  0
VERTEX
  8
PLAN_1
 62
     2
  6
CONTINUOUS
 10
-1.092827
 20
-1.106256
  0
VERTEX
  8
PLAN_1
 62
     2
  6
CONTINUOUS
 10
-1.102575
 20
-1.106256
  0
VERTEX
  8
PLAN_1
 62
     2
  6
CONTINUOUS
 10
-1.101551
 20
-1.098559
  0
VERTEX
  8
PLAN_1
 62
     2
  6
CONTINUOUS
 10
-1.098984
 20
-1.090350
  0
VERTEX
  8
PLAN_1
 62
     2
  6
CONTINUOUS
 10
-1.095906
 20
-1.081630
  0
VERTEX
  8
PLAN_1
 62
     2
  6
CONTINUOUS
 10
-1.092315
 20
-1.073421
  0
VERTEX
  8
PLAN_1
 62
     2
  6
CONTINUOUS
 10
-1.087697
 20
-1.065217
  0
VERTEX
  8
PLAN_1
 62
     2
  6
CONTINUOUS
 10
-1.083083
 20
-1.057520
  0
VERTEX
  8
PLAN_1
 62
     2
  6
CONTINUOUS
 10
-1.077953
 20
-1.049827
  0
VERTEX
  8
PLAN_1
 62
     2
  6
CONTINUOUS
 10
-1.072823
 20
-1.043669
  0
VERTEX
  8
PLAN_1
 62
     2
  6
CONTINUOUS
 10
-1.113346
 20
-1.043669
  0
VERTEX
  8
PLAN_1
 62
     2
  6
CONTINUOUS
 10
-1.113346
 20
-1.034437
  0
SEQEND
  8
0
  0
POLYLINE
  8
PLAN_1
 62
     2
  6
CONTINUOUS
 66
     1
 40
0.004102
 41
0.004102
  0
VERTEX
  8
PLAN_1
 62
     2
  6
CONTINUOUS
 10
-1.861803
 20
3.985181
  0
VERTEX
  8
PLAN_1
 62
     2
  6
CONTINUOUS
 10
-1.861803
 20
4.062642
  0
SEQEND
  8
0
  0
POLYLINE
  8
PLAN_1
 62
     2
  6
CONTINUOUS
 66
     1
 40
0.004102
 41
0.004102
  0
VERTEX
  8
PLAN_1
 62
     2
  6
CONTINUOUS
 10
0.065504
 20
-0.000760
  0
VERTEX
  8
PLAN_1
 62
     2
  6
CONTINUOUS
 10
0.065504
 20
4.073413
  0
SEQEND
  8
0
  0
POLYLINE
  8
PLAN_1
 62
     2
  6
CONTINUOUS
 66
     1
 40
0.004102
 41
0.004102
  0
VERTEX
  8
PLAN_1
 62
     2
  6
CONTINUOUS
 10
0.066531
 20
-0.846169
  0
VERTEX
  8
PLAN_1
 62
     2
  6
CONTINUOUS
 10
0.065504
 20
-1.153449
  0
SEQEND
  8
0
  0
POLYLINE
  8
PLAN_1
 62
     2
  6
CONTINUOUS
 66
     1
 40
0.004102
 41
0.004102
  0
VERTEX
  8
PLAN_1
 62
     2
  6
CONTINUOUS
 10
-2.299898
 20
0.475295
  0
VERTEX
  8
PLAN_1
 62
     2
  6
CONTINUOUS
 10
-2.299898
 20
-1.153449
  0
SEQEND
  8
0
  0
ENDSEC
  0
EOF
