  0
SECTION
  2
HEADER
  9
$ACADVER
  1
AC1018
  9
$ACADMAINTVER
 70
    77
  9
$DWGCODEPAGE
  3
ANSI_1252
  9
$INSBASE
 10
0.0
 20
0.0
 30
0.0
  9
$EXTMIN
 10
229.4025611741016
 20
93.99610832982878
 30
0.0
  9
$EXTMAX
 10
272.0525615540472
 20
122.4961504213119
 30
0.0
  9
$LIMMIN
 10
0.0
 20
0.0
  9
$LIMMAX
 10
420.0
 20
297.0
  9
$ORTHOMODE
 70
     0
  9
$REGENMODE
 70
     1
  9
$FILLMODE
 70
     1
  9
$QTEXTMODE
 70
     0
  9
$MIRRTEXT
 70
     1
  9
$LTSCALE
 40
1.0
  9
$ATTMODE
 70
     1
  9
$TEXTSIZE
 40
2.5
  9
$TRACEWID
 40
1.0
  9
$TEXTSTYLE
  7
Standard
  9
$CLAYER
  8
0
  9
$CELTYPE
  6
ByLayer
  9
$CECOLOR
 62
   256
  9
$CELTSCALE
 40
1.0
  9
$DISPSILH
 70
     0
  9
$DIMSCALE
 40
1.0
  9
$DIMASZ
 40
6.0
  9
$DIMEXO
 40
1.0
  9
$DIMDLI
 40
3.75
  9
$DIMRND
 40
0.0
  9
$DIMDLE
 40
0.0
  9
$DIMEXE
 40
1.0
  9
$DIMTP
 40
0.0
  9
$DIMTM
 40
0.0
  9
$DIMTXT
 40
3.5
  9
$DIMCEN
 40
2.5
  9
$DIMTSZ
 40
0.0
  9
$DIMTOL
 70
     0
  9
$DIMLIM
 70
     0
  9
$DIMTIH
 70
     1
  9
$DIMTOH
 70
     1
  9
$DIMSE1
 70
     0
  9
$DIMSE2
 70
     0
  9
$DIMTAD
 70
     1
  9
$DIMZIN
 70
     0
  9
$DIMBLK
  1

  9
$DIMASO
 70
     1
  9
$DIMSHO
 70
     1
  9
$DIMPOST
  1

  9
$DIMAPOST
  1

  9
$DIMALT
 70
     0
  9
$DIMALTD
 70
     3
  9
$DIMALTF
 40
0.0394
  9
$DIMLFAC
 40
1.0
  9
$DIMTOFL
 70
     1
  9
$DIMTVP
 40
0.0
  9
$DIMTIX
 70
     0
  9
$DIMSOXD
 70
     0
  9
$DIMSAH
 70
     0
  9
$DIMBLK1
  1

  9
$DIMBLK2
  1

  9
$DIMSTYLE
  2
ISO-25
  9
$DIMCLRD
 70
     0
  9
$DIMCLRE
 70
     0
  9
$DIMCLRT
 70
     0
  9
$DIMTFAC
 40
1.0
  9
$DIMGAP
 40
1.524
  9
$DIMJUST
 70
     0
  9
$DIMSD1
 70
     0
  9
$DIMSD2
 70
     0
  9
$DIMTOLJ
 70
     0
  9
$DIMTZIN
 70
     0
  9
$DIMALTZ
 70
     0
  9
$DIMALTTZ
 70
     0
  9
$DIMUPT
 70
     0
  9
$DIMDEC
 70
     2
  9
$DIMTDEC
 70
     2
  9
$DIMALTU
 70
     2
  9
$DIMALTTD
 70
     3
  9
$DIMTXSTY
  7
Standard
  9
$DIMAUNIT
 70
     0
  9
$DIMADEC
 70
     0
  9
$DIMALTRND
 40
0.0
  9
$DIMAZIN
 70
     0
  9
$DIMDSEP
 70
    44
  9
$DIMATFIT
 70
     3
  9
$DIMFRAC
 70
     0
  9
$DIMLDRBLK
  1

  9
$DIMLUNIT
 70
     2
  9
$DIMLWD
 70
    -2
  9
$DIMLWE
 70
    -2
  9
$DIMTMOVE
 70
     0
  9
$LUNITS
 70
     2
  9
$LUPREC
 70
     2
  9
$SKETCHINC
 40
1.0
  9
$FILLETRAD
 40
10.0
  9
$AUNITS
 70
     0
  9
$AUPREC
 70
     0
  9
$MENU
  1
.
  9
$ELEVATION
 40
0.0
  9
$PELEVATION
 40
0.0
  9
$THICKNESS
 40
0.0
  9
$LIMCHECK
 70
     0
  9
$CHAMFERA
 40
10.0
  9
$CHAMFERB
 40
10.0
  9
$CHAMFERC
 40
20.0
  9
$CHAMFERD
 40
0.0
  9
$SKPOLY
 70
     0
  9
$TDCREATE
 40
2454502.631635370
  9
$TDUCREATE
 40
2454502.589968704
  9
$TDUPDATE
 40
2454515.425727894
  9
$TDUUPDATE
 40
2454515.384061227
  9
$TDINDWG
 40
0.0014760764
  9
$TDUSRTIMER
 40
0.0014760764
  9
$USRTIMER
 70
     1
  9
$ANGBASE
 50
0.0
  9
$ANGDIR
 70
     0
  9
$PDMODE
 70
     0
  9
$PDSIZE
 40
-1.0
  9
$PLINEWID
 40
0.0
  9
$SPLFRAME
 70
     0
  9
$SPLINETYPE
 70
     6
  9
$SPLINESEGS
 70
     8
  9
$HANDSEED
  5
66B
  9
$SURFTAB1
 70
     6
  9
$SURFTAB2
 70
     6
  9
$SURFTYPE
 70
     6
  9
$SURFU
 70
     6
  9
$SURFV
 70
     6
  9
$UCSBASE
  2

  9
$UCSNAME
  2

  9
$UCSORG
 10
0.0
 20
0.0
 30
0.0
  9
$UCSXDIR
 10
1.0
 20
0.0
 30
0.0
  9
$UCSYDIR
 10
0.0
 20
1.0
 30
0.0
  9
$UCSORTHOREF
  2

  9
$UCSORTHOVIEW
 70
     0
  9
$UCSORGTOP
 10
0.0
 20
0.0
 30
0.0
  9
$UCSORGBOTTOM
 10
0.0
 20
0.0
 30
0.0
  9
$UCSORGLEFT
 10
0.0
 20
0.0
 30
0.0
  9
$UCSORGRIGHT
 10
0.0
 20
0.0
 30
0.0
  9
$UCSORGFRONT
 10
0.0
 20
0.0
 30
0.0
  9
$UCSORGBACK
 10
0.0
 20
0.0
 30
0.0
  9
$PUCSBASE
  2

  9
$PUCSNAME
  2

  9
$PUCSORG
 10
0.0
 20
0.0
 30
0.0
  9
$PUCSXDIR
 10
1.0
 20
0.0
 30
0.0
  9
$PUCSYDIR
 10
0.0
 20
1.0
 30
0.0
  9
$PUCSORTHOREF
  2

  9
$PUCSORTHOVIEW
 70
     0
  9
$PUCSORGTOP
 10
0.0
 20
0.0
 30
0.0
  9
$PUCSORGBOTTOM
 10
0.0
 20
0.0
 30
0.0
  9
$PUCSORGLEFT
 10
0.0
 20
0.0
 30
0.0
  9
$PUCSORGRIGHT
 10
0.0
 20
0.0
 30
0.0
  9
$PUCSORGFRONT
 10
0.0
 20
0.0
 30
0.0
  9
$PUCSORGBACK
 10
0.0
 20
0.0
 30
0.0
  9
$USERI1
 70
     0
  9
$USERI2
 70
     0
  9
$USERI3
 70
     0
  9
$USERI4
 70
     0
  9
$USERI5
 70
     0
  9
$USERR1
 40
0.0
  9
$USERR2
 40
0.0
  9
$USERR3
 40
0.0
  9
$USERR4
 40
0.0
  9
$USERR5
 40
0.0
  9
$WORLDVIEW
 70
     1
  9
$SHADEDGE
 70
     3
  9
$SHADEDIF
 70
    70
  9
$TILEMODE
 70
     1
  9
$MAXACTVP
 70
    64
  9
$PINSBASE
 10
0.0
 20
0.0
 30
0.0
  9
$PLIMCHECK
 70
     0
  9
$PEXTMIN
 10
1.000000000000000E+20
 20
1.000000000000000E+20
 30
1.000000000000000E+20
  9
$PEXTMAX
 10
-1.000000000000000E+20
 20
-1.000000000000000E+20
 30
-1.000000000000000E+20
  9
$PLIMMIN
 10
0.0
 20
0.0
  9
$PLIMMAX
 10
420.0
 20
297.0
  9
$UNITMODE
 70
     0
  9
$VISRETAIN
 70
     1
  9
$PLINEGEN
 70
     0
  9
$PSLTSCALE
 70
     1
  9
$TREEDEPTH
 70
  3020
  9
$CMLSTYLE
  2
Standard
  9
$CMLJUST
 70
     0
  9
$CMLSCALE
 40
20.0
  9
$PROXYGRAPHICS
 70
     1
  9
$MEASUREMENT
 70
     1
  9
$CELWEIGHT
370
    -1
  9
$ENDCAPS
280
     0
  9
$JOINSTYLE
280
     0
  9
$LWDISPLAY
290
     1
  9
$INSUNITS
 70
     4
  9
$HYPERLINKBASE
  1

  9
$STYLESHEET
  1

  9
$XEDIT
290
     1
  9
$CEPSNTYPE
380
     0
  9
$PSTYLEMODE
290
     1
  9
$FINGERPRINTGUID
  2
{FB285621-A601-4E69-83A2-9B3AB370AB16}
  9
$VERSIONGUID
  2
{C88724D8-BB17-42A3-9495-0C1D94704B53}
  9
$EXTNAMES
290
     1
  9
$PSVPSCALE
 40
0.0
  9
$OLESTARTUP
290
     0
  9
$SORTENTS
280
   127
  9
$INDEXCTL
280
     0
  9
$HIDETEXT
280
     0
  9
$XCLIPFRAME
290
     0
  9
$HALOGAP
280
     0
  9
$OBSCOLOR
 70
   257
  9
$OBSLTYPE
280
     0
  9
$INTERSECTIONDISPLAY
280
     0
  9
$INTERSECTIONCOLOR
 70
   257
  9
$DIMASSOC
280
     1
  9
$PROJECTNAME
  1

  0
ENDSEC
  0
SECTION
  2
CLASSES
  0
CLASS
  1
ACDBDICTIONARYWDFLT
  2
AcDbDictionaryWithDefault
  3
ObjectDBX Classes
 90
        0
 91
        1
280
     0
281
     0
  0
CLASS
  1
TABLESTYLE
  2
AcDbTableStyle
  3
ObjectDBX Classes
 90
     2047
 91
        1
280
     0
281
     0
  0
CLASS
  1
DICTIONARYVAR
  2
AcDbDictionaryVar
  3
ObjectDBX Classes
 90
        0
 91
        1
280
     0
281
     0
  0
ENDSEC
  0
SECTION
  2
TABLES
  0
TABLE
  2
VPORT
  5
8
330
0
100
AcDbSymbolTable
 70
     2
  0
VPORT
  5
66A
330
8
100
AcDbSymbolTableRecord
100
AcDbViewportTableRecord
  2
*Active
 70
     0
 10
0.0
 20
0.0
 11
1.0
 21
1.0
 12
113.231502163307
 22
-0.5339876456412647
 13
0.0
 23
0.0
 14
10.0
 24
10.0
 15
10.0
 25
10.0
 16
0.0
 26
0.0
 36
1.0
 17
142.9456957125343
 27
108.9595727604956
 37
0.0
 40
36.32105868009608
 41
1.632538569424965
 42
50.0
 43
0.0
 44
0.0
 50
0.0
 51
0.0
 71
     0
 72
  2000
 73
     1
 74
     3
 75
     0
 76
     0
 77
     0
 78
     0
281
     0
 65
     1
110
0.0
120
0.0
130
0.0
111
1.0
121
0.0
131
0.0
112
0.0
122
1.0
132
0.0
 79
     0
146
0.0
  0
ENDTAB
  0
TABLE
  2
LTYPE
  5
5
330
0
100
AcDbSymbolTable
 70
     6
  0
LTYPE
  5
14
330
5
100
AcDbSymbolTableRecord
100
AcDbLinetypeTableRecord
  2
ByBlock
 70
     0
  3

 72
    65
 73
     0
 40
0.0
  0
LTYPE
  5
15
330
5
100
AcDbSymbolTableRecord
100
AcDbLinetypeTableRecord
  2
ByLayer
 70
     0
  3

 72
    65
 73
     0
 40
0.0
  0
LTYPE
  5
16
330
5
100
AcDbSymbolTableRecord
100
AcDbLinetypeTableRecord
  2
Continuous
 70
     0
  3
Solid line
 72
    65
 73
     0
 40
0.0
  0
LTYPE
  5
2A
330
5
100
AcDbSymbolTableRecord
100
AcDbLinetypeTableRecord
  2
HIDDEN
 70
     0
  3
Hidden __ __ __ __ __ __ __ __ __ __ __ __ __ __
 72
    65
 73
     2
 40
1.905
 49
1.27
 74
     0
 49
-0.635
 74
     0
  0
LTYPE
  5
2B
330
5
100
AcDbSymbolTableRecord
100
AcDbLinetypeTableRecord
  2
PHANTOM
 70
     0
  3
Phantom ______  __  __  ______  __  __  ______
 72
    65
 73
     6
 40
12.7
 49
6.349999999999999
 74
     0
 49
-1.27
 74
     0
 49
1.27
 74
     0
 49
-1.27
 74
     0
 49
1.27
 74
     0
 49
-1.27
 74
     0
  0
LTYPE
  5
2C
330
5
100
AcDbSymbolTableRecord
100
AcDbLinetypeTableRecord
  2
CENTER
 70
     0
  3
Center ____ _ ____ _ ____ _ ____ _ ____ _ ____
 72
    65
 73
     4
 40
10.16
 49
6.349999999999999
 74
     0
 49
-1.27
 74
     0
 49
1.27
 74
     0
 49
-1.27
 74
     0
  0
LTYPE
  5
2D
330
5
100
AcDbSymbolTableRecord
100
AcDbLinetypeTableRecord
  2
CENTERX2
 70
     0
  3
Center (2x) ________  __  ________  __  _____
 72
    65
 73
     4
 40
20.32
 49
12.7
 74
     0
 49
-2.54
 74
     0
 49
2.54
 74
     0
 49
-2.54
 74
     0
  0
LTYPE
  5
2E
330
5
100
AcDbSymbolTableRecord
100
AcDbLinetypeTableRecord
  2
DOT2
 70
     0
  3
Dot (.5x) ........................................
 72
    65
 73
     2
 40
0.635
 49
0.0
 74
     0
 49
-0.635
 74
     0
  0
ENDTAB
  0
TABLE
  2
LAYER
  5
2
330
0
100
AcDbSymbolTable
 70
     2
  0
LAYER
  5
10
330
2
100
AcDbSymbolTableRecord
100
AcDbLayerTableRecord
  2
0
 70
     0
 62
     7
  6
Continuous
370
    -3
390
F
  0
LAYER
  5
2F
330
2
100
AcDbSymbolTableRecord
100
AcDbLayerTableRecord
  2
FORMAT
 70
     0
 62
     7
  6
Continuous
370
     0
390
F
  0
ENDTAB
  0
TABLE
  2
STYLE
  5
3
330
0
100
AcDbSymbolTable
 70
     1
  0
STYLE
  5
11
330
3
100
AcDbSymbolTableRecord
100
AcDbTextStyleTableRecord
  2
Standard
 70
     0
 40
0.0
 41
1.0
 50
0.0
 71
     0
 42
2.5
  3
txt
  4

  0
ENDTAB
  0
TABLE
  2
VIEW
  5
6
330
0
100
AcDbSymbolTable
 70
     0
  0
ENDTAB
  0
TABLE
  2
UCS
  5
7
330
0
100
AcDbSymbolTable
 70
     0
  0
ENDTAB
  0
TABLE
  2
APPID
  5
9
330
0
100
AcDbSymbolTable
 70
     1
  0
APPID
  5
12
330
9
100
AcDbSymbolTableRecord
100
AcDbRegAppTableRecord
  2
ACAD
 70
     0
  0
ENDTAB
  0
TABLE
  2
DIMSTYLE
  5
A
330
0
100
AcDbSymbolTable
 70
     1
100
AcDbDimStyleTable
 71
     0
  0
DIMSTYLE
105
27
330
A
100
AcDbSymbolTableRecord
100
AcDbDimStyleTableRecord
  2
ISO-25
 70
     0
 41
2.5
 42
0.625
 43
3.75
 44
1.25
 73
     0
 74
     0
 77
     1
 78
     8
140
2.5
141
2.5
143
0.03937007874016
147
0.625
171
     3
172
     1
271
     2
272
     2
274
     3
278
    44
283
     0
284
     8
340
11
  0
ENDTAB
  0
TABLE
  2
BLOCK_RECORD
  5
1
330
0
100
AcDbSymbolTable
 70
     1
  0
BLOCK_RECORD
  5
1F
330
1
100
AcDbSymbolTableRecord
100
AcDbBlockTableRecord
  2
*Model_Space
340
22
  0
BLOCK_RECORD
  5
1B
330
1
100
AcDbSymbolTableRecord
100
AcDbBlockTableRecord
  2
*Paper_Space
340
1E
  0
BLOCK_RECORD
  5
23
330
1
100
AcDbSymbolTableRecord
100
AcDbBlockTableRecord
  2
*Paper_Space0
340
26
  0
ENDTAB
  0
ENDSEC
  0
SECTION
  2
BLOCKS
  0
BLOCK
  5
20
330
1F
100
AcDbEntity
  8
0
100
AcDbBlockBegin
  2
*Model_Space
 70
     0
 10
0.0
 20
0.0
 30
0.0
  3
*Model_Space
  1

  0
ENDBLK
  5
21
330
1F
100
AcDbEntity
  8
0
100
AcDbBlockEnd
  0
BLOCK
  5
1C
330
1B
100
AcDbEntity
 67
     1
  8
0
100
AcDbBlockBegin
  2
*Paper_Space
 70
     0
 10
0.0
 20
0.0
 30
0.0
  3
*Paper_Space
  1

  0
ENDBLK
  5
1D
330
1B
100
AcDbEntity
 67
     1
  8
0
100
AcDbBlockEnd
  0
BLOCK
  5
24
330
23
100
AcDbEntity
 67
     1
  8
0
100
AcDbBlockBegin
  2
*Paper_Space0
 70
     0
 10
0.0
 20
0.0
 30
0.0
  3
*Paper_Space0
  1

  0
ENDBLK
  5
25
330
23
100
AcDbEntity
 67
     1
  8
0
100
AcDbBlockEnd
  0
ENDSEC
  0
SECTION
  2
ENTITIES
  0
ARC
  5
57B
330
1F
100
AcDbEntity
  8
0
  6
Continuous
 62
     7
370
    15
100
AcDbCircle
 10
270.0525611740668
 20
98.79615048091647
 30
0.0
 40
0.5
100
AcDbArc
 50
270.0000000000008
 51
90.0
  0
ARC
  5
57C
330
1F
100
AcDbEntity
  8
0
  6
Continuous
 62
     7
370
    15
100
AcDbCircle
 10
258.0525611740668
 20
98.79615048091647
 30
0.0
 40
0.5
100
AcDbArc
 50
90.0
 51
270.0000000000008
  0
LINE
  5
57D
330
1F
100
AcDbEntity
  8
0
  6
Continuous
 62
     7
370
    15
100
AcDbLine
 10
258.0525611219127
 20
98.29615055244204
 30
0.0
 11
270.0525612262209
 21
98.29615055244204
 31
0.0
  0
LINE
  5
57E
330
1F
100
AcDbEntity
  8
0
  6
Continuous
 62
     7
370
    15
100
AcDbLine
 10
270.0525612262209
 20
99.29615071635481
 30
0.0
 11
258.0525611219127
 21
99.29615071635481
 31
0.0
  0
LINE
  5
57F
330
1F
100
AcDbEntity
  8
0
  6
Continuous
 62
     7
370
    15
100
AcDbLine
 10
259.3655015033801
 20
96.92203065972563
 30
0.0
 11
259.1025612008889
 21
96.39615005474325
 31
0.0
  0
LINE
  5
580
330
1F
100
AcDbEntity
  8
0
  6
Continuous
 62
     7
370
    15
100
AcDbLine
 10
259.1025612008889
 20
96.39615005474325
 30
0.0
 11
259.1025612008889
 21
95.89615090410942
 31
0.0
  0
LINE
  5
581
330
1F
100
AcDbEntity
  8
0
  6
Continuous
 62
     7
370
    15
100
AcDbLine
 10
269.0025611472447
 20
96.39615005474325
 30
0.0
 11
268.7396208447535
 21
96.92203065972563
 31
0.0
  0
LINE
  5
582
330
1F
100
AcDbEntity
  8
0
  6
Continuous
 62
     7
370
    15
100
AcDbLine
 10
269.0025611472447
 20
95.89615090410942
 30
0.0
 11
269.0025611472447
 21
96.39615005474325
 31
0.0
  0
LINE
  5
583
330
1F
100
AcDbEntity
  8
0
  6
Continuous
 62
     7
370
    15
100
AcDbLine
 10
256.0525607940872
 20
104.2461506895327
 30
0.0
 11
256.0525607940872
 21
103.9961506485545
 31
0.0
  0
LINE
  5
584
330
1F
100
AcDbEntity
  8
0
  6
Continuous
 62
     7
370
    15
100
AcDbLine
 10
272.0525615540464
 20
103.9961506485545
 30
0.0
 11
272.0525615540464
 21
120.4961500934862
 31
0.0
  0
LINE
  5
585
330
1F
100
AcDbEntity
  8
0
  6
Continuous
 62
     7
370
    15
100
AcDbLine
 10
241.4025614661295
 20
121.496150257399
 30
0.0
 11
241.15256095949
 21
121.3961504272722
 31
0.0
  0
LINE
  5
586
330
1F
100
AcDbEntity
  8
0
  6
Continuous
 62
     7
370
    15
100
AcDbLine
 10
241.15256095949
 20
105.5961502588891
 30
0.0
 11
241.4025614661295
 21
105.4961504287624
 31
0.0
  0
LINE
  5
587
330
1F
100
AcDbEntity
  8
0
  6
Continuous
 62
     7
370
    15
100
AcDbLine
 10
241.15256095949
 20
121.3961504272722
 30
0.0
 11
240.702560792597
 21
121.3961504272722
 31
0.0
  0
LINE
  5
588
330
1F
100
AcDbEntity
  8
0
  6
Continuous
 62
     7
370
    15
100
AcDbLine
 10
240.702560792597
 20
105.5961502588891
 30
0.0
 11
241.15256095949
 21
105.5961502588891
 31
0.0
  0
LINE
  5
589
330
1F
100
AcDbEntity
  8
0
  6
Continuous
 62
     7
370
    15
100
AcDbLine
 10
245.9025612724144
 20
104.4961502648496
 30
0.0
 11
255.8025612187702
 21
104.4961502648496
 31
0.0
  0
LINE
  5
58A
330
1F
100
AcDbEntity
  8
0
  6
Continuous
 62
     7
370
    15
100
AcDbLine
 10
257.3525613797028
 20
101.9961507863902
 30
0.0
 11
257.3525613797028
 21
101.8461501098775
 31
0.0
  0
LINE
  5
58B
330
1F
100
AcDbEntity
  8
0
  6
Continuous
 62
     7
370
    15
100
AcDbLine
 10
270.7525609684308
 20
101.8461501098775
 30
0.0
 11
270.7525609684308
 21
101.9961507863902
 31
0.0
  0
LINE
  5
58C
330
1F
100
AcDbEntity
  8
0
  6
Continuous
 62
     7
370
    15
100
AcDbLine
 10
270.0582609203775
 20
122.4961504213118
 30
0.0
 11
241.4025614661295
 21
122.4961504213118
 31
0.0
  0
LINE
  5
58D
330
1F
100
AcDbEntity
  8
0
  6
Continuous
 62
     7
370
    15
100
AcDbLine
 10
257.7025612508078
 20
100.5461504555845
 30
0.0
 11
257.7025612508078
 21
99.39615054648157
 31
0.0
  0
LINE
  5
58E
330
1F
100
AcDbEntity
  8
0
  6
Continuous
 62
     7
370
    15
100
AcDbLine
 10
270.4025610973258
 20
99.39615054648157
 30
0.0
 11
270.4025610973258
 21
100.5461504555845
 31
0.0
  0
LINE
  5
58F
330
1F
100
AcDbEntity
  8
0
  6
Continuous
 62
     7
370
    15
100
AcDbLine
 10
257.7025612508078
 20
98.19615072231528
 30
0.0
 11
257.7025612508078
 21
97.59615081023213
 31
0.0
  0
LINE
  5
590
330
1F
100
AcDbEntity
  8
0
  6
Continuous
 62
     7
370
    15
100
AcDbLine
 10
270.4025610973258
 20
97.59615081023213
 30
0.0
 11
270.4025610973258
 21
98.19615072231528
 31
0.0
  0
ARC
  5
591
330
1F
100
AcDbEntity
  8
0
  6
Continuous
 62
     7
370
    15
100
AcDbCircle
 10
258.2025611740668
 20
98.44615048091647
 30
0.0
 40
0.25
100
AcDbArc
 50
270.0000000000008
 51
323.1301023541524
  0
ARC
  5
592
330
1F
100
AcDbEntity
  8
0
  6
Continuous
 62
     7
370
    15
100
AcDbCircle
 10
269.9025611740668
 20
98.44615048091647
 30
0.0
 40
0.2500000000000398
100
AcDbArc
 50
216.8698976458396
 51
270.0000000000008
  0
ARC
  5
593
330
1F
100
AcDbEntity
  8
0
  6
Continuous
 62
     7
370
    15
100
AcDbCircle
 10
258.2025611740668
 20
99.14615048091647
 30
0.0
 40
0.25
100
AcDbArc
 50
36.86989764584837
 51
90.0
  0
ARC
  5
594
330
1F
100
AcDbEntity
  8
0
  6
Continuous
 62
     7
370
    15
100
AcDbCircle
 10
269.9025611740668
 20
99.14615048091647
 30
0.0
 40
0.2500000000000398
100
AcDbArc
 50
90.0
 51
143.1301023541612
  0
ARC
  5
595
330
1F
100
AcDbEntity
  8
0
  6
Continuous
 62
     7
370
    15
100
AcDbCircle
 10
258.5525611740668
 20
94.24615048091645
 30
0.0
 40
0.25
100
AcDbArc
 50
180.0000000000004
 51
270.0000000000008
  0
ARC
  5
596
330
1F
100
AcDbEntity
  8
0
  6
Continuous
 62
     7
370
    15
100
AcDbCircle
 10
269.5525611740668
 20
94.24615048091645
 30
0.0
 40
0.25
100
AcDbArc
 50
270.0000000000008
 51
0.0
  0
LINE
  5
597
330
1F
100
AcDbEntity
  8
0
  6
Continuous
 62
     7
370
    15
100
AcDbLine
 10
258.3025611628909
 20
95.64615039746994
 30
0.0
 11
258.3025611628909
 21
94.24615091305012
 31
0.0
  0
LINE
  5
598
330
1F
100
AcDbEntity
  8
0
  6
Continuous
 62
     7
370
    15
100
AcDbLine
 10
269.8025611852427
 20
94.24615091305012
 30
0.0
 11
269.8025611852427
 21
95.64615039746994
 31
0.0
  0
LINE
  5
599
330
1F
100
AcDbEntity
  8
0
  6
Continuous
 62
     7
370
    15
100
AcDbLine
 10
258.5525612038691
 20
101.8461501098775
 30
0.0
 11
258.5525612038691
 21
100.5461504555845
 31
0.0
  0
LINE
  5
59A
330
1F
100
AcDbEntity
  8
0
  6
Continuous
 62
     7
370
    15
100
AcDbLine
 10
269.5525611442645
 20
100.5461504555845
 30
0.0
 11
269.5525611442645
 21
101.8461501098775
 31
0.0
  0
LINE
  5
59B
330
1F
100
AcDbEntity
  8
0
  6
Continuous
 62
     7
370
    15
100
AcDbLine
 10
240.702560792597
 20
121.3961504272722
 30
0.0
 11
240.0618872297127
 21
121.1109040177964
 31
0.0
  0
LINE
  5
59C
330
1F
100
AcDbEntity
  8
0
  6
Continuous
 62
     7
370
    15
100
AcDbLine
 10
240.0618872297127
 20
105.8813966683649
 30
0.0
 11
240.702560792597
 21
105.5961502588891
 31
0.0
  0
ARC
  5
59D
330
1F
100
AcDbEntity
  8
0
  6
Continuous
 62
     7
370
    15
100
AcDbCircle
 10
240.1025611740668
 20
121.0195496418807
 30
0.0
 40
0.1000000000041921
100
AcDbArc
 50
113.999999985755
 51
180.0000000000004
  0
ARC
  5
59E
330
1F
100
AcDbEntity
  8
0
  6
Continuous
 62
     7
370
    15
100
AcDbCircle
 10
240.1025611740668
 20
105.9727513199522
 30
0.0
 40
0.1000000000041791
100
AcDbArc
 50
180.0000000000004
 51
246.0000000142425
  0
LINE
  5
59F
330
1F
100
AcDbEntity
  8
0
  6
Continuous
 62
     7
370
    15
100
AcDbLine
 10
259.3655015033801
 20
97.3563622556233
 30
0.0
 11
259.3655015033801
 21
96.13546262156006
 31
0.0
  0
LINE
  5
5A0
330
1F
100
AcDbEntity
  8
0
  6
Continuous
 62
     7
370
    15
100
AcDbLine
 10
268.7396208447535
 20
96.13573456775185
 30
0.0
 11
268.7396208447535
 21
97.35673105936285
 31
0.0
  0
ARC
  5
5A1
330
1F
100
AcDbEntity
  8
0
  6
Continuous
 62
     7
370
    15
100
AcDbCircle
 10
259.040204943138
 20
97.3656394389026
 30
0.0
 40
0.3258741078439559
100
AcDbArc
 50
356.5718308631427
 51
44.02128770419369
  0
LWPOLYLINE
  5
5A2
330
1F
100
AcDbEntity
  8
0
  6
Continuous
 62
     7
370
    15
100
AcDbPolyline
 90
        4
 70
   128
 43
0.0
 10
268.8300536637326
 20
97.59353845041033
 10
268.8301440020223
 20
97.59362692605492
 10
268.8328960602303
 20
97.59593194942709
 10
268.8325784792323
 20
97.59575965475079
  0
ARC
  5
5A3
330
1F
100
AcDbEntity
  8
0
  6
Continuous
 62
     7
370
    15
100
AcDbCircle
 10
269.0495423353687
 20
97.37307541185963
 30
0.0
 40
0.3110936006150548
100
AcDbArc
 50
134.873106481169
 51
184.9653260965095
  0
LWPOLYLINE
  5
5A4
330
1F
100
AcDbEntity
  8
0
  6
Continuous
 62
     7
370
    15
100
AcDbPolyline
 90
        8
 70
   128
 43
0.0
 10
259.365506159993
 20
96.1461523420715
 10
259.3483530608137
 20
96.02887461554047
 10
259.3198215280791
 20
95.95876278947825
 10
259.2981221777518
 20
95.92441468160386
 10
259.284663635226
 20
95.90814261358017
 10
259.2749783461113
 20
95.89868037622208
 10
259.2722248909195
 20
95.89637349020476
 10
259.2725429375787
 20
95.89654578488106
  0
LWPOLYLINE
  5
5A5
330
1F
100
AcDbEntity
  8
0
  6
Continuous
 62
     7
370
    15
100
AcDbPolyline
 90
        7
 70
   128
 43
0.0
 10
268.8345794257839
 20
95.89636883359188
 10
268.8348751207013
 20
95.89621889065737
 10
268.8221220550258
 20
95.90805972587103
 10
268.8078602467795
 20
95.92474343847269
 10
268.7852402840872
 20
95.95939888279671
 10
268.7562966411133
 20
96.02935331534382
 10
268.739626432689
 20
96.14614768545862
  0
ARC
  5
5A6
330
1F
100
AcDbEntity
  8
0
  6
Continuous
 62
     7
370
    15
100
AcDbCircle
 10
258.5525611740668
 20
95.64615048091646
 30
0.0
 40
0.25
100
AcDbArc
 50
90.0
 51
180.0000000000004
  0
ARC
  5
5A7
330
1F
100
AcDbEntity
  8
0
  6
Continuous
 62
     7
370
    15
100
AcDbCircle
 10
269.5525611740668
 20
95.64615048091646
 30
0.0
 40
0.25
100
AcDbArc
 50
0.0
 51
90.0
  0
LWPOLYLINE
  5
5A8
330
1F
100
AcDbEntity
  8
0
  6
Continuous
 62
     7
370
    15
100
AcDbPolyline
 90
        4
 70
   128
 43
0.0
 10
268.8307405141313
 20
97.59245439093348
 10
268.8321975682993
 20
97.59384299289223
 10
268.8348821056206
 20
97.59608468632933
 10
268.8345859450419
 20
97.59593474339482
  0
LWPOLYLINE
  5
5A9
330
1F
100
AcDbEntity
  8
0
  6
Continuous
 62
     7
370
    15
100
AcDbPolyline
 90
        3
 70
   128
 43
0.0
 10
259.2725438689013
 20
97.59575965475079
 10
259.2722262879033
 20
97.59593194942709
 10
259.2751781148036
 20
97.59313891302582
  0
LINE
  5
5AA
330
1F
100
AcDbEntity
  8
0
  6
Continuous
 62
     7
370
    15
100
AcDbLine
 10
259.1025612008889
 20
96.39615005474325
 30
0.0
 11
259.3655015033801
 21
96.39615005474325
 31
0.0
  0
LINE
  5
5AB
330
1F
100
AcDbEntity
  8
0
  6
Continuous
 62
     7
370
    15
100
AcDbLine
 10
259.1025612008889
 20
95.89615090410942
 30
0.0
 11
259.2504524317701
 21
95.89615090410942
 31
0.0
  0
LINE
  5
5AC
330
1F
100
AcDbEntity
  8
0
  6
Continuous
 62
     7
370
    15
100
AcDbLine
 10
268.7396208447535
 20
96.39615005474325
 30
0.0
 11
269.0025611472447
 21
96.39615005474325
 31
0.0
  0
LINE
  5
5AD
330
1F
100
AcDbEntity
  8
0
  6
Continuous
 62
     7
370
    15
100
AcDbLine
 10
268.8595458557029
 20
95.89615090410942
 30
0.0
 11
269.0025611472447
 21
95.89615090410942
 31
0.0
  0
ARC
  5
5AE
330
1F
100
AcDbEntity
  8
0
  6
Continuous
 62
     7
370
    15
100
AcDbCircle
 10
235.2025611740668
 20
113.4961504809165
 30
0.0
 40
5.599999999901683
100
AcDbArc
 50
68.13380767220978
 51
90.0
  0
ARC
  5
5AF
330
1F
100
AcDbEntity
  8
0
  6
Continuous
 62
     7
370
    15
100
AcDbCircle
 10
235.2025611740668
 20
113.4961504809165
 30
0.0
 40
5.599999999901696
100
AcDbArc
 50
90.0
 51
291.866192327791
  0
ARC
  5
5B0
330
1F
100
AcDbEntity
  8
0
  6
Continuous
 62
     7
370
    15
100
AcDbCircle
 10
235.2025611740668
 20
113.4961504809165
 30
0.0
 40
5.799999999965177
100
AcDbArc
 50
63.64416613232615
 51
296.3558338676747
  0
LINE
  5
5B1
330
1F
100
AcDbEntity
  8
0
  6
Continuous
 62
     7
370
    15
100
AcDbLine
 10
240.0025619817097
 20
108.2990357990914
 30
0.0
 11
234.6025618416388
 21
108.2990357990914
 31
0.0
  0
LINE
  5
5B2
330
1F
100
AcDbEntity
  8
0
  6
Continuous
 62
     7
370
    15
100
AcDbLine
 10
234.6025618416388
 20
108.2990357990914
 30
0.0
 11
234.6025618416388
 21
118.6932651199006
 31
0.0
  0
LINE
  5
5B3
330
1F
100
AcDbEntity
  8
0
  6
Continuous
 62
     7
370
    15
100
AcDbLine
 10
234.6025618416388
 20
118.6932651199006
 30
0.0
 11
240.0025619817097
 21
118.6932651199006
 31
0.0
  0
LINE
  5
5B4
330
1F
100
AcDbEntity
  8
0
  6
Continuous
 62
     7
370
    15
100
AcDbLine
 10
234.6025618416388
 20
108.2990357990914
 30
0.0
 11
233.602561677726
 21
109.3718323263877
 31
0.0
  0
LINE
  5
5B5
330
1F
100
AcDbEntity
  8
0
  6
Continuous
 62
     7
370
    15
100
AcDbLine
 10
233.602561677726
 20
117.6204685926043
 30
0.0
 11
233.602561677726
 21
109.3718323263877
 31
0.0
  0
LINE
  5
5B6
330
1F
100
AcDbEntity
  8
0
  6
Continuous
 62
     7
370
    15
100
AcDbLine
 10
233.602561677726
 20
117.6204685926043
 30
0.0
 11
234.6025618416388
 21
118.6932651199006
 31
0.0
  0
ARC
  5
5B7
330
1F
100
AcDbEntity
  8
0
  6
Continuous
 62
     7
370
    15
100
AcDbCircle
 10
263.9808392152567
 20
150.3670718327403
 30
0.0
 40
28.52462214474451
100
AcDbArc
 50
270.1440639545517
 51
282.289948682419
  0
ARC
  5
5B8
330
1F
100
AcDbEntity
  8
0
  6
Continuous
 62
     7
370
    15
100
AcDbCircle
 10
270.0525592307151
 20
120.4961499606257
 30
0.0
 40
1.999999529363553
100
AcDbArc
 50
0.0
 51
90.00000953404029
  0
ARC
  5
5B9
330
1F
100
AcDbEntity
  8
0
  6
Continuous
 62
     7
370
    15
100
AcDbCircle
 10
263.9648996549311
 20
173.5908651949201
 30
0.0
 40
53.70716010642182
100
AcDbArc
 50
270.093518951522
 51
278.6610122580091
  0
LINE
  5
5BA
330
1F
100
AcDbEntity
  8
0
  6
Continuous
 62
     7
370
    15
100
AcDbLine
 10
264.0525611740668
 20
119.8837766296767
 30
0.0
 11
264.0525611740668
 21
121.8425398565435
 31
0.0
  0
LINE
  5
5BB
330
1F
100
AcDbEntity
  8
0
  6
Continuous
 62
     7
370
    15
100
AcDbLine
 10
264.0525611740668
 20
119.8837766296767
 30
0.0
 11
264.0525611740668
 21
109.8905992567145
 31
0.0
  0
LINE
  5
5BC
330
1F
100
AcDbEntity
  8
0
  6
Continuous
 62
     7
370
    15
100
AcDbLine
 10
264.0525611740668
 20
109.8905992567145
 30
0.0
 11
241.4025614661295
 21
109.8905992567145
 31
0.0
  0
LINE
  5
5BD
330
1F
100
AcDbEntity
  8
0
  6
Continuous
 62
     7
370
    15
100
AcDbLine
 10
241.4025614661295
 20
109.8905992567145
 30
0.0
 11
241.4025614661295
 21
113.4961505759113
 31
0.0
  0
LINE
  5
5BE
330
1F
100
AcDbEntity
  8
0
  6
Continuous
 62
     7
370
    15
100
AcDbLine
 10
241.4025614661295
 20
113.4961505759113
 30
0.0
 11
241.4025614661295
 21
119.8837766296767
 31
0.0
  0
LINE
  5
5BF
330
1F
100
AcDbEntity
  8
0
  6
Continuous
 62
     7
370
    15
100
AcDbLine
 10
241.4025614661295
 20
119.8837766296767
 30
0.0
 11
264.0525611740668
 21
119.8837766296767
 31
0.0
  0
ARC
  5
5C0
330
1F
100
AcDbEntity
  8
0
  6
Continuous
 62
     7
370
    15
100
AcDbCircle
 10
279.6464565973121
 20
79.77553733898758
 30
0.0
 40
33.99239380987034
100
AcDbArc
 50
121.58746127474
 51
133.9550159503433
  0
ARC
  5
5C1
330
1F
100
AcDbEntity
  8
0
  6
Continuous
 62
     7
370
    15
100
AcDbCircle
 10
232.5846437128502
 20
167.2441750304378
 30
0.0
 40
65.41912933827659
100
AcDbArc
 50
296.5653351123202
 51
298.7520488901146
  0
LINE
  5
5C2
330
1F
100
AcDbEntity
  8
0
  6
Continuous
 62
     7
370
    15
100
AcDbLine
 10
256.0525607940872
 20
103.9961506485545
 30
0.0
 11
272.0525615540464
 21
103.9961506485545
 31
0.0
  0
LINE
  5
5C3
330
1F
100
AcDbEntity
  8
0
  6
Continuous
 62
     7
370
    15
100
AcDbLine
 10
241.4025614661295
 20
121.8425398565435
 30
0.0
 11
241.4025614661295
 21
119.8837766296767
 31
0.0
  0
LINE
  5
5C4
330
1F
100
AcDbEntity
  8
0
  6
Continuous
 62
     7
370
    15
100
AcDbLine
 10
241.4025614661295
 20
121.8425398565435
 30
0.0
 11
264.0525611740668
 21
121.8425398565435
 31
0.0
  0
ARC
  5
5C5
330
1F
100
AcDbEntity
  8
0
  6
Continuous
 62
     7
370
    15
100
AcDbCircle
 10
227.1809674914354
 20
188.4722645982251
 30
0.0
 40
86.80203078581875
100
AcDbArc
 50
293.4848553115734
 51
295.1366128207236
  0
LWPOLYLINE
  5
5C6
330
1F
100
AcDbEntity
  8
0
  6
Continuous
 62
     7
370
    15
100
AcDbPolyline
 90
        3
 70
   128
 43
0.0
 10
261.7721542873551
 20
108.8604412380212
 10
261.8083373335321
 20
108.7990954856925
 10
261.8412581895609
 20
108.7316707580888
  0
LINE
  5
5C7
330
1F
100
AcDbEntity
  8
0
  6
Continuous
 62
     7
370
    15
100
AcDbLine
 10
241.4025614661295
 20
108.8604417036825
 30
0.0
 11
241.4025614661295
 21
109.8905992567145
 31
0.0
  0
LINE
  5
5C8
330
1F
100
AcDbEntity
  8
0
  6
Continuous
 62
     7
370
    15
100
AcDbLine
 10
241.4025614661295
 20
108.8604417036825
 30
0.0
 11
261.7721542873551
 21
108.8604417036825
 31
0.0
  0
LINE
  5
5C9
330
1F
100
AcDbEntity
  8
0
  6
Continuous
 62
     7
370
    15
100
AcDbLine
 10
241.15256095949
 20
121.3961504272722
 30
0.0
 11
241.15256095949
 21
105.5961502588891
 31
0.0
  0
ARC
  5
5CA
330
1F
100
AcDbEntity
  8
0
  6
Continuous
 62
     7
370
    15
100
AcDbCircle
 10
255.8025658935017
 20
104.246155023189
 30
0.0
 40
0.2499998569922026
100
AcDbArc
 50
360.0000000000008
 51
90.00108163264984
  0
ARC
  5
5CB
330
1F
100
AcDbEntity
  8
0
  6
Continuous
 62
     7
370
    15
100
AcDbCircle
 10
281.2996154392152
 20
75.88543548790318
 30
0.0
 40
38.32326674447378
100
AcDbArc
 50
120.6335831199848
 51
131.706515910648
  0
LINE
  5
5CC
330
1F
100
AcDbEntity
  8
0
  6
Continuous
 62
     7
370
    15
100
AcDbLine
 10
240.702560792597
 20
106.6545499361657
 30
0.0
 11
240.702560792597
 21
105.5961507245504
 31
0.0
  0
LINE
  5
5CD
330
1F
100
AcDbEntity
  8
0
  6
Continuous
 62
     7
370
    15
100
AcDbLine
 10
240.702560792597
 20
113.4961503430807
 30
0.0
 11
240.702560792597
 21
106.6545499361657
 31
0.0
  0
LINE
  5
5CE
330
1F
100
AcDbEntity
  8
0
  6
Continuous
 62
     7
370
    15
100
AcDbLine
 10
240.702560792597
 20
120.3377507499956
 30
0.0
 11
240.702560792597
 21
113.4961503430807
 31
0.0
  0
LINE
  5
5CF
330
1F
100
AcDbEntity
  8
0
  6
Continuous
 62
     7
370
    15
100
AcDbLine
 10
240.702560792597
 20
121.3961504272722
 30
0.0
 11
240.702560792597
 21
120.3377507499956
 31
0.0
  0
LINE
  5
5D0
330
1F
100
AcDbEntity
  8
0
  6
Continuous
 62
     7
370
    15
100
AcDbLine
 10
240.0618872297127
 20
107.0189643524193
 30
0.0
 11
240.702560792597
 21
106.6545499361657
 31
0.0
  0
LINE
  5
5D1
330
1F
100
AcDbEntity
  8
0
  6
Continuous
 62
     7
370
    15
100
AcDbLine
 10
240.0618872297127
 20
113.2673384727516
 30
0.0
 11
240.0618872297127
 21
107.0189643524193
 31
0.0
  0
LINE
  5
5D2
330
1F
100
AcDbEntity
  8
0
  6
Continuous
 62
     7
370
    15
100
AcDbLine
 10
240.702560792597
 20
113.4961503430807
 30
0.0
 11
240.0618872297127
 21
113.2673384727516
 31
0.0
  0
LINE
  5
5D3
330
1F
100
AcDbEntity
  8
0
  6
Continuous
 62
     7
370
    15
100
AcDbLine
 10
240.702560792597
 20
120.3377507499956
 30
0.0
 11
240.0618872297127
 21
119.9733363337421
 31
0.0
  0
LINE
  5
5D4
330
1F
100
AcDbEntity
  8
0
  6
Continuous
 62
     7
370
    15
100
AcDbLine
 10
240.0618872297127
 20
113.7249625626557
 30
0.0
 11
240.702560792597
 21
113.4961505759113
 31
0.0
  0
LINE
  5
5D5
330
1F
100
AcDbEntity
  8
0
  6
Continuous
 62
     7
370
    15
100
AcDbLine
 10
240.0618872297127
 20
119.9733363337421
 30
0.0
 11
240.0618872297127
 21
113.7249625626557
 31
0.0
  0
LINE
  5
5D6
330
1F
100
AcDbEntity
  8
0
  6
Continuous
 62
     7
370
    15
100
AcDbLine
 10
245.9025612724144
 20
104.646150475701
 30
0.0
 11
245.9025612724144
 21
104.4961502648496
 31
0.0
  0
LINE
  5
5D7
330
1F
100
AcDbEntity
  8
0
  6
Continuous
 62
     7
370
    15
100
AcDbLine
 10
241.4025614661295
 20
104.646150475701
 30
0.0
 11
245.9025612724144
 21
104.646150475701
 31
0.0
  0
LINE
  5
5D8
330
1F
100
AcDbEntity
  8
0
  6
Continuous
 62
     7
370
    15
100
AcDbLine
 10
241.4025614661295
 20
104.646150475701
 30
0.0
 11
241.4025614661295
 21
108.8604417036825
 31
0.0
  0
ARC
  5
5D9
330
1F
100
AcDbEntity
  8
0
  6
Continuous
 62
     7
370
    15
100
AcDbCircle
 10
240.1103142279792
 20
119.8768850227367
 30
0.0
 40
0.1079260374319818
100
AcDbArc
 50
116.6606555200435
 51
176.7480290784184
  0
LINE
  5
5DA
330
1F
100
AcDbEntity
  8
0
  6
Continuous
 62
     7
370
    15
100
AcDbLine
 10
240.0025619817097
 20
119.8830073572301
 30
0.0
 11
240.0025619817097
 21
113.7461503840589
 31
0.0
  0
LWPOLYLINE
  5
5DB
330
1F
100
AcDbEntity
  8
0
  6
Continuous
 62
     7
370
    15
100
AcDbPolyline
 90
        5
 70
   128
 43
0.0
 10
240.0025619817097
 20
113.7461503840589
 10
240.0077736628372
 20
113.7442886702322
 10
240.022561202677
 20
113.7390076055729
 10
240.0457343709786
 20
113.7307314075135
 10
240.0618872297127
 20
113.7249625626557
  0
ARC
  5
5DC
330
1F
100
AcDbEntity
  8
0
  6
Continuous
 62
     7
370
    15
100
AcDbCircle
 10
240.1138562349624
 20
107.1177418993322
 30
0.0
 40
0.1116144313284342
100
AcDbArc
 50
184.3408734294048
 51
242.2501709141552
  0
LINE
  5
5DD
330
1F
100
AcDbEntity
  8
0
  6
Continuous
 62
     7
370
    15
100
AcDbLine
 10
240.0025619817097
 20
113.2461505349331
 30
0.0
 11
240.0025619817097
 21
107.1092937945925
 31
0.0
  0
LWPOLYLINE
  5
5DE
330
1F
100
AcDbEntity
  8
0
  6
Continuous
 62
     7
370
    15
100
AcDbPolyline
 90
        5
 70
   128
 43
0.0
 10
240.0618872297127
 20
113.2673384727516
 10
240.0334614020903
 20
113.257186591027
 10
240.0127990794499
 20
113.2498070237764
 10
240.0032120448668
 20
113.2463831327461
 10
240.0025619817097
 20
113.2461505349331
  0
LINE
  5
5DF
330
1F
100
AcDbEntity
  8
0
  6
Continuous
 62
     7
370
    15
100
AcDbLine
 10
264.362890166849
 20
101.9961507863902
 30
0.0
 11
264.362890166849
 21
103.9961506485545
 31
0.0
  0
LINE
  5
5E0
330
1F
100
AcDbEntity
  8
0
  6
Continuous
 62
     7
370
    15
100
AcDbLine
 10
264.7899560205769
 20
102.1961504466438
 30
0.0
 11
264.7899560205769
 21
103.9961506485545
 31
0.0
  0
LWPOLYLINE
  5
5E1
330
1F
100
AcDbEntity
  8
0
  6
Continuous
 62
     7
370
    15
100
AcDbPolyline
 90
        6
 70
   128
 43
0.0
 10
264.6691553917845
 20
101.9961507863902
 10
264.7132737719585
 20
102.0098999015593
 10
264.7523156874013
 20
102.0509395621323
 10
264.7784820100424
 20
102.1109446756148
 10
264.7893468191978
 20
102.1760543681287
 10
264.7899560205769
 20
102.1961504466438
  0
LINE
  5
5E2
330
1F
100
AcDbEntity
  8
0
  6
Continuous
 62
     7
370
    15
100
AcDbLine
 10
264.362890166849
 20
101.9961507863902
 30
0.0
 11
264.6691554499921
 21
101.9961507863902
 31
0.0
  0
LINE
  5
5E3
330
1F
100
AcDbEntity
  8
0
  6
Continuous
 62
     7
370
    15
100
AcDbLine
 10
263.7422321812846
 20
103.9961506485545
 30
0.0
 11
263.7422321812846
 21
101.9961507863902
 31
0.0
  0
LINE
  5
5E4
330
1F
100
AcDbEntity
  8
0
  6
Continuous
 62
     7
370
    15
100
AcDbLine
 10
263.7422321812846
 20
101.9961507863902
 30
0.0
 11
263.4359668399338
 21
101.9961507863902
 31
0.0
  0
LWPOLYLINE
  5
5E5
330
1F
100
AcDbEntity
  8
0
  6
Continuous
 62
     7
370
    15
100
AcDbPolyline
 90
        6
 70
   128
 43
0.0
 10
263.3151663275567
 20
102.1961504466438
 10
263.3208859287333
 20
102.135237293651
 10
263.3370118955281
 20
102.0812857769036
 10
263.3623401442674
 20
102.0374605305099
 10
263.3967502433006
 20
102.0069280512237
 10
263.4359668981415
 20
101.9961507863902
  0
LINE
  5
5E6
330
1F
100
AcDbEntity
  8
0
  6
Continuous
 62
     7
370
    15
100
AcDbLine
 10
263.3151663275567
 20
103.9961506485545
 30
0.0
 11
263.3151663275567
 21
102.1961504466438
 31
0.0
  0
LINE
  5
5E7
330
1F
100
AcDbEntity
  8
0
  6
Continuous
 62
     7
370
    15
100
AcDbLine
 10
265.3136280522813
 20
101.9961507863902
 30
0.0
 11
264.6691551589538
 21
101.9961507863902
 31
0.0
  0
LINE
  5
5E8
330
1F
100
AcDbEntity
  8
0
  6
Continuous
 62
     7
370
    15
100
AcDbLine
 10
265.2460206690375
 20
102.1961504466438
 30
0.0
 11
264.7899560205769
 21
102.1961504466438
 31
0.0
  0
LWPOLYLINE
  5
5E9
330
1F
100
AcDbEntity
  8
0
  6
Continuous
 62
     7
370
    15
100
AcDbPolyline
 90
        6
 70
   128
 43
0.0
 10
265.2460206690375
 20
102.1961504466438
 10
265.2492217411418
 20
102.135237293651
 10
265.2582468389665
 20
102.0812857769036
 10
265.2724220342134
 20
102.0374605305099
 10
265.2916800388266
 20
102.0069280512237
 10
265.3136280522813
 20
101.9961507863902
  0
LINE
  5
5EA
330
1F
100
AcDbEntity
  8
0
  6
Continuous
 62
     7
370
    15
100
AcDbLine
 10
263.4359668399338
 20
101.9961507863902
 30
0.0
 11
262.791494179437
 21
101.9961507863902
 31
0.0
  0
LWPOLYLINE
  5
5EB
330
1F
100
AcDbEntity
  8
0
  6
Continuous
 62
     7
370
    15
100
AcDbPolyline
 90
        6
 70
   128
 43
0.0
 10
262.7914942958523
 20
101.9961507863902
 10
262.8161856363659
 20
102.0098999015593
 10
262.8380358609502
 20
102.0509395621323
 10
262.8526800935288
 20
102.1109446756148
 10
262.8587606986184
 20
102.1760543681287
 10
262.8591016790961
 20
102.1961504466438
  0
LINE
  5
5EC
330
1F
100
AcDbEntity
  8
0
  6
Continuous
 62
     7
370
    15
100
AcDbLine
 10
263.3151663275567
 20
102.1961504466438
 30
0.0
 11
262.8591016790961
 21
102.1961504466438
 31
0.0
  0
LINE
  5
5ED
330
1F
100
AcDbEntity
  8
0
  6
Continuous
 62
     7
370
    15
100
AcDbLine
 10
265.2460206690375
 20
103.9961506485545
 30
0.0
 11
265.2460206690375
 21
102.1961504466438
 31
0.0
  0
LINE
  5
5EE
330
1F
100
AcDbEntity
  8
0
  6
Continuous
 62
     7
370
    15
100
AcDbLine
 10
262.8591016790961
 20
102.1961504466438
 30
0.0
 11
262.8591016790961
 21
103.9961506485545
 31
0.0
  0
LINE
  5
5EF
330
1F
100
AcDbEntity
  8
0
  6
Continuous
 62
     7
370
    15
100
AcDbLine
 10
262.6200894982685
 20
101.9961507863902
 30
0.0
 11
262.6200894982685
 21
103.9961506485545
 31
0.0
  0
LINE
  5
5F0
330
1F
100
AcDbEntity
  8
0
  6
Continuous
 62
     7
370
    15
100
AcDbLine
 10
262.6200894982685
 20
101.9961507863902
 30
0.0
 11
262.7914942958523
 21
101.9961507863902
 31
0.0
  0
LINE
  5
5F1
330
1F
100
AcDbEntity
  8
0
  6
Continuous
 62
     7
370
    15
100
AcDbLine
 10
265.4850328498651
 20
103.9961506485545
 30
0.0
 11
265.4850328498651
 21
101.9961507863902
 31
0.0
  0
LINE
  5
5F2
330
1F
100
AcDbEntity
  8
0
  6
Continuous
 62
     7
370
    15
100
AcDbLine
 10
265.4850328498651
 20
101.9961507863902
 30
0.0
 11
265.3136280522813
 21
101.9961507863902
 31
0.0
  0
ELLIPSE
  5
5F3
330
1F
100
AcDbEntity
  8
0
  6
Continuous
 62
     7
370
    15
100
AcDbEllipse
 10
240.7025611740668
 20
113.4961504809165
 30
0.0
 11
20.40476868730431
 21
4.014735453675838
 31
0.0
210
0.0
220
0.0
230
1.0
 40
0.298796633287954
 41
4.619413636103039
 42
4.621074355281899
  0
ELLIPSE
  5
5F4
330
1F
100
AcDbEntity
  8
0
  6
Continuous
 62
     7
370
    15
100
AcDbEllipse
 10
240.7025611740668
 20
113.4961504809165
 30
0.0
 11
20.40476868730431
 21
-4.014735453675854
 31
0.0
210
0.0
220
0.0
230
1.0
 40
0.298796633287954
 41
1.662110951897692
 42
1.663771671076551
  0
LINE
  5
5F5
330
1F
100
AcDbEntity
  8
0
  6
Continuous
 62
     7
370
    15
100
AcDbLine
 10
267.1053494949956
 20
101.9961507863902
 30
0.0
 11
266.5047963773031
 21
101.9961507863902
 31
0.0
  0
ARC
  5
5F6
330
1F
100
AcDbEntity
  8
0
  6
Continuous
 62
     7
370
    15
100
AcDbCircle
 10
266.4770342088001
 20
102.1878525960555
 30
0.0
 40
0.1937016643107412
100
AcDbArc
 50
278.2403286240982
 51
2.455205287299169
  0
LINE
  5
5F7
330
1F
100
AcDbEntity
  8
0
  6
Continuous
 62
     7
370
    15
100
AcDbLine
 10
267.0955426682849
 20
102.1961504466438
 30
0.0
 11
266.6705580585767
 21
102.1961504466438
 31
0.0
  0
ARC
  5
5F8
330
1F
100
AcDbEntity
  8
0
  6
Continuous
 62
     7
370
    15
100
AcDbCircle
 10
267.9328501935817
 20
102.1369669002484
 30
0.0
 40
0.8393965594893206
100
AcDbArc
 50
175.9568772812967
 51
189.6575332768895
  0
LINE
  5
5F9
330
1F
100
AcDbEntity
  8
0
  6
Continuous
 62
     7
370
    15
100
AcDbLine
 10
261.6003255051692
 20
101.9961507863902
 30
0.0
 11
260.9997726203074
 21
101.9961507863902
 31
0.0
  0
ARC
  5
5FA
330
1F
100
AcDbEntity
  8
0
  6
Continuous
 62
     7
370
    15
100
AcDbCircle
 10
259.4970151143968
 20
102.1700793498276
 30
0.0
 40
1.512789234080448
100
AcDbArc
 50
353.3979838594472
 51
0.9874724999931457
  0
LINE
  5
5FB
330
1F
100
AcDbEntity
  8
0
  6
Continuous
 62
     7
370
    15
100
AcDbLine
 10
261.4345642895569
 20
102.1961504466438
 30
0.0
 11
261.0095796798487
 21
102.1961504466438
 31
0.0
  0
ARC
  5
5FC
330
1F
100
AcDbEntity
  8
0
  6
Continuous
 62
     7
370
    15
100
AcDbCircle
 10
261.6154748245858
 20
102.1773985540497
 30
0.0
 40
0.1818797821648107
100
AcDbArc
 50
174.0822619881268
 51
265.22212502018
  0
LINE
  5
5FD
330
1F
100
AcDbEntity
  8
0
  6
Continuous
 62
     7
370
    15
100
AcDbLine
 10
266.0845424206127
 20
101.9961507863902
 30
0.0
 11
266.0845424206127
 21
103.9961506485545
 31
0.0
  0
LINE
  5
5FE
330
1F
100
AcDbEntity
  8
0
  6
Continuous
 62
     7
370
    15
100
AcDbLine
 10
266.6705580585767
 20
102.1961504466438
 30
0.0
 11
266.6705580585767
 21
103.9961506485545
 31
0.0
  0
LINE
  5
5FF
330
1F
100
AcDbEntity
  8
0
  6
Continuous
 62
     7
370
    15
100
AcDbLine
 10
266.0845424206127
 20
101.9961507863902
 30
0.0
 11
266.5047966101338
 21
101.9961507863902
 31
0.0
  0
LINE
  5
600
330
1F
100
AcDbEntity
  8
0
  6
Continuous
 62
     7
370
    15
100
AcDbLine
 10
262.0205799275209
 20
103.9961506485545
 30
0.0
 11
262.0205799275209
 21
101.9961507863902
 31
0.0
  0
LINE
  5
601
330
1F
100
AcDbEntity
  8
0
  6
Continuous
 62
     7
370
    15
100
AcDbLine
 10
262.0205799275209
 20
101.9961507863902
 30
0.0
 11
261.6003255051692
 21
101.9961507863902
 31
0.0
  0
LINE
  5
602
330
1F
100
AcDbEntity
  8
0
  6
Continuous
 62
     7
370
    15
100
AcDbLine
 10
261.4345642895569
 20
103.9961506485545
 30
0.0
 11
261.4345642895569
 21
102.1961504466438
 31
0.0
  0
LINE
  5
603
330
1F
100
AcDbEntity
  8
0
  6
Continuous
 62
     7
370
    15
100
AcDbLine
 10
261.0095796798487
 20
102.1961504466438
 30
0.0
 11
261.0095796798487
 21
103.9961506485545
 31
0.0
  0
LINE
  5
604
330
1F
100
AcDbEntity
  8
0
  6
Continuous
 62
     7
370
    15
100
AcDbLine
 10
267.0955426682849
 20
103.9961506485545
 30
0.0
 11
267.0955426682849
 21
102.1961504466438
 31
0.0
  0
LINE
  5
605
330
1F
100
AcDbEntity
  8
0
  6
Continuous
 62
     7
370
    15
100
AcDbLine
 10
260.9749093343635
 20
101.9961507863902
 30
0.0
 11
260.9749093343635
 21
103.9961506485545
 31
0.0
  0
LINE
  5
606
330
1F
100
AcDbEntity
  8
0
  6
Continuous
 62
     7
370
    15
100
AcDbLine
 10
260.9749093343635
 20
101.9961507863902
 30
0.0
 11
260.999772853138
 21
101.9961507863902
 31
0.0
  0
LINE
  5
607
330
1F
100
AcDbEntity
  8
0
  6
Continuous
 62
     7
370
    15
100
AcDbLine
 10
267.1302130137701
 20
103.9961506485545
 30
0.0
 11
267.1302130137701
 21
101.9961507863902
 31
0.0
  0
LINE
  5
608
330
1F
100
AcDbEntity
  8
0
  6
Continuous
 62
     7
370
    15
100
AcDbLine
 10
267.1302130137701
 20
101.9961507863902
 30
0.0
 11
267.1053494949956
 21
101.9961507863902
 31
0.0
  0
LINE
  5
609
330
1F
100
AcDbEntity
  8
0
  6
Continuous
 62
     7
370
    15
100
AcDbLine
 10
258.1012539257427
 20
103.9961506485545
 30
0.0
 11
258.1012539257427
 21
101.9961507863902
 31
0.0
  0
LINE
  5
60A
330
1F
100
AcDbEntity
  8
0
  6
Continuous
 62
     7
370
    15
100
AcDbLine
 10
270.003868422391
 20
101.9961507863902
 30
0.0
 11
270.003868422391
 21
103.9961506485545
 31
0.0
  0
LINE
  5
60B
330
1F
100
AcDbEntity
  8
0
  6
Continuous
 62
     7
370
    15
100
AcDbLine
 10
257.3525613797028
 20
101.8461501098775
 30
0.0
 11
270.7525609684308
 21
101.8461501098775
 31
0.0
  0
LINE
  5
60C
330
1F
100
AcDbEntity
  8
0
  6
Continuous
 62
     7
370
    15
100
AcDbLine
 10
241.4025614661295
 20
122.4961504213118
 30
0.0
 11
241.4025614661295
 21
121.8425398565435
 31
0.0
  0
LINE
  5
60D
330
1F
100
AcDbEntity
  8
0
  6
Continuous
 62
     7
370
    15
100
AcDbLine
 10
257.7025612508078
 20
100.5461504555845
 30
0.0
 11
270.4025610973258
 21
100.5461504555845
 31
0.0
  0
LINE
  5
60E
330
1F
100
AcDbEntity
  8
0
  6
Continuous
 62
     7
370
    15
100
AcDbLine
 10
257.7025612508078
 20
99.39615054648157
 30
0.0
 11
270.4025610973258
 21
99.39615054648157
 31
0.0
  0
LINE
  5
60F
330
1F
100
AcDbEntity
  8
0
  6
Continuous
 62
     7
370
    15
100
AcDbLine
 10
257.7025612508078
 20
98.19615072231528
 30
0.0
 11
270.4025610973258
 21
98.19615072231528
 31
0.0
  0
LINE
  5
610
330
1F
100
AcDbEntity
  8
0
  6
Continuous
 62
     7
370
    15
100
AcDbLine
 10
257.7025612508078
 20
97.59615081023213
 30
0.0
 11
270.4025610973258
 21
97.59615081023213
 31
0.0
  0
ARC
  5
611
330
1F
100
AcDbEntity
  8
0
  6
Continuous
 62
     7
370
    15
100
AcDbCircle
 10
264.0525611740668
 20
96.40074113877426
 30
0.0
 40
2.404632808945493
100
AcDbArc
 50
243.6392719609907
 51
296.3607280390109
  0
LINE
  5
612
330
1F
100
AcDbEntity
  8
0
  6
Continuous
 62
     7
370
    15
100
AcDbLine
 10
258.5525612038691
 20
93.99615040641064
 30
0.0
 11
269.5525611442645
 21
93.99615040641064
 31
0.0
  0
LINE
  5
613
330
1F
100
AcDbEntity
  8
0
  6
Continuous
 62
     7
370
    15
100
AcDbLine
 10
259.413816655906
 20
97.34615030359265
 30
0.0
 11
259.413816655906
 21
96.14615047942635
 31
0.0
  0
LWPOLYLINE
  5
614
330
1F
100
AcDbEntity
  8
0
  6
Continuous
 62
     7
370
    15
100
AcDbPolyline
 90
        3
 70
   128
 43
0.0
 10
259.413816655906
 20
97.34615030359265
 10
259.4007683609743
 20
97.4768698088431
 10
259.3632551533301
 20
97.59615081023213
  0
LINE
  5
615
330
1F
100
AcDbEntity
  8
0
  6
Continuous
 62
     7
370
    15
100
AcDbLine
 10
262.9848533933182
 20
94.24615091305012
 30
0.0
 11
262.9848533933182
 21
97.59615081023213
 31
0.0
  0
LWPOLYLINE
  5
616
330
1F
100
AcDbEntity
  8
0
  6
Continuous
 62
     7
370
    15
100
AcDbPolyline
 90
        7
 70
   128
 43
0.0
 10
259.413816655906
 20
96.14615047942635
 10
259.4045495306273
 20
96.03754429738756
 10
259.3787938048263
 20
95.9361828736567
 10
259.3414254178424
 20
95.85039875130886
 10
259.2931088683327
 20
95.77602891843552
 10
259.1851583373864
 20
95.67895716648335
 10
259.0729148750325
 20
95.64615039746994
  0
LWPOLYLINE
  5
617
330
1F
100
AcDbEntity
  8
0
  6
Continuous
 62
     7
370
    15
100
AcDbPolyline
 90
        3
 70
   128
 43
0.0
 10
268.6913056922276
 20
97.34615030359265
 10
268.7043539871593
 20
97.4768698088431
 10
268.7418671948035
 20
97.59615081023213
  0
LINE
  5
618
330
1F
100
AcDbEntity
  8
0
  6
Continuous
 62
     7
370
    15
100
AcDbLine
 10
268.6913056922276
 20
96.14615047942635
 30
0.0
 11
268.6913056922276
 21
97.34615030359265
 31
0.0
  0
LWPOLYLINE
  5
619
330
1F
100
AcDbEntity
  8
0
  6
Continuous
 62
     7
370
    15
100
AcDbPolyline
 90
        7
 70
   128
 43
0.0
 10
269.0322074731012
 20
95.64615039746994
 10
268.9199640107472
 20
95.67895716648335
 10
268.812013479801
 20
95.77602891843552
 10
268.7637146254201
 20
95.85036522369618
 10
268.7263285433073
 20
95.9361828736567
 10
268.7005732831676
 20
96.03752287696835
 10
268.6913056922276
 20
96.14615047942635
  0
LINE
  5
61A
330
1F
100
AcDbEntity
  8
0
  6
Continuous
 62
     7
370
    15
100
AcDbLine
 10
265.1202689548154
 20
97.59615081023213
 30
0.0
 11
265.1202689548154
 21
94.24615091305012
 31
0.0
  0
LINE
  5
61B
330
1F
100
AcDbEntity
  8
0
  6
Continuous
 62
     7
370
    15
100
AcDbLine
 10
240.0618872297127
 20
120.202149251809
 30
0.0
 11
240.702560792597
 21
120.3377507499956
 31
0.0
  0
LINE
  5
61C
330
1F
100
AcDbEntity
  8
0
  6
Continuous
 62
     7
370
    15
100
AcDbLine
 10
240.0025619817097
 20
120.133006932547
 30
0.0
 11
240.0025619817097
 21
119.9394278101229
 31
0.0
  0
ARC
  5
61D
330
1F
100
AcDbEntity
  8
0
  6
Continuous
 62
     7
370
    15
100
AcDbCircle
 10
240.073304654222
 20
120.132330734382
 30
0.0
 40
0.0707459041792402
100
AcDbArc
 50
99.28737512076862
 51
179.4523514619879
  0
LINE
  5
61E
330
1F
100
AcDbEntity
  8
0
  6
Continuous
 62
     7
370
    15
100
AcDbLine
 10
240.702560792597
 20
106.6545499361657
 30
0.0
 11
240.0618872297127
 21
106.7901523656749
 31
0.0
  0
ARC
  5
61F
330
1F
100
AcDbEntity
  8
0
  6
Continuous
 62
     7
370
    15
100
AcDbCircle
 10
240.0724547061005
 20
106.8592416129151
 30
0.0
 40
0.0698927438395751
100
AcDbArc
 50
179.957256760545
 51
261.3037794542993
  0
LINE
  5
620
330
1F
100
AcDbEntity
  8
0
  6
Continuous
 62
     7
370
    15
100
AcDbLine
 10
240.0025619817097
 20
106.8592937536144
 30
0.0
 11
240.0025619817097
 21
107.0528733416998
 31
0.0
  0
LINE
  5
621
330
1F
100
AcDbEntity
  8
0
  6
Continuous
 62
     7
370
    15
100
AcDbLine
 10
240.0025619817097
 20
121.0195263720655
 30
0.0
 11
240.0025619817097
 21
120.133006932547
 31
0.0
  0
LINE
  5
622
330
1F
100
AcDbEntity
  8
0
  6
Continuous
 62
     7
370
    15
100
AcDbLine
 10
240.0025619817097
 20
106.8592937536144
 30
0.0
 11
240.0025619817097
 21
105.9727514966928
 31
0.0
  0
LINE
  5
623
330
1F
100
AcDbEntity
  8
0
  6
Continuous
 62
     7
370
    15
100
AcDbLine
 10
259.413816655906
 20
96.14615047942635
 30
0.0
 11
259.3663299148102
 21
96.14615047942635
 31
0.0
  0
LINE
  5
624
330
1F
100
AcDbEntity
  8
0
  6
Continuous
 62
     7
370
    15
100
AcDbLine
 10
259.413816655906
 20
97.34615030359265
 30
0.0
 11
259.3663299148102
 21
97.34615030359265
 31
0.0
  0
LINE
  5
625
330
1F
100
AcDbEntity
  8
0
  6
Continuous
 62
     7
370
    15
100
AcDbLine
 10
268.6913056922276
 20
97.34615030359265
 30
0.0
 11
268.7387924333234
 21
97.34615030359265
 31
0.0
  0
LINE
  5
626
330
1F
100
AcDbEntity
  8
0
  6
Continuous
 62
     7
370
    15
100
AcDbLine
 10
268.6913056922276
 20
96.14615047942635
 30
0.0
 11
268.7387924333234
 21
96.14615047942635
 31
0.0
  0
ARC
  5
627
330
1F
100
AcDbEntity
  8
0
  6
Continuous
 62
     7
370
    15
100
AcDbCircle
 10
259.307465325796
 20
95.66177421851994
 30
0.0
 40
0.2350702400083691
100
AcDbArc
 50
94.4023636437665
 51
183.8109434831514
  0
ARC
  5
628
330
1F
100
AcDbEntity
  8
0
  6
Continuous
 62
     7
370
    15
100
AcDbCircle
 10
268.7976570223527
 20
95.66177421853309
 30
0.0
 40
0.2350702399941432
100
AcDbArc
 50
356.189056513455
 51
85.59763635966289
  0
LINE
  5
629
330
1F
100
AcDbEntity
  8
0
  6
Continuous
 62
     7
370
    15
100
AcDbLine
 10
270.5733349238653
 20
101.9961507863902
 30
0.0
 11
270.8220916492064
 21
101.9961507863902
 31
0.0
  0
ARC
  5
62A
330
1F
100
AcDbEntity
  8
0
  6
Continuous
 62
     7
370
    15
100
AcDbCircle
 10
270.5830882630555
 20
102.2113262835404
 30
0.0
 40
0.2153964514166915
100
AcDbArc
 50
267.4045857416247
 51
355.9598573672754
  0
LINE
  5
62B
330
1F
100
AcDbEntity
  8
0
  6
Continuous
 62
     7
370
    15
100
AcDbLine
 10
270.797949439766
 20
102.1961504466438
 30
0.0
 11
270.9739838418682
 21
102.1961504466438
 31
0.0
  0
LWPOLYLINE
  5
62C
330
1F
100
AcDbEntity
  8
0
  6
Continuous
 62
     7
370
    15
100
AcDbPolyline
 90
        6
 70
   128
 43
0.0
 10
270.8220916492064
 20
101.9961507863902
 10
270.8775654127021
 20
102.0098999015593
 10
270.9266558912714
 20
102.0509395621323
 10
270.9595567238648
 20
102.1109446756148
 10
270.9732178290506
 20
102.1760543681287
 10
270.9739838418682
 20
102.1961504466438
  0
LINE
  5
62D
330
1F
100
AcDbEntity
  8
0
  6
Continuous
 62
     7
370
    15
100
AcDbLine
 10
257.5317878899296
 20
101.9961507863902
 30
0.0
 11
257.2830311645885
 21
101.9961507863902
 31
0.0
  0
LWPOLYLINE
  5
62E
330
1F
100
AcDbEntity
  8
0
  6
Continuous
 62
     7
370
    15
100
AcDbPolyline
 90
        6
 70
   128
 43
0.0
 10
257.2830306989272
 20
101.9961507863902
 10
257.2275574010928
 20
102.0098999015593
 10
257.1784669225235
 20
102.0509395621323
 10
257.1455656242688
 20
102.1109446756148
 10
257.131904519083
 20
102.1760543681287
 10
257.1311385062654
 20
102.1961504466438
  0
LINE
  5
62F
330
1F
100
AcDbEntity
  8
0
  6
Continuous
 62
     7
370
    15
100
AcDbLine
 10
257.3071729083677
 20
102.1961504466438
 30
0.0
 11
257.1311385062654
 21
102.1961504466438
 31
0.0
  0
ARC
  5
630
330
1F
100
AcDbEntity
  8
0
  6
Continuous
 62
     7
370
    15
100
AcDbCircle
 10
257.5220340850564
 20
102.211326283516
 30
0.0
 40
0.215396451393329
100
AcDbArc
 50
184.0401426267222
 51
272.5954142644406
  0
LINE
  5
631
330
1F
100
AcDbEntity
  8
0
  6
Continuous
 62
     7
370
    15
100
AcDbLine
 10
258.1012539257427
 20
101.9961507863902
 30
0.0
 11
257.5317878899296
 21
101.9961507863902
 31
0.0
  0
LINE
  5
632
330
1F
100
AcDbEntity
  8
0
  6
Continuous
 62
     7
370
    15
100
AcDbLine
 10
257.3071729083677
 20
103.9961506485545
 30
0.0
 11
257.3071729083677
 21
102.1961504466438
 31
0.0
  0
LINE
  5
633
330
1F
100
AcDbEntity
  8
0
  6
Continuous
 62
     7
370
    15
100
AcDbLine
 10
270.797949439766
 20
103.9961506485545
 30
0.0
 11
270.797949439766
 21
102.1961504466438
 31
0.0
  0
LINE
  5
634
330
1F
100
AcDbEntity
  8
0
  6
Continuous
 62
     7
370
    15
100
AcDbLine
 10
270.5733344582041
 20
101.9961507863902
 30
0.0
 11
270.003868422391
 21
101.9961507863902
 31
0.0
  0
LINE
  5
635
330
1F
100
AcDbEntity
  8
0
  6
Continuous
 62
     7
370
    15
100
AcDbLine
 10
270.9739838418682
 20
102.1961504466438
 30
0.0
 11
270.9739838418682
 21
103.9961506485545
 31
0.0
  0
LINE
  5
636
330
1F
100
AcDbEntity
  8
0
  6
Continuous
 62
     7
370
    15
100
AcDbLine
 10
257.1311385062654
 20
102.1961504466438
 30
0.0
 11
257.1311385062654
 21
103.9961506485545
 31
0.0
  0
LINE
  5
637
330
1F
100
AcDbEntity
  8
0
  6
Continuous
 62
     7
370
    15
100
AcDbLine
 10
259.2894212965985
 20
95.89615090410942
 30
0.0
 11
258.5525612038691
 21
95.89615090410942
 31
0.0
  0
LINE
  5
638
330
1F
100
AcDbEntity
  8
0
  6
Continuous
 62
     7
370
    15
100
AcDbLine
 10
269.5525611442645
 20
95.89615090410942
 30
0.0
 11
268.8157010515352
 21
95.89615090410942
 31
0.0
  0
LINE
  5
639
330
1F
100
AcDbEntity
  8
0
  6
Continuous
 62
     7
370
    15
100
AcDbLine
 10
271.3556873303969
 20
103.9961506485545
 30
0.0
 11
271.3556873303969
 21
102.1961504466438
 31
0.0
  0
ARC
  5
63A
330
1F
100
AcDbEntity
  8
0
  6
Continuous
 62
     7
370
    15
100
AcDbCircle
 10
271.1472108000803
 20
102.2047185573479
 30
0.0
 40
0.2086525250599027
100
AcDbArc
 50
268.3668695600669
 51
357.6465434351597
  0
LINE
  5
63B
330
1F
100
AcDbEntity
  8
0
  6
Continuous
 62
     7
370
    15
100
AcDbLine
 10
270.8491116454025
 20
101.9961507863902
 30
0.0
 11
271.1412647430916
 21
101.9961507863902
 31
0.0
  0
ARC
  5
63C
330
1F
100
AcDbEntity
  8
0
  6
Continuous
 62
     7
370
    15
100
AcDbCircle
 10
256.9579115480455
 20
102.2047185573396
 30
0.0
 40
0.2086525250518733
100
AcDbArc
 50
182.3534565625101
 51
271.6331304421057
  0
LINE
  5
63D
330
1F
100
AcDbEntity
  8
0
  6
Continuous
 62
     7
370
    15
100
AcDbLine
 10
256.7494350177367
 20
103.9961506485545
 30
0.0
 11
256.7494350177367
 21
102.1961504466438
 31
0.0
  0
LINE
  5
63E
330
1F
100
AcDbEntity
  8
0
  6
Continuous
 62
     7
370
    15
100
AcDbLine
 10
257.2560116340537
 20
101.9961507863902
 30
0.0
 11
256.9638580707033
 21
101.9961507863902
 31
0.0
  0
LINE
  5
63F
330
1F
100
AcDbEntity
  8
0
  6
Continuous
 62
     7
370
    15
100
AcDbLine
 10
271.4157296967824
 20
102.1961504466438
 30
0.0
 11
271.3556873303969
 21
102.1961504466438
 31
0.0
  0
ARC
  5
640
330
1F
100
AcDbEntity
  8
0
  6
Continuous
 62
     7
370
    15
100
AcDbCircle
 10
271.2183932041626
 20
102.1933561160683
 30
0.0
 40
0.1973562758131807
100
AcDbArc
 50
272.2410463705601
 51
0.8112673272406645
  0
LINE
  5
641
330
1F
100
AcDbEntity
  8
0
  6
Continuous
 62
     7
370
    15
100
AcDbLine
 10
271.1412647430916
 20
101.9961507863902
 30
0.0
 11
271.2261110236068
 21
101.9961507863902
 31
0.0
  0
ARC
  5
642
330
1F
100
AcDbEntity
  8
0
  6
Continuous
 62
     7
370
    15
100
AcDbCircle
 10
256.8867304742197
 20
102.1933573772735
 30
0.0
 40
0.1973575880755051
100
AcDbArc
 50
179.1891042498064
 51
267.7585820519315
  0
LINE
  5
643
330
1F
100
AcDbEntity
  8
0
  6
Continuous
 62
     7
370
    15
100
AcDbLine
 10
256.7494350177367
 20
102.1961504466438
 30
0.0
 11
256.6893926513512
 21
102.1961504466438
 31
0.0
  0
LINE
  5
644
330
1F
100
AcDbEntity
  8
0
  6
Continuous
 62
     7
370
    15
100
AcDbLine
 10
256.9638580707033
 20
101.9961507863902
 30
0.0
 11
256.8790122558494
 21
101.9961507863902
 31
0.0
  0
LINE
  5
645
330
1F
100
AcDbEntity
  8
0
  6
Continuous
 62
     7
370
    15
100
AcDbLine
 10
256.6893926513512
 20
102.1961504466438
 30
0.0
 11
256.6893926513512
 21
103.9961506485545
 31
0.0
  0
LINE
  5
646
330
1F
100
AcDbEntity
  8
0
  6
Continuous
 62
     7
370
    15
100
AcDbLine
 10
271.4157296967824
 20
102.1961504466438
 30
0.0
 11
271.4157296967824
 21
103.9961506485545
 31
0.0
  0
ARC
  5
647
330
1F
100
AcDbEntity
  8
0
  6
Continuous
 62
     7
370
    15
100
AcDbCircle
 10
234.5922903732873
 20
113.4371046204605
 30
0.0
 40
1.705751518334066
100
AcDbArc
 50
125.4667415337712
 51
178.0162643825781
  0
ARC
  5
648
330
1F
100
AcDbEntity
  8
0
  6
Continuous
 62
     7
370
    15
100
AcDbCircle
 10
234.5901462848149
 20
113.5549661246915
 30
0.0
 40
1.703600746263227
100
AcDbArc
 50
181.9784873435858
 51
234.5702555664705
  0
LINE
  5
649
330
1F
100
AcDbEntity
  8
0
  6
Continuous
 62
     7
370
    15
100
AcDbLine
 10
232.2025621933062
 20
117.0930242970192
 30
0.0
 11
232.2025621933062
 21
109.8992768548035
 31
0.0
  0
LINE
  5
64A
330
1F
100
AcDbEntity
  8
0
  6
Continuous
 62
     7
370
    15
100
AcDbLine
 10
232.2025621933062
 20
109.8992768548035
 30
0.0
 11
231.7025611800272
 21
110.4650616053098
 31
0.0
  0
LINE
  5
64B
330
1F
100
AcDbEntity
  8
0
  6
Continuous
 62
     7
370
    15
100
AcDbLine
 10
231.7025611800272
 20
116.5272393136822
 30
0.0
 11
231.7025611800272
 21
110.4650616053098
 31
0.0
  0
LINE
  5
64C
330
1F
100
AcDbEntity
  8
0
  6
Continuous
 62
     7
370
    15
100
AcDbLine
 10
231.7025611800272
 20
116.5272393136822
 30
0.0
 11
232.2025621933062
 21
117.0930242970192
 31
0.0
  0
LINE
  5
64D
330
1F
100
AcDbEntity
  8
0
  6
Continuous
 62
     7
370
    15
100
AcDbLine
 10
232.2025621933062
 20
109.8992768548035
 30
0.0
 11
233.602561677726
 21
109.8992768548035
 31
0.0
  0
LINE
  5
64E
330
1F
100
AcDbEntity
  8
0
  6
Continuous
 62
     7
370
    15
100
AcDbLine
 10
233.602561677726
 20
117.0930242970192
 30
0.0
 11
232.2025621933062
 21
117.0930242970192
 31
0.0
  0
LINE
  5
64F
330
1F
100
AcDbEntity
  8
0
  6
Continuous
 62
     7
370
    15
100
AcDbLine
 10
258.3025611628909
 20
94.24615091305012
 30
0.0
 11
262.9848533933182
 21
94.24615091305012
 31
0.0
  0
LINE
  5
650
330
1F
100
AcDbEntity
  8
0
  6
Continuous
 62
     7
370
    15
100
AcDbLine
 10
265.1202689548154
 20
94.24615091305012
 30
0.0
 11
269.8025611852427
 21
94.24615091305012
 31
0.0
  0
LINE
  5
651
330
1F
100
AcDbEntity
  8
0
  6
Continuous
 62
     7
370
    15
100
AcDbLine
 10
259.0729148750325
 20
95.64615039746994
 30
0.0
 11
258.3025611628909
 21
95.64615039746994
 31
0.0
  0
LINE
  5
652
330
1F
100
AcDbEntity
  8
0
  6
Continuous
 62
     7
370
    15
100
AcDbLine
 10
269.8025611852427
 20
95.64615039746994
 30
0.0
 11
269.0322074731012
 21
95.64615039746994
 31
0.0
  0
LINE
  5
653
330
1F
100
AcDbEntity
  8
0
  6
Continuous
 62
     7
370
    15
100
AcDbLine
 10
240.0618872297127
 20
121.1109040177964
 30
0.0
 11
240.0618872297127
 21
120.202149251809
 31
0.0
  0
LINE
  5
654
330
1F
100
AcDbEntity
  8
0
  6
Continuous
 62
     7
370
    15
100
AcDbLine
 10
240.0618872297127
 20
106.7901523656749
 30
0.0
 11
240.0618872297127
 21
105.8813966683649
 31
0.0
  0
ENDSEC
  0
SECTION
  2
OBJECTS
  0
DICTIONARY
  5
C
330
0
100
AcDbDictionary
281
     1
  3
ACAD_COLOR
350
658
  3
ACAD_GROUP
350
D
  3
ACAD_LAYOUT
350
1A
  3
ACAD_MATERIAL
350
657
  3
ACAD_MLINESTYLE
350
17
  3
ACAD_PLOTSETTINGS
350
19
  3
ACAD_PLOTSTYLENAME
350
E
  3
ACAD_TABLESTYLE
350
659
  3
AcDbVariableDictionary
350
65E
  0
DICTIONARY
  5
658
102
{ACAD_REACTORS
330
C
102
}
330
C
100
AcDbDictionary
281
     1
  0
DICTIONARY
  5
D
102
{ACAD_REACTORS
330
C
102
}
330
C
100
AcDbDictionary
281
     1
  0
DICTIONARY
  5
1A
102
{ACAD_REACTORS
330
C
102
}
330
C
100
AcDbDictionary
281
     1
  3
Layout1
350
1E
  3
Layout2
350
26
  3
Model
350
22
  0
DICTIONARY
  5
657
102
{ACAD_REACTORS
330
C
102
}
330
C
100
AcDbDictionary
281
     1
  0
DICTIONARY
  5
17
102
{ACAD_REACTORS
330
C
102
}
330
C
100
AcDbDictionary
281
     1
  3
Standard
350
18
  0
DICTIONARY
  5
19
102
{ACAD_REACTORS
330
C
102
}
330
C
100
AcDbDictionary
281
     1
  0
ACDBDICTIONARYWDFLT
  5
E
102
{ACAD_REACTORS
330
C
102
}
330
C
100
AcDbDictionary
281
     1
  3
Normal
350
F
100
AcDbDictionaryWithDefault
340
F
  0
DICTIONARY
  5
659
102
{ACAD_REACTORS
330
C
102
}
330
C
100
AcDbDictionary
281
     1
  3
Standard
350
65A
  0
DICTIONARY
  5
65E
102
{ACAD_REACTORS
330
C
102
}
330
C
100
AcDbDictionary
281
     1
  3
CTABLESTYLE
350
65F
  0
LAYOUT
  5
1E
102
{ACAD_REACTORS
330
1A
102
}
330
1A
100
AcDbPlotSettings
  1

  2

  4

  6

 40
0.0
 41
0.0
 42
0.0
 43
0.0
 44
0.0
 45
0.0
 46
0.0
 47
0.0
 48
0.0
 49
0.0
140
0.0
141
0.0
142
1.0
143
1.0
 70
   688
 72
     0
 73
     0
 74
     5
  7

 75
    16
147
1.0
 76
     0
 77
     2
 78
   300
148
0.0
149
0.0
100
AcDbLayout
  1
Layout1
 70
     1
 71
     1
 10
0.0
 20
0.0
 11
420.0
 21
297.0
 12
0.0
 22
0.0
 32
0.0
 14
1.000000000000000E+20
 24
1.000000000000000E+20
 34
1.000000000000000E+20
 15
-1.000000000000000E+20
 25
-1.000000000000000E+20
 35
-1.000000000000000E+20
146
0.0
 13
0.0
 23
0.0
 33
0.0
 16
1.0
 26
0.0
 36
0.0
 17
0.0
 27
1.0
 37
0.0
 76
     0
330
1B
  0
LAYOUT
  5
26
102
{ACAD_REACTORS
330
1A
102
}
330
1A
100
AcDbPlotSettings
  1

  2

  4

  6

 40
0.0
 41
0.0
 42
0.0
 43
0.0
 44
0.0
 45
0.0
 46
0.0
 47
0.0
 48
0.0
 49
0.0
140
0.0
141
0.0
142
1.0
143
1.0
 70
   688
 72
     0
 73
     0
 74
     5
  7

 75
    16
147
1.0
 76
     0
 77
     2
 78
   300
148
0.0
149
0.0
100
AcDbLayout
  1
Layout2
 70
     1
 71
     2
 10
0.0
 20
0.0
 11
0.0
 21
0.0
 12
0.0
 22
0.0
 32
0.0
 14
0.0
 24
0.0
 34
0.0
 15
0.0
 25
0.0
 35
0.0
146
0.0
 13
0.0
 23
0.0
 33
0.0
 16
1.0
 26
0.0
 36
0.0
 17
0.0
 27
1.0
 37
0.0
 76
     0
330
23
  0
LAYOUT
  5
22
102
{ACAD_REACTORS
330
1A
102
}
330
1A
100
AcDbPlotSettings
  1

  2

  4

  6

 40
0.0
 41
0.0
 42
0.0
 43
0.0
 44
0.0
 45
0.0
 46
0.0
 47
0.0
 48
0.0
 49
0.0
140
0.0
141
0.0
142
1.0
143
1.0
 70
  1712
 72
     0
 73
     0
 74
     0
  7

 75
     0
147
1.0
 76
     0
 77
     2
 78
   300
148
0.0
149
0.0
100
AcDbLayout
  1
Model
 70
     1
 71
     0
 10
0.0
 20
0.0
 11
0.0
 21
0.0
 12
0.0
 22
0.0
 32
0.0
 14
0.0
 24
0.0
 34
0.0
 15
279.4
 25
215.9
 35
0.0
146
0.0
 13
0.0
 23
0.0
 33
0.0
 16
1.0
 26
0.0
 36
0.0
 17
0.0
 27
1.0
 37
0.0
 76
     0
330
1F
  0
MLINESTYLE
  5
18
102
{ACAD_REACTORS
330
17
102
}
330
17
100
AcDbMlineStyle
  2
STANDARD
 70
     0
  3

 62
   256
 51
90.0
 52
90.0
 71
     2
 49
0.5
 62
   256
  6
BYLAYER
 49
-0.5
 62
   256
  6
BYLAYER
  0
ACDBPLACEHOLDER
  5
F
102
{ACAD_REACTORS
330
E
102
}
330
E
  0
TABLESTYLE
  5
65A
102
{ACAD_REACTORS
330
659
102
}
330
659
100
AcDbTableStyle
  3
Standard
 70
     0
 71
     8
 40
1.5
 41
1.5
280
     0
281
     0
  7
Standard
140
4.5
170
     2
 62
     0
 63
     7
283
     0
274
    -2
284
     1
 64
     0
275
    -2
285
     1
 65
     0
276
    -2
286
     1
 66
     0
277
    -2
287
     1
 67
     0
278
    -2
288
     1
 68
     0
279
    -2
289
     1
 69
     0
  7
Standard
140
6.0
170
     5
 62
     0
 63
     7
283
     0
274
    -2
284
     1
 64
     0
275
    -2
285
     1
 65
     0
276
    -2
286
     1
 66
     0
277
    -2
287
     1
 67
     0
278
    -2
288
     1
 68
     0
279
    -2
289
     1
 69
     0
  7
Standard
140
4.5
170
     5
 62
     0
 63
     7
283
     0
274
    -2
284
     1
 64
     0
275
    -2
285
     1
 65
     0
276
    -2
286
     1
 66
     0
277
    -2
287
     1
 67
     0
278
    -2
288
     1
 68
     0
279
    -2
289
     1
 69
     0
  0
DICTIONARYVAR
  5
65F
102
{ACAD_REACTORS
330
65E
102
}
330
65E
100
DictionaryVariables
280
     0
  1
STANDARD
  0
ENDSEC
  0
EOF
