  0
SECTION
  2
HEADER
  9
$ACADVER
  1
AC1018
  9
$ACADMAINTVER
 70
    77
  9
$DWGCODEPAGE
  3
ANSI_1252
  9
$INSBASE
 10
0.0
 20
0.0
 30
0.0
  9
$EXTMIN
 10
115.5159607131601
 20
94.28455772254229
 30
0.0
  9
$EXTMAX
 10
158.1659610931397
 20
122.7845998140244
 30
0.0
  9
$LIMMIN
 10
0.0
 20
0.0
  9
$LIMMAX
 10
420.0
 20
297.0
  9
$ORTHOMODE
 70
     0
  9
$REGENMODE
 70
     1
  9
$FILLMODE
 70
     1
  9
$QTEXTMODE
 70
     0
  9
$MIRRTEXT
 70
     1
  9
$LTSCALE
 40
1.0
  9
$ATTMODE
 70
     1
  9
$TEXTSIZE
 40
2.5
  9
$TRACEWID
 40
1.0
  9
$TEXTSTYLE
  7
Standard
  9
$CLAYER
  8
0
  9
$CELTYPE
  6
ByLayer
  9
$CECOLOR
 62
   256
  9
$CELTSCALE
 40
1.0
  9
$DISPSILH
 70
     0
  9
$DIMSCALE
 40
1.0
  9
$DIMASZ
 40
6.0
  9
$DIMEXO
 40
1.0
  9
$DIMDLI
 40
3.75
  9
$DIMRND
 40
0.0
  9
$DIMDLE
 40
0.0
  9
$DIMEXE
 40
1.0
  9
$DIMTP
 40
0.0
  9
$DIMTM
 40
0.0
  9
$DIMTXT
 40
3.5
  9
$DIMCEN
 40
2.5
  9
$DIMTSZ
 40
0.0
  9
$DIMTOL
 70
     0
  9
$DIMLIM
 70
     0
  9
$DIMTIH
 70
     1
  9
$DIMTOH
 70
     1
  9
$DIMSE1
 70
     0
  9
$DIMSE2
 70
     0
  9
$DIMTAD
 70
     1
  9
$DIMZIN
 70
     0
  9
$DIMBLK
  1

  9
$DIMASO
 70
     1
  9
$DIMSHO
 70
     1
  9
$DIMPOST
  1

  9
$DIMAPOST
  1

  9
$DIMALT
 70
     0
  9
$DIMALTD
 70
     3
  9
$DIMALTF
 40
0.0394
  9
$DIMLFAC
 40
1.0
  9
$DIMTOFL
 70
     1
  9
$DIMTVP
 40
0.0
  9
$DIMTIX
 70
     0
  9
$DIMSOXD
 70
     0
  9
$DIMSAH
 70
     0
  9
$DIMBLK1
  1

  9
$DIMBLK2
  1

  9
$DIMSTYLE
  2
ISO-25
  9
$DIMCLRD
 70
     0
  9
$DIMCLRE
 70
     0
  9
$DIMCLRT
 70
     0
  9
$DIMTFAC
 40
1.0
  9
$DIMGAP
 40
1.524
  9
$DIMJUST
 70
     0
  9
$DIMSD1
 70
     0
  9
$DIMSD2
 70
     0
  9
$DIMTOLJ
 70
     0
  9
$DIMTZIN
 70
     0
  9
$DIMALTZ
 70
     0
  9
$DIMALTTZ
 70
     0
  9
$DIMUPT
 70
     0
  9
$DIMDEC
 70
     2
  9
$DIMTDEC
 70
     2
  9
$DIMALTU
 70
     2
  9
$DIMALTTD
 70
     3
  9
$DIMTXSTY
  7
Standard
  9
$DIMAUNIT
 70
     0
  9
$DIMADEC
 70
     0
  9
$DIMALTRND
 40
0.0
  9
$DIMAZIN
 70
     0
  9
$DIMDSEP
 70
    44
  9
$DIMATFIT
 70
     3
  9
$DIMFRAC
 70
     0
  9
$DIMLDRBLK
  1

  9
$DIMLUNIT
 70
     2
  9
$DIMLWD
 70
    -2
  9
$DIMLWE
 70
    -2
  9
$DIMTMOVE
 70
     0
  9
$LUNITS
 70
     2
  9
$LUPREC
 70
     2
  9
$SKETCHINC
 40
1.0
  9
$FILLETRAD
 40
10.0
  9
$AUNITS
 70
     0
  9
$AUPREC
 70
     0
  9
$MENU
  1
.
  9
$ELEVATION
 40
0.0
  9
$PELEVATION
 40
0.0
  9
$THICKNESS
 40
0.0
  9
$LIMCHECK
 70
     0
  9
$CHAMFERA
 40
10.0
  9
$CHAMFERB
 40
10.0
  9
$CHAMFERC
 40
20.0
  9
$CHAMFERD
 40
0.0
  9
$SKPOLY
 70
     0
  9
$TDCREATE
 40
2454502.631635370
  9
$TDUCREATE
 40
2454502.589968704
  9
$TDUPDATE
 40
2454515.409964005
  9
$TDUUPDATE
 40
2454515.368297338
  9
$TDINDWG
 40
0.0034402315
  9
$TDUSRTIMER
 40
0.0034402315
  9
$USRTIMER
 70
     1
  9
$ANGBASE
 50
0.0
  9
$ANGDIR
 70
     0
  9
$PDMODE
 70
     0
  9
$PDSIZE
 40
-1.0
  9
$PLINEWID
 40
0.0
  9
$SPLFRAME
 70
     0
  9
$SPLINETYPE
 70
     6
  9
$SPLINESEGS
 70
     8
  9
$HANDSEED
  5
667
  9
$SURFTAB1
 70
     6
  9
$SURFTAB2
 70
     6
  9
$SURFTYPE
 70
     6
  9
$SURFU
 70
     6
  9
$SURFV
 70
     6
  9
$UCSBASE
  2

  9
$UCSNAME
  2

  9
$UCSORG
 10
0.0
 20
0.0
 30
0.0
  9
$UCSXDIR
 10
1.0
 20
0.0
 30
0.0
  9
$UCSYDIR
 10
0.0
 20
1.0
 30
0.0
  9
$UCSORTHOREF
  2

  9
$UCSORTHOVIEW
 70
     0
  9
$UCSORGTOP
 10
0.0
 20
0.0
 30
0.0
  9
$UCSORGBOTTOM
 10
0.0
 20
0.0
 30
0.0
  9
$UCSORGLEFT
 10
0.0
 20
0.0
 30
0.0
  9
$UCSORGRIGHT
 10
0.0
 20
0.0
 30
0.0
  9
$UCSORGFRONT
 10
0.0
 20
0.0
 30
0.0
  9
$UCSORGBACK
 10
0.0
 20
0.0
 30
0.0
  9
$PUCSBASE
  2

  9
$PUCSNAME
  2

  9
$PUCSORG
 10
0.0
 20
0.0
 30
0.0
  9
$PUCSXDIR
 10
1.0
 20
0.0
 30
0.0
  9
$PUCSYDIR
 10
0.0
 20
1.0
 30
0.0
  9
$PUCSORTHOREF
  2

  9
$PUCSORTHOVIEW
 70
     0
  9
$PUCSORGTOP
 10
0.0
 20
0.0
 30
0.0
  9
$PUCSORGBOTTOM
 10
0.0
 20
0.0
 30
0.0
  9
$PUCSORGLEFT
 10
0.0
 20
0.0
 30
0.0
  9
$PUCSORGRIGHT
 10
0.0
 20
0.0
 30
0.0
  9
$PUCSORGFRONT
 10
0.0
 20
0.0
 30
0.0
  9
$PUCSORGBACK
 10
0.0
 20
0.0
 30
0.0
  9
$USERI1
 70
     0
  9
$USERI2
 70
     0
  9
$USERI3
 70
     0
  9
$USERI4
 70
     0
  9
$USERI5
 70
     0
  9
$USERR1
 40
0.0
  9
$USERR2
 40
0.0
  9
$USERR3
 40
0.0
  9
$USERR4
 40
0.0
  9
$USERR5
 40
0.0
  9
$WORLDVIEW
 70
     1
  9
$SHADEDGE
 70
     3
  9
$SHADEDIF
 70
    70
  9
$TILEMODE
 70
     1
  9
$MAXACTVP
 70
    64
  9
$PINSBASE
 10
0.0
 20
0.0
 30
0.0
  9
$PLIMCHECK
 70
     0
  9
$PEXTMIN
 10
1.000000000000000E+20
 20
1.000000000000000E+20
 30
1.000000000000000E+20
  9
$PEXTMAX
 10
-1.000000000000000E+20
 20
-1.000000000000000E+20
 30
-1.000000000000000E+20
  9
$PLIMMIN
 10
0.0
 20
0.0
  9
$PLIMMAX
 10
420.0
 20
297.0
  9
$UNITMODE
 70
     0
  9
$VISRETAIN
 70
     1
  9
$PLINEGEN
 70
     0
  9
$PSLTSCALE
 70
     1
  9
$TREEDEPTH
 70
  3020
  9
$CMLSTYLE
  2
Standard
  9
$CMLJUST
 70
     0
  9
$CMLSCALE
 40
20.0
  9
$PROXYGRAPHICS
 70
     1
  9
$MEASUREMENT
 70
     1
  9
$CELWEIGHT
370
    -1
  9
$ENDCAPS
280
     0
  9
$JOINSTYLE
280
     0
  9
$LWDISPLAY
290
     1
  9
$INSUNITS
 70
     4
  9
$HYPERLINKBASE
  1

  9
$STYLESHEET
  1

  9
$XEDIT
290
     1
  9
$CEPSNTYPE
380
     0
  9
$PSTYLEMODE
290
     1
  9
$FINGERPRINTGUID
  2
{FB285621-A601-4E69-83A2-9B3AB370AB16}
  9
$VERSIONGUID
  2
{7D10AD9B-0177-4EFB-AB0D-6A689736835B}
  9
$EXTNAMES
290
     1
  9
$PSVPSCALE
 40
0.0
  9
$OLESTARTUP
290
     0
  9
$SORTENTS
280
   127
  9
$INDEXCTL
280
     0
  9
$HIDETEXT
280
     0
  9
$XCLIPFRAME
290
     0
  9
$HALOGAP
280
     0
  9
$OBSCOLOR
 70
   257
  9
$OBSLTYPE
280
     0
  9
$INTERSECTIONDISPLAY
280
     0
  9
$INTERSECTIONCOLOR
 70
   257
  9
$DIMASSOC
280
     1
  9
$PROJECTNAME
  1

  0
ENDSEC
  0
SECTION
  2
CLASSES
  0
CLASS
  1
ACDBDICTIONARYWDFLT
  2
AcDbDictionaryWithDefault
  3
ObjectDBX Classes
 90
        0
 91
        1
280
     0
281
     0
  0
CLASS
  1
TABLESTYLE
  2
AcDbTableStyle
  3
ObjectDBX Classes
 90
     2047
 91
        1
280
     0
281
     0
  0
CLASS
  1
DICTIONARYVAR
  2
AcDbDictionaryVar
  3
ObjectDBX Classes
 90
        0
 91
        1
280
     0
281
     0
  0
ENDSEC
  0
SECTION
  2
TABLES
  0
TABLE
  2
VPORT
  5
8
330
0
100
AcDbSymbolTable
 70
     2
  0
VPORT
  5
666
330
8
100
AcDbSymbolTableRecord
100
AcDbViewportTableRecord
  2
*Active
 70
     0
 10
0.0
 20
0.0
 11
1.0
 21
1.0
 12
-4.723026065666989
 22
-0.4192507654101263
 13
0.0
 23
0.0
 14
10.0
 24
10.0
 15
10.0
 25
10.0
 16
0.0
 26
0.0
 36
1.0
 17
142.9456957125343
 27
108.9595727604956
 37
0.0
 40
28.74807135067627
 41
1.632538569424965
 42
50.0
 43
0.0
 44
0.0
 50
0.0
 51
0.0
 71
     0
 72
  2000
 73
     1
 74
     3
 75
     0
 76
     0
 77
     0
 78
     0
281
     0
 65
     1
110
0.0
120
0.0
130
0.0
111
1.0
121
0.0
131
0.0
112
0.0
122
1.0
132
0.0
 79
     0
146
0.0
  0
ENDTAB
  0
TABLE
  2
LTYPE
  5
5
330
0
100
AcDbSymbolTable
 70
     6
  0
LTYPE
  5
14
330
5
100
AcDbSymbolTableRecord
100
AcDbLinetypeTableRecord
  2
ByBlock
 70
     0
  3

 72
    65
 73
     0
 40
0.0
  0
LTYPE
  5
15
330
5
100
AcDbSymbolTableRecord
100
AcDbLinetypeTableRecord
  2
ByLayer
 70
     0
  3

 72
    65
 73
     0
 40
0.0
  0
LTYPE
  5
16
330
5
100
AcDbSymbolTableRecord
100
AcDbLinetypeTableRecord
  2
Continuous
 70
     0
  3
Solid line
 72
    65
 73
     0
 40
0.0
  0
LTYPE
  5
2A
330
5
100
AcDbSymbolTableRecord
100
AcDbLinetypeTableRecord
  2
HIDDEN
 70
     0
  3
Hidden __ __ __ __ __ __ __ __ __ __ __ __ __ __
 72
    65
 73
     2
 40
1.905
 49
1.27
 74
     0
 49
-0.635
 74
     0
  0
LTYPE
  5
2B
330
5
100
AcDbSymbolTableRecord
100
AcDbLinetypeTableRecord
  2
PHANTOM
 70
     0
  3
Phantom ______  __  __  ______  __  __  ______
 72
    65
 73
     6
 40
12.7
 49
6.349999999999999
 74
     0
 49
-1.27
 74
     0
 49
1.27
 74
     0
 49
-1.27
 74
     0
 49
1.27
 74
     0
 49
-1.27
 74
     0
  0
LTYPE
  5
2C
330
5
100
AcDbSymbolTableRecord
100
AcDbLinetypeTableRecord
  2
CENTER
 70
     0
  3
Center ____ _ ____ _ ____ _ ____ _ ____ _ ____
 72
    65
 73
     4
 40
10.16
 49
6.349999999999999
 74
     0
 49
-1.27
 74
     0
 49
1.27
 74
     0
 49
-1.27
 74
     0
  0
LTYPE
  5
2D
330
5
100
AcDbSymbolTableRecord
100
AcDbLinetypeTableRecord
  2
CENTERX2
 70
     0
  3
Center (2x) ________  __  ________  __  _____
 72
    65
 73
     4
 40
20.32
 49
12.7
 74
     0
 49
-2.54
 74
     0
 49
2.54
 74
     0
 49
-2.54
 74
     0
  0
LTYPE
  5
2E
330
5
100
AcDbSymbolTableRecord
100
AcDbLinetypeTableRecord
  2
DOT2
 70
     0
  3
Dot (.5x) ........................................
 72
    65
 73
     2
 40
0.635
 49
0.0
 74
     0
 49
-0.635
 74
     0
  0
ENDTAB
  0
TABLE
  2
LAYER
  5
2
330
0
100
AcDbSymbolTable
 70
     2
  0
LAYER
  5
10
330
2
100
AcDbSymbolTableRecord
100
AcDbLayerTableRecord
  2
0
 70
     0
 62
     7
  6
Continuous
370
    -3
390
F
  0
LAYER
  5
2F
330
2
100
AcDbSymbolTableRecord
100
AcDbLayerTableRecord
  2
FORMAT
 70
     0
 62
     7
  6
Continuous
370
     0
390
F
  0
ENDTAB
  0
TABLE
  2
STYLE
  5
3
330
0
100
AcDbSymbolTable
 70
     1
  0
STYLE
  5
11
330
3
100
AcDbSymbolTableRecord
100
AcDbTextStyleTableRecord
  2
Standard
 70
     0
 40
0.0
 41
1.0
 50
0.0
 71
     0
 42
2.5
  3
txt
  4

  0
ENDTAB
  0
TABLE
  2
VIEW
  5
6
330
0
100
AcDbSymbolTable
 70
     0
  0
ENDTAB
  0
TABLE
  2
UCS
  5
7
330
0
100
AcDbSymbolTable
 70
     0
  0
ENDTAB
  0
TABLE
  2
APPID
  5
9
330
0
100
AcDbSymbolTable
 70
     1
  0
APPID
  5
12
330
9
100
AcDbSymbolTableRecord
100
AcDbRegAppTableRecord
  2
ACAD
 70
     0
  0
ENDTAB
  0
TABLE
  2
DIMSTYLE
  5
A
330
0
100
AcDbSymbolTable
 70
     1
100
AcDbDimStyleTable
 71
     0
  0
DIMSTYLE
105
27
330
A
100
AcDbSymbolTableRecord
100
AcDbDimStyleTableRecord
  2
ISO-25
 70
     0
 41
2.5
 42
0.625
 43
3.75
 44
1.25
 73
     0
 74
     0
 77
     1
 78
     8
140
2.5
141
2.5
143
0.03937007874016
147
0.625
171
     3
172
     1
271
     2
272
     2
274
     3
278
    44
283
     0
284
     8
340
11
  0
ENDTAB
  0
TABLE
  2
BLOCK_RECORD
  5
1
330
0
100
AcDbSymbolTable
 70
     1
  0
BLOCK_RECORD
  5
1F
330
1
100
AcDbSymbolTableRecord
100
AcDbBlockTableRecord
  2
*Model_Space
340
22
  0
BLOCK_RECORD
  5
1B
330
1
100
AcDbSymbolTableRecord
100
AcDbBlockTableRecord
  2
*Paper_Space
340
1E
  0
BLOCK_RECORD
  5
23
330
1
100
AcDbSymbolTableRecord
100
AcDbBlockTableRecord
  2
*Paper_Space0
340
26
  0
ENDTAB
  0
ENDSEC
  0
SECTION
  2
BLOCKS
  0
BLOCK
  5
20
330
1F
100
AcDbEntity
  8
0
100
AcDbBlockBegin
  2
*Model_Space
 70
     0
 10
0.0
 20
0.0
 30
0.0
  3
*Model_Space
  1

  0
ENDBLK
  5
21
330
1F
100
AcDbEntity
  8
0
100
AcDbBlockEnd
  0
BLOCK
  5
1C
330
1B
100
AcDbEntity
 67
     1
  8
0
100
AcDbBlockBegin
  2
*Paper_Space
 70
     0
 10
0.0
 20
0.0
 30
0.0
  3
*Paper_Space
  1

  0
ENDBLK
  5
1D
330
1B
100
AcDbEntity
 67
     1
  8
0
100
AcDbBlockEnd
  0
BLOCK
  5
24
330
23
100
AcDbEntity
 67
     1
  8
0
100
AcDbBlockBegin
  2
*Paper_Space0
 70
     0
 10
0.0
 20
0.0
 30
0.0
  3
*Paper_Space0
  1

  0
ENDBLK
  5
25
330
23
100
AcDbEntity
 67
     1
  8
0
100
AcDbBlockEnd
  0
ENDSEC
  0
SECTION
  2
ENTITIES
  0
ARC
  5
137
330
1F
100
AcDbEntity
  8
0
  6
Continuous
 62
     7
370
    15
100
AcDbCircle
 10
129.5159610931397
 20
99.0845998736291
 30
0.0
 40
0.5000000000000142
100
AcDbArc
 50
270.0000000000008
 51
90.0
  0
ARC
  5
138
330
1F
100
AcDbEntity
  8
0
  6
Continuous
 62
     7
370
    15
100
AcDbCircle
 10
117.5159610931397
 20
99.0845998736291
 30
0.0
 40
0.5000000000000142
100
AcDbArc
 50
90.0
 51
270.0000000000008
  0
LINE
  5
139
330
1F
100
AcDbEntity
  8
0
  6
Continuous
 62
     7
370
    15
100
AcDbLine
 10
117.5159610409856
 20
98.58459994515465
 30
0.0
 11
129.5159611452938
 21
98.58459994515465
 31
0.0
  0
LINE
  5
13A
330
1F
100
AcDbEntity
  8
0
  6
Continuous
 62
     7
370
    15
100
AcDbLine
 10
129.5159611452938
 20
99.58460010906742
 30
0.0
 11
117.5159610409856
 21
99.58460010906742
 31
0.0
  0
ARC
  5
13B
330
1F
100
AcDbEntity
  8
0
  6
Continuous
 62
     7
370
    15
100
AcDbCircle
 10
125.2859169600013
 20
98.94204691303023
 30
0.0
 40
0.7140048915277346
100
AcDbArc
 50
69.45076739087325
 51
97.78260252627669
  0
LINE
  5
13C
330
1F
100
AcDbEntity
  8
0
  6
Continuous
 62
     7
370
    15
100
AcDbLine
 10
128.4659610663176
 20
96.68459944745587
 30
0.0
 11
128.2030207638264
 21
97.21048005243824
 31
0.0
  0
LINE
  5
13D
330
1F
100
AcDbEntity
  8
0
  6
Continuous
 62
     7
370
    15
100
AcDbLine
 10
128.4659610663176
 20
96.18460029682205
 30
0.0
 11
128.4659610663176
 21
96.68459944745587
 31
0.0
  0
LINE
  5
13E
330
1F
100
AcDbEntity
  8
0
  6
Continuous
 62
     7
370
    15
100
AcDbLine
 10
118.828901422453
 20
97.21048005243824
 30
0.0
 11
118.5659611199618
 21
96.68459944745587
 31
0.0
  0
LINE
  5
13F
330
1F
100
AcDbEntity
  8
0
  6
Continuous
 62
     7
370
    15
100
AcDbLine
 10
118.5659611199618
 20
96.68459944745587
 30
0.0
 11
118.5659611199618
 21
96.18460029682205
 31
0.0
  0
LINE
  5
140
330
1F
100
AcDbEntity
  8
0
  6
Continuous
 62
     7
370
    15
100
AcDbLine
 10
115.5159607131601
 20
120.7845994861989
 30
0.0
 11
115.5159607131601
 21
104.2846000412671
 31
0.0
  0
LINE
  5
141
330
1F
100
AcDbEntity
  8
0
  6
Continuous
 62
     7
370
    15
100
AcDbLine
 10
131.5159614731193
 20
104.2846000412671
 30
0.0
 11
131.5159614731193
 21
104.5346000822453
 31
0.0
  0
LINE
  5
142
330
1F
100
AcDbEntity
  8
0
  6
Continuous
 62
     7
370
    15
100
AcDbLine
 10
146.1659608010769
 20
105.784599821475
 30
0.0
 11
146.4159613077164
 21
105.8845996516017
 31
0.0
  0
LINE
  5
143
330
1F
100
AcDbEntity
  8
0
  6
Continuous
 62
     7
370
    15
100
AcDbLine
 10
146.4159613077164
 20
121.6845998199849
 30
0.0
 11
146.1659608010769
 21
121.7845996501116
 31
0.0
  0
LINE
  5
144
330
1F
100
AcDbEntity
  8
0
  6
Continuous
 62
     7
370
    15
100
AcDbLine
 10
146.4159613077164
 20
105.8845996516017
 30
0.0
 11
146.8659614746094
 21
105.8845996516017
 31
0.0
  0
LINE
  5
145
330
1F
100
AcDbEntity
  8
0
  6
Continuous
 62
     7
370
    15
100
AcDbLine
 10
146.8659614746094
 20
121.6845998199849
 30
0.0
 11
146.4159613077164
 21
121.6845998199849
 31
0.0
  0
LINE
  5
146
330
1F
100
AcDbEntity
  8
0
  6
Continuous
 62
     7
370
    15
100
AcDbLine
 10
131.7659610484362
 20
104.7845996575622
 30
0.0
 11
141.665960994792
 21
104.7845996575622
 31
0.0
  0
LINE
  5
147
330
1F
100
AcDbEntity
  8
0
  6
Continuous
 62
     7
370
    15
100
AcDbLine
 10
116.8159612987757
 20
102.2846001791029
 30
0.0
 11
116.8159612987757
 21
102.1345995025901
 31
0.0
  0
LINE
  5
148
330
1F
100
AcDbEntity
  8
0
  6
Continuous
 62
     7
370
    15
100
AcDbLine
 10
130.2159608875037
 20
102.1345995025901
 30
0.0
 11
130.2159608875037
 21
102.2846001791029
 31
0.0
  0
LINE
  5
149
330
1F
100
AcDbEntity
  8
0
  6
Continuous
 62
     7
370
    15
100
AcDbLine
 10
146.1659608010769
 20
122.7845998140244
 30
0.0
 11
117.510261346829
 21
122.7845998140244
 31
0.0
  0
LINE
  5
14A
330
1F
100
AcDbEntity
  8
0
  6
Continuous
 62
     7
370
    15
100
AcDbLine
 10
117.1659611698807
 20
100.8345998482971
 30
0.0
 11
117.1659611698807
 21
99.68459993919418
 31
0.0
  0
LINE
  5
14B
330
1F
100
AcDbEntity
  8
0
  6
Continuous
 62
     7
370
    15
100
AcDbLine
 10
129.8659610163987
 20
99.68459993919418
 30
0.0
 11
129.8659610163987
 21
100.8345998482971
 31
0.0
  0
LINE
  5
14C
330
1F
100
AcDbEntity
  8
0
  6
Continuous
 62
     7
370
    15
100
AcDbLine
 10
117.1659611698807
 20
98.48460011502789
 30
0.0
 11
117.1659611698807
 21
97.88460020294474
 31
0.0
  0
LINE
  5
14D
330
1F
100
AcDbEntity
  8
0
  6
Continuous
 62
     7
370
    15
100
AcDbLine
 10
129.8659610163987
 20
97.88460020294474
 30
0.0
 11
129.8659610163987
 21
98.48460011502789
 31
0.0
  0
ARC
  5
14E
330
1F
100
AcDbEntity
  8
0
  6
Continuous
 62
     7
370
    15
100
AcDbCircle
 10
117.6659610931397
 20
98.73459987362908
 30
0.0
 40
0.2500000000000057
100
AcDbArc
 50
270.0000000000008
 51
323.1301023541561
  0
ARC
  5
14F
330
1F
100
AcDbEntity
  8
0
  6
Continuous
 62
     7
370
    15
100
AcDbCircle
 10
129.3659610931397
 20
98.73459987362908
 30
0.0
 40
0.250000000000017
100
AcDbArc
 50
216.8698976458435
 51
270.0000000000008
  0
ARC
  5
150
330
1F
100
AcDbEntity
  8
0
  6
Continuous
 62
     7
370
    15
100
AcDbCircle
 10
117.6659610931397
 20
99.43459987362906
 30
0.0
 40
0.2500000000000142
100
AcDbArc
 50
36.86989764584729
 51
90.0
  0
ARC
  5
151
330
1F
100
AcDbEntity
  8
0
  6
Continuous
 62
     7
370
    15
100
AcDbCircle
 10
129.3659610931397
 20
99.43459987362906
 30
0.0
 40
0.2500000000000256
100
AcDbArc
 50
90.0
 51
143.1301023541546
  0
ARC
  5
152
330
1F
100
AcDbEntity
  8
0
  6
Continuous
 62
     7
370
    15
100
AcDbCircle
 10
118.0159610931397
 20
94.53459987362906
 30
0.0
 40
0.25
100
AcDbArc
 50
180.0000000000004
 51
270.0000000000008
  0
ARC
  5
153
330
1F
100
AcDbEntity
  8
0
  6
Continuous
 62
     7
370
    15
100
AcDbCircle
 10
129.0159610931397
 20
94.53459987362906
 30
0.0
 40
0.25
100
AcDbArc
 50
270.0000000000008
 51
0.0
  0
LINE
  5
154
330
1F
100
AcDbEntity
  8
0
  6
Continuous
 62
     7
370
    15
100
AcDbLine
 10
117.7659610819638
 20
95.93459979018257
 30
0.0
 11
117.7659610819638
 21
94.53460030576275
 31
0.0
  0
LINE
  5
155
330
1F
100
AcDbEntity
  8
0
  6
Continuous
 62
     7
370
    15
100
AcDbLine
 10
129.2659611043156
 20
94.53460030576275
 30
0.0
 11
129.2659611043156
 21
95.93459979018257
 31
0.0
  0
LINE
  5
156
330
1F
100
AcDbEntity
  8
0
  6
Continuous
 62
     7
370
    15
100
AcDbLine
 10
118.015961122942
 20
102.1345995025901
 30
0.0
 11
118.015961122942
 21
100.8345998482971
 31
0.0
  0
LINE
  5
157
330
1F
100
AcDbEntity
  8
0
  6
Continuous
 62
     7
370
    15
100
AcDbLine
 10
129.0159610633374
 20
100.8345998482971
 30
0.0
 11
129.0159610633374
 21
102.1345995025901
 31
0.0
  0
LINE
  5
158
330
1F
100
AcDbEntity
  8
0
  6
Continuous
 62
     7
370
    15
100
AcDbLine
 10
146.8659614746094
 20
105.8845996516017
 30
0.0
 11
147.5066350374938
 21
106.1698460610775
 31
0.0
  0
LINE
  5
159
330
1F
100
AcDbEntity
  8
0
  6
Continuous
 62
     7
370
    15
100
AcDbLine
 10
147.5066350374938
 20
121.3993534105091
 30
0.0
 11
146.8659614746094
 21
121.6845998199849
 31
0.0
  0
ARC
  5
15A
330
1F
100
AcDbEntity
  8
0
  6
Continuous
 62
     7
370
    15
100
AcDbCircle
 10
147.4659610931397
 20
106.2612007126648
 30
0.0
 40
0.1000000000041675
100
AcDbArc
 50
293.9999999857443
 51
0.0
  0
ARC
  5
15B
330
1F
100
AcDbEntity
  8
0
  6
Continuous
 62
     7
370
    15
100
AcDbCircle
 10
147.4659610931397
 20
121.3079990345933
 30
0.0
 40
0.1000000000041805
100
AcDbArc
 50
0.0
 51
66.00000001425986
  0
LINE
  5
15C
330
1F
100
AcDbEntity
  8
0
  6
Continuous
 62
     7
370
    15
100
AcDbLine
 10
118.828901422453
 20
97.64481164833592
 30
0.0
 11
118.828901422453
 21
96.42391201427267
 31
0.0
  0
LINE
  5
15D
330
1F
100
AcDbEntity
  8
0
  6
Continuous
 62
     7
370
    15
100
AcDbLine
 10
128.2030207638264
 20
96.42418396046446
 30
0.0
 11
128.2030207638264
 21
97.64518045207546
 31
0.0
  0
ARC
  5
15E
330
1F
100
AcDbEntity
  8
0
  6
Continuous
 62
     7
370
    15
100
AcDbCircle
 10
118.5036083957846
 20
97.65408969481885
 30
0.0
 40
0.3258706322123098
100
AcDbArc
 50
356.5716422119613
 51
44.02166721204998
  0
LWPOLYLINE
  5
15F
330
1F
100
AcDbEntity
  8
0
  6
Continuous
 62
     7
370
    15
100
AcDbPolyline
 90
        4
 70
   128
 43
0.0
 10
128.2934540484667
 20
97.88198784312294
 10
128.2935439210952
 20
97.88207631876753
 10
128.2962959793032
 20
97.8843813421397
 10
128.2959783983052
 20
97.8842090474634
  0
ARC
  5
160
330
1F
100
AcDbEntity
  8
0
  6
Continuous
 62
     7
370
    15
100
AcDbCircle
 10
128.512935555743
 20
97.66152684026943
 30
0.0
 40
0.3110871032611536
100
AcDbArc
 50
134.872435901033
 51
184.9658064081469
  0
LWPOLYLINE
  5
161
330
1F
100
AcDbEntity
  8
0
  6
Continuous
 62
     7
370
    15
100
AcDbPolyline
 90
        8
 70
   128
 43
0.0
 10
118.8289060790659
 20
96.43460173478411
 10
118.8117529798866
 20
96.31732400825308
 10
118.783221447152
 20
96.24721218219088
 10
118.7615220968247
 20
96.21286407431648
 10
118.7480635542989
 20
96.1965920062928
 10
118.7383782651842
 20
96.18712976893471
 10
118.7356248099924
 20
96.18482288291739
 10
118.7359428566516
 20
96.18499517759369
  0
LWPOLYLINE
  5
162
330
1F
100
AcDbEntity
  8
0
  6
Continuous
 62
     7
370
    15
100
AcDbPolyline
 90
        7
 70
   128
 43
0.0
 10
128.2979793448568
 20
96.18481822630451
 10
128.2982750397742
 20
96.18466828337
 10
128.2855219740987
 20
96.19650911858366
 10
128.2712601658524
 20
96.21319283118532
 10
128.2486402031601
 20
96.24784827550934
 10
128.2196965601862
 20
96.31780270805643
 10
128.2030263517619
 20
96.43459707817124
  0
ARC
  5
163
330
1F
100
AcDbEntity
  8
0
  6
Continuous
 62
     7
370
    15
100
AcDbCircle
 10
118.0159610931397
 20
95.93459987362907
 30
0.0
 40
0.25
100
AcDbArc
 50
90.0
 51
180.0000000000004
  0
ARC
  5
164
330
1F
100
AcDbEntity
  8
0
  6
Continuous
 62
     7
370
    15
100
AcDbCircle
 10
129.0159610931397
 20
95.93459987362907
 30
0.0
 40
0.25
100
AcDbArc
 50
0.0
 51
90.0
  0
LWPOLYLINE
  5
165
330
1F
100
AcDbEntity
  8
0
  6
Continuous
 62
     7
370
    15
100
AcDbPolyline
 90
        4
 70
   128
 43
0.0
 10
128.2941404332042
 20
97.88090378364609
 10
128.2955974873722
 20
97.88229238560484
 10
128.2982820246935
 20
97.88453407904194
 10
128.2979858641148
 20
97.88438413610743
  0
LWPOLYLINE
  5
166
330
1F
100
AcDbEntity
  8
0
  6
Continuous
 62
     7
370
    15
100
AcDbPolyline
 90
        3
 70
   128
 43
0.0
 10
118.7359437879742
 20
97.8842090474634
 10
118.7356262069762
 20
97.8843813421397
 10
118.7385784995378
 20
97.88158737441586
  0
LINE
  5
167
330
1F
100
AcDbEntity
  8
0
  6
Continuous
 62
     7
370
    15
100
AcDbLine
 10
125.2659611471564
 20
99.65155195763395
 30
0.0
 11
125.2659611471564
 21
99.68459993919418
 31
0.0
  0
LINE
  5
168
330
1F
100
AcDbEntity
  8
0
  6
Continuous
 62
     7
370
    15
100
AcDbLine
 10
128.2030207638264
 20
96.68459944745587
 30
0.0
 11
128.4659610663176
 21
96.68459944745587
 31
0.0
  0
LINE
  5
169
330
1F
100
AcDbEntity
  8
0
  6
Continuous
 62
     7
370
    15
100
AcDbLine
 10
128.320717585516
 20
96.18460029682205
 30
0.0
 11
128.4659610663176
 21
96.18460029682205
 31
0.0
  0
LINE
  5
16A
330
1F
100
AcDbEntity
  8
0
  6
Continuous
 62
     7
370
    15
100
AcDbLine
 10
118.5659611199618
 20
96.68459944745587
 30
0.0
 11
118.828901422453
 21
96.68459944745587
 31
0.0
  0
LINE
  5
16B
330
1F
100
AcDbEntity
  8
0
  6
Continuous
 62
     7
370
    15
100
AcDbLine
 10
118.5659611199618
 20
96.18460029682205
 30
0.0
 11
118.713852350843
 21
96.18460029682205
 31
0.0
  0
ARC
  5
16C
330
1F
100
AcDbEntity
  8
0
  6
Continuous
 62
     7
370
    15
100
AcDbCircle
 10
152.3659610931397
 20
113.784599873629
 30
0.0
 40
5.600000000015342
100
AcDbArc
 50
248.133807669313
 51
270.0000000000008
  0
ARC
  5
16D
330
1F
100
AcDbEntity
  8
0
  6
Continuous
 62
     7
370
    15
100
AcDbCircle
 10
152.3659610931397
 20
113.784599873629
 30
0.0
 40
5.600000000015342
100
AcDbArc
 50
270.0000000000008
 51
111.8661923306878
  0
ARC
  5
16E
330
1F
100
AcDbEntity
  8
0
  6
Continuous
 62
     7
370
    15
100
AcDbCircle
 10
152.3659610931397
 20
113.784599873629
 30
0.0
 40
5.800000000000002
100
AcDbArc
 50
243.6441661316322
 51
90.0
  0
ARC
  5
16F
330
1F
100
AcDbEntity
  8
0
  6
Continuous
 62
     7
370
    15
100
AcDbCircle
 10
152.3659610931397
 20
113.784599873629
 30
0.0
 40
5.800000000000002
100
AcDbArc
 50
90.0
 51
116.3558338683685
  0
LINE
  5
170
330
1F
100
AcDbEntity
  8
0
  6
Continuous
 62
     7
370
    15
100
AcDbLine
 10
152.9659604255677
 20
108.587485191804
 30
0.0
 11
152.9659604255677
 21
118.9817145126133
 31
0.0
  0
LINE
  5
171
330
1F
100
AcDbEntity
  8
0
  6
Continuous
 62
     7
370
    15
100
AcDbLine
 10
153.9659605894805
 20
117.9089179853169
 30
0.0
 11
152.9659604255677
 21
118.9817145126133
 31
0.0
  0
LINE
  5
172
330
1F
100
AcDbEntity
  8
0
  6
Continuous
 62
     7
370
    15
100
AcDbLine
 10
153.9659605894805
 20
109.6602817191003
 30
0.0
 11
153.9659605894805
 21
117.9089179853169
 31
0.0
  0
LINE
  5
173
330
1F
100
AcDbEntity
  8
0
  6
Continuous
 62
     7
370
    15
100
AcDbLine
 10
152.9659604255677
 20
108.587485191804
 30
0.0
 11
153.9659605894805
 21
109.6602817191003
 31
0.0
  0
LINE
  5
174
330
1F
100
AcDbEntity
  8
0
  6
Continuous
 62
     7
370
    15
100
AcDbLine
 10
152.9659604255677
 20
118.9817145126133
 30
0.0
 11
147.5659602854968
 21
118.9817145126133
 31
0.0
  0
LINE
  5
175
330
1F
100
AcDbEntity
  8
0
  6
Continuous
 62
     7
370
    15
100
AcDbLine
 10
147.5659602854968
 20
108.587485191804
 30
0.0
 11
152.9659604255677
 21
108.587485191804
 31
0.0
  0
ARC
  5
176
330
1F
100
AcDbEntity
  8
0
  6
Continuous
 62
     7
370
    15
100
AcDbCircle
 10
123.5876922676465
 20
150.6556058235055
 30
0.0
 40
28.52470676570295
100
AcDbArc
 50
257.7100694012512
 51
269.8559179617813
  0
LINE
  5
177
330
1F
100
AcDbEntity
  8
0
  6
Continuous
 62
     7
370
    15
100
AcDbLine
 10
123.5159610931397
 20
122.1309892492561
 30
0.0
 11
123.5159610931397
 21
120.1722260223894
 31
0.0
  0
ARC
  5
178
330
1F
100
AcDbEntity
  8
0
  6
Continuous
 62
     7
370
    15
100
AcDbCircle
 10
123.5905957565894
 20
173.7091327352225
 30
0.0
 40
53.53695873610663
100
AcDbArc
 50
261.3253435668336
 51
269.9201252236385
  0
ARC
  5
179
330
1F
100
AcDbEntity
  8
0
  6
Continuous
 62
     7
370
    15
100
AcDbCircle
 10
117.5159630364894
 20
120.7845993533403
 30
0.0
 40
1.999999529361606
100
AcDbArc
 50
89.99999046590394
 51
180.0000000000004
  0
LINE
  5
17A
330
1F
100
AcDbEntity
  8
0
  6
Continuous
 62
     7
370
    15
100
AcDbLine
 10
123.5159610931397
 20
122.1309892492561
 30
0.0
 11
146.1659608010769
 21
122.1309892492561
 31
0.0
  0
LINE
  5
17B
330
1F
100
AcDbEntity
  8
0
  6
Continuous
 62
     7
370
    15
100
AcDbLine
 10
146.1659608010769
 20
122.1309892492561
 30
0.0
 11
146.1659608010769
 21
120.1722260223894
 31
0.0
  0
LINE
  5
17C
330
1F
100
AcDbEntity
  8
0
  6
Continuous
 62
     7
370
    15
100
AcDbLine
 10
123.5159610931397
 20
120.1722260223894
 30
0.0
 11
146.1659608010769
 21
120.1722260223894
 31
0.0
  0
LINE
  5
17D
330
1F
100
AcDbEntity
  8
0
  6
Continuous
 62
     7
370
    15
100
AcDbLine
 10
123.5159610931397
 20
120.1722260223894
 30
0.0
 11
123.5159610931397
 21
110.1790486494271
 31
0.0
  0
ARC
  5
17E
330
1F
100
AcDbEntity
  8
0
  6
Continuous
 62
     7
370
    15
100
AcDbCircle
 10
161.7776669453536
 20
180.4955906487059
 30
0.0
 40
80.05232182659991
100
AcDbArc
 50
241.4478320696883
 51
243.2347886606531
  0
ARC
  5
17F
330
1F
100
AcDbEntity
  8
0
  6
Continuous
 62
     7
370
    15
100
AcDbCircle
 10
108.9147869929849
 20
81.34512276405866
 30
0.0
 40
32.38155255963147
100
AcDbArc
 50
45.7360763377376
 51
58.72144643717913
  0
LINE
  5
180
330
1F
100
AcDbEntity
  8
0
  6
Continuous
 62
     7
370
    15
100
AcDbLine
 10
123.5159610931397
 20
104.2846000412671
 30
0.0
 11
131.5159614731193
 21
104.2846000412671
 31
0.0
  0
LINE
  5
181
330
1F
100
AcDbEntity
  8
0
  6
Continuous
 62
     7
370
    15
100
AcDbLine
 10
115.5159607131601
 20
104.2846000412671
 30
0.0
 11
123.5159610931397
 21
104.2846000412671
 31
0.0
  0
LINE
  5
182
330
1F
100
AcDbEntity
  8
0
  6
Continuous
 62
     7
370
    15
100
AcDbLine
 10
146.1659608010769
 20
120.1722260223894
 30
0.0
 11
146.1659608010769
 21
113.784599968624
 31
0.0
  0
LINE
  5
183
330
1F
100
AcDbEntity
  8
0
  6
Continuous
 62
     7
370
    15
100
AcDbLine
 10
146.1659608010769
 20
110.1790486494271
 30
0.0
 11
146.1659608010769
 21
113.784599968624
 31
0.0
  0
LINE
  5
184
330
1F
100
AcDbEntity
  8
0
  6
Continuous
 62
     7
370
    15
100
AcDbLine
 10
123.5159610931397
 20
110.1790486494271
 30
0.0
 11
146.1659608010769
 21
110.1790486494271
 31
0.0
  0
ARC
  5
185
330
1F
100
AcDbEntity
  8
0
  6
Continuous
 62
     7
370
    15
100
AcDbCircle
 10
169.507869658401
 20
208.9498868083516
 30
0.0
 40
108.9538164732736
100
AcDbArc
 50
245.0313078325534
 51
246.3472240351526
  0
LWPOLYLINE
  5
186
330
1F
100
AcDbEntity
  8
0
  6
Continuous
 62
     7
370
    15
100
AcDbPolyline
 90
        3
 70
   128
 43
0.0
 10
125.7963668156982
 20
109.1488941231935
 10
125.7599390645147
 20
109.0870892288355
 10
125.7272650089682
 20
109.0201220134465
  0
LINE
  5
187
330
1F
100
AcDbEntity
  8
0
  6
Continuous
 62
     7
370
    15
100
AcDbLine
 10
146.1659608010769
 20
110.1790486494271
 30
0.0
 11
146.1659608010769
 21
109.1488910963951
 31
0.0
  0
LINE
  5
188
330
1F
100
AcDbEntity
  8
0
  6
Continuous
 62
     7
370
    15
100
AcDbLine
 10
125.7963679798514
 20
109.1488910963951
 30
0.0
 11
146.1659608010769
 21
109.1488910963951
 31
0.0
  0
LINE
  5
189
330
1F
100
AcDbEntity
  8
0
  6
Continuous
 62
     7
370
    15
100
AcDbLine
 10
146.4159613077164
 20
113.784599968624
 30
0.0
 11
146.4159613077164
 21
121.6845998199849
 31
0.0
  0
LINE
  5
18A
330
1F
100
AcDbEntity
  8
0
  6
Continuous
 62
     7
370
    15
100
AcDbLine
 10
146.4159613077164
 20
105.8845996516017
 30
0.0
 11
146.4159613077164
 21
113.784599968624
 31
0.0
  0
ARC
  5
18B
330
1F
100
AcDbEntity
  8
0
  6
Continuous
 62
     7
370
    15
100
AcDbCircle
 10
106.5950577844821
 20
76.6200027708777
 30
0.0
 40
37.77325626568057
100
AcDbArc
 50
48.21261105773156
 51
59.44728991163543
  0
ARC
  5
18C
330
1F
100
AcDbEntity
  8
0
  6
Continuous
 62
     7
370
    15
100
AcDbCircle
 10
131.7659563737048
 20
104.5346044159016
 30
0.0
 40
0.2499998569922026
100
AcDbArc
 50
89.99891836734365
 51
180.0000000000004
  0
LINE
  5
18D
330
1F
100
AcDbEntity
  8
0
  6
Continuous
 62
     7
370
    15
100
AcDbLine
 10
146.8659614746094
 20
113.7845997357933
 30
0.0
 11
146.8659614746094
 21
120.6262001427083
 31
0.0
  0
LINE
  5
18E
330
1F
100
AcDbEntity
  8
0
  6
Continuous
 62
     7
370
    15
100
AcDbLine
 10
146.8659614746094
 20
106.9429993288784
 30
0.0
 11
146.8659614746094
 21
113.7845997357933
 31
0.0
  0
LINE
  5
18F
330
1F
100
AcDbEntity
  8
0
  6
Continuous
 62
     7
370
    15
100
AcDbLine
 10
146.8659614746094
 20
105.884600117263
 30
0.0
 11
146.8659614746094
 21
106.9429993288784
 31
0.0
  0
LINE
  5
190
330
1F
100
AcDbEntity
  8
0
  6
Continuous
 62
     7
370
    15
100
AcDbLine
 10
146.8659614746094
 20
120.6262001427083
 30
0.0
 11
146.8659614746094
 21
121.6845998199849
 31
0.0
  0
LINE
  5
191
330
1F
100
AcDbEntity
  8
0
  6
Continuous
 62
     7
370
    15
100
AcDbLine
 10
146.8659614746094
 20
106.9429993288784
 30
0.0
 11
147.5066350374938
 21
107.3074137451319
 31
0.0
  0
LINE
  5
192
330
1F
100
AcDbEntity
  8
0
  6
Continuous
 62
     7
370
    15
100
AcDbLine
 10
147.5066350374938
 20
113.5557878654642
 30
0.0
 11
146.8659614746094
 21
113.7845997357933
 31
0.0
  0
LINE
  5
193
330
1F
100
AcDbEntity
  8
0
  6
Continuous
 62
     7
370
    15
100
AcDbLine
 10
147.5066350374938
 20
107.3074137451319
 30
0.0
 11
147.5066350374938
 21
113.5557878654642
 31
0.0
  0
LINE
  5
194
330
1F
100
AcDbEntity
  8
0
  6
Continuous
 62
     7
370
    15
100
AcDbLine
 10
146.8659614746094
 20
113.784599968624
 30
0.0
 11
147.5066350374938
 21
114.0134119553684
 31
0.0
  0
LINE
  5
195
330
1F
100
AcDbEntity
  8
0
  6
Continuous
 62
     7
370
    15
100
AcDbLine
 10
147.5066350374938
 20
120.2617857264547
 30
0.0
 11
146.8659614746094
 21
120.6262001427083
 31
0.0
  0
LINE
  5
196
330
1F
100
AcDbEntity
  8
0
  6
Continuous
 62
     7
370
    15
100
AcDbLine
 10
147.5066350374938
 20
114.0134119553684
 30
0.0
 11
147.5066350374938
 21
120.2617857264547
 31
0.0
  0
LINE
  5
197
330
1F
100
AcDbEntity
  8
0
  6
Continuous
 62
     7
370
    15
100
AcDbLine
 10
141.665960994792
 20
104.9345998684136
 30
0.0
 11
146.1659608010769
 21
104.9345998684136
 31
0.0
  0
LINE
  5
198
330
1F
100
AcDbEntity
  8
0
  6
Continuous
 62
     7
370
    15
100
AcDbLine
 10
141.665960994792
 20
104.7845996575622
 30
0.0
 11
141.665960994792
 21
104.9345998684136
 31
0.0
  0
LINE
  5
199
330
1F
100
AcDbEntity
  8
0
  6
Continuous
 62
     7
370
    15
100
AcDbLine
 10
146.1659608010769
 20
109.1488910963951
 30
0.0
 11
146.1659608010769
 21
104.9345998684136
 31
0.0
  0
ARC
  5
19A
330
1F
100
AcDbEntity
  8
0
  6
Continuous
 62
     7
370
    15
100
AcDbCircle
 10
147.4546659416621
 20
120.1630080764978
 30
0.0
 40
0.1116145646973243
100
AcDbArc
 50
4.341161009395295
 51
62.25015439216211
  0
LINE
  5
19B
330
1F
100
AcDbEntity
  8
0
  6
Continuous
 62
     7
370
    15
100
AcDbLine
 10
147.5659602854968
 20
114.0345997767715
 30
0.0
 11
147.5659602854968
 21
120.1714567499427
 31
0.0
  0
LWPOLYLINE
  5
19C
330
1F
100
AcDbEntity
  8
0
  6
Continuous
 62
     7
370
    15
100
AcDbPolyline
 90
        5
 70
   128
 43
0.0
 10
147.5066350374938
 20
114.0134119553684
 10
147.5350608651162
 20
114.023563837093
 10
147.5557231877566
 20
114.0309431715129
 10
147.5653102223397
 20
114.0343671789585
 10
147.5659602854968
 20
114.0345997767715
  0
ARC
  5
19D
330
1F
100
AcDbEntity
  8
0
  6
Continuous
 62
     7
370
    15
100
AcDbCircle
 10
147.4582081374675
 20
107.4038649600563
 30
0.0
 40
0.1079259074854009
100
AcDbArc
 50
296.6606317986148
 51
356.7483238577636
  0
LINE
  5
19E
330
1F
100
AcDbEntity
  8
0
  6
Continuous
 62
     7
370
    15
100
AcDbLine
 10
147.5659602854968
 20
107.3977431873052
 30
0.0
 11
147.5659602854968
 21
113.5345999276458
 31
0.0
  0
LWPOLYLINE
  5
19F
330
1F
100
AcDbEntity
  8
0
  6
Continuous
 62
     7
370
    15
100
AcDbPolyline
 90
        5
 70
   128
 43
0.0
 10
147.5659602854968
 20
113.5345999276458
 10
147.5607486043692
 20
113.5364616414724
 10
147.5459610645295
 20
113.5417427061318
 10
147.5227878962279
 20
113.5500190206064
 10
147.5066350374938
 20
113.5557878654642
  0
LINE
  5
1A0
330
1F
100
AcDbEntity
  8
0
  6
Continuous
 62
     7
370
    15
100
AcDbLine
 10
122.8993665843838
 20
102.2846001791029
 30
0.0
 11
123.2056321003575
 21
102.2846001791029
 31
0.0
  0
LWPOLYLINE
  5
1A1
330
1F
100
AcDbEntity
  8
0
  6
Continuous
 62
     7
370
    15
100
AcDbPolyline
 90
        6
 70
   128
 43
0.0
 10
122.8993667590067
 20
102.2846001791029
 10
122.8552483788327
 20
102.2983492942719
 10
122.8162065215976
 20
102.3393889548449
 10
122.7900401989565
 20
102.3993940683274
 10
122.7791754480087
 20
102.4645037608413
 10
122.7785662466296
 20
102.4845998393564
  0
LINE
  5
1A2
330
1F
100
AcDbEntity
  8
0
  6
Continuous
 62
     7
370
    15
100
AcDbLine
 10
122.7785662466296
 20
102.4845998393564
 30
0.0
 11
122.7785662466296
 21
104.2846000412671
 31
0.0
  0
LINE
  5
1A3
330
1F
100
AcDbEntity
  8
0
  6
Continuous
 62
     7
370
    15
100
AcDbLine
 10
123.2056321003575
 20
104.2846000412671
 30
0.0
 11
123.2056321003575
 21
102.2846001791029
 31
0.0
  0
LINE
  5
1A4
330
1F
100
AcDbEntity
  8
0
  6
Continuous
 62
     7
370
    15
100
AcDbLine
 10
124.2533559396499
 20
104.2846000412671
 30
0.0
 11
124.2533559396499
 21
102.4845998393564
 31
0.0
  0
LWPOLYLINE
  5
1A5
330
1F
100
AcDbEntity
  8
0
  6
Continuous
 62
     7
370
    15
100
AcDbPolyline
 90
        6
 70
   128
 43
0.0
 10
124.2533559396499
 20
102.4845998393564
 10
124.2476363384732
 20
102.4236866863637
 10
124.2315103716784
 20
102.3697351696162
 10
124.2061821229391
 20
102.3259099232225
 10
124.1717720239059
 20
102.2953774439363
 10
124.1325554272727
 20
102.2846001791029
  0
LINE
  5
1A6
330
1F
100
AcDbEntity
  8
0
  6
Continuous
 62
     7
370
    15
100
AcDbLine
 10
124.132555369065
 20
102.2846001791029
 30
0.0
 11
123.8262900859219
 21
102.2846001791029
 31
0.0
  0
LINE
  5
1A7
330
1F
100
AcDbEntity
  8
0
  6
Continuous
 62
     7
370
    15
100
AcDbLine
 10
123.8262900859219
 20
102.2846001791029
 30
0.0
 11
123.8262900859219
 21
104.2846000412671
 31
0.0
  0
LINE
  5
1A8
330
1F
100
AcDbEntity
  8
0
  6
Continuous
 62
     7
370
    15
100
AcDbLine
 10
124.1325556018957
 20
102.2846001791029
 30
0.0
 11
124.7770278549389
 21
102.2846001791029
 31
0.0
  0
LINE
  5
1A9
330
1F
100
AcDbEntity
  8
0
  6
Continuous
 62
     7
370
    15
100
AcDbLine
 10
124.2533559396499
 20
102.4845998393564
 30
0.0
 11
124.7094205881104
 21
102.4845998393564
 31
0.0
  0
LWPOLYLINE
  5
1AA
330
1F
100
AcDbEntity
  8
0
  6
Continuous
 62
     7
370
    15
100
AcDbPolyline
 90
        6
 70
   128
 43
0.0
 10
124.7770279713542
 20
102.2846001791029
 10
124.7523366308407
 20
102.2983492942719
 10
124.7304864062563
 20
102.3393889548449
 10
124.7158420572624
 20
102.3993940683274
 10
124.7097615685881
 20
102.4645037608413
 10
124.7094205881104
 20
102.4845998393564
  0
LINE
  5
1AB
330
1F
100
AcDbEntity
  8
0
  6
Continuous
 62
     7
370
    15
100
AcDbLine
 10
122.2548943313406
 20
102.2846001791029
 30
0.0
 11
122.8993665843838
 21
102.2846001791029
 31
0.0
  0
LWPOLYLINE
  5
1AC
330
1F
100
AcDbEntity
  8
0
  6
Continuous
 62
     7
370
    15
100
AcDbPolyline
 90
        6
 70
   128
 43
0.0
 10
122.322501598169
 20
102.4845998393564
 10
122.3193005260647
 20
102.4236866863637
 10
122.3102754282401
 20
102.3697351696162
 10
122.2961002329931
 20
102.3259099232225
 10
122.2768422283799
 20
102.2953774439363
 10
122.2548942149252
 20
102.2846001791029
  0
LINE
  5
1AD
330
1F
100
AcDbEntity
  8
0
  6
Continuous
 62
     7
370
    15
100
AcDbLine
 10
122.322501598169
 20
102.4845998393564
 30
0.0
 11
122.7785662466296
 21
102.4845998393564
 31
0.0
  0
LINE
  5
1AE
330
1F
100
AcDbEntity
  8
0
  6
Continuous
 62
     7
370
    15
100
AcDbLine
 10
124.7094205881104
 20
102.4845998393564
 30
0.0
 11
124.7094205881104
 21
104.2846000412671
 31
0.0
  0
LINE
  5
1AF
330
1F
100
AcDbEntity
  8
0
  6
Continuous
 62
     7
370
    15
100
AcDbLine
 10
122.322501598169
 20
104.2846000412671
 30
0.0
 11
122.322501598169
 21
102.4845998393564
 31
0.0
  0
LINE
  5
1B0
330
1F
100
AcDbEntity
  8
0
  6
Continuous
 62
     7
370
    15
100
AcDbLine
 10
124.7770278549389
 20
102.2846001791029
 30
0.0
 11
124.948432768938
 21
102.2846001791029
 31
0.0
  0
LINE
  5
1B1
330
1F
100
AcDbEntity
  8
0
  6
Continuous
 62
     7
370
    15
100
AcDbLine
 10
124.948432768938
 20
104.2846000412671
 30
0.0
 11
124.948432768938
 21
102.2846001791029
 31
0.0
  0
LINE
  5
1B2
330
1F
100
AcDbEntity
  8
0
  6
Continuous
 62
     7
370
    15
100
AcDbLine
 10
122.2548942149252
 20
102.2846001791029
 30
0.0
 11
122.0834894173414
 21
102.2846001791029
 31
0.0
  0
LINE
  5
1B3
330
1F
100
AcDbEntity
  8
0
  6
Continuous
 62
     7
370
    15
100
AcDbLine
 10
122.0834894173414
 20
102.2846001791029
 30
0.0
 11
122.0834894173414
 21
104.2846000412671
 31
0.0
  0
ELLIPSE
  5
1B4
330
1F
100
AcDbEntity
  8
0
  6
Continuous
 62
     7
370
    15
100
AcDbEllipse
 10
146.8659610931397
 20
113.784599873629
 30
0.0
 11
20.40476868730427
 21
-4.014735453675853
 31
0.0
210
0.0
220
0.0
230
1.0
 40
0.2987966332879544
 41
4.803703605487489
 42
4.805364324666349
  0
ELLIPSE
  5
1B5
330
1F
100
AcDbEntity
  8
0
  6
Continuous
 62
     7
370
    15
100
AcDbEllipse
 10
146.8659610931397
 20
113.784599873629
 30
0.0
 11
20.40476868730427
 21
4.014735453675853
 31
0.0
210
0.0
220
0.0
230
1.0
 40
0.2987966332879544
 41
1.477820982513241
 42
1.4794817016921
  0
LINE
  5
1B6
330
1F
100
AcDbEntity
  8
0
  6
Continuous
 62
     7
370
    15
100
AcDbLine
 10
125.968196994868
 20
102.2846001791029
 30
0.0
 11
126.5687494140685
 21
102.2846001791029
 31
0.0
  0
ARC
  5
1B7
330
1F
100
AcDbEntity
  8
0
  6
Continuous
 62
     7
370
    15
100
AcDbCircle
 10
125.9530474426086
 20
102.4658479467723
 30
0.0
 40
0.181879782175805
100
AcDbArc
 50
274.7778749833551
 51
5.917738008335638
  0
LINE
  5
1B8
330
1F
100
AcDbEntity
  8
0
  6
Continuous
 62
     7
370
    15
100
AcDbLine
 10
126.1339579776496
 20
102.4845998393564
 30
0.0
 11
126.5589425873578
 21
102.4845998393564
 31
0.0
  0
ARC
  5
1B9
330
1F
100
AcDbEntity
  8
0
  6
Continuous
 62
     7
370
    15
100
AcDbCircle
 10
128.0715530671426
 20
102.4585292444705
 30
0.0
 40
1.512835132944943
100
AcDbArc
 50
179.0125764750132
 51
186.6018340831733
  0
LINE
  5
1BA
330
1F
100
AcDbEntity
  8
0
  6
Continuous
 62
     7
370
    15
100
AcDbLine
 10
120.4631727722109
 20
102.2846001791029
 30
0.0
 11
121.0637251914114
 21
102.2846001791029
 31
0.0
  0
ARC
  5
1BB
330
1F
100
AcDbEntity
  8
0
  6
Continuous
 62
     7
370
    15
100
AcDbCircle
 10
119.6356720734151
 20
102.4254162929713
 30
0.0
 40
0.8393965596978098
100
AcDbArc
 50
350.3424667248225
 51
4.043122716992035
  0
LINE
  5
1BC
330
1F
100
AcDbEntity
  8
0
  6
Continuous
 62
     7
370
    15
100
AcDbLine
 10
120.4729795989216
 20
102.4845998393564
 30
0.0
 11
120.8979642086298
 21
102.4845998393564
 31
0.0
  0
ARC
  5
1BD
330
1F
100
AcDbEntity
  8
0
  6
Continuous
 62
     7
370
    15
100
AcDbCircle
 10
121.0914881086198
 20
102.4763019980654
 30
0.0
 40
0.1937017140796955
100
AcDbArc
 50
177.5447980965362
 51
261.7595889117755
  0
LINE
  5
1BE
330
1F
100
AcDbEntity
  8
0
  6
Continuous
 62
     7
370
    15
100
AcDbLine
 10
121.0637251914114
 20
102.2846001791029
 30
0.0
 11
121.4839798465938
 21
102.2846001791029
 31
0.0
  0
LINE
  5
1BF
330
1F
100
AcDbEntity
  8
0
  6
Continuous
 62
     7
370
    15
100
AcDbLine
 10
120.8979642086298
 20
102.4845998393564
 30
0.0
 11
120.8979642086298
 21
104.2846000412671
 31
0.0
  0
LINE
  5
1C0
330
1F
100
AcDbEntity
  8
0
  6
Continuous
 62
     7
370
    15
100
AcDbLine
 10
121.4839798465938
 20
104.2846000412671
 30
0.0
 11
121.4839798465938
 21
102.2846001791029
 31
0.0
  0
LINE
  5
1C1
330
1F
100
AcDbEntity
  8
0
  6
Continuous
 62
     7
370
    15
100
AcDbLine
 10
126.1339579776496
 20
104.2846000412671
 30
0.0
 11
126.1339579776496
 21
102.4845998393564
 31
0.0
  0
LINE
  5
1C2
330
1F
100
AcDbEntity
  8
0
  6
Continuous
 62
     7
370
    15
100
AcDbLine
 10
125.9681965292067
 20
102.2846001791029
 30
0.0
 11
125.5479423396856
 21
102.2846001791029
 31
0.0
  0
LINE
  5
1C3
330
1F
100
AcDbEntity
  8
0
  6
Continuous
 62
     7
370
    15
100
AcDbLine
 10
125.5479423396856
 20
102.2846001791029
 30
0.0
 11
125.5479423396856
 21
104.2846000412671
 31
0.0
  0
LINE
  5
1C4
330
1F
100
AcDbEntity
  8
0
  6
Continuous
 62
     7
370
    15
100
AcDbLine
 10
120.4729795989216
 20
104.2846000412671
 30
0.0
 11
120.4729795989216
 21
102.4845998393564
 31
0.0
  0
LINE
  5
1C5
330
1F
100
AcDbEntity
  8
0
  6
Continuous
 62
     7
370
    15
100
AcDbLine
 10
126.5589425873578
 20
102.4845998393564
 30
0.0
 11
126.5589425873578
 21
104.2846000412671
 31
0.0
  0
LINE
  5
1C6
330
1F
100
AcDbEntity
  8
0
  6
Continuous
 62
     7
370
    15
100
AcDbLine
 10
126.593612932843
 20
104.2846000412671
 30
0.0
 11
126.593612932843
 21
102.2846001791029
 31
0.0
  0
LINE
  5
1C7
330
1F
100
AcDbEntity
  8
0
  6
Continuous
 62
     7
370
    15
100
AcDbLine
 10
126.5687494140685
 20
102.2846001791029
 30
0.0
 11
126.593612932843
 21
102.2846001791029
 31
0.0
  0
LINE
  5
1C8
330
1F
100
AcDbEntity
  8
0
  6
Continuous
 62
     7
370
    15
100
AcDbLine
 10
120.4383092534364
 20
102.2846001791029
 30
0.0
 11
120.4383092534364
 21
104.2846000412671
 31
0.0
  0
LINE
  5
1C9
330
1F
100
AcDbEntity
  8
0
  6
Continuous
 62
     7
370
    15
100
AcDbLine
 10
120.4631727722109
 20
102.2846001791029
 30
0.0
 11
120.4383092534364
 21
102.2846001791029
 31
0.0
  0
LINE
  5
1CA
330
1F
100
AcDbEntity
  8
0
  6
Continuous
 62
     7
370
    15
100
AcDbLine
 10
129.4672683414639
 20
102.2846001791029
 30
0.0
 11
129.4672683414639
 21
104.2846000412671
 31
0.0
  0
LINE
  5
1CB
330
1F
100
AcDbEntity
  8
0
  6
Continuous
 62
     7
370
    15
100
AcDbLine
 10
117.5646538448156
 20
104.2846000412671
 30
0.0
 11
117.5646538448156
 21
102.2846001791029
 31
0.0
  0
LINE
  5
1CC
330
1F
100
AcDbEntity
  8
0
  6
Continuous
 62
     7
370
    15
100
AcDbLine
 10
123.5159610931397
 20
102.1345995025901
 30
0.0
 11
130.2159608875037
 21
102.1345995025901
 31
0.0
  0
LINE
  5
1CD
330
1F
100
AcDbEntity
  8
0
  6
Continuous
 62
     7
370
    15
100
AcDbLine
 10
116.8159612987757
 20
102.1345995025901
 30
0.0
 11
123.5159610931397
 21
102.1345995025901
 31
0.0
  0
LINE
  5
1CE
330
1F
100
AcDbEntity
  8
0
  6
Continuous
 62
     7
370
    15
100
AcDbLine
 10
146.1659608010769
 20
122.1309892492561
 30
0.0
 11
146.1659608010769
 21
122.7845998140244
 31
0.0
  0
LINE
  5
1CF
330
1F
100
AcDbEntity
  8
0
  6
Continuous
 62
     7
370
    15
100
AcDbLine
 10
123.5159610931397
 20
100.8345998482971
 30
0.0
 11
129.8659610163987
 21
100.8345998482971
 31
0.0
  0
LINE
  5
1D0
330
1F
100
AcDbEntity
  8
0
  6
Continuous
 62
     7
370
    15
100
AcDbLine
 10
117.1659611698807
 20
100.8345998482971
 30
0.0
 11
123.5159610931397
 21
100.8345998482971
 31
0.0
  0
LINE
  5
1D1
330
1F
100
AcDbEntity
  8
0
  6
Continuous
 62
     7
370
    15
100
AcDbLine
 10
123.5159610931397
 20
99.68459993919418
 30
0.0
 11
129.8659610163987
 21
99.68459993919418
 31
0.0
  0
LINE
  5
1D2
330
1F
100
AcDbEntity
  8
0
  6
Continuous
 62
     7
370
    15
100
AcDbLine
 10
117.1659611698807
 20
99.68459993919418
 30
0.0
 11
123.5159610931397
 21
99.68459993919418
 31
0.0
  0
LINE
  5
1D3
330
1F
100
AcDbEntity
  8
0
  6
Continuous
 62
     7
370
    15
100
AcDbLine
 10
123.5159610931397
 20
97.88460020294474
 30
0.0
 11
129.8659610163987
 21
97.88460020294474
 31
0.0
  0
LINE
  5
1D4
330
1F
100
AcDbEntity
  8
0
  6
Continuous
 62
     7
370
    15
100
AcDbLine
 10
117.1659611698807
 20
97.88460020294474
 30
0.0
 11
123.5159610931397
 21
97.88460020294474
 31
0.0
  0
LINE
  5
1D5
330
1F
100
AcDbEntity
  8
0
  6
Continuous
 62
     7
370
    15
100
AcDbLine
 10
123.5159610931397
 20
98.48460011502789
 30
0.0
 11
129.8659610163987
 21
98.48460011502789
 31
0.0
  0
LINE
  5
1D6
330
1F
100
AcDbEntity
  8
0
  6
Continuous
 62
     7
370
    15
100
AcDbLine
 10
117.1659611698807
 20
98.48460011502789
 30
0.0
 11
123.5159610931397
 21
98.48460011502789
 31
0.0
  0
ARC
  5
1D7
330
1F
100
AcDbEntity
  8
0
  6
Continuous
 62
     7
370
    15
100
AcDbCircle
 10
123.5159610931397
 20
96.68919053149565
 30
0.0
 40
2.404632808953336
100
AcDbArc
 50
243.6392719610833
 51
296.3607280389183
  0
LINE
  5
1D8
330
1F
100
AcDbEntity
  8
0
  6
Continuous
 62
     7
370
    15
100
AcDbLine
 10
118.015961122942
 20
94.28459979912327
 30
0.0
 11
129.0159610633374
 21
94.28459979912327
 31
0.0
  0
LWPOLYLINE
  5
1D9
330
1F
100
AcDbEntity
  8
0
  6
Continuous
 62
     7
370
    15
100
AcDbPolyline
 90
        7
 70
   128
 43
0.0
 10
118.8772165749789
 20
96.43459987213896
 10
118.8679494497002
 20
96.32599369010018
 10
118.8421937238992
 20
96.22463226636932
 10
118.8048253369153
 20
96.13884814402149
 10
118.7565087874056
 20
96.06447831114815
 10
118.6485582564593
 20
95.96740655919598
 10
118.5363147941054
 20
95.93459979018257
  0
LINE
  5
1DA
330
1F
100
AcDbEntity
  8
0
  6
Continuous
 62
     7
370
    15
100
AcDbLine
 10
118.8772165749789
 20
97.63459969630526
 30
0.0
 11
118.8772165749789
 21
96.43459987213896
 31
0.0
  0
LWPOLYLINE
  5
1DB
330
1F
100
AcDbEntity
  8
0
  6
Continuous
 62
     7
370
    15
100
AcDbPolyline
 90
        3
 70
   128
 43
0.0
 10
118.826655072403
 20
97.88460020294474
 10
118.8641682800472
 20
97.76531920155571
 10
118.8772165749789
 20
97.63459969630526
  0
LINE
  5
1DC
330
1F
100
AcDbEntity
  8
0
  6
Continuous
 62
     7
370
    15
100
AcDbLine
 10
122.4482533123911
 20
94.53460030576275
 30
0.0
 11
122.4482533123911
 21
97.88460020294474
 31
0.0
  0
LINE
  5
1DD
330
1F
100
AcDbEntity
  8
0
  6
Continuous
 62
     7
370
    15
100
AcDbLine
 10
124.5836688738883
 20
97.88460020294474
 30
0.0
 11
124.5836688738883
 21
94.53460030576275
 31
0.0
  0
LWPOLYLINE
  5
1DE
330
1F
100
AcDbEntity
  8
0
  6
Continuous
 62
     7
370
    15
100
AcDbPolyline
 90
        3
 70
   128
 43
0.0
 10
128.2052671138764
 20
97.88460020294474
 10
128.1677539062322
 20
97.76531920155571
 10
128.1547056113005
 20
97.63459969630526
  0
LINE
  5
1DF
330
1F
100
AcDbEntity
  8
0
  6
Continuous
 62
     7
370
    15
100
AcDbLine
 10
128.1547056113005
 20
96.43459987213896
 30
0.0
 11
128.1547056113005
 21
97.63459969630526
 31
0.0
  0
LWPOLYLINE
  5
1E0
330
1F
100
AcDbEntity
  8
0
  6
Continuous
 62
     7
370
    15
100
AcDbPolyline
 90
        7
 70
   128
 43
0.0
 10
128.4956073921741
 20
95.93459979018257
 10
128.3833639298201
 20
95.96740655919598
 10
128.2754133988739
 20
96.06447831114815
 10
128.227114544493
 20
96.13881461640881
 10
128.1897284623802
 20
96.22463226636932
 10
128.1639732022405
 20
96.32597226968096
 10
128.1547056113005
 20
96.43459987213896
  0
LINE
  5
1E1
330
1F
100
AcDbEntity
  8
0
  6
Continuous
 62
     7
370
    15
100
AcDbLine
 10
147.5066350374938
 20
107.0786017583875
 30
0.0
 11
146.8659614746094
 21
106.9429993288784
 31
0.0
  0
LINE
  5
1E2
330
1F
100
AcDbEntity
  8
0
  6
Continuous
 62
     7
370
    15
100
AcDbLine
 10
147.5659602854968
 20
107.147743146327
 30
0.0
 11
147.5659602854968
 21
107.3413227344124
 31
0.0
  0
ARC
  5
1E3
330
1F
100
AcDbEntity
  8
0
  6
Continuous
 62
     7
370
    15
100
AcDbCircle
 10
147.4952197182816
 20
107.1484184785252
 30
0.0
 40
0.0707437907063203
100
AcDbArc
 50
279.285927300308
 51
359.4530364848449
  0
LINE
  5
1E4
330
1F
100
AcDbEntity
  8
0
  6
Continuous
 62
     7
370
    15
100
AcDbLine
 10
146.8659614746094
 20
120.6262001427083
 30
0.0
 11
147.5066350374938
 21
120.4905986445217
 31
0.0
  0
ARC
  5
1E5
330
1F
100
AcDbEntity
  8
0
  6
Continuous
 62
     7
370
    15
100
AcDbCircle
 10
147.4960667545561
 20
120.4215087045398
 30
0.0
 40
0.0698935505676171
100
AcDbArc
 50
359.9570616752959
 51
81.30321174077058
  0
LINE
  5
1E6
330
1F
100
AcDbEntity
  8
0
  6
Continuous
 62
     7
370
    15
100
AcDbLine
 10
147.5659602854968
 20
120.4214563252596
 30
0.0
 11
147.5659602854968
 21
120.2278772028355
 31
0.0
  0
LINE
  5
1E7
330
1F
100
AcDbEntity
  8
0
  6
Continuous
 62
     7
370
    15
100
AcDbLine
 10
147.5659602854968
 20
106.2612008894054
 30
0.0
 11
147.5659602854968
 21
107.147743146327
 31
0.0
  0
LINE
  5
1E8
330
1F
100
AcDbEntity
  8
0
  6
Continuous
 62
     7
370
    15
100
AcDbLine
 10
147.5659602854968
 20
120.4214563252596
 30
0.0
 11
147.5659602854968
 21
121.3079757647781
 31
0.0
  0
LINE
  5
1E9
330
1F
100
AcDbEntity
  8
0
  6
Continuous
 62
     7
370
    15
100
AcDbLine
 10
118.8772165749789
 20
96.43459987213896
 30
0.0
 11
118.8297298338831
 21
96.43459987213896
 31
0.0
  0
LINE
  5
1EA
330
1F
100
AcDbEntity
  8
0
  6
Continuous
 62
     7
370
    15
100
AcDbLine
 10
118.8772165749789
 20
97.63459969630526
 30
0.0
 11
118.8297298338831
 21
97.63459969630526
 31
0.0
  0
LINE
  5
1EB
330
1F
100
AcDbEntity
  8
0
  6
Continuous
 62
     7
370
    15
100
AcDbLine
 10
128.1547056113005
 20
97.63459969630526
 30
0.0
 11
128.2021923523963
 21
97.63459969630526
 31
0.0
  0
LINE
  5
1EC
330
1F
100
AcDbEntity
  8
0
  6
Continuous
 62
     7
370
    15
100
AcDbLine
 10
128.1547056113005
 20
96.43459987213896
 30
0.0
 11
128.2021923523963
 21
96.43459987213896
 31
0.0
  0
ARC
  5
1ED
330
1F
100
AcDbEntity
  8
0
  6
Continuous
 62
     7
370
    15
100
AcDbCircle
 10
118.7708652711002
 20
95.95023057660254
 30
0.0
 40
0.2350660829272663
100
AcDbArc
 50
94.40244806459842
 51
183.8127125046412
  0
ARC
  5
1EE
330
1F
100
AcDbEntity
  8
0
  6
Continuous
 62
     7
370
    15
100
AcDbCircle
 10
128.2610569414191
 20
95.95022361124
 30
0.0
 40
0.2350702400003153
100
AcDbArc
 50
356.1890565149473
 51
85.59763635817374
  0
LINE
  5
1EF
330
1F
100
AcDbEntity
  8
0
  6
Continuous
 62
     7
370
    15
100
AcDbLine
 10
116.7464306180001
 20
102.2846001791029
 30
0.0
 11
116.9951873433412
 21
102.2846001791029
 31
0.0
  0
ARC
  5
1F0
330
1F
100
AcDbEntity
  8
0
  6
Continuous
 62
     7
370
    15
100
AcDbCircle
 10
116.7688993613342
 20
102.4593423651327
 30
0.0
 40
0.1761808048724602
100
AcDbArc
 50
171.7576143024144
 51
262.6729834384256
  0
LINE
  5
1F1
330
1F
100
AcDbEntity
  8
0
  6
Continuous
 62
     7
370
    15
100
AcDbLine
 10
116.7705728274406
 20
102.4845998393564
 30
0.0
 11
116.5945384253383
 21
102.4845998393564
 31
0.0
  0
ARC
  5
1F2
330
1F
100
AcDbEntity
  8
0
  6
Continuous
 62
     7
370
    15
100
AcDbCircle
 10
116.9778121381632
 20
102.4912157352704
 30
0.0
 40
0.2073448865719646
100
AcDbArc
 50
181.8284862000641
 51
274.8070706910421
  0
LINE
  5
1F3
330
1F
100
AcDbEntity
  8
0
  6
Continuous
 62
     7
370
    15
100
AcDbLine
 10
130.2854915682793
 20
102.2846001791029
 30
0.0
 11
130.0367339116157
 21
102.2846001791029
 31
0.0
  0
ARC
  5
1F4
330
1F
100
AcDbEntity
  8
0
  6
Continuous
 62
     7
370
    15
100
AcDbCircle
 10
130.0541088838976
 20
102.4912170427774
 30
0.0
 40
0.2073460919212435
100
AcDbArc
 50
265.1932801624036
 51
358.1711629464578
  0
LINE
  5
1F5
330
1F
100
AcDbEntity
  8
0
  6
Continuous
 62
     7
370
    15
100
AcDbLine
 10
130.4373837609411
 20
102.4845998393564
 30
0.0
 11
130.2613493588389
 21
102.4845998393564
 31
0.0
  0
ARC
  5
1F6
330
1F
100
AcDbEntity
  8
0
  6
Continuous
 62
     7
370
    15
100
AcDbCircle
 10
130.2630228249267
 20
102.4593423651468
 30
0.0
 40
0.1761808048887899
100
AcDbArc
 50
277.3270165669692
 51
8.242385692209291
  0
LINE
  5
1F7
330
1F
100
AcDbEntity
  8
0
  6
Continuous
 62
     7
370
    15
100
AcDbLine
 10
130.2613493588389
 20
102.4845998393564
 30
0.0
 11
130.2613493588389
 21
104.2846000412671
 31
0.0
  0
LINE
  5
1F8
330
1F
100
AcDbEntity
  8
0
  6
Continuous
 62
     7
370
    15
100
AcDbLine
 10
129.4672683414639
 20
102.2846001791029
 30
0.0
 11
130.036734377277
 21
102.2846001791029
 31
0.0
  0
LINE
  5
1F9
330
1F
100
AcDbEntity
  8
0
  6
Continuous
 62
     7
370
    15
100
AcDbLine
 10
116.9951873433412
 20
102.2846001791029
 30
0.0
 11
117.5646538448156
 21
102.2846001791029
 31
0.0
  0
LINE
  5
1FA
330
1F
100
AcDbEntity
  8
0
  6
Continuous
 62
     7
370
    15
100
AcDbLine
 10
116.7705728274406
 20
102.4845998393564
 30
0.0
 11
116.7705728274406
 21
104.2846000412671
 31
0.0
  0
LINE
  5
1FB
330
1F
100
AcDbEntity
  8
0
  6
Continuous
 62
     7
370
    15
100
AcDbLine
 10
130.4373837609411
 20
104.2846000412671
 30
0.0
 11
130.4373837609411
 21
102.4845998393564
 31
0.0
  0
LINE
  5
1FC
330
1F
100
AcDbEntity
  8
0
  6
Continuous
 62
     7
370
    15
100
AcDbLine
 10
116.5945384253383
 20
104.2846000412671
 30
0.0
 11
116.5945384253383
 21
102.4845998393564
 31
0.0
  0
LINE
  5
1FD
330
1F
100
AcDbEntity
  8
0
  6
Continuous
 62
     7
370
    15
100
AcDbLine
 10
118.7528212156714
 20
96.18460029682205
 30
0.0
 11
118.015961122942
 21
96.18460029682205
 31
0.0
  0
LINE
  5
1FE
330
1F
100
AcDbEntity
  8
0
  6
Continuous
 62
     7
370
    15
100
AcDbLine
 10
129.0159610633374
 20
96.18460029682205
 30
0.0
 11
128.2791009706081
 21
96.18460029682205
 31
0.0
  0
LINE
  5
1FF
330
1F
100
AcDbEntity
  8
0
  6
Continuous
 62
     7
370
    15
100
AcDbLine
 10
130.8190872494698
 20
102.4845998393564
 30
0.0
 11
130.8190872494698
 21
104.2846000412671
 31
0.0
  0
ARC
  5
200
330
1F
100
AcDbEntity
  8
0
  6
Continuous
 62
     7
370
    15
100
AcDbCircle
 10
130.61514111822
 20
102.4883108318143
 30
0.0
 40
0.2039798909618256
100
AcDbArc
 50
267.0558487744711
 51
358.9575642209205
  0
LINE
  5
201
330
1F
100
AcDbEntity
  8
0
  6
Continuous
 62
     7
370
    15
100
AcDbLine
 10
130.3125110988141
 20
102.2846001791029
 30
0.0
 11
130.6046641965032
 21
102.2846001791029
 31
0.0
  0
LINE
  5
202
330
1F
100
AcDbEntity
  8
0
  6
Continuous
 62
     7
370
    15
100
AcDbLine
 10
116.4272575241149
 20
102.2846001791029
 30
0.0
 11
116.7194106218041
 21
102.2846001791029
 31
0.0
  0
ARC
  5
203
330
1F
100
AcDbEntity
  8
0
  6
Continuous
 62
     7
370
    15
100
AcDbCircle
 10
116.4167810680602
 20
102.4883108318152
 30
0.0
 40
0.2039798909626225
100
AcDbArc
 50
181.0424357793164
 51
272.9441512252992
  0
LINE
  5
204
330
1F
100
AcDbEntity
  8
0
  6
Continuous
 62
     7
370
    15
100
AcDbLine
 10
116.2128349368096
 20
102.4845998393564
 30
0.0
 11
116.2128349368096
 21
104.2846000412671
 31
0.0
  0
ARC
  5
205
330
1F
100
AcDbEntity
  8
0
  6
Continuous
 62
     7
370
    15
100
AcDbCircle
 10
116.3465038531022
 20
102.478368457006
 30
0.0
 40
0.1938114835678272
100
AcDbArc
 50
178.1575217108926
 51
268.7901645913042
  0
LINE
  5
206
330
1F
100
AcDbEntity
  8
0
  6
Continuous
 62
     7
370
    15
100
AcDbLine
 10
116.1527925704241
 20
102.4845998393564
 30
0.0
 11
116.2128349368096
 21
102.4845998393564
 31
0.0
  0
LINE
  5
207
330
1F
100
AcDbEntity
  8
0
  6
Continuous
 62
     7
370
    15
100
AcDbLine
 10
116.3424112435997
 20
102.2846001791029
 30
0.0
 11
116.4272575241149
 21
102.2846001791029
 31
0.0
  0
LINE
  5
208
330
1F
100
AcDbEntity
  8
0
  6
Continuous
 62
     7
370
    15
100
AcDbLine
 10
130.8791296158553
 20
102.4845998393564
 30
0.0
 11
130.8190872494698
 21
102.4845998393564
 31
0.0
  0
ARC
  5
209
330
1F
100
AcDbEntity
  8
0
  6
Continuous
 62
     7
370
    15
100
AcDbCircle
 10
130.685418333191
 20
102.4783684569929
 30
0.0
 40
0.1938114835545114
100
AcDbArc
 50
271.2098354047173
 51
1.842478293087909
  0
LINE
  5
20A
330
1F
100
AcDbEntity
  8
0
  6
Continuous
 62
     7
370
    15
100
AcDbLine
 10
130.6895104770184
 20
102.2846001791029
 30
0.0
 11
130.6046637308419
 21
102.2846001791029
 31
0.0
  0
LINE
  5
20B
330
1F
100
AcDbEntity
  8
0
  6
Continuous
 62
     7
370
    15
100
AcDbLine
 10
116.1527925704241
 20
104.2846000412671
 30
0.0
 11
116.1527925704241
 21
102.4845998393564
 31
0.0
  0
LINE
  5
20C
330
1F
100
AcDbEntity
  8
0
  6
Continuous
 62
     7
370
    15
100
AcDbLine
 10
130.8791296158553
 20
104.2846000412671
 30
0.0
 11
130.8791296158553
 21
102.4845998393564
 31
0.0
  0
ARC
  5
20D
330
1F
100
AcDbEntity
  8
0
  6
Continuous
 62
     7
370
    15
100
AcDbCircle
 10
152.9762310191857
 20
113.8436460902961
 30
0.0
 40
1.705752398297189
100
AcDbArc
 50
305.4667565521801
 51
358.0162598196842
  0
ARC
  5
20E
330
1F
100
AcDbEntity
  8
0
  6
Continuous
 62
     7
370
    15
100
AcDbCircle
 10
152.9783762670506
 20
113.7257842690375
 30
0.0
 40
1.703600466980357
100
AcDbArc
 50
1.978492743031766
 51
54.57026063331696
  0
LINE
  5
20F
330
1F
100
AcDbEntity
  8
0
  6
Continuous
 62
     7
370
    15
100
AcDbLine
 10
155.3659600739003
 20
117.3814736897318
 30
0.0
 11
153.9659605894805
 21
117.3814736897318
 31
0.0
  0
LINE
  5
210
330
1F
100
AcDbEntity
  8
0
  6
Continuous
 62
     7
370
    15
100
AcDbLine
 10
155.3659600739003
 20
110.1877262475161
 30
0.0
 11
155.3659600739003
 21
117.3814736897318
 31
0.0
  0
LINE
  5
211
330
1F
100
AcDbEntity
  8
0
  6
Continuous
 62
     7
370
    15
100
AcDbLine
 10
153.9659605894805
 20
110.1877262475161
 30
0.0
 11
155.3659600739003
 21
110.1877262475161
 31
0.0
  0
LINE
  5
212
330
1F
100
AcDbEntity
  8
0
  6
Continuous
 62
     7
370
    15
100
AcDbLine
 10
155.8659610871792
 20
116.8156887063949
 30
0.0
 11
155.3659600739003
 21
117.3814736897318
 31
0.0
  0
LINE
  5
213
330
1F
100
AcDbEntity
  8
0
  6
Continuous
 62
     7
370
    15
100
AcDbLine
 10
155.8659610871792
 20
110.7535109980224
 30
0.0
 11
155.8659610871792
 21
116.8156887063949
 31
0.0
  0
LINE
  5
214
330
1F
100
AcDbEntity
  8
0
  6
Continuous
 62
     7
370
    15
100
AcDbLine
 10
155.3659600739003
 20
110.1877262475161
 30
0.0
 11
155.8659610871792
 21
110.7535109980224
 31
0.0
  0
LWPOLYLINE
  5
215
330
1F
100
AcDbEntity
  8
0
  6
Continuous
 62
     7
370
    15
100
AcDbPolyline
 90
        3
 70
   128
 43
0.0
 10
125.8812889990032
 20
99.63231735250042
 10
125.8543493293792
 20
99.67298820933388
 10
125.8370351113946
 20
99.68459993919418
  0
LINE
  5
216
330
1F
100
AcDbEntity
  8
0
  6
Continuous
 62
     7
370
    15
100
AcDbLine
 10
124.5836688738883
 20
94.53460030576275
 30
0.0
 11
129.2659611043156
 21
94.53460030576275
 31
0.0
  0
LINE
  5
217
330
1F
100
AcDbEntity
  8
0
  6
Continuous
 62
     7
370
    15
100
AcDbLine
 10
117.7659610819638
 20
94.53460030576275
 30
0.0
 11
122.4482533123911
 21
94.53460030576275
 31
0.0
  0
LINE
  5
218
330
1F
100
AcDbEntity
  8
0
  6
Continuous
 62
     7
370
    15
100
AcDbLine
 10
118.5363147941054
 20
95.93459979018257
 30
0.0
 11
117.7659610819638
 21
95.93459979018257
 31
0.0
  0
LINE
  5
219
330
1F
100
AcDbEntity
  8
0
  6
Continuous
 62
     7
370
    15
100
AcDbLine
 10
129.2659611043156
 20
95.93459979018257
 30
0.0
 11
128.4956073921741
 21
95.93459979018257
 31
0.0
  0
LINE
  5
21A
330
1F
100
AcDbEntity
  8
0
  6
Continuous
 62
     7
370
    15
100
AcDbLine
 10
147.5066350374938
 20
106.1698460610775
 30
0.0
 11
147.5066350374938
 21
107.0786017583875
 31
0.0
  0
LINE
  5
21B
330
1F
100
AcDbEntity
  8
0
  6
Continuous
 62
     7
370
    15
100
AcDbLine
 10
147.5066350374938
 20
120.4905986445217
 30
0.0
 11
147.5066350374938
 21
121.3993534105091
 31
0.0
  0
ENDSEC
  0
SECTION
  2
OBJECTS
  0
DICTIONARY
  5
C
330
0
100
AcDbDictionary
281
     1
  3
ACAD_COLOR
350
658
  3
ACAD_GROUP
350
D
  3
ACAD_LAYOUT
350
1A
  3
ACAD_MATERIAL
350
657
  3
ACAD_MLINESTYLE
350
17
  3
ACAD_PLOTSETTINGS
350
19
  3
ACAD_PLOTSTYLENAME
350
E
  3
ACAD_TABLESTYLE
350
659
  3
AcDbVariableDictionary
350
65E
  0
DICTIONARY
  5
658
102
{ACAD_REACTORS
330
C
102
}
330
C
100
AcDbDictionary
281
     1
  0
DICTIONARY
  5
D
102
{ACAD_REACTORS
330
C
102
}
330
C
100
AcDbDictionary
281
     1
  0
DICTIONARY
  5
1A
102
{ACAD_REACTORS
330
C
102
}
330
C
100
AcDbDictionary
281
     1
  3
Layout1
350
1E
  3
Layout2
350
26
  3
Model
350
22
  0
DICTIONARY
  5
657
102
{ACAD_REACTORS
330
C
102
}
330
C
100
AcDbDictionary
281
     1
  0
DICTIONARY
  5
17
102
{ACAD_REACTORS
330
C
102
}
330
C
100
AcDbDictionary
281
     1
  3
Standard
350
18
  0
DICTIONARY
  5
19
102
{ACAD_REACTORS
330
C
102
}
330
C
100
AcDbDictionary
281
     1
  0
ACDBDICTIONARYWDFLT
  5
E
102
{ACAD_REACTORS
330
C
102
}
330
C
100
AcDbDictionary
281
     1
  3
Normal
350
F
100
AcDbDictionaryWithDefault
340
F
  0
DICTIONARY
  5
659
102
{ACAD_REACTORS
330
C
102
}
330
C
100
AcDbDictionary
281
     1
  3
Standard
350
65A
  0
DICTIONARY
  5
65E
102
{ACAD_REACTORS
330
C
102
}
330
C
100
AcDbDictionary
281
     1
  3
CTABLESTYLE
350
65F
  0
LAYOUT
  5
1E
102
{ACAD_REACTORS
330
1A
102
}
330
1A
100
AcDbPlotSettings
  1

  2

  4

  6

 40
0.0
 41
0.0
 42
0.0
 43
0.0
 44
0.0
 45
0.0
 46
0.0
 47
0.0
 48
0.0
 49
0.0
140
0.0
141
0.0
142
1.0
143
1.0
 70
   688
 72
     0
 73
     0
 74
     5
  7

 75
    16
147
1.0
 76
     0
 77
     2
 78
   300
148
0.0
149
0.0
100
AcDbLayout
  1
Layout1
 70
     1
 71
     1
 10
0.0
 20
0.0
 11
420.0
 21
297.0
 12
0.0
 22
0.0
 32
0.0
 14
1.000000000000000E+20
 24
1.000000000000000E+20
 34
1.000000000000000E+20
 15
-1.000000000000000E+20
 25
-1.000000000000000E+20
 35
-1.000000000000000E+20
146
0.0
 13
0.0
 23
0.0
 33
0.0
 16
1.0
 26
0.0
 36
0.0
 17
0.0
 27
1.0
 37
0.0
 76
     0
330
1B
  0
LAYOUT
  5
26
102
{ACAD_REACTORS
330
1A
102
}
330
1A
100
AcDbPlotSettings
  1

  2

  4

  6

 40
0.0
 41
0.0
 42
0.0
 43
0.0
 44
0.0
 45
0.0
 46
0.0
 47
0.0
 48
0.0
 49
0.0
140
0.0
141
0.0
142
1.0
143
1.0
 70
   688
 72
     0
 73
     0
 74
     5
  7

 75
    16
147
1.0
 76
     0
 77
     2
 78
   300
148
0.0
149
0.0
100
AcDbLayout
  1
Layout2
 70
     1
 71
     2
 10
0.0
 20
0.0
 11
0.0
 21
0.0
 12
0.0
 22
0.0
 32
0.0
 14
0.0
 24
0.0
 34
0.0
 15
0.0
 25
0.0
 35
0.0
146
0.0
 13
0.0
 23
0.0
 33
0.0
 16
1.0
 26
0.0
 36
0.0
 17
0.0
 27
1.0
 37
0.0
 76
     0
330
23
  0
LAYOUT
  5
22
102
{ACAD_REACTORS
330
1A
102
}
330
1A
100
AcDbPlotSettings
  1

  2

  4

  6

 40
0.0
 41
0.0
 42
0.0
 43
0.0
 44
0.0
 45
0.0
 46
0.0
 47
0.0
 48
0.0
 49
0.0
140
0.0
141
0.0
142
1.0
143
1.0
 70
  1712
 72
     0
 73
     0
 74
     0
  7

 75
     0
147
1.0
 76
     0
 77
     2
 78
   300
148
0.0
149
0.0
100
AcDbLayout
  1
Model
 70
     1
 71
     0
 10
0.0
 20
0.0
 11
0.0
 21
0.0
 12
0.0
 22
0.0
 32
0.0
 14
0.0
 24
0.0
 34
0.0
 15
279.4
 25
215.9
 35
0.0
146
0.0
 13
0.0
 23
0.0
 33
0.0
 16
1.0
 26
0.0
 36
0.0
 17
0.0
 27
1.0
 37
0.0
 76
     0
330
1F
  0
MLINESTYLE
  5
18
102
{ACAD_REACTORS
330
17
102
}
330
17
100
AcDbMlineStyle
  2
STANDARD
 70
     0
  3

 62
   256
 51
90.0
 52
90.0
 71
     2
 49
0.5
 62
   256
  6
BYLAYER
 49
-0.5
 62
   256
  6
BYLAYER
  0
ACDBPLACEHOLDER
  5
F
102
{ACAD_REACTORS
330
E
102
}
330
E
  0
TABLESTYLE
  5
65A
102
{ACAD_REACTORS
330
659
102
}
330
659
100
AcDbTableStyle
  3
Standard
 70
     0
 71
     8
 40
1.5
 41
1.5
280
     0
281
     0
  7
Standard
140
4.5
170
     2
 62
     0
 63
     7
283
     0
274
    -2
284
     1
 64
     0
275
    -2
285
     1
 65
     0
276
    -2
286
     1
 66
     0
277
    -2
287
     1
 67
     0
278
    -2
288
     1
 68
     0
279
    -2
289
     1
 69
     0
  7
Standard
140
6.0
170
     5
 62
     0
 63
     7
283
     0
274
    -2
284
     1
 64
     0
275
    -2
285
     1
 65
     0
276
    -2
286
     1
 66
     0
277
    -2
287
     1
 67
     0
278
    -2
288
     1
 68
     0
279
    -2
289
     1
 69
     0
  7
Standard
140
4.5
170
     5
 62
     0
 63
     7
283
     0
274
    -2
284
     1
 64
     0
275
    -2
285
     1
 65
     0
276
    -2
286
     1
 66
     0
277
    -2
287
     1
 67
     0
278
    -2
288
     1
 68
     0
279
    -2
289
     1
 69
     0
  0
DICTIONARYVAR
  5
65F
102
{ACAD_REACTORS
330
65E
102
}
330
65E
100
DictionaryVariables
280
     0
  1
STANDARD
  0
ENDSEC
  0
EOF
