  0
SECTION
  2
HEADER
  9
$ACADVER
  1
AC1006
  9
$EXTMIN
 10
-1.857000
 20
-3.283024
  9
$EXTMAX
 10
1.859000
 20
3.278000
  9
$LTSCALE
 40
0.000394
  9
$PDMODE
 70
    35
  9
$PDSIZE
 40
0.000315
  0
ENDSEC
  0
SECTION
  2
TABLES
  0
TABLE
  2
LTYPE
 70
     9
  0
LTYPE
  2
CONTINUOUS
 70
    64
  3
Solid line
 72
    65
 73
     0
 40
0.000000
  0
LTYPE
  2
DASHED
 70
    64
  3
__ __ __ __ __ __ __ __ __ __ __ __ __ __ __
 72
    65
 73
     2
 40
0.000003
 49
0.000002
 49
-0.000001
  0
LTYPE
  2
HIDDEN
 70
    64
  3
 _ _ _ _ _ _ _ _ _ _ _ _ _ _ _ _ _ _ _ _ _ _
 72
    65
 73
     2
 40
0.000001
 49
0.000001
 49
-0.000000
  0
LTYPE
  2
CENTER
 70
    64
  3
____ _ ____ _ ____ _ ____ _ ____ _ ____ _ ____
 72
    65
 73
     4
 40
0.000008
 49
0.000005
 49
-0.000001
 49
0.000001
 49
-0.000001
  0
LTYPE
  2
PHANTOM
 70
    64
  3
_____ _ _ _____ _ _ _____ _ _ _____ _ _ ____
 72
    65
 73
     6
 40
0.000010
 49
0.000005
 49
-0.000001
 49
0.000001
 49
-0.000001
 49
0.000001
 49
-0.000001
  0
LTYPE
  2
DOT
 70
    64
  3
...............................................
 72
    65
 73
     2
 40
0.000001
 49
0.000000
 49
-0.000001
  0
LTYPE
  2
DASHDOT
 70
    64
  3
__ . __ . __ . __ . __ . __ . __ . __ . __ . __
 72
    65
 73
     4
 40
0.000004
 49
0.000002
 49
-0.000001
 49
0.000000
 49
-0.000001
  0
LTYPE
  2
BORDER
 70
    64
  3
__ __ . __ __ . __ __ . __ __ . __ __ . __ __
 72
    65
 73
     6
 40
0.000007
 49
0.000002
 49
-0.000001
 49
0.000002
 49
-0.000001
 49
0.000000
 49
-0.000001
  0
LTYPE
  2
DIVIDE
 70
    64
  3
__ . . __ . . __ . . __ . . __ . . __ . . __
 72
    65
 73
     6
 40
0.000005
 49
0.000002
 49
-0.000001
 49
0.000000
 49
-0.000001
 49
0.000000
 49
-0.000001
  0
LTYPE
  2
DOTDOT
 70
    64
  3
 . .  . .  . .  . .  . .  . . 
 72
    65
 73
     5
 40
0.000002
 49
-0.000001
 49
0.000000
 49
-0.000001
 49
0.000000
 49
-0.000001
  0
ENDTAB
  0
TABLE
  2
STYLE
 70
     0
  0
ENDTAB
  0
TABLE
  2
LAYER
 70
     3
  0
LAYER
  2
FOREGROUND
 70
    64
 62
     7
  6
CONTINUOUS
  0
LAYER
  2
BACKGROUND
 70
    65
 62
    -7
  6
CONTINUOUS
  0
LAYER
  2
PLAN_1
 70
    64
 62
     7
  6
CONTINUOUS
  0
ENDTAB
  0
ENDSEC
  0
SECTION
  2
ENTITIES
  0
POLYLINE
  8
PLAN_1
  6
CONTINUOUS
 66
     1
 40
0.003000
 41
0.003000
  0
VERTEX
  8
PLAN_1
  6
CONTINUOUS
 10
-0.017043
 20
-3.248169
  0
VERTEX
  8
PLAN_1
  6
CONTINUOUS
 10
-0.173689
 20
-3.248169
  0
VERTEX
  8
PLAN_1
  6
CONTINUOUS
 10
-0.173689
 20
-3.226024
  0
VERTEX
  8
PLAN_1
  6
CONTINUOUS
 10
-0.051488
 20
-3.073071
  0
VERTEX
  8
PLAN_1
  6
CONTINUOUS
 10
-0.164665
 20
-3.073071
  0
VERTEX
  8
PLAN_1
  6
CONTINUOUS
 10
-0.164665
 20
-3.048878
  0
VERTEX
  8
PLAN_1
  6
CONTINUOUS
 10
-0.017043
 20
-3.048878
  0
VERTEX
  8
PLAN_1
  6
CONTINUOUS
 10
-0.017043
 20
-3.072252
  0
VERTEX
  8
PLAN_1
  6
CONTINUOUS
 10
-0.139654
 20
-3.224386
  0
VERTEX
  8
PLAN_1
  6
CONTINUOUS
 10
-0.017043
 20
-3.224386
  0
VERTEX
  8
PLAN_1
  6
CONTINUOUS
 10
-0.017043
 20
-3.248169
  0
SEQEND
  8
0
  0
POLYLINE
  8
PLAN_1
  6
CONTINUOUS
 66
     1
 40
0.003000
 41
0.003000
  0
VERTEX
  8
PLAN_1
  6
CONTINUOUS
 10
0.150673
 20
-3.109157
  0
VERTEX
  8
PLAN_1
  6
CONTINUOUS
 10
0.149031
 20
-3.102594
  0
VERTEX
  8
PLAN_1
  6
CONTINUOUS
 10
0.146571
 20
-3.097264
  0
VERTEX
  8
PLAN_1
  6
CONTINUOUS
 10
0.144114
 20
-3.092343
  0
VERTEX
  8
PLAN_1
  6
CONTINUOUS
 10
0.141240
 20
-3.087835
  0
VERTEX
  8
PLAN_1
  6
CONTINUOUS
 10
0.137961
 20
-3.083732
  0
VERTEX
  8
PLAN_1
  6
CONTINUOUS
 10
0.134681
 20
-3.080453
  0
VERTEX
  8
PLAN_1
  6
CONTINUOUS
 10
0.130992
 20
-3.077583
  0
VERTEX
  8
PLAN_1
  6
CONTINUOUS
 10
0.126890
 20
-3.075122
  0
VERTEX
  8
PLAN_1
  6
CONTINUOUS
 10
0.122787
 20
-3.073071
  0
VERTEX
  8
PLAN_1
  6
CONTINUOUS
 10
0.118689
 20
-3.071429
  0
VERTEX
  8
PLAN_1
  6
CONTINUOUS
 10
0.114587
 20
-3.070201
  0
VERTEX
  8
PLAN_1
  6
CONTINUOUS
 10
0.110488
 20
-3.069382
  0
VERTEX
  8
PLAN_1
  6
CONTINUOUS
 10
0.102287
 20
-3.068150
  0
VERTEX
  8
PLAN_1
  6
CONTINUOUS
 10
0.094906
 20
-3.067740
  0
VERTEX
  8
PLAN_1
  6
CONTINUOUS
 10
0.087933
 20
-3.068150
  0
VERTEX
  8
PLAN_1
  6
CONTINUOUS
 10
0.081374
 20
-3.068972
  0
VERTEX
  8
PLAN_1
  6
CONTINUOUS
 10
0.075220
 20
-3.070610
  0
VERTEX
  8
PLAN_1
  6
CONTINUOUS
 10
0.069480
 20
-3.072661
  0
VERTEX
  8
PLAN_1
  6
CONTINUOUS
 10
0.063740
 20
-3.075531
  0
VERTEX
  8
PLAN_1
  6
CONTINUOUS
 10
0.058409
 20
-3.078811
  0
VERTEX
  8
PLAN_1
  6
CONTINUOUS
 10
0.053079
 20
-3.082913
  0
VERTEX
  8
PLAN_1
  6
CONTINUOUS
 10
0.048567
 20
-3.087425
  0
VERTEX
  8
PLAN_1
  6
CONTINUOUS
 10
0.044469
 20
-3.092756
  0
VERTEX
  8
PLAN_1
  6
CONTINUOUS
 10
0.040776
 20
-3.098496
  0
VERTEX
  8
PLAN_1
  6
CONTINUOUS
 10
0.037496
 20
-3.105055
  0
VERTEX
  8
PLAN_1
  6
CONTINUOUS
 10
0.034626
 20
-3.112437
  0
VERTEX
  8
PLAN_1
  6
CONTINUOUS
 10
0.032575
 20
-3.119819
  0
VERTEX
  8
PLAN_1
  6
CONTINUOUS
 10
0.030933
 20
-3.128429
  0
VERTEX
  8
PLAN_1
  6
CONTINUOUS
 10
0.029705
 20
-3.137039
  0
VERTEX
  8
PLAN_1
  6
CONTINUOUS
 10
0.029295
 20
-3.146882
  0
VERTEX
  8
PLAN_1
  6
CONTINUOUS
 10
0.029705
 20
-3.155496
  0
VERTEX
  8
PLAN_1
  6
CONTINUOUS
 10
0.030114
 20
-3.163697
  0
VERTEX
  8
PLAN_1
  6
CONTINUOUS
 10
0.031346
 20
-3.171898
  0
VERTEX
  8
PLAN_1
  6
CONTINUOUS
 10
0.032984
 20
-3.179689
  0
VERTEX
  8
PLAN_1
  6
CONTINUOUS
 10
0.035035
 20
-3.186657
  0
VERTEX
  8
PLAN_1
  6
CONTINUOUS
 10
0.037496
 20
-3.193630
  0
VERTEX
  8
PLAN_1
  6
CONTINUOUS
 10
0.040366
 20
-3.200193
  0
VERTEX
  8
PLAN_1
  6
CONTINUOUS
 10
0.044055
 20
-3.205933
  0
VERTEX
  8
PLAN_1
  6
CONTINUOUS
 10
0.046106
 20
-3.208394
  0
VERTEX
  8
PLAN_1
  6
CONTINUOUS
 10
0.048157
 20
-3.211264
  0
VERTEX
  8
PLAN_1
  6
CONTINUOUS
 10
0.050618
 20
-3.213724
  0
VERTEX
  8
PLAN_1
  6
CONTINUOUS
 10
0.053079
 20
-3.215772
  0
VERTEX
  8
PLAN_1
  6
CONTINUOUS
 10
0.055539
 20
-3.217823
  0
VERTEX
  8
PLAN_1
  6
CONTINUOUS
 10
0.058409
 20
-3.219874
  0
VERTEX
  8
PLAN_1
  6
CONTINUOUS
 10
0.061280
 20
-3.221925
  0
VERTEX
  8
PLAN_1
  6
CONTINUOUS
 10
0.064559
 20
-3.223563
  0
VERTEX
  8
PLAN_1
  6
CONTINUOUS
 10
0.067839
 20
-3.224795
  0
VERTEX
  8
PLAN_1
  6
CONTINUOUS
 10
0.071122
 20
-3.226024
  0
VERTEX
  8
PLAN_1
  6
CONTINUOUS
 10
0.074811
 20
-3.227256
  0
VERTEX
  8
PLAN_1
  6
CONTINUOUS
 10
0.078504
 20
-3.228075
  0
VERTEX
  8
PLAN_1
  6
CONTINUOUS
 10
0.082602
 20
-3.228894
  0
VERTEX
  8
PLAN_1
  6
CONTINUOUS
 10
0.086705
 20
-3.229307
  0
VERTEX
  8
PLAN_1
  6
CONTINUOUS
 10
0.090803
 20
-3.229717
  0
VERTEX
  8
PLAN_1
  6
CONTINUOUS
 10
0.095724
 20
-3.229717
  0
VERTEX
  8
PLAN_1
  6
CONTINUOUS
 10
0.099004
 20
-3.229717
  0
VERTEX
  8
PLAN_1
  6
CONTINUOUS
 10
0.102697
 20
-3.229307
  0
VERTEX
  8
PLAN_1
  6
CONTINUOUS
 10
0.106386
 20
-3.228484
  0
VERTEX
  8
PLAN_1
  6
CONTINUOUS
 10
0.110488
 20
-3.227665
  0
VERTEX
  8
PLAN_1
  6
CONTINUOUS
 10
0.114587
 20
-3.226437
  0
VERTEX
  8
PLAN_1
  6
CONTINUOUS
 10
0.118689
 20
-3.224795
  0
VERTEX
  8
PLAN_1
  6
CONTINUOUS
 10
0.122787
 20
-3.222335
  0
VERTEX
  8
PLAN_1
  6
CONTINUOUS
 10
0.127299
 20
-3.219874
  0
VERTEX
  8
PLAN_1
  6
CONTINUOUS
 10
0.130992
 20
-3.216594
  0
VERTEX
  8
PLAN_1
  6
CONTINUOUS
 10
0.135091
 20
-3.212902
  0
VERTEX
  8
PLAN_1
  6
CONTINUOUS
 10
0.138783
 20
-3.208394
  0
VERTEX
  8
PLAN_1
  6
CONTINUOUS
 10
0.142063
 20
-3.203063
  0
VERTEX
  8
PLAN_1
  6
CONTINUOUS
 10
0.145343
 20
-3.197319
  0
VERTEX
  8
PLAN_1
  6
CONTINUOUS
 10
0.148213
 20
-3.190760
  0
VERTEX
  8
PLAN_1
  6
CONTINUOUS
 10
0.150673
 20
-3.183378
  0
VERTEX
  8
PLAN_1
  6
CONTINUOUS
 10
0.152315
 20
-3.175177
  0
VERTEX
  8
PLAN_1
  6
CONTINUOUS
 10
0.178559
 20
-3.175177
  0
VERTEX
  8
PLAN_1
  6
CONTINUOUS
 10
0.177327
 20
-3.181740
  0
VERTEX
  8
PLAN_1
  6
CONTINUOUS
 10
0.175689
 20
-3.188299
  0
VERTEX
  8
PLAN_1
  6
CONTINUOUS
 10
0.174047
 20
-3.194449
  0
VERTEX
  8
PLAN_1
  6
CONTINUOUS
 10
0.172406
 20
-3.200193
  0
VERTEX
  8
PLAN_1
  6
CONTINUOUS
 10
0.169945
 20
-3.205524
  0
VERTEX
  8
PLAN_1
  6
CONTINUOUS
 10
0.167484
 20
-3.210441
  0
VERTEX
  8
PLAN_1
  6
CONTINUOUS
 10
0.165028
 20
-3.214953
  0
VERTEX
  8
PLAN_1
  6
CONTINUOUS
 10
0.162154
 20
-3.219055
  0
VERTEX
  8
PLAN_1
  6
CONTINUOUS
 10
0.159283
 20
-3.223154
  0
VERTEX
  8
PLAN_1
  6
CONTINUOUS
 10
0.156413
 20
-3.226437
  0
VERTEX
  8
PLAN_1
  6
CONTINUOUS
 10
0.153134
 20
-3.230126
  0
VERTEX
  8
PLAN_1
  6
CONTINUOUS
 10
0.149854
 20
-3.232996
  0
VERTEX
  8
PLAN_1
  6
CONTINUOUS
 10
0.146571
 20
-3.235866
  0
VERTEX
  8
PLAN_1
  6
CONTINUOUS
 10
0.143291
 20
-3.238327
  0
VERTEX
  8
PLAN_1
  6
CONTINUOUS
 10
0.140012
 20
-3.240378
  0
VERTEX
  8
PLAN_1
  6
CONTINUOUS
 10
0.136323
 20
-3.242429
  0
VERTEX
  8
PLAN_1
  6
CONTINUOUS
 10
0.129350
 20
-3.246118
  0
VERTEX
  8
PLAN_1
  6
CONTINUOUS
 10
0.122787
 20
-3.248579
  0
VERTEX
  8
PLAN_1
  6
CONTINUOUS
 10
0.115819
 20
-3.250630
  0
VERTEX
  8
PLAN_1
  6
CONTINUOUS
 10
0.109665
 20
-3.251858
  0
VERTEX
  8
PLAN_1
  6
CONTINUOUS
 10
0.103925
 20
-3.252681
  0
VERTEX
  8
PLAN_1
  6
CONTINUOUS
 10
0.099004
 20
-3.253500
  0
VERTEX
  8
PLAN_1
  6
CONTINUOUS
 10
0.094906
 20
-3.253500
  0
VERTEX
  8
PLAN_1
  6
CONTINUOUS
 10
0.091213
 20
-3.253500
  0
VERTEX
  8
PLAN_1
  6
CONTINUOUS
 10
0.083012
 20
-3.253091
  0
VERTEX
  8
PLAN_1
  6
CONTINUOUS
 10
0.074402
 20
-3.252268
  0
VERTEX
  8
PLAN_1
  6
CONTINUOUS
 10
0.066201
 20
-3.250220
  0
VERTEX
  8
PLAN_1
  6
CONTINUOUS
 10
0.058409
 20
-3.247760
  0
VERTEX
  8
PLAN_1
  6
CONTINUOUS
 10
0.054307
 20
-3.246118
  0
VERTEX
  8
PLAN_1
  6
CONTINUOUS
 10
0.050618
 20
-3.244476
  0
VERTEX
  8
PLAN_1
  6
CONTINUOUS
 10
0.046929
 20
-3.242429
  0
VERTEX
  8
PLAN_1
  6
CONTINUOUS
 10
0.043236
 20
-3.240378
  0
VERTEX
  8
PLAN_1
  6
CONTINUOUS
 10
0.039547
 20
-3.237917
  0
VERTEX
  8
PLAN_1
  6
CONTINUOUS
 10
0.036264
 20
-3.235047
  0
VERTEX
  8
PLAN_1
  6
CONTINUOUS
 10
0.032984
 20
-3.232587
  0
VERTEX
  8
PLAN_1
  6
CONTINUOUS
 10
0.029705
 20
-3.229307
  0
VERTEX
  8
PLAN_1
  6
CONTINUOUS
 10
0.026425
 20
-3.226024
  0
VERTEX
  8
PLAN_1
  6
CONTINUOUS
 10
0.023555
 20
-3.222335
  0
VERTEX
  8
PLAN_1
  6
CONTINUOUS
 10
0.020685
 20
-3.218646
  0
VERTEX
  8
PLAN_1
  6
CONTINUOUS
 10
0.018224
 20
-3.214953
  0
VERTEX
  8
PLAN_1
  6
CONTINUOUS
 10
0.015764
 20
-3.210441
  0
VERTEX
  8
PLAN_1
  6
CONTINUOUS
 10
0.013303
 20
-3.205933
  0
VERTEX
  8
PLAN_1
  6
CONTINUOUS
 10
0.011252
 20
-3.201421
  0
VERTEX
  8
PLAN_1
  6
CONTINUOUS
 10
0.009201
 20
-3.196500
  0
VERTEX
  8
PLAN_1
  6
CONTINUOUS
 10
0.007563
 20
-3.191169
  0
VERTEX
  8
PLAN_1
  6
CONTINUOUS
 10
0.005921
 20
-3.185839
  0
VERTEX
  8
PLAN_1
  6
CONTINUOUS
 10
0.004689
 20
-3.180098
  0
VERTEX
  8
PLAN_1
  6
CONTINUOUS
 10
0.003870
 20
-3.173949
  0
VERTEX
  8
PLAN_1
  6
CONTINUOUS
 10
0.003051
 20
-3.167795
  0
VERTEX
  8
PLAN_1
  6
CONTINUOUS
 10
0.002228
 20
-3.161236
  0
VERTEX
  8
PLAN_1
  6
CONTINUOUS
 10
0.001819
 20
-3.154673
  0
VERTEX
  8
PLAN_1
  6
CONTINUOUS
 10
0.001819
 20
-3.147705
  0
VERTEX
  8
PLAN_1
  6
CONTINUOUS
 10
0.001819
 20
-3.141961
  0
VERTEX
  8
PLAN_1
  6
CONTINUOUS
 10
0.002228
 20
-3.136220
  0
VERTEX
  8
PLAN_1
  6
CONTINUOUS
 10
0.002642
 20
-3.130890
  0
VERTEX
  8
PLAN_1
  6
CONTINUOUS
 10
0.003461
 20
-3.125559
  0
VERTEX
  8
PLAN_1
  6
CONTINUOUS
 10
0.004280
 20
-3.120228
  0
VERTEX
  8
PLAN_1
  6
CONTINUOUS
 10
0.005512
 20
-3.115307
  0
VERTEX
  8
PLAN_1
  6
CONTINUOUS
 10
0.006740
 20
-3.110386
  0
VERTEX
  8
PLAN_1
  6
CONTINUOUS
 10
0.007972
 20
-3.105465
  0
VERTEX
  8
PLAN_1
  6
CONTINUOUS
 10
0.009610
 20
-3.100957
  0
VERTEX
  8
PLAN_1
  6
CONTINUOUS
 10
0.011661
 20
-3.096445
  0
VERTEX
  8
PLAN_1
  6
CONTINUOUS
 10
0.013713
 20
-3.091933
  0
VERTEX
  8
PLAN_1
  6
CONTINUOUS
 10
0.015764
 20
-3.087835
  0
VERTEX
  8
PLAN_1
  6
CONTINUOUS
 10
0.018224
 20
-3.083732
  0
VERTEX
  8
PLAN_1
  6
CONTINUOUS
 10
0.020685
 20
-3.080043
  0
VERTEX
  8
PLAN_1
  6
CONTINUOUS
 10
0.023555
 20
-3.076350
  0
VERTEX
  8
PLAN_1
  6
CONTINUOUS
 10
0.026425
 20
-3.072661
  0
VERTEX
  8
PLAN_1
  6
CONTINUOUS
 10
0.029705
 20
-3.069382
  0
VERTEX
  8
PLAN_1
  6
CONTINUOUS
 10
0.032984
 20
-3.066098
  0
VERTEX
  8
PLAN_1
  6
CONTINUOUS
 10
0.036264
 20
-3.063228
  0
VERTEX
  8
PLAN_1
  6
CONTINUOUS
 10
0.039957
 20
-3.060358
  0
VERTEX
  8
PLAN_1
  6
CONTINUOUS
 10
0.043646
 20
-3.057898
  0
VERTEX
  8
PLAN_1
  6
CONTINUOUS
 10
0.047339
 20
-3.055437
  0
VERTEX
  8
PLAN_1
  6
CONTINUOUS
 10
0.051437
 20
-3.053390
  0
VERTEX
  8
PLAN_1
  6
CONTINUOUS
 10
0.055539
 20
-3.051339
  0
VERTEX
  8
PLAN_1
  6
CONTINUOUS
 10
0.060051
 20
-3.049697
  0
VERTEX
  8
PLAN_1
  6
CONTINUOUS
 10
0.064559
 20
-3.048059
  0
VERTEX
  8
PLAN_1
  6
CONTINUOUS
 10
0.069071
 20
-3.046827
  0
VERTEX
  8
PLAN_1
  6
CONTINUOUS
 10
0.073992
 20
-3.045598
  0
VERTEX
  8
PLAN_1
  6
CONTINUOUS
 10
0.078913
 20
-3.044776
  0
VERTEX
  8
PLAN_1
  6
CONTINUOUS
 10
0.084244
 20
-3.044366
  0
VERTEX
  8
PLAN_1
  6
CONTINUOUS
 10
0.089165
 20
-3.043957
  0
VERTEX
  8
PLAN_1
  6
CONTINUOUS
 10
0.094906
 20
-3.043957
  0
VERTEX
  8
PLAN_1
  6
CONTINUOUS
 10
0.103925
 20
-3.043957
  0
VERTEX
  8
PLAN_1
  6
CONTINUOUS
 10
0.112949
 20
-3.045185
  0
VERTEX
  8
PLAN_1
  6
CONTINUOUS
 10
0.121150
 20
-3.046827
  0
VERTEX
  8
PLAN_1
  6
CONTINUOUS
 10
0.128531
 20
-3.049287
  0
VERTEX
  8
PLAN_1
  6
CONTINUOUS
 10
0.135500
 20
-3.052157
  0
VERTEX
  8
PLAN_1
  6
CONTINUOUS
 10
0.142063
 20
-3.055437
  0
VERTEX
  8
PLAN_1
  6
CONTINUOUS
 10
0.148213
 20
-3.059539
  0
VERTEX
  8
PLAN_1
  6
CONTINUOUS
 10
0.153543
 20
-3.064051
  0
VERTEX
  8
PLAN_1
  6
CONTINUOUS
 10
0.158055
 20
-3.068559
  0
VERTEX
  8
PLAN_1
  6
CONTINUOUS
 10
0.162567
 20
-3.073890
  0
VERTEX
  8
PLAN_1
  6
CONTINUOUS
 10
0.166256
 20
-3.079220
  0
VERTEX
  8
PLAN_1
  6
CONTINUOUS
 10
0.169535
 20
-3.084965
  0
VERTEX
  8
PLAN_1
  6
CONTINUOUS
 10
0.171996
 20
-3.090705
  0
VERTEX
  8
PLAN_1
  6
CONTINUOUS
 10
0.174047
 20
-3.096445
  0
VERTEX
  8
PLAN_1
  6
CONTINUOUS
 10
0.175689
 20
-3.102594
  0
VERTEX
  8
PLAN_1
  6
CONTINUOUS
 10
0.176508
 20
-3.109157
  0
VERTEX
  8
PLAN_1
  6
CONTINUOUS
 10
0.150673
 20
-3.109157
  0
SEQEND
  8
0
  0
POLYLINE
  8
PLAN_1
  6
CONTINUOUS
 66
     1
 40
0.003000
 41
0.003000
  0
VERTEX
  8
PLAN_1
  6
CONTINUOUS
 10
0.238016
 20
-3.248169
  0
VERTEX
  8
PLAN_1
  6
CONTINUOUS
 10
0.210953
 20
-3.248169
  0
VERTEX
  8
PLAN_1
  6
CONTINUOUS
 10
0.210953
 20
-3.048878
  0
VERTEX
  8
PLAN_1
  6
CONTINUOUS
 10
0.238016
 20
-3.048878
  0
VERTEX
  8
PLAN_1
  6
CONTINUOUS
 10
0.238016
 20
-3.145654
  0
VERTEX
  8
PLAN_1
  6
CONTINUOUS
 10
0.334791
 20
-3.048878
  0
VERTEX
  8
PLAN_1
  6
CONTINUOUS
 10
0.371697
 20
-3.048878
  0
VERTEX
  8
PLAN_1
  6
CONTINUOUS
 10
0.288866
 20
-3.129661
  0
VERTEX
  8
PLAN_1
  6
CONTINUOUS
 10
0.374157
 20
-3.248169
  0
VERTEX
  8
PLAN_1
  6
CONTINUOUS
 10
0.338894
 20
-3.248169
  0
VERTEX
  8
PLAN_1
  6
CONTINUOUS
 10
0.269181
 20
-3.148524
  0
VERTEX
  8
PLAN_1
  6
CONTINUOUS
 10
0.238016
 20
-3.178457
  0
VERTEX
  8
PLAN_1
  6
CONTINUOUS
 10
0.238016
 20
-3.248169
  0
SEQEND
  8
0
  0
POLYLINE
  8
PLAN_1
  6
CONTINUOUS
 66
     1
 40
0.003000
 41
0.003000
  0
VERTEX
  8
PLAN_1
  6
CONTINUOUS
 10
0.397531
 20
-3.048878
  0
VERTEX
  8
PLAN_1
  6
CONTINUOUS
 10
0.478315
 20
-3.048878
  0
VERTEX
  8
PLAN_1
  6
CONTINUOUS
 10
0.483236
 20
-3.049287
  0
VERTEX
  8
PLAN_1
  6
CONTINUOUS
 10
0.488157
 20
-3.049697
  0
VERTEX
  8
PLAN_1
  6
CONTINUOUS
 10
0.492665
 20
-3.050106
  0
VERTEX
  8
PLAN_1
  6
CONTINUOUS
 10
0.497177
 20
-3.050929
  0
VERTEX
  8
PLAN_1
  6
CONTINUOUS
 10
0.501280
 20
-3.051748
  0
VERTEX
  8
PLAN_1
  6
CONTINUOUS
 10
0.505378
 20
-3.052976
  0
VERTEX
  8
PLAN_1
  6
CONTINUOUS
 10
0.509480
 20
-3.054618
  0
VERTEX
  8
PLAN_1
  6
CONTINUOUS
 10
0.513579
 20
-3.056260
  0
VERTEX
  8
PLAN_1
  6
CONTINUOUS
 10
0.517272
 20
-3.057898
  0
VERTEX
  8
PLAN_1
  6
CONTINUOUS
 10
0.520961
 20
-3.059949
  0
VERTEX
  8
PLAN_1
  6
CONTINUOUS
 10
0.524240
 20
-3.062000
  0
VERTEX
  8
PLAN_1
  6
CONTINUOUS
 10
0.527933
 20
-3.064461
  0
VERTEX
  8
PLAN_1
  6
CONTINUOUS
 10
0.531213
 20
-3.067331
  0
VERTEX
  8
PLAN_1
  6
CONTINUOUS
 10
0.534083
 20
-3.069791
  0
VERTEX
  8
PLAN_1
  6
CONTINUOUS
 10
0.536953
 20
-3.072661
  0
VERTEX
  8
PLAN_1
  6
CONTINUOUS
 10
0.539823
 20
-3.075941
  0
VERTEX
  8
PLAN_1
  6
CONTINUOUS
 10
0.542283
 20
-3.079220
  0
VERTEX
  8
PLAN_1
  6
CONTINUOUS
 10
0.545154
 20
-3.082504
  0
VERTEX
  8
PLAN_1
  6
CONTINUOUS
 10
0.547205
 20
-3.086193
  0
VERTEX
  8
PLAN_1
  6
CONTINUOUS
 10
0.549256
 20
-3.089886
  0
VERTEX
  8
PLAN_1
  6
CONTINUOUS
 10
0.551307
 20
-3.093984
  0
VERTEX
  8
PLAN_1
  6
CONTINUOUS
 10
0.553354
 20
-3.098087
  0
VERTEX
  8
PLAN_1
  6
CONTINUOUS
 10
0.554996
 20
-3.102185
  0
VERTEX
  8
PLAN_1
  6
CONTINUOUS
 10
0.556638
 20
-3.106697
  0
VERTEX
  8
PLAN_1
  6
CONTINUOUS
 10
0.559098
 20
-3.115717
  0
VERTEX
  8
PLAN_1
  6
CONTINUOUS
 10
0.560736
 20
-3.125150
  0
VERTEX
  8
PLAN_1
  6
CONTINUOUS
 10
0.561969
 20
-3.135402
  0
VERTEX
  8
PLAN_1
  6
CONTINUOUS
 10
0.562378
 20
-3.146063
  0
VERTEX
  8
PLAN_1
  6
CONTINUOUS
 10
0.561969
 20
-3.154264
  0
VERTEX
  8
PLAN_1
  6
CONTINUOUS
 10
0.561146
 20
-3.163283
  0
VERTEX
  8
PLAN_1
  6
CONTINUOUS
 10
0.559917
 20
-3.171898
  0
VERTEX
  8
PLAN_1
  6
CONTINUOUS
 10
0.558276
 20
-3.180917
  0
VERTEX
  8
PLAN_1
  6
CONTINUOUS
 10
0.555815
 20
-3.189528
  0
VERTEX
  8
PLAN_1
  6
CONTINUOUS
 10
0.552535
 20
-3.198142
  0
VERTEX
  8
PLAN_1
  6
CONTINUOUS
 10
0.550898
 20
-3.202240
  0
VERTEX
  8
PLAN_1
  6
CONTINUOUS
 10
0.548846
 20
-3.205933
  0
VERTEX
  8
PLAN_1
  6
CONTINUOUS
 10
0.546795
 20
-3.210031
  0
VERTEX
  8
PLAN_1
  6
CONTINUOUS
 10
0.544335
 20
-3.213724
  0
VERTEX
  8
PLAN_1
  6
CONTINUOUS
 10
0.541874
 20
-3.217413
  0
VERTEX
  8
PLAN_1
  6
CONTINUOUS
 10
0.539004
 20
-3.221106
  0
VERTEX
  8
PLAN_1
  6
CONTINUOUS
 10
0.536134
 20
-3.224386
  0
VERTEX
  8
PLAN_1
  6
CONTINUOUS
 10
0.532854
 20
-3.227665
  0
VERTEX
  8
PLAN_1
  6
CONTINUOUS
 10
0.529571
 20
-3.230945
  0
VERTEX
  8
PLAN_1
  6
CONTINUOUS
 10
0.525882
 20
-3.233406
  0
VERTEX
  8
PLAN_1
  6
CONTINUOUS
 10
0.522193
 20
-3.236276
  0
VERTEX
  8
PLAN_1
  6
CONTINUOUS
 10
0.518091
 20
-3.238736
  0
VERTEX
  8
PLAN_1
  6
CONTINUOUS
 10
0.513988
 20
-3.240787
  0
VERTEX
  8
PLAN_1
  6
CONTINUOUS
 10
0.509480
 20
-3.242839
  0
VERTEX
  8
PLAN_1
  6
CONTINUOUS
 10
0.504969
 20
-3.244476
  0
VERTEX
  8
PLAN_1
  6
CONTINUOUS
 10
0.499638
 20
-3.245709
  0
VERTEX
  8
PLAN_1
  6
CONTINUOUS
 10
0.494717
 20
-3.246937
  0
VERTEX
  8
PLAN_1
  6
CONTINUOUS
 10
0.488976
 20
-3.247760
  0
VERTEX
  8
PLAN_1
  6
CONTINUOUS
 10
0.483236
 20
-3.248169
  0
VERTEX
  8
PLAN_1
  6
CONTINUOUS
 10
0.477496
 20
-3.248169
  0
VERTEX
  8
PLAN_1
  6
CONTINUOUS
 10
0.397531
 20
-3.248169
  0
VERTEX
  8
PLAN_1
  6
CONTINUOUS
 10
0.397531
 20
-3.048878
  0
SEQEND
  8
0
  0
POLYLINE
  8
PLAN_1
  6
CONTINUOUS
 66
     1
 40
0.003000
 41
0.003000
  0
VERTEX
  8
PLAN_1
  6
CONTINUOUS
 10
0.424594
 20
-3.225205
  0
VERTEX
  8
PLAN_1
  6
CONTINUOUS
 10
0.476673
 20
-3.225205
  0
VERTEX
  8
PLAN_1
  6
CONTINUOUS
 10
0.483236
 20
-3.224795
  0
VERTEX
  8
PLAN_1
  6
CONTINUOUS
 10
0.489386
 20
-3.223976
  0
VERTEX
  8
PLAN_1
  6
CONTINUOUS
 10
0.495126
 20
-3.222335
  0
VERTEX
  8
PLAN_1
  6
CONTINUOUS
 10
0.500457
 20
-3.220283
  0
VERTEX
  8
PLAN_1
  6
CONTINUOUS
 10
0.505787
 20
-3.217413
  0
VERTEX
  8
PLAN_1
  6
CONTINUOUS
 10
0.510299
 20
-3.214134
  0
VERTEX
  8
PLAN_1
  6
CONTINUOUS
 10
0.514811
 20
-3.210031
  0
VERTEX
  8
PLAN_1
  6
CONTINUOUS
 10
0.518909
 20
-3.205110
  0
VERTEX
  8
PLAN_1
  6
CONTINUOUS
 10
0.522193
 20
-3.200193
  0
VERTEX
  8
PLAN_1
  6
CONTINUOUS
 10
0.525472
 20
-3.194449
  0
VERTEX
  8
PLAN_1
  6
CONTINUOUS
 10
0.528343
 20
-3.187890
  0
VERTEX
  8
PLAN_1
  6
CONTINUOUS
 10
0.530394
 20
-3.180917
  0
VERTEX
  8
PLAN_1
  6
CONTINUOUS
 10
0.532031
 20
-3.173535
  0
VERTEX
  8
PLAN_1
  6
CONTINUOUS
 10
0.533673
 20
-3.165335
  0
VERTEX
  8
PLAN_1
  6
CONTINUOUS
 10
0.534083
 20
-3.156724
  0
VERTEX
  8
PLAN_1
  6
CONTINUOUS
 10
0.534492
 20
-3.147705
  0
VERTEX
  8
PLAN_1
  6
CONTINUOUS
 10
0.534083
 20
-3.138272
  0
VERTEX
  8
PLAN_1
  6
CONTINUOUS
 10
0.533673
 20
-3.130071
  0
VERTEX
  8
PLAN_1
  6
CONTINUOUS
 10
0.532031
 20
-3.121870
  0
VERTEX
  8
PLAN_1
  6
CONTINUOUS
 10
0.530394
 20
-3.114488
  0
VERTEX
  8
PLAN_1
  6
CONTINUOUS
 10
0.527933
 20
-3.107925
  0
VERTEX
  8
PLAN_1
  6
CONTINUOUS
 10
0.525472
 20
-3.101776
  0
VERTEX
  8
PLAN_1
  6
CONTINUOUS
 10
0.522193
 20
-3.096035
  0
VERTEX
  8
PLAN_1
  6
CONTINUOUS
 10
0.518500
 20
-3.091114
  0
VERTEX
  8
PLAN_1
  6
CONTINUOUS
 10
0.514402
 20
-3.086602
  0
VERTEX
  8
PLAN_1
  6
CONTINUOUS
 10
0.509890
 20
-3.082913
  0
VERTEX
  8
PLAN_1
  6
CONTINUOUS
 10
0.504969
 20
-3.079634
  0
VERTEX
  8
PLAN_1
  6
CONTINUOUS
 10
0.499638
 20
-3.076764
  0
VERTEX
  8
PLAN_1
  6
CONTINUOUS
 10
0.493898
 20
-3.074713
  0
VERTEX
  8
PLAN_1
  6
CONTINUOUS
 10
0.487744
 20
-3.073071
  0
VERTEX
  8
PLAN_1
  6
CONTINUOUS
 10
0.481594
 20
-3.072252
  0
VERTEX
  8
PLAN_1
  6
CONTINUOUS
 10
0.475035
 20
-3.072252
  0
VERTEX
  8
PLAN_1
  6
CONTINUOUS
 10
0.424594
 20
-3.072252
  0
VERTEX
  8
PLAN_1
  6
CONTINUOUS
 10
0.424594
 20
-3.225205
  0
SEQEND
  8
0
  0
POLYLINE
  8
PLAN_1
  6
CONTINUOUS
 66
     1
 40
0.003000
 41
0.003000
  0
VERTEX
  8
PLAN_1
  6
CONTINUOUS
 10
0.675146
 20
-3.248169
  0
VERTEX
  8
PLAN_1
  6
CONTINUOUS
 10
0.649311
 20
-3.248169
  0
VERTEX
  8
PLAN_1
  6
CONTINUOUS
 10
0.649311
 20
-3.109976
  0
VERTEX
  8
PLAN_1
  6
CONTINUOUS
 10
0.603795
 20
-3.109976
  0
VERTEX
  8
PLAN_1
  6
CONTINUOUS
 10
0.603795
 20
-3.090295
  0
VERTEX
  8
PLAN_1
  6
CONTINUOUS
 10
0.614866
 20
-3.089472
  0
VERTEX
  8
PLAN_1
  6
CONTINUOUS
 10
0.624299
 20
-3.088244
  0
VERTEX
  8
PLAN_1
  6
CONTINUOUS
 10
0.628398
 20
-3.087425
  0
VERTEX
  8
PLAN_1
  6
CONTINUOUS
 10
0.632087
 20
-3.086193
  0
VERTEX
  8
PLAN_1
  6
CONTINUOUS
 10
0.635780
 20
-3.084551
  0
VERTEX
  8
PLAN_1
  6
CONTINUOUS
 10
0.639059
 20
-3.082913
  0
VERTEX
  8
PLAN_1
  6
CONTINUOUS
 10
0.641929
 20
-3.080862
  0
VERTEX
  8
PLAN_1
  6
CONTINUOUS
 10
0.644390
 20
-3.078402
  0
VERTEX
  8
PLAN_1
  6
CONTINUOUS
 10
0.646850
 20
-3.075531
  0
VERTEX
  8
PLAN_1
  6
CONTINUOUS
 10
0.649311
 20
-3.072252
  0
VERTEX
  8
PLAN_1
  6
CONTINUOUS
 10
0.651362
 20
-3.068150
  0
VERTEX
  8
PLAN_1
  6
CONTINUOUS
 10
0.653000
 20
-3.064051
  0
VERTEX
  8
PLAN_1
  6
CONTINUOUS
 10
0.654642
 20
-3.058720
  0
VERTEX
  8
PLAN_1
  6
CONTINUOUS
 10
0.656283
 20
-3.053390
  0
VERTEX
  8
PLAN_1
  6
CONTINUOUS
 10
0.675146
 20
-3.053390
  0
VERTEX
  8
PLAN_1
  6
CONTINUOUS
 10
0.675146
 20
-3.248169
  0
SEQEND
  8
0
  0
POLYLINE
  8
PLAN_1
  6
CONTINUOUS
 66
     1
 40
0.003000
 41
0.003000
  0
VERTEX
  8
PLAN_1
  6
CONTINUOUS
 10
0.807185
 20
-3.253500
  0
VERTEX
  8
PLAN_1
  6
CONTINUOUS
 10
0.802264
 20
-3.253500
  0
VERTEX
  8
PLAN_1
  6
CONTINUOUS
 10
0.797343
 20
-3.253091
  0
VERTEX
  8
PLAN_1
  6
CONTINUOUS
 10
0.792835
 20
-3.252268
  0
VERTEX
  8
PLAN_1
  6
CONTINUOUS
 10
0.788323
 20
-3.251039
  0
VERTEX
  8
PLAN_1
  6
CONTINUOUS
 10
0.784220
 20
-3.249398
  0
VERTEX
  8
PLAN_1
  6
CONTINUOUS
 10
0.780122
 20
-3.247760
  0
VERTEX
  8
PLAN_1
  6
CONTINUOUS
 10
0.776429
 20
-3.245709
  0
VERTEX
  8
PLAN_1
  6
CONTINUOUS
 10
0.773150
 20
-3.243657
  0
VERTEX
  8
PLAN_1
  6
CONTINUOUS
 10
0.769870
 20
-3.241197
  0
VERTEX
  8
PLAN_1
  6
CONTINUOUS
 10
0.767000
 20
-3.238736
  0
VERTEX
  8
PLAN_1
  6
CONTINUOUS
 10
0.764130
 20
-3.235866
  0
VERTEX
  8
PLAN_1
  6
CONTINUOUS
 10
0.761260
 20
-3.232587
  0
VERTEX
  8
PLAN_1
  6
CONTINUOUS
 10
0.758799
 20
-3.229307
  0
VERTEX
  8
PLAN_1
  6
CONTINUOUS
 10
0.756748
 20
-3.226024
  0
VERTEX
  8
PLAN_1
  6
CONTINUOUS
 10
0.754697
 20
-3.222335
  0
VERTEX
  8
PLAN_1
  6
CONTINUOUS
 10
0.752646
 20
-3.218646
  0
VERTEX
  8
PLAN_1
  6
CONTINUOUS
 10
0.749366
 20
-3.210854
  0
VERTEX
  8
PLAN_1
  6
CONTINUOUS
 10
0.746906
 20
-3.203063
  0
VERTEX
  8
PLAN_1
  6
CONTINUOUS
 10
0.744445
 20
-3.194449
  0
VERTEX
  8
PLAN_1
  6
CONTINUOUS
 10
0.742807
 20
-3.186248
  0
VERTEX
  8
PLAN_1
  6
CONTINUOUS
 10
0.741575
 20
-3.177638
  0
VERTEX
  8
PLAN_1
  6
CONTINUOUS
 10
0.740756
 20
-3.169437
  0
VERTEX
  8
PLAN_1
  6
CONTINUOUS
 10
0.740346
 20
-3.161236
  0
VERTEX
  8
PLAN_1
  6
CONTINUOUS
 10
0.740346
 20
-3.153445
  0
VERTEX
  8
PLAN_1
  6
CONTINUOUS
 10
0.740346
 20
-3.145654
  0
VERTEX
  8
PLAN_1
  6
CONTINUOUS
 10
0.740756
 20
-3.137453
  0
VERTEX
  8
PLAN_1
  6
CONTINUOUS
 10
0.741575
 20
-3.129252
  0
VERTEX
  8
PLAN_1
  6
CONTINUOUS
 10
0.742807
 20
-3.120638
  0
VERTEX
  8
PLAN_1
  6
CONTINUOUS
 10
0.744445
 20
-3.112028
  0
VERTEX
  8
PLAN_1
  6
CONTINUOUS
 10
0.746906
 20
-3.103827
  0
VERTEX
  8
PLAN_1
  6
CONTINUOUS
 10
0.749366
 20
-3.096035
  0
VERTEX
  8
PLAN_1
  6
CONTINUOUS
 10
0.752646
 20
-3.088244
  0
VERTEX
  8
PLAN_1
  6
CONTINUOUS
 10
0.754697
 20
-3.084551
  0
VERTEX
  8
PLAN_1
  6
CONTINUOUS
 10
0.756748
 20
-3.080862
  0
VERTEX
  8
PLAN_1
  6
CONTINUOUS
 10
0.758799
 20
-3.077583
  0
VERTEX
  8
PLAN_1
  6
CONTINUOUS
 10
0.761260
 20
-3.074303
  0
VERTEX
  8
PLAN_1
  6
CONTINUOUS
 10
0.764130
 20
-3.071020
  0
VERTEX
  8
PLAN_1
  6
CONTINUOUS
 10
0.767000
 20
-3.068150
  0
VERTEX
  8
PLAN_1
  6
CONTINUOUS
 10
0.769870
 20
-3.065689
  0
VERTEX
  8
PLAN_1
  6
CONTINUOUS
 10
0.773150
 20
-3.063228
  0
VERTEX
  8
PLAN_1
  6
CONTINUOUS
 10
0.776429
 20
-3.060768
  0
VERTEX
  8
PLAN_1
  6
CONTINUOUS
 10
0.780122
 20
-3.059130
  0
VERTEX
  8
PLAN_1
  6
CONTINUOUS
 10
0.784220
 20
-3.057488
  0
VERTEX
  8
PLAN_1
  6
CONTINUOUS
 10
0.788323
 20
-3.055850
  0
VERTEX
  8
PLAN_1
  6
CONTINUOUS
 10
0.792835
 20
-3.054618
  0
VERTEX
  8
PLAN_1
  6
CONTINUOUS
 10
0.797343
 20
-3.053799
  0
VERTEX
  8
PLAN_1
  6
CONTINUOUS
 10
0.802264
 20
-3.053390
  0
VERTEX
  8
PLAN_1
  6
CONTINUOUS
 10
0.807185
 20
-3.053390
  0
VERTEX
  8
PLAN_1
  6
CONTINUOUS
 10
0.812516
 20
-3.053390
  0
VERTEX
  8
PLAN_1
  6
CONTINUOUS
 10
0.817028
 20
-3.053799
  0
VERTEX
  8
PLAN_1
  6
CONTINUOUS
 10
0.821949
 20
-3.054618
  0
VERTEX
  8
PLAN_1
  6
CONTINUOUS
 10
0.826047
 20
-3.055850
  0
VERTEX
  8
PLAN_1
  6
CONTINUOUS
 10
0.830150
 20
-3.057488
  0
VERTEX
  8
PLAN_1
  6
CONTINUOUS
 10
0.834252
 20
-3.059130
  0
VERTEX
  8
PLAN_1
  6
CONTINUOUS
 10
0.837941
 20
-3.060768
  0
VERTEX
  8
PLAN_1
  6
CONTINUOUS
 10
0.841220
 20
-3.063228
  0
VERTEX
  8
PLAN_1
  6
CONTINUOUS
 10
0.844500
 20
-3.065689
  0
VERTEX
  8
PLAN_1
  6
CONTINUOUS
 10
0.847783
 20
-3.068150
  0
VERTEX
  8
PLAN_1
  6
CONTINUOUS
 10
0.850244
 20
-3.071020
  0
VERTEX
  8
PLAN_1
  6
CONTINUOUS
 10
0.853114
 20
-3.074303
  0
VERTEX
  8
PLAN_1
  6
CONTINUOUS
 10
0.855575
 20
-3.077583
  0
VERTEX
  8
PLAN_1
  6
CONTINUOUS
 10
0.857622
 20
-3.080862
  0
VERTEX
  8
PLAN_1
  6
CONTINUOUS
 10
0.859673
 20
-3.084551
  0
VERTEX
  8
PLAN_1
  6
CONTINUOUS
 10
0.861724
 20
-3.088244
  0
VERTEX
  8
PLAN_1
  6
CONTINUOUS
 10
0.865004
 20
-3.096035
  0
VERTEX
  8
PLAN_1
  6
CONTINUOUS
 10
0.867874
 20
-3.103827
  0
VERTEX
  8
PLAN_1
  6
CONTINUOUS
 10
0.869925
 20
-3.112028
  0
VERTEX
  8
PLAN_1
  6
CONTINUOUS
 10
0.871567
 20
-3.120638
  0
VERTEX
  8
PLAN_1
  6
CONTINUOUS
 10
0.872795
 20
-3.129252
  0
VERTEX
  8
PLAN_1
  6
CONTINUOUS
 10
0.873618
 20
-3.137453
  0
VERTEX
  8
PLAN_1
  6
CONTINUOUS
 10
0.874028
 20
-3.145654
  0
VERTEX
  8
PLAN_1
  6
CONTINUOUS
 10
0.874028
 20
-3.153445
  0
VERTEX
  8
PLAN_1
  6
CONTINUOUS
 10
0.874028
 20
-3.161236
  0
VERTEX
  8
PLAN_1
  6
CONTINUOUS
 10
0.873618
 20
-3.169437
  0
VERTEX
  8
PLAN_1
  6
CONTINUOUS
 10
0.872795
 20
-3.177638
  0
VERTEX
  8
PLAN_1
  6
CONTINUOUS
 10
0.871567
 20
-3.186248
  0
VERTEX
  8
PLAN_1
  6
CONTINUOUS
 10
0.869925
 20
-3.194449
  0
VERTEX
  8
PLAN_1
  6
CONTINUOUS
 10
0.867874
 20
-3.203063
  0
VERTEX
  8
PLAN_1
  6
CONTINUOUS
 10
0.865004
 20
-3.210854
  0
VERTEX
  8
PLAN_1
  6
CONTINUOUS
 10
0.861724
 20
-3.218646
  0
VERTEX
  8
PLAN_1
  6
CONTINUOUS
 10
0.859673
 20
-3.222335
  0
VERTEX
  8
PLAN_1
  6
CONTINUOUS
 10
0.857622
 20
-3.226024
  0
VERTEX
  8
PLAN_1
  6
CONTINUOUS
 10
0.855575
 20
-3.229307
  0
VERTEX
  8
PLAN_1
  6
CONTINUOUS
 10
0.853114
 20
-3.232587
  0
VERTEX
  8
PLAN_1
  6
CONTINUOUS
 10
0.850244
 20
-3.235866
  0
VERTEX
  8
PLAN_1
  6
CONTINUOUS
 10
0.847783
 20
-3.238736
  0
VERTEX
  8
PLAN_1
  6
CONTINUOUS
 10
0.844500
 20
-3.241197
  0
VERTEX
  8
PLAN_1
  6
CONTINUOUS
 10
0.841220
 20
-3.243657
  0
VERTEX
  8
PLAN_1
  6
CONTINUOUS
 10
0.837941
 20
-3.245709
  0
VERTEX
  8
PLAN_1
  6
CONTINUOUS
 10
0.834252
 20
-3.247760
  0
VERTEX
  8
PLAN_1
  6
CONTINUOUS
 10
0.830150
 20
-3.249398
  0
VERTEX
  8
PLAN_1
  6
CONTINUOUS
 10
0.826047
 20
-3.251039
  0
VERTEX
  8
PLAN_1
  6
CONTINUOUS
 10
0.821949
 20
-3.252268
  0
VERTEX
  8
PLAN_1
  6
CONTINUOUS
 10
0.817028
 20
-3.253091
  0
VERTEX
  8
PLAN_1
  6
CONTINUOUS
 10
0.812516
 20
-3.253500
  0
VERTEX
  8
PLAN_1
  6
CONTINUOUS
 10
0.807185
 20
-3.253500
  0
SEQEND
  8
0
  0
POLYLINE
  8
PLAN_1
  6
CONTINUOUS
 66
     1
 40
0.003000
 41
0.003000
  0
VERTEX
  8
PLAN_1
  6
CONTINUOUS
 10
0.807185
 20
-3.075122
  0
VERTEX
  8
PLAN_1
  6
CONTINUOUS
 10
0.802264
 20
-3.075531
  0
VERTEX
  8
PLAN_1
  6
CONTINUOUS
 10
0.797343
 20
-3.076350
  0
VERTEX
  8
PLAN_1
  6
CONTINUOUS
 10
0.793244
 20
-3.077992
  0
VERTEX
  8
PLAN_1
  6
CONTINUOUS
 10
0.789142
 20
-3.080453
  0
VERTEX
  8
PLAN_1
  6
CONTINUOUS
 10
0.785453
 20
-3.083323
  0
VERTEX
  8
PLAN_1
  6
CONTINUOUS
 10
0.782173
 20
-3.087012
  0
VERTEX
  8
PLAN_1
  6
CONTINUOUS
 10
0.778890
 20
-3.091114
  0
VERTEX
  8
PLAN_1
  6
CONTINUOUS
 10
0.776429
 20
-3.096035
  0
VERTEX
  8
PLAN_1
  6
CONTINUOUS
 10
0.773972
 20
-3.101366
  0
VERTEX
  8
PLAN_1
  6
CONTINUOUS
 10
0.771921
 20
-3.107106
  0
VERTEX
  8
PLAN_1
  6
CONTINUOUS
 10
0.770280
 20
-3.113669
  0
VERTEX
  8
PLAN_1
  6
CONTINUOUS
 10
0.769051
 20
-3.120638
  0
VERTEX
  8
PLAN_1
  6
CONTINUOUS
 10
0.767819
 20
-3.128020
  0
VERTEX
  8
PLAN_1
  6
CONTINUOUS
 10
0.767000
 20
-3.136220
  0
VERTEX
  8
PLAN_1
  6
CONTINUOUS
 10
0.766591
 20
-3.144421
  0
VERTEX
  8
PLAN_1
  6
CONTINUOUS
 10
0.766591
 20
-3.153445
  0
VERTEX
  8
PLAN_1
  6
CONTINUOUS
 10
0.766591
 20
-3.162465
  0
VERTEX
  8
PLAN_1
  6
CONTINUOUS
 10
0.767000
 20
-3.170665
  0
VERTEX
  8
PLAN_1
  6
CONTINUOUS
 10
0.767819
 20
-3.178866
  0
VERTEX
  8
PLAN_1
  6
CONTINUOUS
 10
0.769051
 20
-3.186248
  0
VERTEX
  8
PLAN_1
  6
CONTINUOUS
 10
0.770280
 20
-3.193220
  0
VERTEX
  8
PLAN_1
  6
CONTINUOUS
 10
0.771921
 20
-3.199780
  0
VERTEX
  8
PLAN_1
  6
CONTINUOUS
 10
0.773972
 20
-3.205524
  0
VERTEX
  8
PLAN_1
  6
CONTINUOUS
 10
0.776429
 20
-3.210854
  0
VERTEX
  8
PLAN_1
  6
CONTINUOUS
 10
0.778890
 20
-3.215772
  0
VERTEX
  8
PLAN_1
  6
CONTINUOUS
 10
0.782173
 20
-3.219874
  0
VERTEX
  8
PLAN_1
  6
CONTINUOUS
 10
0.785453
 20
-3.223563
  0
VERTEX
  8
PLAN_1
  6
CONTINUOUS
 10
0.789142
 20
-3.226437
  0
VERTEX
  8
PLAN_1
  6
CONTINUOUS
 10
0.793244
 20
-3.228484
  0
VERTEX
  8
PLAN_1
  6
CONTINUOUS
 10
0.797343
 20
-3.230126
  0
VERTEX
  8
PLAN_1
  6
CONTINUOUS
 10
0.802264
 20
-3.231354
  0
VERTEX
  8
PLAN_1
  6
CONTINUOUS
 10
0.807185
 20
-3.231768
  0
VERTEX
  8
PLAN_1
  6
CONTINUOUS
 10
0.812516
 20
-3.231354
  0
VERTEX
  8
PLAN_1
  6
CONTINUOUS
 10
0.817028
 20
-3.230126
  0
VERTEX
  8
PLAN_1
  6
CONTINUOUS
 10
0.821539
 20
-3.228484
  0
VERTEX
  8
PLAN_1
  6
CONTINUOUS
 10
0.825638
 20
-3.226437
  0
VERTEX
  8
PLAN_1
  6
CONTINUOUS
 10
0.828917
 20
-3.223563
  0
VERTEX
  8
PLAN_1
  6
CONTINUOUS
 10
0.832610
 20
-3.219874
  0
VERTEX
  8
PLAN_1
  6
CONTINUOUS
 10
0.835480
 20
-3.215772
  0
VERTEX
  8
PLAN_1
  6
CONTINUOUS
 10
0.838350
 20
-3.210854
  0
VERTEX
  8
PLAN_1
  6
CONTINUOUS
 10
0.840402
 20
-3.205524
  0
VERTEX
  8
PLAN_1
  6
CONTINUOUS
 10
0.842453
 20
-3.199780
  0
VERTEX
  8
PLAN_1
  6
CONTINUOUS
 10
0.844091
 20
-3.193220
  0
VERTEX
  8
PLAN_1
  6
CONTINUOUS
 10
0.845732
 20
-3.186248
  0
VERTEX
  8
PLAN_1
  6
CONTINUOUS
 10
0.846551
 20
-3.178866
  0
VERTEX
  8
PLAN_1
  6
CONTINUOUS
 10
0.847374
 20
-3.170665
  0
VERTEX
  8
PLAN_1
  6
CONTINUOUS
 10
0.847783
 20
-3.162465
  0
VERTEX
  8
PLAN_1
  6
CONTINUOUS
 10
0.848193
 20
-3.153445
  0
VERTEX
  8
PLAN_1
  6
CONTINUOUS
 10
0.847783
 20
-3.144421
  0
VERTEX
  8
PLAN_1
  6
CONTINUOUS
 10
0.847374
 20
-3.136220
  0
VERTEX
  8
PLAN_1
  6
CONTINUOUS
 10
0.846551
 20
-3.128020
  0
VERTEX
  8
PLAN_1
  6
CONTINUOUS
 10
0.845732
 20
-3.120638
  0
VERTEX
  8
PLAN_1
  6
CONTINUOUS
 10
0.844091
 20
-3.113669
  0
VERTEX
  8
PLAN_1
  6
CONTINUOUS
 10
0.842453
 20
-3.107106
  0
VERTEX
  8
PLAN_1
  6
CONTINUOUS
 10
0.840402
 20
-3.101366
  0
VERTEX
  8
PLAN_1
  6
CONTINUOUS
 10
0.838350
 20
-3.096035
  0
VERTEX
  8
PLAN_1
  6
CONTINUOUS
 10
0.835480
 20
-3.091114
  0
VERTEX
  8
PLAN_1
  6
CONTINUOUS
 10
0.832610
 20
-3.087012
  0
VERTEX
  8
PLAN_1
  6
CONTINUOUS
 10
0.828917
 20
-3.083323
  0
VERTEX
  8
PLAN_1
  6
CONTINUOUS
 10
0.825638
 20
-3.080453
  0
VERTEX
  8
PLAN_1
  6
CONTINUOUS
 10
0.821539
 20
-3.077992
  0
VERTEX
  8
PLAN_1
  6
CONTINUOUS
 10
0.817028
 20
-3.076350
  0
VERTEX
  8
PLAN_1
  6
CONTINUOUS
 10
0.812516
 20
-3.075531
  0
VERTEX
  8
PLAN_1
  6
CONTINUOUS
 10
0.807185
 20
-3.075122
  0
SEQEND
  8
0
  0
SOLID
  8
PLAN_1
 10
0.884280
 20
-3.283024
 11
0.884280
 21
-3.269083
 12
1.038870
 22
-3.283024
 13
1.038870
 23
-3.269083
  0
POLYLINE
  8
PLAN_1
  6
CONTINUOUS
 66
     1
 40
0.003000
 41
0.003000
  0
VERTEX
  8
PLAN_1
  6
CONTINUOUS
 10
0.884280
 20
-3.283024
  0
VERTEX
  8
PLAN_1
  6
CONTINUOUS
 10
0.884280
 20
-3.269083
  0
VERTEX
  8
PLAN_1
  6
CONTINUOUS
 10
1.038870
 20
-3.269083
  0
VERTEX
  8
PLAN_1
  6
CONTINUOUS
 10
1.038870
 20
-3.283024
  0
VERTEX
  8
PLAN_1
  6
CONTINUOUS
 10
0.884280
 20
-3.283024
  0
SEQEND
  8
0
  0
POLYLINE
  8
PLAN_1
  6
CONTINUOUS
 66
     1
 40
0.003000
 41
0.003000
  0
VERTEX
  8
PLAN_1
  6
CONTINUOUS
 10
1.090130
 20
-3.248169
  0
VERTEX
  8
PLAN_1
  6
CONTINUOUS
 10
1.063067
 20
-3.248169
  0
VERTEX
  8
PLAN_1
  6
CONTINUOUS
 10
1.063067
 20
-3.048878
  0
VERTEX
  8
PLAN_1
  6
CONTINUOUS
 10
1.155331
 20
-3.048878
  0
VERTEX
  8
PLAN_1
  6
CONTINUOUS
 10
1.161480
 20
-3.049287
  0
VERTEX
  8
PLAN_1
  6
CONTINUOUS
 10
1.167634
 20
-3.049697
  0
VERTEX
  8
PLAN_1
  6
CONTINUOUS
 10
1.173783
 20
-3.050520
  0
VERTEX
  8
PLAN_1
  6
CONTINUOUS
 10
1.179524
 20
-3.051339
  0
VERTEX
  8
PLAN_1
  6
CONTINUOUS
 10
1.185264
 20
-3.052976
  0
VERTEX
  8
PLAN_1
  6
CONTINUOUS
 10
1.190594
 20
-3.055028
  0
VERTEX
  8
PLAN_1
  6
CONTINUOUS
 10
1.195516
 20
-3.057079
  0
VERTEX
  8
PLAN_1
  6
CONTINUOUS
 10
1.200437
 20
-3.059949
  0
VERTEX
  8
PLAN_1
  6
CONTINUOUS
 10
1.204949
 20
-3.063228
  0
VERTEX
  8
PLAN_1
  6
CONTINUOUS
 10
1.208638
 20
-3.067331
  0
VERTEX
  8
PLAN_1
  6
CONTINUOUS
 10
1.212331
 20
-3.071429
  0
VERTEX
  8
PLAN_1
  6
CONTINUOUS
 10
1.215201
 20
-3.076350
  0
VERTEX
  8
PLAN_1
  6
CONTINUOUS
 10
1.217661
 20
-3.082094
  0
VERTEX
  8
PLAN_1
  6
CONTINUOUS
 10
1.219299
 20
-3.088244
  0
VERTEX
  8
PLAN_1
  6
CONTINUOUS
 10
1.220531
 20
-3.095217
  0
VERTEX
  8
PLAN_1
  6
CONTINUOUS
 10
1.220941
 20
-3.102594
  0
VERTEX
  8
PLAN_1
  6
CONTINUOUS
 10
1.220941
 20
-3.107925
  0
VERTEX
  8
PLAN_1
  6
CONTINUOUS
 10
1.220122
 20
-3.112846
  0
VERTEX
  8
PLAN_1
  6
CONTINUOUS
 10
1.219299
 20
-3.117358
  0
VERTEX
  8
PLAN_1
  6
CONTINUOUS
 10
1.218480
 20
-3.121461
  0
VERTEX
  8
PLAN_1
  6
CONTINUOUS
 10
1.216839
 20
-3.125150
  0
VERTEX
  8
PLAN_1
  6
CONTINUOUS
 10
1.215610
 20
-3.128839
  0
VERTEX
  8
PLAN_1
  6
CONTINUOUS
 10
1.213559
 20
-3.131709
  0
VERTEX
  8
PLAN_1
  6
CONTINUOUS
 10
1.211917
 20
-3.134583
  0
VERTEX
  8
PLAN_1
  6
CONTINUOUS
 10
1.209870
 20
-3.137453
  0
VERTEX
  8
PLAN_1
  6
CONTINUOUS
 10
1.207409
 20
-3.139913
  0
VERTEX
  8
PLAN_1
  6
CONTINUOUS
 10
1.205358
 20
-3.141961
  0
VERTEX
  8
PLAN_1
  6
CONTINUOUS
 10
1.202898
 20
-3.144012
  0
VERTEX
  8
PLAN_1
  6
CONTINUOUS
 10
1.197976
 20
-3.147291
  0
VERTEX
  8
PLAN_1
  6
CONTINUOUS
 10
1.193055
 20
-3.150161
  0
VERTEX
  8
PLAN_1
  6
CONTINUOUS
 10
1.197567
 20
-3.152213
  0
VERTEX
  8
PLAN_1
  6
CONTINUOUS
 10
1.201669
 20
-3.154264
  0
VERTEX
  8
PLAN_1
  6
CONTINUOUS
 10
1.203307
 20
-3.155496
  0
VERTEX
  8
PLAN_1
  6
CONTINUOUS
 10
1.205358
 20
-3.157134
  0
VERTEX
  8
PLAN_1
  6
CONTINUOUS
 10
1.207409
 20
-3.158776
  0
VERTEX
  8
PLAN_1
  6
CONTINUOUS
 10
1.209047
 20
-3.160413
  0
VERTEX
  8
PLAN_1
  6
CONTINUOUS
 10
1.210689
 20
-3.162465
  0
VERTEX
  8
PLAN_1
  6
CONTINUOUS
 10
1.211917
 20
-3.164925
  0
VERTEX
  8
PLAN_1
  6
CONTINUOUS
 10
1.213150
 20
-3.167795
  0
VERTEX
  8
PLAN_1
  6
CONTINUOUS
 10
1.214378
 20
-3.171075
  0
VERTEX
  8
PLAN_1
  6
CONTINUOUS
 10
1.215201
 20
-3.174358
  0
VERTEX
  8
PLAN_1
  6
CONTINUOUS
 10
1.216020
 20
-3.178457
  0
VERTEX
  8
PLAN_1
  6
CONTINUOUS
 10
1.216839
 20
-3.182969
  0
VERTEX
  8
PLAN_1
  6
CONTINUOUS
 10
1.216839
 20
-3.187890
  0
VERTEX
  8
PLAN_1
  6
CONTINUOUS
 10
1.218890
 20
-3.223976
  0
VERTEX
  8
PLAN_1
  6
CONTINUOUS
 10
1.218890
 20
-3.227665
  0
VERTEX
  8
PLAN_1
  6
CONTINUOUS
 10
1.219299
 20
-3.230945
  0
VERTEX
  8
PLAN_1
  6
CONTINUOUS
 10
1.219709
 20
-3.233815
  0
VERTEX
  8
PLAN_1
  6
CONTINUOUS
 10
1.220531
 20
-3.236276
  0
VERTEX
  8
PLAN_1
  6
CONTINUOUS
 10
1.221760
 20
-3.238327
  0
VERTEX
  8
PLAN_1
  6
CONTINUOUS
 10
1.223811
 20
-3.240378
  0
VERTEX
  8
PLAN_1
  6
CONTINUOUS
 10
1.225862
 20
-3.242016
  0
VERTEX
  8
PLAN_1
  6
CONTINUOUS
 10
1.228732
 20
-3.244067
  0
VERTEX
  8
PLAN_1
  6
CONTINUOUS
 10
1.228732
 20
-3.248169
  0
VERTEX
  8
PLAN_1
  6
CONTINUOUS
 10
1.195516
 20
-3.248169
  0
VERTEX
  8
PLAN_1
  6
CONTINUOUS
 10
1.194287
 20
-3.242839
  0
VERTEX
  8
PLAN_1
  6
CONTINUOUS
 10
1.193465
 20
-3.236276
  0
VERTEX
  8
PLAN_1
  6
CONTINUOUS
 10
1.192646
 20
-3.229307
  0
VERTEX
  8
PLAN_1
  6
CONTINUOUS
 10
1.191827
 20
-3.221516
  0
VERTEX
  8
PLAN_1
  6
CONTINUOUS
 10
1.191417
 20
-3.214134
  0
VERTEX
  8
PLAN_1
  6
CONTINUOUS
 10
1.191004
 20
-3.207571
  0
VERTEX
  8
PLAN_1
  6
CONTINUOUS
 10
1.191004
 20
-3.202240
  0
VERTEX
  8
PLAN_1
  6
CONTINUOUS
 10
1.191004
 20
-3.198551
  0
VERTEX
  8
PLAN_1
  6
CONTINUOUS
 10
1.190594
 20
-3.191988
  0
VERTEX
  8
PLAN_1
  6
CONTINUOUS
 10
1.189776
 20
-3.185839
  0
VERTEX
  8
PLAN_1
  6
CONTINUOUS
 10
1.189366
 20
-3.182969
  0
VERTEX
  8
PLAN_1
  6
CONTINUOUS
 10
1.188134
 20
-3.180098
  0
VERTEX
  8
PLAN_1
  6
CONTINUOUS
 10
1.186906
 20
-3.177228
  0
VERTEX
  8
PLAN_1
  6
CONTINUOUS
 10
1.185264
 20
-3.174358
  0
VERTEX
  8
PLAN_1
  6
CONTINUOUS
 10
1.183213
 20
-3.171898
  0
VERTEX
  8
PLAN_1
  6
CONTINUOUS
 10
1.180756
 20
-3.169846
  0
VERTEX
  8
PLAN_1
  6
CONTINUOUS
 10
1.177882
 20
-3.167795
  0
VERTEX
  8
PLAN_1
  6
CONTINUOUS
 10
1.174602
 20
-3.166157
  0
VERTEX
  8
PLAN_1
  6
CONTINUOUS
 10
1.170504
 20
-3.164925
  0
VERTEX
  8
PLAN_1
  6
CONTINUOUS
 10
1.165992
 20
-3.163697
  0
VERTEX
  8
PLAN_1
  6
CONTINUOUS
 10
1.161071
 20
-3.162874
  0
VERTEX
  8
PLAN_1
  6
CONTINUOUS
 10
1.155331
 20
-3.162874
  0
VERTEX
  8
PLAN_1
  6
CONTINUOUS
 10
1.090130
 20
-3.162874
  0
VERTEX
  8
PLAN_1
  6
CONTINUOUS
 10
1.090130
 20
-3.248169
  0
SEQEND
  8
0
  0
POLYLINE
  8
PLAN_1
  6
CONTINUOUS
 66
     1
 40
0.003000
 41
0.003000
  0
VERTEX
  8
PLAN_1
  6
CONTINUOUS
 10
1.090130
 20
-3.139913
  0
VERTEX
  8
PLAN_1
  6
CONTINUOUS
 10
1.152461
 20
-3.139913
  0
VERTEX
  8
PLAN_1
  6
CONTINUOUS
 10
1.159843
 20
-3.139500
  0
VERTEX
  8
PLAN_1
  6
CONTINUOUS
 10
1.167220
 20
-3.138681
  0
VERTEX
  8
PLAN_1
  6
CONTINUOUS
 10
1.170913
 20
-3.137862
  0
VERTEX
  8
PLAN_1
  6
CONTINUOUS
 10
1.174193
 20
-3.136630
  0
VERTEX
  8
PLAN_1
  6
CONTINUOUS
 10
1.177472
 20
-3.135402
  0
VERTEX
  8
PLAN_1
  6
CONTINUOUS
 10
1.180343
 20
-3.133760
  0
VERTEX
  8
PLAN_1
  6
CONTINUOUS
 10
1.183213
 20
-3.131709
  0
VERTEX
  8
PLAN_1
  6
CONTINUOUS
 10
1.185673
 20
-3.129252
  0
VERTEX
  8
PLAN_1
  6
CONTINUOUS
 10
1.187724
 20
-3.126378
  0
VERTEX
  8
PLAN_1
  6
CONTINUOUS
 10
1.189776
 20
-3.123098
  0
VERTEX
  8
PLAN_1
  6
CONTINUOUS
 10
1.191004
 20
-3.119409
  0
VERTEX
  8
PLAN_1
  6
CONTINUOUS
 10
1.192236
 20
-3.115307
  0
VERTEX
  8
PLAN_1
  6
CONTINUOUS
 10
1.193055
 20
-3.110795
  0
VERTEX
  8
PLAN_1
  6
CONTINUOUS
 10
1.193055
 20
-3.105465
  0
VERTEX
  8
PLAN_1
  6
CONTINUOUS
 10
1.193055
 20
-3.100134
  0
VERTEX
  8
PLAN_1
  6
CONTINUOUS
 10
1.192236
 20
-3.095217
  0
VERTEX
  8
PLAN_1
  6
CONTINUOUS
 10
1.191004
 20
-3.090705
  0
VERTEX
  8
PLAN_1
  6
CONTINUOUS
 10
1.189366
 20
-3.087012
  0
VERTEX
  8
PLAN_1
  6
CONTINUOUS
 10
1.187724
 20
-3.084142
  0
VERTEX
  8
PLAN_1
  6
CONTINUOUS
 10
1.185264
 20
-3.081272
  0
VERTEX
  8
PLAN_1
  6
CONTINUOUS
 10
1.182803
 20
-3.079220
  0
VERTEX
  8
PLAN_1
  6
CONTINUOUS
 10
1.180343
 20
-3.077173
  0
VERTEX
  8
PLAN_1
  6
CONTINUOUS
 10
1.177472
 20
-3.075531
  0
VERTEX
  8
PLAN_1
  6
CONTINUOUS
 10
1.174602
 20
-3.074713
  0
VERTEX
  8
PLAN_1
  6
CONTINUOUS
 10
1.171732
 20
-3.073480
  0
VERTEX
  8
PLAN_1
  6
CONTINUOUS
 10
1.168453
 20
-3.073071
  0
VERTEX
  8
PLAN_1
  6
CONTINUOUS
 10
1.162713
 20
-3.072252
  0
VERTEX
  8
PLAN_1
  6
CONTINUOUS
 10
1.157382
 20
-3.072252
  0
VERTEX
  8
PLAN_1
  6
CONTINUOUS
 10
1.090130
 20
-3.072252
  0
VERTEX
  8
PLAN_1
  6
CONTINUOUS
 10
1.090130
 20
-3.139913
  0
SEQEND
  8
0
  0
SOLID
  8
PLAN_1
 10
1.292291
 20
-3.248169
 11
1.263587
 21
-3.248169
 12
1.292291
 22
-3.219055
 13
1.263587
 23
-3.219055
  0
POLYLINE
  8
PLAN_1
  6
CONTINUOUS
 66
     1
 40
0.003000
 41
0.003000
  0
VERTEX
  8
PLAN_1
  6
CONTINUOUS
 10
1.292291
 20
-3.248169
  0
VERTEX
  8
PLAN_1
  6
CONTINUOUS
 10
1.263587
 20
-3.248169
  0
VERTEX
  8
PLAN_1
  6
CONTINUOUS
 10
1.263587
 20
-3.219055
  0
VERTEX
  8
PLAN_1
  6
CONTINUOUS
 10
1.292291
 20
-3.219055
  0
VERTEX
  8
PLAN_1
  6
CONTINUOUS
 10
1.292291
 20
-3.248169
  0
SEQEND
  8
0
  0
POLYLINE
  8
PLAN_1
  6
CONTINUOUS
 66
     1
 40
0.003000
 41
0.003000
  0
VERTEX
  8
PLAN_1
  6
CONTINUOUS
 10
1.487480
 20
-3.248169
  0
VERTEX
  8
PLAN_1
  6
CONTINUOUS
 10
1.340268
 20
-3.248169
  0
VERTEX
  8
PLAN_1
  6
CONTINUOUS
 10
1.340268
 20
-3.048878
  0
VERTEX
  8
PLAN_1
  6
CONTINUOUS
 10
1.485433
 20
-3.048878
  0
VERTEX
  8
PLAN_1
  6
CONTINUOUS
 10
1.485433
 20
-3.073071
  0
VERTEX
  8
PLAN_1
  6
CONTINUOUS
 10
1.367335
 20
-3.073071
  0
VERTEX
  8
PLAN_1
  6
CONTINUOUS
 10
1.367335
 20
-3.134169
  0
VERTEX
  8
PLAN_1
  6
CONTINUOUS
 10
1.476409
 20
-3.134169
  0
VERTEX
  8
PLAN_1
  6
CONTINUOUS
 10
1.476409
 20
-3.157953
  0
VERTEX
  8
PLAN_1
  6
CONTINUOUS
 10
1.367335
 20
-3.157953
  0
VERTEX
  8
PLAN_1
  6
CONTINUOUS
 10
1.367335
 20
-3.224386
  0
VERTEX
  8
PLAN_1
  6
CONTINUOUS
 10
1.487480
 20
-3.224386
  0
VERTEX
  8
PLAN_1
  6
CONTINUOUS
 10
1.487480
 20
-3.248169
  0
SEQEND
  8
0
  0
POLYLINE
  8
PLAN_1
  6
CONTINUOUS
 66
     1
 40
0.003000
 41
0.003000
  0
VERTEX
  8
PLAN_1
  6
CONTINUOUS
 10
1.552681
 20
-3.248169
  0
VERTEX
  8
PLAN_1
  6
CONTINUOUS
 10
1.525618
 20
-3.248169
  0
VERTEX
  8
PLAN_1
  6
CONTINUOUS
 10
1.525618
 20
-3.048878
  0
VERTEX
  8
PLAN_1
  6
CONTINUOUS
 10
1.615012
 20
-3.048878
  0
VERTEX
  8
PLAN_1
  6
CONTINUOUS
 10
1.621984
 20
-3.049287
  0
VERTEX
  8
PLAN_1
  6
CONTINUOUS
 10
1.628543
 20
-3.050106
  0
VERTEX
  8
PLAN_1
  6
CONTINUOUS
 10
1.634283
 20
-3.051339
  0
VERTEX
  8
PLAN_1
  6
CONTINUOUS
 10
1.640028
 20
-3.053390
  0
VERTEX
  8
PLAN_1
  6
CONTINUOUS
 10
1.645358
 20
-3.055437
  0
VERTEX
  8
PLAN_1
  6
CONTINUOUS
 10
1.650276
 20
-3.058307
  0
VERTEX
  8
PLAN_1
  6
CONTINUOUS
 10
1.654378
 20
-3.061591
  0
VERTEX
  8
PLAN_1
  6
CONTINUOUS
 10
1.658480
 20
-3.064870
  0
VERTEX
  8
PLAN_1
  6
CONTINUOUS
 10
1.662169
 20
-3.068972
  0
VERTEX
  8
PLAN_1
  6
CONTINUOUS
 10
1.665449
 20
-3.073071
  0
VERTEX
  8
PLAN_1
  6
CONTINUOUS
 10
1.667909
 20
-3.077992
  0
VERTEX
  8
PLAN_1
  6
CONTINUOUS
 10
1.670370
 20
-3.082913
  0
VERTEX
  8
PLAN_1
  6
CONTINUOUS
 10
1.672012
 20
-3.087835
  0
VERTEX
  8
PLAN_1
  6
CONTINUOUS
 10
1.673240
 20
-3.093575
  0
VERTEX
  8
PLAN_1
  6
CONTINUOUS
 10
1.674063
 20
-3.099315
  0
VERTEX
  8
PLAN_1
  6
CONTINUOUS
 10
1.674472
 20
-3.105055
  0
VERTEX
  8
PLAN_1
  6
CONTINUOUS
 10
1.674063
 20
-3.110386
  0
VERTEX
  8
PLAN_1
  6
CONTINUOUS
 10
1.673650
 20
-3.115717
  0
VERTEX
  8
PLAN_1
  6
CONTINUOUS
 10
1.672421
 20
-3.121047
  0
VERTEX
  8
PLAN_1
  6
CONTINUOUS
 10
1.671189
 20
-3.125969
  0
VERTEX
  8
PLAN_1
  6
CONTINUOUS
 10
1.669142
 20
-3.131299
  0
VERTEX
  8
PLAN_1
  6
CONTINUOUS
 10
1.667091
 20
-3.136220
  0
VERTEX
  8
PLAN_1
  6
CONTINUOUS
 10
1.664220
 20
-3.140732
  0
VERTEX
  8
PLAN_1
  6
CONTINUOUS
 10
1.660941
 20
-3.145244
  0
VERTEX
  8
PLAN_1
  6
CONTINUOUS
 10
1.657248
 20
-3.149343
  0
VERTEX
  8
PLAN_1
  6
CONTINUOUS
 10
1.652736
 20
-3.153035
  0
VERTEX
  8
PLAN_1
  6
CONTINUOUS
 10
1.648228
 20
-3.156315
  0
VERTEX
  8
PLAN_1
  6
CONTINUOUS
 10
1.642898
 20
-3.158776
  0
VERTEX
  8
PLAN_1
  6
CONTINUOUS
 10
1.636744
 20
-3.161236
  0
VERTEX
  8
PLAN_1
  6
CONTINUOUS
 10
1.630185
 20
-3.162874
  0
VERTEX
  8
PLAN_1
  6
CONTINUOUS
 10
1.623213
 20
-3.163697
  0
VERTEX
  8
PLAN_1
  6
CONTINUOUS
 10
1.615012
 20
-3.164106
  0
VERTEX
  8
PLAN_1
  6
CONTINUOUS
 10
1.552681
 20
-3.164106
  0
VERTEX
  8
PLAN_1
  6
CONTINUOUS
 10
1.552681
 20
-3.248169
  0
SEQEND
  8
0
  0
POLYLINE
  8
PLAN_1
  6
CONTINUOUS
 66
     1
 40
0.003000
 41
0.003000
  0
VERTEX
  8
PLAN_1
  6
CONTINUOUS
 10
1.552681
 20
-3.141142
  0
VERTEX
  8
PLAN_1
  6
CONTINUOUS
 10
1.605992
 20
-3.141142
  0
VERTEX
  8
PLAN_1
  6
CONTINUOUS
 10
1.610500
 20
-3.141142
  0
VERTEX
  8
PLAN_1
  6
CONTINUOUS
 10
1.614602
 20
-3.140732
  0
VERTEX
  8
PLAN_1
  6
CONTINUOUS
 10
1.618701
 20
-3.140323
  0
VERTEX
  8
PLAN_1
  6
CONTINUOUS
 10
1.622394
 20
-3.139500
  0
VERTEX
  8
PLAN_1
  6
CONTINUOUS
 10
1.626083
 20
-3.138272
  0
VERTEX
  8
PLAN_1
  6
CONTINUOUS
 10
1.629362
 20
-3.137039
  0
VERTEX
  8
PLAN_1
  6
CONTINUOUS
 10
1.632646
 20
-3.135402
  0
VERTEX
  8
PLAN_1
  6
CONTINUOUS
 10
1.635516
 20
-3.133350
  0
VERTEX
  8
PLAN_1
  6
CONTINUOUS
 10
1.637976
 20
-3.131299
  0
VERTEX
  8
PLAN_1
  6
CONTINUOUS
 10
1.640028
 20
-3.128429
  0
VERTEX
  8
PLAN_1
  6
CONTINUOUS
 10
1.642075
 20
-3.125559
  0
VERTEX
  8
PLAN_1
  6
CONTINUOUS
 10
1.643717
 20
-3.122280
  0
VERTEX
  8
PLAN_1
  6
CONTINUOUS
 10
1.644945
 20
-3.118587
  0
VERTEX
  8
PLAN_1
  6
CONTINUOUS
 10
1.645768
 20
-3.114488
  0
VERTEX
  8
PLAN_1
  6
CONTINUOUS
 10
1.646177
 20
-3.110386
  0
VERTEX
  8
PLAN_1
  6
CONTINUOUS
 10
1.646587
 20
-3.105465
  0
VERTEX
  8
PLAN_1
  6
CONTINUOUS
 10
1.646177
 20
-3.100957
  0
VERTEX
  8
PLAN_1
  6
CONTINUOUS
 10
1.645768
 20
-3.096854
  0
VERTEX
  8
PLAN_1
  6
CONTINUOUS
 10
1.644945
 20
-3.092756
  0
VERTEX
  8
PLAN_1
  6
CONTINUOUS
 10
1.643717
 20
-3.089472
  0
VERTEX
  8
PLAN_1
  6
CONTINUOUS
 10
1.642075
 20
-3.086602
  0
VERTEX
  8
PLAN_1
  6
CONTINUOUS
 10
1.640028
 20
-3.083732
  0
VERTEX
  8
PLAN_1
  6
CONTINUOUS
 10
1.637567
 20
-3.081272
  0
VERTEX
  8
PLAN_1
  6
CONTINUOUS
 10
1.635106
 20
-3.079220
  0
VERTEX
  8
PLAN_1
  6
CONTINUOUS
 10
1.632236
 20
-3.077583
  0
VERTEX
  8
PLAN_1
  6
CONTINUOUS
 10
1.629362
 20
-3.075941
  0
VERTEX
  8
PLAN_1
  6
CONTINUOUS
 10
1.626083
 20
-3.074713
  0
VERTEX
  8
PLAN_1
  6
CONTINUOUS
 10
1.622803
 20
-3.073890
  0
VERTEX
  8
PLAN_1
  6
CONTINUOUS
 10
1.619114
 20
-3.073071
  0
VERTEX
  8
PLAN_1
  6
CONTINUOUS
 10
1.615421
 20
-3.072661
  0
VERTEX
  8
PLAN_1
  6
CONTINUOUS
 10
1.611323
 20
-3.072252
  0
VERTEX
  8
PLAN_1
  6
CONTINUOUS
 10
1.607220
 20
-3.072252
  0
VERTEX
  8
PLAN_1
  6
CONTINUOUS
 10
1.552681
 20
-3.072252
  0
VERTEX
  8
PLAN_1
  6
CONTINUOUS
 10
1.552681
 20
-3.141142
  0
SEQEND
  8
0
  0
POLYLINE
  8
PLAN_1
  6
CONTINUOUS
 66
     1
 40
0.003000
 41
0.003000
  0
VERTEX
  8
PLAN_1
  6
CONTINUOUS
 10
1.828244
 20
-3.107516
  0
VERTEX
  8
PLAN_1
  6
CONTINUOUS
 10
1.827835
 20
-3.101776
  0
VERTEX
  8
PLAN_1
  6
CONTINUOUS
 10
1.826606
 20
-3.096854
  0
VERTEX
  8
PLAN_1
  6
CONTINUOUS
 10
1.824965
 20
-3.092343
  0
VERTEX
  8
PLAN_1
  6
CONTINUOUS
 10
1.822913
 20
-3.087835
  0
VERTEX
  8
PLAN_1
  6
CONTINUOUS
 10
1.820453
 20
-3.084142
  0
VERTEX
  8
PLAN_1
  6
CONTINUOUS
 10
1.817992
 20
-3.080862
  0
VERTEX
  8
PLAN_1
  6
CONTINUOUS
 10
1.814713
 20
-3.077992
  0
VERTEX
  8
PLAN_1
  6
CONTINUOUS
 10
1.811433
 20
-3.075531
  0
VERTEX
  8
PLAN_1
  6
CONTINUOUS
 10
1.807740
 20
-3.073480
  0
VERTEX
  8
PLAN_1
  6
CONTINUOUS
 10
1.804051
 20
-3.071429
  0
VERTEX
  8
PLAN_1
  6
CONTINUOUS
 10
1.799949
 20
-3.070201
  0
VERTEX
  8
PLAN_1
  6
CONTINUOUS
 10
1.795850
 20
-3.068972
  0
VERTEX
  8
PLAN_1
  6
CONTINUOUS
 10
1.791748
 20
-3.067740
  0
VERTEX
  8
PLAN_1
  6
CONTINUOUS
 10
1.787240
 20
-3.067331
  0
VERTEX
  8
PLAN_1
  6
CONTINUOUS
 10
1.783138
 20
-3.066921
  0
VERTEX
  8
PLAN_1
  6
CONTINUOUS
 10
1.778626
 20
-3.066921
  0
VERTEX
  8
PLAN_1
  6
CONTINUOUS
 10
1.772067
 20
-3.066921
  0
VERTEX
  8
PLAN_1
  6
CONTINUOUS
 10
1.764685
 20
-3.068150
  0
VERTEX
  8
PLAN_1
  6
CONTINUOUS
 10
1.760583
 20
-3.068972
  0
VERTEX
  8
PLAN_1
  6
CONTINUOUS
 10
1.756894
 20
-3.069791
  0
VERTEX
  8
PLAN_1
  6
CONTINUOUS
 10
1.753205
 20
-3.071429
  0
VERTEX
  8
PLAN_1
  6
CONTINUOUS
 10
1.749512
 20
-3.073071
  0
VERTEX
  8
PLAN_1
  6
CONTINUOUS
 10
1.746232
 20
-3.075122
  0
VERTEX
  8
PLAN_1
  6
CONTINUOUS
 10
1.743362
 20
-3.077583
  0
VERTEX
  8
PLAN_1
  6
CONTINUOUS
 10
1.740492
 20
-3.080453
  0
VERTEX
  8
PLAN_1
  6
CONTINUOUS
 10
1.738031
 20
-3.083732
  0
VERTEX
  8
PLAN_1
  6
CONTINUOUS
 10
1.735980
 20
-3.087425
  0
VERTEX
  8
PLAN_1
  6
CONTINUOUS
 10
1.734339
 20
-3.091524
  0
VERTEX
  8
PLAN_1
  6
CONTINUOUS
 10
1.733520
 20
-3.096445
  0
VERTEX
  8
PLAN_1
  6
CONTINUOUS
 10
1.733110
 20
-3.101776
  0
VERTEX
  8
PLAN_1
  6
CONTINUOUS
 10
1.733520
 20
-3.104646
  0
VERTEX
  8
PLAN_1
  6
CONTINUOUS
 10
1.733929
 20
-3.107516
  0
VERTEX
  8
PLAN_1
  6
CONTINUOUS
 10
1.734339
 20
-3.109976
  0
VERTEX
  8
PLAN_1
  6
CONTINUOUS
 10
1.735161
 20
-3.112437
  0
VERTEX
  8
PLAN_1
  6
CONTINUOUS
 10
1.736390
 20
-3.114488
  0
VERTEX
  8
PLAN_1
  6
CONTINUOUS
 10
1.737622
 20
-3.116539
  0
VERTEX
  8
PLAN_1
  6
CONTINUOUS
 10
1.739260
 20
-3.118177
  0
VERTEX
  8
PLAN_1
  6
CONTINUOUS
 10
1.740902
 20
-3.119819
  0
VERTEX
  8
PLAN_1
  6
CONTINUOUS
 10
1.744181
 20
-3.122280
  0
VERTEX
  8
PLAN_1
  6
CONTINUOUS
 10
1.748283
 20
-3.124331
  0
VERTEX
  8
PLAN_1
  6
CONTINUOUS
 10
1.752382
 20
-3.125969
  0
VERTEX
  8
PLAN_1
  6
CONTINUOUS
 10
1.756894
 20
-3.127201
  0
VERTEX
  8
PLAN_1
  6
CONTINUOUS
 10
1.813894
 20
-3.139913
  0
VERTEX
  8
PLAN_1
  6
CONTINUOUS
 10
1.818406
 20
-3.141142
  0
VERTEX
  8
PLAN_1
  6
CONTINUOUS
 10
1.822913
 20
-3.142783
  0
VERTEX
  8
PLAN_1
  6
CONTINUOUS
 10
1.827425
 20
-3.144421
  0
VERTEX
  8
PLAN_1
  6
CONTINUOUS
 10
1.831528
 20
-3.146472
  0
VERTEX
  8
PLAN_1
  6
CONTINUOUS
 10
1.835626
 20
-3.148933
  0
VERTEX
  8
PLAN_1
  6
CONTINUOUS
 10
1.839315
 20
-3.151394
  0
VERTEX
  8
PLAN_1
  6
CONTINUOUS
 10
1.843008
 20
-3.154264
  0
VERTEX
  8
PLAN_1
  6
CONTINUOUS
 10
1.845878
 20
-3.157134
  0
VERTEX
  8
PLAN_1
  6
CONTINUOUS
 10
1.848748
 20
-3.160413
  0
VERTEX
  8
PLAN_1
  6
CONTINUOUS
 10
1.851618
 20
-3.164106
  0
VERTEX
  8
PLAN_1
  6
CONTINUOUS
 10
1.853669
 20
-3.168205
  0
VERTEX
  8
PLAN_1
  6
CONTINUOUS
 10
1.855720
 20
-3.172717
  0
VERTEX
  8
PLAN_1
  6
CONTINUOUS
 10
1.856949
 20
-3.177228
  0
VERTEX
  8
PLAN_1
  6
CONTINUOUS
 10
1.858181
 20
-3.182150
  0
VERTEX
  8
PLAN_1
  6
CONTINUOUS
 10
1.858591
 20
-3.187480
  0
VERTEX
  8
PLAN_1
  6
CONTINUOUS
 10
1.859000
 20
-3.193220
  0
VERTEX
  8
PLAN_1
  6
CONTINUOUS
 10
1.859000
 20
-3.197732
  0
VERTEX
  8
PLAN_1
  6
CONTINUOUS
 10
1.858591
 20
-3.201831
  0
VERTEX
  8
PLAN_1
  6
CONTINUOUS
 10
1.857772
 20
-3.205933
  0
VERTEX
  8
PLAN_1
  6
CONTINUOUS
 10
1.856949
 20
-3.209622
  0
VERTEX
  8
PLAN_1
  6
CONTINUOUS
 10
1.856130
 20
-3.212902
  0
VERTEX
  8
PLAN_1
  6
CONTINUOUS
 10
1.854898
 20
-3.216594
  0
VERTEX
  8
PLAN_1
  6
CONTINUOUS
 10
1.853260
 20
-3.219465
  0
VERTEX
  8
PLAN_1
  6
CONTINUOUS
 10
1.851618
 20
-3.222744
  0
VERTEX
  8
PLAN_1
  6
CONTINUOUS
 10
1.849980
 20
-3.225614
  0
VERTEX
  8
PLAN_1
  6
CONTINUOUS
 10
1.847929
 20
-3.228075
  0
VERTEX
  8
PLAN_1
  6
CONTINUOUS
 10
1.845469
 20
-3.230945
  0
VERTEX
  8
PLAN_1
  6
CONTINUOUS
 10
1.843417
 20
-3.232996
  0
VERTEX
  8
PLAN_1
  6
CONTINUOUS
 10
1.838496
 20
-3.237508
  0
VERTEX
  8
PLAN_1
  6
CONTINUOUS
 10
1.832756
 20
-3.241197
  0
VERTEX
  8
PLAN_1
  6
CONTINUOUS
 10
1.827016
 20
-3.244476
  0
VERTEX
  8
PLAN_1
  6
CONTINUOUS
 10
1.820862
 20
-3.246937
  0
VERTEX
  8
PLAN_1
  6
CONTINUOUS
 10
1.814303
 20
-3.248988
  0
VERTEX
  8
PLAN_1
  6
CONTINUOUS
 10
1.807740
 20
-3.251039
  0
VERTEX
  8
PLAN_1
  6
CONTINUOUS
 10
1.800772
 20
-3.252268
  0
VERTEX
  8
PLAN_1
  6
CONTINUOUS
 10
1.794209
 20
-3.253091
  0
VERTEX
  8
PLAN_1
  6
CONTINUOUS
 10
1.787650
 20
-3.253500
  0
VERTEX
  8
PLAN_1
  6
CONTINUOUS
 10
1.781087
 20
-3.253500
  0
VERTEX
  8
PLAN_1
  6
CONTINUOUS
 10
1.774528
 20
-3.253500
  0
VERTEX
  8
PLAN_1
  6
CONTINUOUS
 10
1.768374
 20
-3.253091
  0
VERTEX
  8
PLAN_1
  6
CONTINUOUS
 10
1.762634
 20
-3.252681
  0
VERTEX
  8
PLAN_1
  6
CONTINUOUS
 10
1.757303
 20
-3.251858
  0
VERTEX
  8
PLAN_1
  6
CONTINUOUS
 10
1.752382
 20
-3.250630
  0
VERTEX
  8
PLAN_1
  6
CONTINUOUS
 10
1.747874
 20
-3.249807
  0
VERTEX
  8
PLAN_1
  6
CONTINUOUS
 10
1.744181
 20
-3.248579
  0
VERTEX
  8
PLAN_1
  6
CONTINUOUS
 10
1.740492
 20
-3.246937
  0
VERTEX
  8
PLAN_1
  6
CONTINUOUS
 10
1.733929
 20
-3.244067
  0
VERTEX
  8
PLAN_1
  6
CONTINUOUS
 10
1.728598
 20
-3.240787
  0
VERTEX
  8
PLAN_1
  6
CONTINUOUS
 10
1.724500
 20
-3.237508
  0
VERTEX
  8
PLAN_1
  6
CONTINUOUS
 10
1.720807
 20
-3.234638
  0
VERTEX
  8
PLAN_1
  6
CONTINUOUS
 10
1.717937
 20
-3.231768
  0
VERTEX
  8
PLAN_1
  6
CONTINUOUS
 10
1.715067
 20
-3.228484
  0
VERTEX
  8
PLAN_1
  6
CONTINUOUS
 10
1.712606
 20
-3.225614
  0
VERTEX
  8
PLAN_1
  6
CONTINUOUS
 10
1.710555
 20
-3.222744
  0
VERTEX
  8
PLAN_1
  6
CONTINUOUS
 10
1.708508
 20
-3.219874
  0
VERTEX
  8
PLAN_1
  6
CONTINUOUS
 10
1.706866
 20
-3.216594
  0
VERTEX
  8
PLAN_1
  6
CONTINUOUS
 10
1.705638
 20
-3.213724
  0
VERTEX
  8
PLAN_1
  6
CONTINUOUS
 10
1.704406
 20
-3.210441
  0
VERTEX
  8
PLAN_1
  6
CONTINUOUS
 10
1.702354
 20
-3.203882
  0
VERTEX
  8
PLAN_1
  6
CONTINUOUS
 10
1.701126
 20
-3.197732
  0
VERTEX
  8
PLAN_1
  6
CONTINUOUS
 10
1.700717
 20
-3.190760
  0
VERTEX
  8
PLAN_1
  6
CONTINUOUS
 10
1.700717
 20
-3.183787
  0
VERTEX
  8
PLAN_1
  6
CONTINUOUS
 10
1.725728
 20
-3.183787
  0
VERTEX
  8
PLAN_1
  6
CONTINUOUS
 10
1.726138
 20
-3.190350
  0
VERTEX
  8
PLAN_1
  6
CONTINUOUS
 10
1.726961
 20
-3.196500
  0
VERTEX
  8
PLAN_1
  6
CONTINUOUS
 10
1.728598
 20
-3.201831
  0
VERTEX
  8
PLAN_1
  6
CONTINUOUS
 10
1.730650
 20
-3.206343
  0
VERTEX
  8
PLAN_1
  6
CONTINUOUS
 10
1.733520
 20
-3.210854
  0
VERTEX
  8
PLAN_1
  6
CONTINUOUS
 10
1.736390
 20
-3.214543
  0
VERTEX
  8
PLAN_1
  6
CONTINUOUS
 10
1.739673
 20
-3.217823
  0
VERTEX
  8
PLAN_1
  6
CONTINUOUS
 10
1.743772
 20
-3.220693
  0
VERTEX
  8
PLAN_1
  6
CONTINUOUS
 10
1.747874
 20
-3.223154
  0
VERTEX
  8
PLAN_1
  6
CONTINUOUS
 10
1.751972
 20
-3.225205
  0
VERTEX
  8
PLAN_1
  6
CONTINUOUS
 10
1.756484
 20
-3.226846
  0
VERTEX
  8
PLAN_1
  6
CONTINUOUS
 10
1.761406
 20
-3.228484
  0
VERTEX
  8
PLAN_1
  6
CONTINUOUS
 10
1.766327
 20
-3.229307
  0
VERTEX
  8
PLAN_1
  6
CONTINUOUS
 10
1.770835
 20
-3.230126
  0
VERTEX
  8
PLAN_1
  6
CONTINUOUS
 10
1.775756
 20
-3.230535
  0
VERTEX
  8
PLAN_1
  6
CONTINUOUS
 10
1.780677
 20
-3.230535
  0
VERTEX
  8
PLAN_1
  6
CONTINUOUS
 10
1.788469
 20
-3.230126
  0
VERTEX
  8
PLAN_1
  6
CONTINUOUS
 10
1.797079
 20
-3.229307
  0
VERTEX
  8
PLAN_1
  6
CONTINUOUS
 10
1.801591
 20
-3.228484
  0
VERTEX
  8
PLAN_1
  6
CONTINUOUS
 10
1.805693
 20
-3.227665
  0
VERTEX
  8
PLAN_1
  6
CONTINUOUS
 10
1.810201
 20
-3.226024
  0
VERTEX
  8
PLAN_1
  6
CONTINUOUS
 10
1.814303
 20
-3.224386
  0
VERTEX
  8
PLAN_1
  6
CONTINUOUS
 10
1.817992
 20
-3.222335
  0
VERTEX
  8
PLAN_1
  6
CONTINUOUS
 10
1.821685
 20
-3.220283
  0
VERTEX
  8
PLAN_1
  6
CONTINUOUS
 10
1.824555
 20
-3.217413
  0
VERTEX
  8
PLAN_1
  6
CONTINUOUS
 10
1.827425
 20
-3.214134
  0
VERTEX
  8
PLAN_1
  6
CONTINUOUS
 10
1.829886
 20
-3.210854
  0
VERTEX
  8
PLAN_1
  6
CONTINUOUS
 10
1.831528
 20
-3.206752
  0
VERTEX
  8
PLAN_1
  6
CONTINUOUS
 10
1.832346
 20
-3.202240
  0
VERTEX
  8
PLAN_1
  6
CONTINUOUS
 10
1.832756
 20
-3.196909
  0
VERTEX
  8
PLAN_1
  6
CONTINUOUS
 10
1.832756
 20
-3.193220
  0
VERTEX
  8
PLAN_1
  6
CONTINUOUS
 10
1.832346
 20
-3.189941
  0
VERTEX
  8
PLAN_1
  6
CONTINUOUS
 10
1.831937
 20
-3.186657
  0
VERTEX
  8
PLAN_1
  6
CONTINUOUS
 10
1.830705
 20
-3.183787
  0
VERTEX
  8
PLAN_1
  6
CONTINUOUS
 10
1.829476
 20
-3.181327
  0
VERTEX
  8
PLAN_1
  6
CONTINUOUS
 10
1.828244
 20
-3.178866
  0
VERTEX
  8
PLAN_1
  6
CONTINUOUS
 10
1.826193
 20
-3.176406
  0
VERTEX
  8
PLAN_1
  6
CONTINUOUS
 10
1.824146
 20
-3.174358
  0
VERTEX
  8
PLAN_1
  6
CONTINUOUS
 10
1.821276
 20
-3.172717
  0
VERTEX
  8
PLAN_1
  6
CONTINUOUS
 10
1.818406
 20
-3.170665
  0
VERTEX
  8
PLAN_1
  6
CONTINUOUS
 10
1.814713
 20
-3.169028
  0
VERTEX
  8
PLAN_1
  6
CONTINUOUS
 10
1.811024
 20
-3.167795
  0
VERTEX
  8
PLAN_1
  6
CONTINUOUS
 10
1.801591
 20
-3.164516
  0
VERTEX
  8
PLAN_1
  6
CONTINUOUS
 10
1.790520
 20
-3.161646
  0
VERTEX
  8
PLAN_1
  6
CONTINUOUS
 10
1.749512
 20
-3.152213
  0
VERTEX
  8
PLAN_1
  6
CONTINUOUS
 10
1.744181
 20
-3.150984
  0
VERTEX
  8
PLAN_1
  6
CONTINUOUS
 10
1.737622
 20
-3.148524
  0
VERTEX
  8
PLAN_1
  6
CONTINUOUS
 10
1.733929
 20
-3.146882
  0
VERTEX
  8
PLAN_1
  6
CONTINUOUS
 10
1.730650
 20
-3.145244
  0
VERTEX
  8
PLAN_1
  6
CONTINUOUS
 10
1.726961
 20
-3.143193
  0
VERTEX
  8
PLAN_1
  6
CONTINUOUS
 10
1.723677
 20
-3.140732
  0
VERTEX
  8
PLAN_1
  6
CONTINUOUS
 10
1.720398
 20
-3.137862
  0
VERTEX
  8
PLAN_1
  6
CONTINUOUS
 10
1.717118
 20
-3.134583
  0
VERTEX
  8
PLAN_1
  6
CONTINUOUS
 10
1.714248
 20
-3.130890
  0
VERTEX
  8
PLAN_1
  6
CONTINUOUS
 10
1.711787
 20
-3.126791
  0
VERTEX
  8
PLAN_1
  6
CONTINUOUS
 10
1.710146
 20
-3.122280
  0
VERTEX
  8
PLAN_1
  6
CONTINUOUS
 10
1.708508
 20
-3.117358
  0
VERTEX
  8
PLAN_1
  6
CONTINUOUS
 10
1.707685
 20
-3.111618
  0
VERTEX
  8
PLAN_1
  6
CONTINUOUS
 10
1.707276
 20
-3.105465
  0
VERTEX
  8
PLAN_1
  6
CONTINUOUS
 10
1.707276
 20
-3.099724
  0
VERTEX
  8
PLAN_1
  6
CONTINUOUS
 10
1.708094
 20
-3.093984
  0
VERTEX
  8
PLAN_1
  6
CONTINUOUS
 10
1.709327
 20
-3.088244
  0
VERTEX
  8
PLAN_1
  6
CONTINUOUS
 10
1.710969
 20
-3.082504
  0
VERTEX
  8
PLAN_1
  6
CONTINUOUS
 10
1.713429
 20
-3.077173
  0
VERTEX
  8
PLAN_1
  6
CONTINUOUS
 10
1.716299
 20
-3.072252
  0
VERTEX
  8
PLAN_1
  6
CONTINUOUS
 10
1.719579
 20
-3.067331
  0
VERTEX
  8
PLAN_1
  6
CONTINUOUS
 10
1.723268
 20
-3.062819
  0
VERTEX
  8
PLAN_1
  6
CONTINUOUS
 10
1.727780
 20
-3.058720
  0
VERTEX
  8
PLAN_1
  6
CONTINUOUS
 10
1.732701
 20
-3.055028
  0
VERTEX
  8
PLAN_1
  6
CONTINUOUS
 10
1.738441
 20
-3.051748
  0
VERTEX
  8
PLAN_1
  6
CONTINUOUS
 10
1.744591
 20
-3.048878
  0
VERTEX
  8
PLAN_1
  6
CONTINUOUS
 10
1.751563
 20
-3.046827
  0
VERTEX
  8
PLAN_1
  6
CONTINUOUS
 10
1.758945
 20
-3.045185
  0
VERTEX
  8
PLAN_1
  6
CONTINUOUS
 10
1.767146
 20
-3.043957
  0
VERTEX
  8
PLAN_1
  6
CONTINUOUS
 10
1.775756
 20
-3.043957
  0
VERTEX
  8
PLAN_1
  6
CONTINUOUS
 10
1.781909
 20
-3.043957
  0
VERTEX
  8
PLAN_1
  6
CONTINUOUS
 10
1.788059
 20
-3.044366
  0
VERTEX
  8
PLAN_1
  6
CONTINUOUS
 10
1.793799
 20
-3.044776
  0
VERTEX
  8
PLAN_1
  6
CONTINUOUS
 10
1.799130
 20
-3.045598
  0
VERTEX
  8
PLAN_1
  6
CONTINUOUS
 10
1.804051
 20
-3.046417
  0
VERTEX
  8
PLAN_1
  6
CONTINUOUS
 10
1.808563
 20
-3.047646
  0
VERTEX
  8
PLAN_1
  6
CONTINUOUS
 10
1.813071
 20
-3.049287
  0
VERTEX
  8
PLAN_1
  6
CONTINUOUS
 10
1.817173
 20
-3.050520
  0
VERTEX
  8
PLAN_1
  6
CONTINUOUS
 10
1.820862
 20
-3.052157
  0
VERTEX
  8
PLAN_1
  6
CONTINUOUS
 10
1.824555
 20
-3.054209
  0
VERTEX
  8
PLAN_1
  6
CONTINUOUS
 10
1.827835
 20
-3.056260
  0
VERTEX
  8
PLAN_1
  6
CONTINUOUS
 10
1.830705
 20
-3.058307
  0
VERTEX
  8
PLAN_1
  6
CONTINUOUS
 10
1.833575
 20
-3.060358
  0
VERTEX
  8
PLAN_1
  6
CONTINUOUS
 10
1.836035
 20
-3.062409
  0
VERTEX
  8
PLAN_1
  6
CONTINUOUS
 10
1.838087
 20
-3.064870
  0
VERTEX
  8
PLAN_1
  6
CONTINUOUS
 10
1.840138
 20
-3.067331
  0
VERTEX
  8
PLAN_1
  6
CONTINUOUS
 10
1.843827
 20
-3.072252
  0
VERTEX
  8
PLAN_1
  6
CONTINUOUS
 10
1.846697
 20
-3.077583
  0
VERTEX
  8
PLAN_1
  6
CONTINUOUS
 10
1.849157
 20
-3.082913
  0
VERTEX
  8
PLAN_1
  6
CONTINUOUS
 10
1.850799
 20
-3.088244
  0
VERTEX
  8
PLAN_1
  6
CONTINUOUS
 10
1.852028
 20
-3.093165
  0
VERTEX
  8
PLAN_1
  6
CONTINUOUS
 10
1.852437
 20
-3.098496
  0
VERTEX
  8
PLAN_1
  6
CONTINUOUS
 10
1.853260
 20
-3.103008
  0
VERTEX
  8
PLAN_1
  6
CONTINUOUS
 10
1.853260
 20
-3.107516
  0
VERTEX
  8
PLAN_1
  6
CONTINUOUS
 10
1.828244
 20
-3.107516
  0
SEQEND
  8
0
  0
POLYLINE
  8
PLAN_1
  6
CONTINUOUS
 66
     1
 40
0.008201
 41
0.008201
  0
VERTEX
  8
PLAN_1
  6
CONTINUOUS
 10
-0.744087
 20
2.035094
  0
VERTEX
  8
PLAN_1
  6
CONTINUOUS
 10
-0.744087
 20
2.361508
  0
VERTEX
  8
PLAN_1
  6
CONTINUOUS
 10
-1.845520
 20
2.361508
  0
VERTEX
  8
PLAN_1
  6
CONTINUOUS
 10
-1.845520
 20
2.035094
  0
VERTEX
  8
PLAN_1
  6
CONTINUOUS
 10
-0.744087
 20
2.035094
  0
SEQEND
  8
0
  0
POLYLINE
  8
PLAN_1
  6
CONTINUOUS
 66
     1
 40
0.008201
 41
0.008201
  0
VERTEX
  8
PLAN_1
  6
CONTINUOUS
 10
-0.886787
 20
2.563260
  0
VERTEX
  8
PLAN_1
  6
CONTINUOUS
 10
-0.886787
 20
2.605087
  0
VERTEX
  8
PLAN_1
  6
CONTINUOUS
 10
-1.702815
 20
2.605087
  0
VERTEX
  8
PLAN_1
  6
CONTINUOUS
 10
-1.702815
 20
2.566130
  0
SEQEND
  8
0
  0
POLYLINE
  8
PLAN_1
  6
CONTINUOUS
 66
     1
 40
0.008201
 41
0.008201
  0
VERTEX
  8
PLAN_1
  6
CONTINUOUS
 10
-1.648276
 20
2.825701
  0
VERTEX
  8
PLAN_1
  6
CONTINUOUS
 10
-1.647457
 20
2.828161
  0
VERTEX
  8
PLAN_1
  6
CONTINUOUS
 10
-1.646228
 20
2.831031
  0
VERTEX
  8
PLAN_1
  6
CONTINUOUS
 10
-1.644996
 20
2.833079
  0
VERTEX
  8
PLAN_1
  6
CONTINUOUS
 10
-1.643358
 20
2.835539
  0
VERTEX
  8
PLAN_1
  6
CONTINUOUS
 10
-1.641717
 20
2.837591
  0
VERTEX
  8
PLAN_1
  6
CONTINUOUS
 10
-1.640075
 20
2.839642
  0
VERTEX
  8
PLAN_1
  6
CONTINUOUS
 10
-1.638028
 20
2.841283
  0
VERTEX
  8
PLAN_1
  6
CONTINUOUS
 10
-1.635976
 20
2.843331
  0
VERTEX
  8
PLAN_1
  6
CONTINUOUS
 10
-1.633516
 20
2.844563
  0
VERTEX
  8
PLAN_1
  6
CONTINUOUS
 10
-1.631055
 20
2.846201
  0
VERTEX
  8
PLAN_1
  6
CONTINUOUS
 10
-1.628594
 20
2.847024
  0
VERTEX
  8
PLAN_1
  6
CONTINUOUS
 10
-1.626134
 20
2.848252
  0
VERTEX
  8
PLAN_1
  6
CONTINUOUS
 10
-1.623673
 20
2.849075
  0
VERTEX
  8
PLAN_1
  6
CONTINUOUS
 10
-1.620803
 20
2.849484
  0
VERTEX
  8
PLAN_1
  6
CONTINUOUS
 10
-1.617933
 20
2.849894
  0
VERTEX
  8
PLAN_1
  6
CONTINUOUS
 10
-1.615063
 20
2.849894
  0
SEQEND
  8
0
  0
POLYLINE
  8
PLAN_1
  6
CONTINUOUS
 66
     1
 40
0.008201
 41
0.008201
  0
VERTEX
  8
PLAN_1
  6
CONTINUOUS
 10
-1.615063
 20
2.849894
  0
VERTEX
  8
PLAN_1
  6
CONTINUOUS
 10
-0.973720
 20
2.849894
  0
SEQEND
  8
0
  0
POLYLINE
  8
PLAN_1
  6
CONTINUOUS
 66
     1
 40
0.008201
 41
0.008201
  0
VERTEX
  8
PLAN_1
  6
CONTINUOUS
 10
-0.973720
 20
2.849894
  0
VERTEX
  8
PLAN_1
  6
CONTINUOUS
 10
-0.970031
 20
2.849894
  0
VERTEX
  8
PLAN_1
  6
CONTINUOUS
 10
-0.966343
 20
2.849075
  0
VERTEX
  8
PLAN_1
  6
CONTINUOUS
 10
-0.963059
 20
2.848252
  0
VERTEX
  8
PLAN_1
  6
CONTINUOUS
 10
-0.959780
 20
2.847433
  0
VERTEX
  8
PLAN_1
  6
CONTINUOUS
 10
-0.956909
 20
2.845791
  0
VERTEX
  8
PLAN_1
  6
CONTINUOUS
 10
-0.954039
 20
2.844154
  0
VERTEX
  8
PLAN_1
  6
CONTINUOUS
 10
-0.951169
 20
2.842102
  0
VERTEX
  8
PLAN_1
  6
CONTINUOUS
 10
-0.948709
 20
2.839642
  0
VERTEX
  8
PLAN_1
  6
CONTINUOUS
 10
-0.946657
 20
2.837181
  0
VERTEX
  8
PLAN_1
  6
CONTINUOUS
 10
-0.944606
 20
2.834720
  0
VERTEX
  8
PLAN_1
  6
CONTINUOUS
 10
-0.942969
 20
2.831850
  0
VERTEX
  8
PLAN_1
  6
CONTINUOUS
 10
-0.941327
 20
2.828571
  0
VERTEX
  8
PLAN_1
  6
CONTINUOUS
 10
-0.940098
 20
2.825287
  0
VERTEX
  8
PLAN_1
  6
CONTINUOUS
 10
-0.939276
 20
2.822008
  0
VERTEX
  8
PLAN_1
  6
CONTINUOUS
 10
-0.938866
 20
2.818728
  0
VERTEX
  8
PLAN_1
  6
CONTINUOUS
 10
-0.938457
 20
2.815039
  0
SEQEND
  8
0
  0
POLYLINE
  8
PLAN_1
  6
CONTINUOUS
 66
     1
 40
0.008201
 41
0.008201
  0
VERTEX
  8
PLAN_1
  6
CONTINUOUS
 10
-0.938457
 20
2.815039
  0
VERTEX
  8
PLAN_1
  6
CONTINUOUS
 10
-0.886787
 20
2.605496
  0
VERTEX
  8
PLAN_1
  6
CONTINUOUS
 10
-1.702815
 20
2.605496
  0
VERTEX
  8
PLAN_1
  6
CONTINUOUS
 10
-1.648276
 20
2.825701
  0
SEQEND
  8
0
  0
POLYLINE
  8
PLAN_1
  6
CONTINUOUS
 66
     1
 40
0.008201
 41
0.008201
  0
VERTEX
  8
PLAN_1
  6
CONTINUOUS
 10
-1.090591
 20
2.953638
  0
VERTEX
  8
PLAN_1
  6
CONTINUOUS
 10
-1.100024
 20
2.961429
  0
VERTEX
  8
PLAN_1
  6
CONTINUOUS
 10
-1.109862
 20
2.968811
  0
VERTEX
  8
PLAN_1
  6
CONTINUOUS
 10
-1.120524
 20
2.975783
  0
VERTEX
  8
PLAN_1
  6
CONTINUOUS
 10
-1.131598
 20
2.982752
  0
VERTEX
  8
PLAN_1
  6
CONTINUOUS
 10
-1.143079
 20
2.988906
  0
VERTEX
  8
PLAN_1
  6
CONTINUOUS
 10
-1.154969
 20
2.994646
  0
VERTEX
  8
PLAN_1
  6
CONTINUOUS
 10
-1.167272
 20
2.999976
  0
VERTEX
  8
PLAN_1
  6
CONTINUOUS
 10
-1.179984
 20
3.004898
  0
VERTEX
  8
PLAN_1
  6
CONTINUOUS
 10
-1.193106
 20
3.008996
  0
VERTEX
  8
PLAN_1
  6
CONTINUOUS
 10
-1.207047
 20
3.012689
  0
VERTEX
  8
PLAN_1
  6
CONTINUOUS
 10
-1.220992
 20
3.015969
  0
VERTEX
  8
PLAN_1
  6
CONTINUOUS
 10
-1.234933
 20
3.018839
  0
VERTEX
  8
PLAN_1
  6
CONTINUOUS
 10
-1.249697
 20
3.020890
  0
VERTEX
  8
PLAN_1
  6
CONTINUOUS
 10
-1.264457
 20
3.022531
  0
VERTEX
  8
PLAN_1
  6
CONTINUOUS
 10
-1.279630
 20
3.023350
  0
VERTEX
  8
PLAN_1
  6
CONTINUOUS
 10
-1.294803
 20
3.023760
  0
VERTEX
  8
PLAN_1
  6
CONTINUOUS
 10
-1.309976
 20
3.023350
  0
VERTEX
  8
PLAN_1
  6
CONTINUOUS
 10
-1.325146
 20
3.022531
  0
VERTEX
  8
PLAN_1
  6
CONTINUOUS
 10
-1.339909
 20
3.020890
  0
VERTEX
  8
PLAN_1
  6
CONTINUOUS
 10
-1.354673
 20
3.018839
  0
VERTEX
  8
PLAN_1
  6
CONTINUOUS
 10
-1.368614
 20
3.015969
  0
VERTEX
  8
PLAN_1
  6
CONTINUOUS
 10
-1.382555
 20
3.012689
  0
VERTEX
  8
PLAN_1
  6
CONTINUOUS
 10
-1.396500
 20
3.008996
  0
VERTEX
  8
PLAN_1
  6
CONTINUOUS
 10
-1.409622
 20
3.004898
  0
VERTEX
  8
PLAN_1
  6
CONTINUOUS
 10
-1.422331
 20
2.999976
  0
VERTEX
  8
PLAN_1
  6
CONTINUOUS
 10
-1.434634
 20
2.994646
  0
VERTEX
  8
PLAN_1
  6
CONTINUOUS
 10
-1.446528
 20
2.988906
  0
VERTEX
  8
PLAN_1
  6
CONTINUOUS
 10
-1.458008
 20
2.982343
  0
VERTEX
  8
PLAN_1
  6
CONTINUOUS
 10
-1.469079
 20
2.975783
  0
VERTEX
  8
PLAN_1
  6
CONTINUOUS
 10
-1.479740
 20
2.968811
  0
VERTEX
  8
PLAN_1
  6
CONTINUOUS
 10
-1.489583
 20
2.961429
  0
VERTEX
  8
PLAN_1
  6
CONTINUOUS
 10
-1.499016
 20
2.953228
  0
SEQEND
  8
0
  0
POLYLINE
  8
PLAN_1
  6
CONTINUOUS
 66
     1
 40
0.008201
 41
0.008201
  0
VERTEX
  8
PLAN_1
  6
CONTINUOUS
 10
-1.499016
 20
2.953228
  0
VERTEX
  8
PLAN_1
  6
CONTINUOUS
 10
-1.498602
 20
2.849894
  0
VERTEX
  8
PLAN_1
  6
CONTINUOUS
 10
-1.090591
 20
2.849894
  0
VERTEX
  8
PLAN_1
  6
CONTINUOUS
 10
-1.090591
 20
2.953638
  0
SEQEND
  8
0
  0
POLYLINE
  8
PLAN_1
  6
CONTINUOUS
 66
     1
 40
0.008201
 41
0.008201
  0
VERTEX
  8
PLAN_1
  6
CONTINUOUS
 10
-1.711429
 20
2.563669
  0
VERTEX
  8
PLAN_1
  6
CONTINUOUS
 10
-1.620803
 20
2.563669
  0
VERTEX
  8
PLAN_1
  6
CONTINUOUS
 10
-1.620803
 20
2.502571
  0
VERTEX
  8
PLAN_1
  6
CONTINUOUS
 10
-1.845106
 20
2.502571
  0
VERTEX
  8
PLAN_1
  6
CONTINUOUS
 10
-1.845106
 20
2.563669
  0
VERTEX
  8
PLAN_1
  6
CONTINUOUS
 10
-1.754484
 20
2.563669
  0
VERTEX
  8
PLAN_1
  6
CONTINUOUS
 10
-1.754075
 20
2.563260
  0
VERTEX
  8
PLAN_1
  6
CONTINUOUS
 10
-1.754075
 20
2.532094
  0
VERTEX
  8
PLAN_1
  6
CONTINUOUS
 10
-1.711429
 20
2.532094
  0
VERTEX
  8
PLAN_1
  6
CONTINUOUS
 10
-1.711429
 20
2.563260
  0
VERTEX
  8
PLAN_1
  6
CONTINUOUS
 10
-1.711429
 20
2.563669
  0
SEQEND
  8
0
  0
POLYLINE
  8
PLAN_1
  6
CONTINUOUS
 66
     1
 40
0.008201
 41
0.008201
  0
VERTEX
  8
PLAN_1
  6
CONTINUOUS
 10
-0.835122
 20
2.563669
  0
VERTEX
  8
PLAN_1
  6
CONTINUOUS
 10
-0.744496
 20
2.563669
  0
VERTEX
  8
PLAN_1
  6
CONTINUOUS
 10
-0.744496
 20
2.502571
  0
VERTEX
  8
PLAN_1
  6
CONTINUOUS
 10
-0.968803
 20
2.502571
  0
VERTEX
  8
PLAN_1
  6
CONTINUOUS
 10
-0.968803
 20
2.563669
  0
VERTEX
  8
PLAN_1
  6
CONTINUOUS
 10
-0.878177
 20
2.563669
  0
VERTEX
  8
PLAN_1
  6
CONTINUOUS
 10
-0.878177
 20
2.563260
  0
VERTEX
  8
PLAN_1
  6
CONTINUOUS
 10
-0.878177
 20
2.532094
  0
VERTEX
  8
PLAN_1
  6
CONTINUOUS
 10
-0.835122
 20
2.532094
  0
VERTEX
  8
PLAN_1
  6
CONTINUOUS
 10
-0.835122
 20
2.563260
  0
VERTEX
  8
PLAN_1
  6
CONTINUOUS
 10
-0.835122
 20
2.563669
  0
SEQEND
  8
0
  0
POLYLINE
  8
PLAN_1
  6
CONTINUOUS
 66
     1
 40
0.008201
 41
0.008201
  0
VERTEX
  8
PLAN_1
  6
CONTINUOUS
 10
-1.804921
 20
2.034685
  0
VERTEX
  8
PLAN_1
  6
CONTINUOUS
 10
-1.804512
 20
2.116697
  0
VERTEX
  8
PLAN_1
  6
CONTINUOUS
 10
-1.845520
 20
2.116697
  0
SEQEND
  8
0
  0
POLYLINE
  8
PLAN_1
  6
CONTINUOUS
 66
     1
 40
0.008201
 41
0.008201
  0
VERTEX
  8
PLAN_1
  6
CONTINUOUS
 10
-0.786323
 20
2.034685
  0
VERTEX
  8
PLAN_1
  6
CONTINUOUS
 10
-0.786323
 20
2.116697
  0
VERTEX
  8
PLAN_1
  6
CONTINUOUS
 10
-0.745315
 20
2.116697
  0
SEQEND
  8
0
  0
POLYLINE
  8
PLAN_1
  6
CONTINUOUS
 66
     1
 40
0.008201
 41
0.008201
  0
VERTEX
  8
PLAN_1
  6
CONTINUOUS
 10
-1.090591
 20
2.953638
  0
VERTEX
  8
PLAN_1
  6
CONTINUOUS
 10
-1.498602
 20
2.953638
  0
SEQEND
  8
0
  0
POLYLINE
  8
PLAN_1
  6
CONTINUOUS
 66
     1
 40
0.004098
 41
0.004098
  0
VERTEX
  8
PLAN_1
  6
CONTINUOUS
 10
-1.854949
 20
1.355618
  0
VERTEX
  8
PLAN_1
  6
CONTINUOUS
 10
-1.854949
 20
2.033047
  0
VERTEX
  8
PLAN_1
  6
CONTINUOUS
 10
-0.735476
 20
2.035094
  0
VERTEX
  8
PLAN_1
  6
CONTINUOUS
 10
-0.735476
 20
1.357669
  0
SEQEND
  8
0
  0
POLYLINE
  8
PLAN_1
  6
CONTINUOUS
 66
     1
 40
0.008201
 41
0.008201
  0
VERTEX
  8
PLAN_1
  6
CONTINUOUS
 10
-0.822000
 20
1.988350
  0
VERTEX
  8
PLAN_1
  6
CONTINUOUS
 10
-0.822000
 20
2.035094
  0
VERTEX
  8
PLAN_1
  6
CONTINUOUS
 10
-1.781547
 20
2.035094
  0
VERTEX
  8
PLAN_1
  6
CONTINUOUS
 10
-1.781547
 20
1.988350
  0
VERTEX
  8
PLAN_1
  6
CONTINUOUS
 10
-0.822000
 20
1.988350
  0
SEQEND
  8
0
  0
POLYLINE
  8
PLAN_1
  6
CONTINUOUS
 66
     1
 40
0.008201
 41
0.008201
  0
VERTEX
  8
PLAN_1
  6
CONTINUOUS
 10
-1.723728
 20
1.722217
  0
VERTEX
  8
PLAN_1
  6
CONTINUOUS
 10
-1.685185
 20
1.683669
  0
VERTEX
  8
PLAN_1
  6
CONTINUOUS
 10
-0.914264
 20
1.683669
  0
VERTEX
  8
PLAN_1
  6
CONTINUOUS
 10
-0.875717
 20
1.722217
  0
SEQEND
  8
0
  0
POLYLINE
  8
PLAN_1
  6
CONTINUOUS
 66
     1
 40
0.008201
 41
0.008201
  0
VERTEX
  8
PLAN_1
  6
CONTINUOUS
 10
-1.633925
 20
1.683669
  0
VERTEX
  8
PLAN_1
  6
CONTINUOUS
 10
-1.583898
 20
1.492173
  0
VERTEX
  8
PLAN_1
  6
CONTINUOUS
 10
-1.022929
 20
1.492173
  0
VERTEX
  8
PLAN_1
  6
CONTINUOUS
 10
-0.960189
 20
1.683669
  0
VERTEX
  8
PLAN_1
  6
CONTINUOUS
 10
-1.633925
 20
1.683669
  0
SEQEND
  8
0
  0
POLYLINE
  8
PLAN_1
  6
CONTINUOUS
 66
     1
 40
0.006969
 41
0.006969
  0
VERTEX
  8
PLAN_1
  6
CONTINUOUS
 10
-1.589228
 20
1.681213
  0
VERTEX
  8
PLAN_1
  6
CONTINUOUS
 10
-1.540429
 20
1.492173
  0
SEQEND
  8
0
  0
POLYLINE
  8
PLAN_1
  6
CONTINUOUS
 66
     1
 40
0.006969
 41
0.006969
  0
VERTEX
  8
PLAN_1
  6
CONTINUOUS
 10
-1.556835
 20
1.681213
  0
VERTEX
  8
PLAN_1
  6
CONTINUOUS
 10
-1.508445
 20
1.492173
  0
SEQEND
  8
0
  0
POLYLINE
  8
PLAN_1
  6
CONTINUOUS
 66
     1
 40
0.006969
 41
0.006969
  0
VERTEX
  8
PLAN_1
  6
CONTINUOUS
 10
-1.022929
 20
1.682850
  0
VERTEX
  8
PLAN_1
  6
CONTINUOUS
 10
-1.071728
 20
1.494220
  0
SEQEND
  8
0
  0
POLYLINE
  8
PLAN_1
  6
CONTINUOUS
 66
     1
 40
0.006969
 41
0.006969
  0
VERTEX
  8
PLAN_1
  6
CONTINUOUS
 10
-1.055327
 20
1.682850
  0
VERTEX
  8
PLAN_1
  6
CONTINUOUS
 10
-1.104122
 20
1.494220
  0
SEQEND
  8
0
  0
POLYLINE
  8
PLAN_1
  6
CONTINUOUS
 66
     1
 40
0.008201
 41
0.008201
  0
VERTEX
  8
PLAN_1
  6
CONTINUOUS
 10
-0.875717
 20
1.722217
  0
VERTEX
  8
PLAN_1
  6
CONTINUOUS
 10
-0.875717
 20
1.988350
  0
VERTEX
  8
PLAN_1
  6
CONTINUOUS
 10
-1.723728
 20
1.988350
  0
VERTEX
  8
PLAN_1
  6
CONTINUOUS
 10
-1.723728
 20
1.722217
  0
VERTEX
  8
PLAN_1
  6
CONTINUOUS
 10
-0.875717
 20
1.722217
  0
SEQEND
  8
0
  0
POLYLINE
  8
PLAN_1
  6
CONTINUOUS
 66
     1
 40
0.008201
 41
0.008201
  0
VERTEX
  8
PLAN_1
  6
CONTINUOUS
 10
-0.745728
 20
2.359047
  0
VERTEX
  8
PLAN_1
  6
CONTINUOUS
 10
-0.745728
 20
2.500520
  0
VERTEX
  8
PLAN_1
  6
CONTINUOUS
 10
-1.845106
 20
2.500520
  0
VERTEX
  8
PLAN_1
  6
CONTINUOUS
 10
-1.845106
 20
2.359047
  0
VERTEX
  8
PLAN_1
  6
CONTINUOUS
 10
-0.745728
 20
2.359047
  0
SEQEND
  8
0
  0
POLYLINE
  8
PLAN_1
 62
     2
  6
CONTINUOUS
 66
     1
 40
0.004098
 41
0.004098
  0
VERTEX
  8
PLAN_1
 62
     2
  6
CONTINUOUS
 10
-1.265280
 20
3.181224
  0
VERTEX
  8
PLAN_1
 62
     2
  6
CONTINUOUS
 10
-0.773201
 20
3.181224
  0
SEQEND
  8
0
  0
SOLID
  8
PLAN_1
 62
     2
 10
-0.743677
 20
3.181224
 11
-0.802724
 21
3.196807
 12
-0.743677
 22
3.181224
 13
-0.802724
 23
3.165642
  0
POLYLINE
  8
PLAN_1
 62
     2
  6
CONTINUOUS
 66
     1
 40
0.003000
 41
0.003000
  0
VERTEX
  8
PLAN_1
 62
     2
  6
CONTINUOUS
 10
-0.743677
 20
3.181224
  0
VERTEX
  8
PLAN_1
 62
     2
  6
CONTINUOUS
 10
-0.802724
 20
3.196807
  0
VERTEX
  8
PLAN_1
 62
     2
  6
CONTINUOUS
 10
-0.802724
 20
3.165642
  0
VERTEX
  8
PLAN_1
 62
     2
  6
CONTINUOUS
 10
-0.743677
 20
3.181224
  0
SEQEND
  8
0
  0
SOLID
  8
PLAN_1
 62
     2
 10
-1.294803
 20
3.181224
 11
-1.235752
 21
3.196807
 12
-1.294803
 22
3.181224
 13
-1.235752
 23
3.165642
  0
POLYLINE
  8
PLAN_1
 62
     2
  6
CONTINUOUS
 66
     1
 40
0.003000
 41
0.003000
  0
VERTEX
  8
PLAN_1
 62
     2
  6
CONTINUOUS
 10
-1.294803
 20
3.181224
  0
VERTEX
  8
PLAN_1
 62
     2
  6
CONTINUOUS
 10
-1.235752
 20
3.196807
  0
VERTEX
  8
PLAN_1
 62
     2
  6
CONTINUOUS
 10
-1.235752
 20
3.165642
  0
VERTEX
  8
PLAN_1
 62
     2
  6
CONTINUOUS
 10
-1.294803
 20
3.181224
  0
SEQEND
  8
0
  0
POLYLINE
  8
PLAN_1
 62
     2
  6
CONTINUOUS
 66
     1
 40
0.003000
 41
0.003000
  0
VERTEX
  8
PLAN_1
 62
     2
  6
CONTINUOUS
 10
-1.039744
 20
3.205008
  0
VERTEX
  8
PLAN_1
 62
     2
  6
CONTINUOUS
 10
-1.049583
 20
3.205008
  0
VERTEX
  8
PLAN_1
 62
     2
  6
CONTINUOUS
 10
-1.049583
 20
3.256677
  0
VERTEX
  8
PLAN_1
 62
     2
  6
CONTINUOUS
 10
-1.066807
 20
3.256677
  0
VERTEX
  8
PLAN_1
 62
     2
  6
CONTINUOUS
 10
-1.066807
 20
3.264059
  0
VERTEX
  8
PLAN_1
 62
     2
  6
CONTINUOUS
 10
-1.062705
 20
3.264469
  0
VERTEX
  8
PLAN_1
 62
     2
  6
CONTINUOUS
 10
-1.059016
 20
3.264878
  0
VERTEX
  8
PLAN_1
 62
     2
  6
CONTINUOUS
 10
-1.056146
 20
3.265697
  0
VERTEX
  8
PLAN_1
 62
     2
  6
CONTINUOUS
 10
-1.053276
 20
3.266929
  0
VERTEX
  8
PLAN_1
 62
     2
  6
CONTINUOUS
 10
-1.051224
 20
3.268567
  0
VERTEX
  8
PLAN_1
 62
     2
  6
CONTINUOUS
 10
-1.049583
 20
3.271028
  0
VERTEX
  8
PLAN_1
 62
     2
  6
CONTINUOUS
 10
-1.048354
 20
3.273898
  0
VERTEX
  8
PLAN_1
 62
     2
  6
CONTINUOUS
 10
-1.047122
 20
3.278000
  0
VERTEX
  8
PLAN_1
 62
     2
  6
CONTINUOUS
 10
-1.039744
 20
3.278000
  0
VERTEX
  8
PLAN_1
 62
     2
  6
CONTINUOUS
 10
-1.039744
 20
3.205008
  0
SEQEND
  8
0
  0
POLYLINE
  8
PLAN_1
 62
     2
  6
CONTINUOUS
 66
     1
 40
0.003000
 41
0.003000
  0
VERTEX
  8
PLAN_1
 62
     2
  6
CONTINUOUS
 10
-0.975362
 20
3.222642
  0
VERTEX
  8
PLAN_1
 62
     2
  6
CONTINUOUS
 10
-0.975362
 20
3.205008
  0
VERTEX
  8
PLAN_1
 62
     2
  6
CONTINUOUS
 10
-0.984795
 20
3.205008
  0
VERTEX
  8
PLAN_1
 62
     2
  6
CONTINUOUS
 10
-0.984795
 20
3.222642
  0
VERTEX
  8
PLAN_1
 62
     2
  6
CONTINUOUS
 10
-1.016780
 20
3.222642
  0
VERTEX
  8
PLAN_1
 62
     2
  6
CONTINUOUS
 10
-1.016780
 20
3.231661
  0
VERTEX
  8
PLAN_1
 62
     2
  6
CONTINUOUS
 10
-0.983154
 20
3.278000
  0
VERTEX
  8
PLAN_1
 62
     2
  6
CONTINUOUS
 10
-0.975362
 20
3.278000
  0
VERTEX
  8
PLAN_1
 62
     2
  6
CONTINUOUS
 10
-0.975362
 20
3.230433
  0
VERTEX
  8
PLAN_1
 62
     2
  6
CONTINUOUS
 10
-0.964701
 20
3.230433
  0
VERTEX
  8
PLAN_1
 62
     2
  6
CONTINUOUS
 10
-0.964701
 20
3.222642
  0
VERTEX
  8
PLAN_1
 62
     2
  6
CONTINUOUS
 10
-0.975362
 20
3.222642
  0
SEQEND
  8
0
  0
SOLID
  8
PLAN_1
 62
     2
 10
-1.008169
 20
3.230433
 11
-0.984795
 21
3.230433
 12
-1.008169
 22
3.230433
 13
-0.984795
 23
3.263650
  0
POLYLINE
  8
PLAN_1
 62
     2
  6
CONTINUOUS
 66
     1
 40
0.003000
 41
0.003000
  0
VERTEX
  8
PLAN_1
 62
     2
  6
CONTINUOUS
 10
-1.008169
 20
3.230433
  0
VERTEX
  8
PLAN_1
 62
     2
  6
CONTINUOUS
 10
-0.984795
 20
3.230433
  0
VERTEX
  8
PLAN_1
 62
     2
  6
CONTINUOUS
 10
-0.984795
 20
3.263650
  0
VERTEX
  8
PLAN_1
 62
     2
  6
CONTINUOUS
 10
-1.008169
 20
3.230433
  0
SEQEND
  8
0
  0
POLYLINE
  8
PLAN_1
 62
     2
  6
CONTINUOUS
 66
     1
 40
0.004098
 41
0.004098
  0
VERTEX
  8
PLAN_1
 62
     2
  6
CONTINUOUS
 10
-1.294803
 20
3.047543
  0
VERTEX
  8
PLAN_1
 62
     2
  6
CONTINUOUS
 10
-1.294803
 20
3.205008
  0
SEQEND
  8
0
  0
POLYLINE
  8
PLAN_1
 62
     2
  6
CONTINUOUS
 66
     1
 40
0.004098
 41
0.004098
  0
VERTEX
  8
PLAN_1
 62
     2
  6
CONTINUOUS
 10
-0.743677
 20
2.587453
  0
VERTEX
  8
PLAN_1
 62
     2
  6
CONTINUOUS
 10
-0.743677
 20
3.205008
  0
SEQEND
  8
0
  0
ENDSEC
  0
EOF
