  0
SECTION
  2
HEADER
  9
$ACADVER
  1
AC1018
  9
$ACADMAINTVER
 70
    77
  9
$DWGCODEPAGE
  3
ANSI_1252
  9
$INSBASE
 10
0.0
 20
0.0
 30
0.0
  9
$EXTMIN
 10
75.16391816613715
 20
94.28459979912327
 30
-0.0000000000000246
  9
$EXTMAX
 10
91.16392027389412
 20
122.7845998736291
 30
0.0000000000000246
  9
$LIMMIN
 10
0.0
 20
0.0
  9
$LIMMAX
 10
420.0
 20
297.0
  9
$ORTHOMODE
 70
     0
  9
$REGENMODE
 70
     1
  9
$FILLMODE
 70
     1
  9
$QTEXTMODE
 70
     0
  9
$MIRRTEXT
 70
     1
  9
$LTSCALE
 40
1.0
  9
$ATTMODE
 70
     1
  9
$TEXTSIZE
 40
2.5
  9
$TRACEWID
 40
1.0
  9
$TEXTSTYLE
  7
Standard
  9
$CLAYER
  8
0
  9
$CELTYPE
  6
ByLayer
  9
$CECOLOR
 62
   256
  9
$CELTSCALE
 40
1.0
  9
$DISPSILH
 70
     0
  9
$DIMSCALE
 40
1.0
  9
$DIMASZ
 40
6.0
  9
$DIMEXO
 40
1.0
  9
$DIMDLI
 40
3.75
  9
$DIMRND
 40
0.0
  9
$DIMDLE
 40
0.0
  9
$DIMEXE
 40
1.0
  9
$DIMTP
 40
0.0
  9
$DIMTM
 40
0.0
  9
$DIMTXT
 40
3.5
  9
$DIMCEN
 40
2.5
  9
$DIMTSZ
 40
0.0
  9
$DIMTOL
 70
     0
  9
$DIMLIM
 70
     0
  9
$DIMTIH
 70
     1
  9
$DIMTOH
 70
     1
  9
$DIMSE1
 70
     0
  9
$DIMSE2
 70
     0
  9
$DIMTAD
 70
     1
  9
$DIMZIN
 70
     0
  9
$DIMBLK
  1

  9
$DIMASO
 70
     1
  9
$DIMSHO
 70
     1
  9
$DIMPOST
  1

  9
$DIMAPOST
  1

  9
$DIMALT
 70
     0
  9
$DIMALTD
 70
     3
  9
$DIMALTF
 40
0.0394
  9
$DIMLFAC
 40
1.0
  9
$DIMTOFL
 70
     1
  9
$DIMTVP
 40
0.0
  9
$DIMTIX
 70
     0
  9
$DIMSOXD
 70
     0
  9
$DIMSAH
 70
     0
  9
$DIMBLK1
  1

  9
$DIMBLK2
  1

  9
$DIMSTYLE
  2
ISO-25
  9
$DIMCLRD
 70
     0
  9
$DIMCLRE
 70
     0
  9
$DIMCLRT
 70
     0
  9
$DIMTFAC
 40
1.0
  9
$DIMGAP
 40
1.524
  9
$DIMJUST
 70
     0
  9
$DIMSD1
 70
     0
  9
$DIMSD2
 70
     0
  9
$DIMTOLJ
 70
     0
  9
$DIMTZIN
 70
     0
  9
$DIMALTZ
 70
     0
  9
$DIMALTTZ
 70
     0
  9
$DIMUPT
 70
     0
  9
$DIMDEC
 70
     2
  9
$DIMTDEC
 70
     2
  9
$DIMALTU
 70
     2
  9
$DIMALTTD
 70
     3
  9
$DIMTXSTY
  7
Standard
  9
$DIMAUNIT
 70
     0
  9
$DIMADEC
 70
     0
  9
$DIMALTRND
 40
0.0
  9
$DIMAZIN
 70
     0
  9
$DIMDSEP
 70
    44
  9
$DIMATFIT
 70
     3
  9
$DIMFRAC
 70
     0
  9
$DIMLDRBLK
  1

  9
$DIMLUNIT
 70
     2
  9
$DIMLWD
 70
    -2
  9
$DIMLWE
 70
    -2
  9
$DIMTMOVE
 70
     0
  9
$LUNITS
 70
     2
  9
$LUPREC
 70
     2
  9
$SKETCHINC
 40
1.0
  9
$FILLETRAD
 40
10.0
  9
$AUNITS
 70
     0
  9
$AUPREC
 70
     0
  9
$MENU
  1
.
  9
$ELEVATION
 40
0.0
  9
$PELEVATION
 40
0.0
  9
$THICKNESS
 40
0.0
  9
$LIMCHECK
 70
     0
  9
$CHAMFERA
 40
10.0
  9
$CHAMFERB
 40
10.0
  9
$CHAMFERC
 40
20.0
  9
$CHAMFERD
 40
0.0
  9
$SKPOLY
 70
     0
  9
$TDCREATE
 40
2454502.631635370
  9
$TDUCREATE
 40
2454502.589968704
  9
$TDUPDATE
 40
2454515.433168217
  9
$TDUUPDATE
 40
2454515.391501551
  9
$TDINDWG
 40
0.0015100810
  9
$TDUSRTIMER
 40
0.0015100810
  9
$USRTIMER
 70
     1
  9
$ANGBASE
 50
0.0
  9
$ANGDIR
 70
     0
  9
$PDMODE
 70
     0
  9
$PDSIZE
 40
-1.0
  9
$PLINEWID
 40
0.0
  9
$SPLFRAME
 70
     0
  9
$SPLINETYPE
 70
     6
  9
$SPLINESEGS
 70
     8
  9
$HANDSEED
  5
66B
  9
$SURFTAB1
 70
     6
  9
$SURFTAB2
 70
     6
  9
$SURFTYPE
 70
     6
  9
$SURFU
 70
     6
  9
$SURFV
 70
     6
  9
$UCSBASE
  2

  9
$UCSNAME
  2

  9
$UCSORG
 10
0.0
 20
0.0
 30
0.0
  9
$UCSXDIR
 10
1.0
 20
0.0
 30
0.0
  9
$UCSYDIR
 10
0.0
 20
1.0
 30
0.0
  9
$UCSORTHOREF
  2

  9
$UCSORTHOVIEW
 70
     0
  9
$UCSORGTOP
 10
0.0
 20
0.0
 30
0.0
  9
$UCSORGBOTTOM
 10
0.0
 20
0.0
 30
0.0
  9
$UCSORGLEFT
 10
0.0
 20
0.0
 30
0.0
  9
$UCSORGRIGHT
 10
0.0
 20
0.0
 30
0.0
  9
$UCSORGFRONT
 10
0.0
 20
0.0
 30
0.0
  9
$UCSORGBACK
 10
0.0
 20
0.0
 30
0.0
  9
$PUCSBASE
  2

  9
$PUCSNAME
  2

  9
$PUCSORG
 10
0.0
 20
0.0
 30
0.0
  9
$PUCSXDIR
 10
1.0
 20
0.0
 30
0.0
  9
$PUCSYDIR
 10
0.0
 20
1.0
 30
0.0
  9
$PUCSORTHOREF
  2

  9
$PUCSORTHOVIEW
 70
     0
  9
$PUCSORGTOP
 10
0.0
 20
0.0
 30
0.0
  9
$PUCSORGBOTTOM
 10
0.0
 20
0.0
 30
0.0
  9
$PUCSORGLEFT
 10
0.0
 20
0.0
 30
0.0
  9
$PUCSORGRIGHT
 10
0.0
 20
0.0
 30
0.0
  9
$PUCSORGFRONT
 10
0.0
 20
0.0
 30
0.0
  9
$PUCSORGBACK
 10
0.0
 20
0.0
 30
0.0
  9
$USERI1
 70
     0
  9
$USERI2
 70
     0
  9
$USERI3
 70
     0
  9
$USERI4
 70
     0
  9
$USERI5
 70
     0
  9
$USERR1
 40
0.0
  9
$USERR2
 40
0.0
  9
$USERR3
 40
0.0
  9
$USERR4
 40
0.0
  9
$USERR5
 40
0.0
  9
$WORLDVIEW
 70
     1
  9
$SHADEDGE
 70
     3
  9
$SHADEDIF
 70
    70
  9
$TILEMODE
 70
     1
  9
$MAXACTVP
 70
    64
  9
$PINSBASE
 10
0.0
 20
0.0
 30
0.0
  9
$PLIMCHECK
 70
     0
  9
$PEXTMIN
 10
1.000000000000000E+20
 20
1.000000000000000E+20
 30
1.000000000000000E+20
  9
$PEXTMAX
 10
-1.000000000000000E+20
 20
-1.000000000000000E+20
 30
-1.000000000000000E+20
  9
$PLIMMIN
 10
0.0
 20
0.0
  9
$PLIMMAX
 10
420.0
 20
297.0
  9
$UNITMODE
 70
     0
  9
$VISRETAIN
 70
     1
  9
$PLINEGEN
 70
     0
  9
$PSLTSCALE
 70
     1
  9
$TREEDEPTH
 70
  3020
  9
$CMLSTYLE
  2
Standard
  9
$CMLJUST
 70
     0
  9
$CMLSCALE
 40
20.0
  9
$PROXYGRAPHICS
 70
     1
  9
$MEASUREMENT
 70
     1
  9
$CELWEIGHT
370
    -1
  9
$ENDCAPS
280
     0
  9
$JOINSTYLE
280
     0
  9
$LWDISPLAY
290
     1
  9
$INSUNITS
 70
     4
  9
$HYPERLINKBASE
  1

  9
$STYLESHEET
  1

  9
$XEDIT
290
     1
  9
$CEPSNTYPE
380
     0
  9
$PSTYLEMODE
290
     1
  9
$FINGERPRINTGUID
  2
{FB285621-A601-4E69-83A2-9B3AB370AB16}
  9
$VERSIONGUID
  2
{945F6ADD-34A4-468B-95F8-B3A6D346AF3A}
  9
$EXTNAMES
290
     1
  9
$PSVPSCALE
 40
0.0
  9
$OLESTARTUP
290
     0
  9
$SORTENTS
280
   127
  9
$INDEXCTL
280
     0
  9
$HIDETEXT
280
     0
  9
$XCLIPFRAME
290
     0
  9
$HALOGAP
280
     0
  9
$OBSCOLOR
 70
   257
  9
$OBSLTYPE
280
     0
  9
$INTERSECTIONDISPLAY
280
     0
  9
$INTERSECTIONCOLOR
 70
   257
  9
$DIMASSOC
280
     1
  9
$PROJECTNAME
  1

  0
ENDSEC
  0
SECTION
  2
CLASSES
  0
CLASS
  1
ACDBDICTIONARYWDFLT
  2
AcDbDictionaryWithDefault
  3
ObjectDBX Classes
 90
        0
 91
        1
280
     0
281
     0
  0
CLASS
  1
TABLESTYLE
  2
AcDbTableStyle
  3
ObjectDBX Classes
 90
     2047
 91
        1
280
     0
281
     0
  0
CLASS
  1
DICTIONARYVAR
  2
AcDbDictionaryVar
  3
ObjectDBX Classes
 90
        0
 91
        1
280
     0
281
     0
  0
ENDSEC
  0
SECTION
  2
TABLES
  0
TABLE
  2
VPORT
  5
8
330
0
100
AcDbSymbolTable
 70
     2
  0
VPORT
  5
66A
330
8
100
AcDbSymbolTableRecord
100
AcDbViewportTableRecord
  2
*Active
 70
     0
 10
0.0
 20
0.0
 11
1.0
 21
1.0
 12
-57.98594503625519
 22
-0.3155091630200069
 13
0.0
 23
0.0
 14
10.0
 24
10.0
 15
10.0
 25
10.0
 16
0.0
 26
0.0
 36
1.0
 17
142.9456957125343
 27
108.9595727604956
 37
0.0
 40
32.31347064308233
 41
1.632538569424965
 42
50.0
 43
0.0
 44
0.0
 50
0.0
 51
0.0
 71
     0
 72
  2000
 73
     1
 74
     3
 75
     0
 76
     0
 77
     0
 78
     0
281
     0
 65
     1
110
0.0
120
0.0
130
0.0
111
1.0
121
0.0
131
0.0
112
0.0
122
1.0
132
0.0
 79
     0
146
0.0
  0
ENDTAB
  0
TABLE
  2
LTYPE
  5
5
330
0
100
AcDbSymbolTable
 70
     6
  0
LTYPE
  5
14
330
5
100
AcDbSymbolTableRecord
100
AcDbLinetypeTableRecord
  2
ByBlock
 70
     0
  3

 72
    65
 73
     0
 40
0.0
  0
LTYPE
  5
15
330
5
100
AcDbSymbolTableRecord
100
AcDbLinetypeTableRecord
  2
ByLayer
 70
     0
  3

 72
    65
 73
     0
 40
0.0
  0
LTYPE
  5
16
330
5
100
AcDbSymbolTableRecord
100
AcDbLinetypeTableRecord
  2
Continuous
 70
     0
  3
Solid line
 72
    65
 73
     0
 40
0.0
  0
LTYPE
  5
2A
330
5
100
AcDbSymbolTableRecord
100
AcDbLinetypeTableRecord
  2
HIDDEN
 70
     0
  3
Hidden __ __ __ __ __ __ __ __ __ __ __ __ __ __
 72
    65
 73
     2
 40
1.905
 49
1.27
 74
     0
 49
-0.635
 74
     0
  0
LTYPE
  5
2B
330
5
100
AcDbSymbolTableRecord
100
AcDbLinetypeTableRecord
  2
PHANTOM
 70
     0
  3
Phantom ______  __  __  ______  __  __  ______
 72
    65
 73
     6
 40
12.7
 49
6.349999999999999
 74
     0
 49
-1.27
 74
     0
 49
1.27
 74
     0
 49
-1.27
 74
     0
 49
1.27
 74
     0
 49
-1.27
 74
     0
  0
LTYPE
  5
2C
330
5
100
AcDbSymbolTableRecord
100
AcDbLinetypeTableRecord
  2
CENTER
 70
     0
  3
Center ____ _ ____ _ ____ _ ____ _ ____ _ ____
 72
    65
 73
     4
 40
10.16
 49
6.349999999999999
 74
     0
 49
-1.27
 74
     0
 49
1.27
 74
     0
 49
-1.27
 74
     0
  0
LTYPE
  5
2D
330
5
100
AcDbSymbolTableRecord
100
AcDbLinetypeTableRecord
  2
CENTERX2
 70
     0
  3
Center (2x) ________  __  ________  __  _____
 72
    65
 73
     4
 40
20.32
 49
12.7
 74
     0
 49
-2.54
 74
     0
 49
2.54
 74
     0
 49
-2.54
 74
     0
  0
LTYPE
  5
2E
330
5
100
AcDbSymbolTableRecord
100
AcDbLinetypeTableRecord
  2
DOT2
 70
     0
  3
Dot (.5x) ........................................
 72
    65
 73
     2
 40
0.635
 49
0.0
 74
     0
 49
-0.635
 74
     0
  0
ENDTAB
  0
TABLE
  2
LAYER
  5
2
330
0
100
AcDbSymbolTable
 70
     2
  0
LAYER
  5
10
330
2
100
AcDbSymbolTableRecord
100
AcDbLayerTableRecord
  2
0
 70
     0
 62
     7
  6
Continuous
370
    -3
390
F
  0
LAYER
  5
2F
330
2
100
AcDbSymbolTableRecord
100
AcDbLayerTableRecord
  2
FORMAT
 70
     0
 62
     7
  6
Continuous
370
     0
390
F
  0
ENDTAB
  0
TABLE
  2
STYLE
  5
3
330
0
100
AcDbSymbolTable
 70
     1
  0
STYLE
  5
11
330
3
100
AcDbSymbolTableRecord
100
AcDbTextStyleTableRecord
  2
Standard
 70
     0
 40
0.0
 41
1.0
 50
0.0
 71
     0
 42
2.5
  3
txt
  4

  0
ENDTAB
  0
TABLE
  2
VIEW
  5
6
330
0
100
AcDbSymbolTable
 70
     0
  0
ENDTAB
  0
TABLE
  2
UCS
  5
7
330
0
100
AcDbSymbolTable
 70
     0
  0
ENDTAB
  0
TABLE
  2
APPID
  5
9
330
0
100
AcDbSymbolTable
 70
     1
  0
APPID
  5
12
330
9
100
AcDbSymbolTableRecord
100
AcDbRegAppTableRecord
  2
ACAD
 70
     0
  0
ENDTAB
  0
TABLE
  2
DIMSTYLE
  5
A
330
0
100
AcDbSymbolTable
 70
     1
100
AcDbDimStyleTable
 71
     0
  0
DIMSTYLE
105
27
330
A
100
AcDbSymbolTableRecord
100
AcDbDimStyleTableRecord
  2
ISO-25
 70
     0
 41
2.5
 42
0.625
 43
3.75
 44
1.25
 73
     0
 74
     0
 77
     1
 78
     8
140
2.5
141
2.5
143
0.03937007874016
147
0.625
171
     3
172
     1
271
     2
272
     2
274
     3
278
    44
283
     0
284
     8
340
11
  0
ENDTAB
  0
TABLE
  2
BLOCK_RECORD
  5
1
330
0
100
AcDbSymbolTable
 70
     1
  0
BLOCK_RECORD
  5
1F
330
1
100
AcDbSymbolTableRecord
100
AcDbBlockTableRecord
  2
*Model_Space
340
22
  0
BLOCK_RECORD
  5
1B
330
1
100
AcDbSymbolTableRecord
100
AcDbBlockTableRecord
  2
*Paper_Space
340
1E
  0
BLOCK_RECORD
  5
23
330
1
100
AcDbSymbolTableRecord
100
AcDbBlockTableRecord
  2
*Paper_Space0
340
26
  0
ENDTAB
  0
ENDSEC
  0
SECTION
  2
BLOCKS
  0
BLOCK
  5
20
330
1F
100
AcDbEntity
  8
0
100
AcDbBlockBegin
  2
*Model_Space
 70
     0
 10
0.0
 20
0.0
 30
0.0
  3
*Model_Space
  1

  0
ENDBLK
  5
21
330
1F
100
AcDbEntity
  8
0
100
AcDbBlockEnd
  0
BLOCK
  5
1C
330
1B
100
AcDbEntity
 67
     1
  8
0
100
AcDbBlockBegin
  2
*Paper_Space
 70
     0
 10
0.0
 20
0.0
 30
0.0
  3
*Paper_Space
  1

  0
ENDBLK
  5
1D
330
1B
100
AcDbEntity
 67
     1
  8
0
100
AcDbBlockEnd
  0
BLOCK
  5
24
330
23
100
AcDbEntity
 67
     1
  8
0
100
AcDbBlockBegin
  2
*Paper_Space0
 70
     0
 10
0.0
 20
0.0
 30
0.0
  3
*Paper_Space0
  1

  0
ENDBLK
  5
25
330
23
100
AcDbEntity
 67
     1
  8
0
100
AcDbBlockEnd
  0
ENDSEC
  0
SECTION
  2
ENTITIES
  0
ARC
  5
21C
330
1F
100
AcDbEntity
  8
0
  6
Continuous
 62
     7
370
    15
100
AcDbCircle
 10
89.16391898997183
 20
99.0845998736291
 30
0.0
 40
0.5000000000000142
100
AcDbArc
 50
270.0000000000008
 51
90.0
  0
ARC
  5
21D
330
1F
100
AcDbEntity
  8
0
  6
Continuous
 62
     7
370
    15
100
AcDbCircle
 10
77.16391898997182
 20
99.0845998736291
 30
0.0
 40
0.5000000000000142
100
AcDbArc
 50
90.0
 51
270.0000000000008
  0
LINE
  5
21E
330
1F
100
AcDbEntity
  8
0
  6
Continuous
 62
     7
370
    15
100
AcDbLine
 10
77.16391893781777
 20
98.58459994515465
 30
0.0
 11
89.1639190421259
 21
98.58459994515465
 31
0.0
  0
LINE
  5
21F
330
1F
100
AcDbEntity
  8
0
  6
Continuous
 62
     7
370
    15
100
AcDbLine
 10
89.1639190421259
 20
99.58460010906742
 30
0.0
 11
77.16391893781777
 21
99.58460010906742
 31
0.0
  0
LINE
  5
220
330
1F
100
AcDbEntity
  8
0
  6
Continuous
 62
     7
370
    15
100
AcDbLine
 10
81.6889189344649
 20
107.9845998095541
 30
0.0
 11
84.63891904547855
 21
107.9845998095541
 31
0.0
  0
LINE
  5
221
330
1F
100
AcDbEntity
  8
0
  6
Continuous
 62
     7
370
    15
100
AcDbLine
 10
84.63891904547855
 20
119.5845996620326
 30
0.0
 11
81.6889189344649
 21
119.5845996620326
 31
0.0
  0
LINE
  5
222
330
1F
100
AcDbEntity
  8
0
  6
Continuous
 62
     7
370
    15
100
AcDbLine
 10
81.6889189344649
 20
119.5845996620326
 30
0.0
 11
81.48891904138073
 21
119.384600001779
 31
0.0
  0
LINE
  5
223
330
1F
100
AcDbEntity
  8
0
  6
Continuous
 62
     7
370
    15
100
AcDbLine
 10
81.48891904138073
 20
108.1845999354689
 30
0.0
 11
81.6889189344649
 21
107.9845998095541
 31
0.0
  0
LINE
  5
224
330
1F
100
AcDbEntity
  8
0
  6
Continuous
 62
     7
370
    15
100
AcDbLine
 10
84.63891904547855
 20
107.9845998095541
 30
0.0
 11
84.83891893856272
 21
108.1845999354689
 31
0.0
  0
LINE
  5
225
330
1F
100
AcDbEntity
  8
0
  6
Continuous
 62
     7
370
    15
100
AcDbLine
 10
84.83891893856272
 20
119.384600001779
 30
0.0
 11
84.63891904547855
 21
119.5845996620326
 31
0.0
  0
LINE
  5
226
330
1F
100
AcDbEntity
  8
0
  6
Continuous
 62
     7
370
    15
100
AcDbLine
 10
84.91391904398843
 20
115.1845999187051
 30
0.0
 11
84.83891893856272
 21
115.1845999187051
 31
0.0
  0
LINE
  5
227
330
1F
100
AcDbEntity
  8
0
  6
Continuous
 62
     7
370
    15
100
AcDbLine
 10
81.48891904138073
 20
115.1845999187051
 30
0.0
 11
81.41391893595502
 21
115.1845999187051
 31
0.0
  0
LINE
  5
228
330
1F
100
AcDbEntity
  8
0
  6
Continuous
 62
     7
370
    15
100
AcDbLine
 10
81.41391893595502
 20
112.3845999021275
 30
0.0
 11
81.48891904138073
 21
112.3845999021275
 31
0.0
  0
LINE
  5
229
330
1F
100
AcDbEntity
  8
0
  6
Continuous
 62
     7
370
    15
100
AcDbLine
 10
84.83891893856272
 20
112.3845999021275
 30
0.0
 11
84.91391904398843
 21
112.3845999021275
 31
0.0
  0
LINE
  5
22A
330
1F
100
AcDbEntity
  8
0
  6
Continuous
 62
     7
370
    15
100
AcDbLine
 10
75.16391860999222
 20
110.1689585842384
 30
0.0
 11
75.16391860999222
 21
104.2846000412671
 31
0.0
  0
LINE
  5
22B
330
1F
100
AcDbEntity
  8
0
  6
Continuous
 62
     7
370
    15
100
AcDbLine
 10
91.16391936995144
 20
104.2846000412671
 30
0.0
 11
91.16391936995144
 21
110.1688666161342
 31
0.0
  0
LINE
  5
22C
330
1F
100
AcDbEntity
  8
0
  6
Continuous
 62
     7
370
    15
100
AcDbLine
 10
76.46391919560786
 20
102.2846001791029
 30
0.0
 11
76.46391919560786
 21
102.1345995025901
 31
0.0
  0
LINE
  5
22D
330
1F
100
AcDbEntity
  8
0
  6
Continuous
 62
     7
370
    15
100
AcDbLine
 10
89.86391878433581
 20
102.1345995025901
 30
0.0
 11
89.86391878433581
 21
102.2846001791029
 31
0.0
  0
LINE
  5
22E
330
1F
100
AcDbEntity
  8
0
  6
Continuous
 62
     7
370
    15
100
AcDbLine
 10
76.81391906671281
 20
100.8345998482971
 30
0.0
 11
76.81391906671281
 21
99.68459993919418
 31
0.0
  0
LINE
  5
22F
330
1F
100
AcDbEntity
  8
0
  6
Continuous
 62
     7
370
    15
100
AcDbLine
 10
89.51391891323085
 20
99.68459993919418
 30
0.0
 11
89.51391891323085
 21
100.8345998482971
 31
0.0
  0
LINE
  5
230
330
1F
100
AcDbEntity
  8
0
  6
Continuous
 62
     7
370
    15
100
AcDbLine
 10
76.81391906671281
 20
98.48460011502789
 30
0.0
 11
76.81391906671281
 21
97.88460020294474
 31
0.0
  0
LINE
  5
231
330
1F
100
AcDbEntity
  8
0
  6
Continuous
 62
     7
370
    15
100
AcDbLine
 10
89.51391891323085
 20
97.88460020294474
 30
0.0
 11
89.51391891323085
 21
98.48460011502789
 31
0.0
  0
ARC
  5
232
330
1F
100
AcDbEntity
  8
0
  6
Continuous
 62
     7
370
    15
100
AcDbCircle
 10
77.31391898997184
 20
98.73459987362908
 30
0.0
 40
0.25
100
AcDbArc
 50
270.0000000000008
 51
323.1301023541524
  0
ARC
  5
233
330
1F
100
AcDbEntity
  8
0
  6
Continuous
 62
     7
370
    15
100
AcDbCircle
 10
89.01391898997182
 20
98.73459987362908
 30
0.0
 40
0.25
100
AcDbArc
 50
216.8698976458492
 51
270.0000000000008
  0
ARC
  5
234
330
1F
100
AcDbEntity
  8
0
  6
Continuous
 62
     7
370
    15
100
AcDbCircle
 10
77.31391898997184
 20
99.43459987362906
 30
0.0
 40
0.2500000000000028
100
AcDbArc
 50
36.86989764584923
 51
90.0
  0
ARC
  5
235
330
1F
100
AcDbEntity
  8
0
  6
Continuous
 62
     7
370
    15
100
AcDbCircle
 10
89.01391898997182
 20
99.43459987362906
 30
0.0
 40
0.2500000000000028
100
AcDbArc
 50
90.0
 51
143.1301023541507
  0
ARC
  5
236
330
1F
100
AcDbEntity
  8
0
  6
Continuous
 62
     7
370
    15
100
AcDbCircle
 10
77.66391898997182
 20
94.53459987362906
 30
0.0
 40
0.25
100
AcDbArc
 50
232.9063395531188
 51
270.0000000000008
  0
ARC
  5
237
330
1F
100
AcDbEntity
  8
0
  6
Continuous
 62
     7
370
    15
100
AcDbCircle
 10
88.66391898997184
 20
94.53459987362908
 30
0.0
 40
0.2500000000000099
100
AcDbArc
 50
270.0000000000008
 51
307.1003978256583
  0
LINE
  5
238
330
1F
100
AcDbEntity
  8
0
  6
Continuous
 62
     7
370
    15
100
AcDbLine
 10
77.66391901977415
 20
102.1345995025901
 30
0.0
 11
77.66391901977415
 21
100.8345998482971
 31
0.0
  0
LINE
  5
239
330
1F
100
AcDbEntity
  8
0
  6
Continuous
 62
     7
370
    15
100
AcDbLine
 10
88.66391896016951
 20
100.8345998482971
 30
0.0
 11
88.66391896016951
 21
102.1345995025901
 31
0.0
  0
LINE
  5
23A
330
1F
100
AcDbEntity
  8
0
  6
Continuous
 62
     7
370
    15
100
AcDbLine
 10
81.41391893595512
 20
99.68459993919418
 30
0.0
 11
81.41391893595512
 21
99.63815581372069
 31
0.0
  0
LINE
  5
23B
330
1F
100
AcDbEntity
  8
0
  6
Continuous
 62
     7
370
    15
100
AcDbLine
 10
80.66391904585117
 20
96.68459944745587
 30
0.0
 11
80.66391904585117
 21
96.18460029682205
 31
0.0
  0
LINE
  5
23C
330
1F
100
AcDbEntity
  8
0
  6
Continuous
 62
     7
370
    15
100
AcDbLine
 10
80.66391904585117
 20
96.68459944745587
 30
0.0
 11
85.66391893409246
 21
96.68459944745587
 31
0.0
  0
LINE
  5
23D
330
1F
100
AcDbEntity
  8
0
  6
Continuous
 62
     7
370
    15
100
AcDbLine
 10
85.66391893409246
 20
96.18460029682205
 30
0.0
 11
85.66391893409246
 21
96.68459944745587
 31
0.0
  0
LINE
  5
23E
330
1F
100
AcDbEntity
  8
0
  6
Continuous
 62
     7
370
    15
100
AcDbLine
 10
80.66391904585117
 20
97.68459961136864
 30
0.0
 11
80.66391904585117
 21
96.68459944745587
 31
0.0
  0
LINE
  5
23F
330
1F
100
AcDbEntity
  8
0
  6
Continuous
 62
     7
370
    15
100
AcDbLine
 10
80.66391904585117
 20
97.68459961136864
 30
0.0
 11
85.66391893409246
 21
97.68459961136864
 31
0.0
  0
LINE
  5
240
330
1F
100
AcDbEntity
  8
0
  6
Continuous
 62
     7
370
    15
100
AcDbLine
 10
85.66391893409246
 20
96.68459944745587
 30
0.0
 11
85.66391893409246
 21
97.68459961136864
 31
0.0
  0
LINE
  5
241
330
1F
100
AcDbEntity
  8
0
  6
Continuous
 62
     7
370
    15
100
AcDbLine
 10
85.66391893409246
 20
97.68459961136864
 30
0.0
 11
85.66391893409246
 21
97.88460020294474
 31
0.0
  0
LINE
  5
242
330
1F
100
AcDbEntity
  8
0
  6
Continuous
 62
     7
370
    15
100
AcDbLine
 10
80.66391904585117
 20
97.83460028788136
 30
0.0
 11
80.66391904585117
 21
97.68459961136864
 31
0.0
  0
LINE
  5
243
330
1F
100
AcDbEntity
  8
0
  6
Continuous
 62
     7
370
    15
100
AcDbLine
 10
80.65930294551009
 20
97.88460020294474
 30
0.0
 11
80.66391904585117
 21
97.83460028788136
 31
0.0
  0
LINE
  5
244
330
1F
100
AcDbEntity
  8
0
  6
Continuous
 62
     7
370
    15
100
AcDbLine
 10
80.49829845994764
 20
97.83460028788136
 30
0.0
 11
80.5138946206128
 21
97.88460020294474
 31
0.0
  0
LINE
  5
245
330
1F
100
AcDbEntity
  8
0
  6
Continuous
 62
     7
370
    15
100
AcDbLine
 10
80.17637936145121
 20
96.36508502384709
 30
0.0
 11
80.49829845994764
 21
97.83460028788136
 31
0.0
  0
LINE
  5
246
330
1F
100
AcDbEntity
  8
0
  6
Continuous
 62
     7
370
    15
100
AcDbLine
 10
84.63891904547855
 20
119.5845996620326
 30
0.0
 11
84.63891904547855
 21
107.9845998095541
 31
0.0
  0
LINE
  5
247
330
1F
100
AcDbEntity
  8
0
  6
Continuous
 62
     7
370
    15
100
AcDbLine
 10
81.6889189344649
 20
119.5845996620326
 30
0.0
 11
81.6889189344649
 21
107.9845998095541
 31
0.0
  0
LINE
  5
248
330
1F
100
AcDbEntity
  8
0
  6
Continuous
 62
     7
370
    15
100
AcDbLine
 10
81.48891904138073
 20
119.384600001779
 30
0.0
 11
81.48891904138073
 21
108.1845999354689
 31
0.0
  0
LINE
  5
249
330
1F
100
AcDbEntity
  8
0
  6
Continuous
 62
     7
370
    15
100
AcDbLine
 10
84.83891893856272
 20
108.1845999354689
 30
0.0
 11
84.83891893856272
 21
119.384600001779
 31
0.0
  0
LINE
  5
24A
330
1F
100
AcDbEntity
  8
0
  6
Continuous
 62
     7
370
    15
100
AcDbLine
 10
84.91391904398843
 20
113.0845998771681
 30
0.0
 11
84.83891893856272
 21
113.0845998771681
 31
0.0
  0
LINE
  5
24B
330
1F
100
AcDbEntity
  8
0
  6
Continuous
 62
     7
370
    15
100
AcDbLine
 10
81.48891904138073
 20
113.0845998771681
 30
0.0
 11
81.41391893595502
 21
113.0845998771681
 31
0.0
  0
LINE
  5
24C
330
1F
100
AcDbEntity
  8
0
  6
Continuous
 62
     7
370
    15
100
AcDbLine
 10
81.41391893595502
 20
114.4845999436645
 30
0.0
 11
81.48891904138073
 21
114.4845999436645
 31
0.0
  0
LINE
  5
24D
330
1F
100
AcDbEntity
  8
0
  6
Continuous
 62
     7
370
    15
100
AcDbLine
 10
84.83891893856272
 20
114.4845999436645
 30
0.0
 11
84.91391904398843
 21
114.4845999436645
 31
0.0
  0
LINE
  5
24E
330
1F
100
AcDbEntity
  8
0
  6
Continuous
 62
     7
370
    15
100
AcDbLine
 10
81.41391893595502
 20
113.3345999181463
 30
0.0
 11
81.48891904138073
 21
113.3345999181463
 31
0.0
  0
LINE
  5
24F
330
1F
100
AcDbEntity
  8
0
  6
Continuous
 62
     7
370
    15
100
AcDbLine
 10
84.83891893856272
 20
113.3345999181463
 30
0.0
 11
84.91391904398843
 21
113.3345999181463
 31
0.0
  0
LINE
  5
250
330
1F
100
AcDbEntity
  8
0
  6
Continuous
 62
     7
370
    15
100
AcDbLine
 10
84.91391904398843
 20
114.2345999026863
 30
0.0
 11
84.83891893856272
 21
114.2345999026863
 31
0.0
  0
LINE
  5
251
330
1F
100
AcDbEntity
  8
0
  6
Continuous
 62
     7
370
    15
100
AcDbLine
 10
81.48891904138073
 20
114.2345999026863
 30
0.0
 11
81.41391893595502
 21
114.2345999026863
 31
0.0
  0
ARC
  5
252
330
1F
100
AcDbEntity
  8
0
  6
Continuous
 62
     7
370
    15
100
AcDbCircle
 10
83.16391898997173
 20
113.784599873629
 30
0.0
 40
4.050000000000011
100
AcDbArc
 50
296.387799961244
 51
63.6122000387569
  0
LINE
  5
253
330
1F
100
AcDbEntity
  8
0
  6
Continuous
 62
     7
370
    15
100
AcDbLine
 10
84.96391895905182
 20
117.4126157196431
 30
0.0
 11
84.96391895905182
 21
117.9089179853169
 31
0.0
  0
ARC
  5
254
330
1F
100
AcDbEntity
  8
0
  6
Continuous
 62
     7
370
    15
100
AcDbCircle
 10
83.16391898997173
 20
113.784599873629
 30
0.0
 40
4.49999999999527
100
AcDbArc
 50
293.5781784782291
 51
66.42182152177174
  0
LINE
  5
255
330
1F
100
AcDbEntity
  8
0
  6
Continuous
 62
     7
370
    15
100
AcDbLine
 10
84.96391895905182
 20
109.6602817191003
 30
0.0
 11
84.96391895905182
 21
110.1565838683589
 31
0.0
  0
ARC
  5
256
330
1F
100
AcDbEntity
  8
0
  6
Continuous
 62
     7
370
    15
100
AcDbCircle
 10
83.16391898997173
 20
113.784599873629
 30
0.0
 40
4.499999999987801
100
AcDbArc
 50
113.5781784782696
 51
246.4218215217313
  0
LINE
  5
257
330
1F
100
AcDbEntity
  8
0
  6
Continuous
 62
     7
370
    15
100
AcDbLine
 10
81.36391902089163
 20
117.4126157196431
 30
0.0
 11
81.36391902089163
 21
117.9089179853169
 31
0.0
  0
LINE
  5
258
330
1F
100
AcDbEntity
  8
0
  6
Continuous
 62
     7
370
    15
100
AcDbLine
 10
81.36391902089163
 20
110.1565838683589
 30
0.0
 11
81.36391902089163
 21
109.6602817191003
 31
0.0
  0
ARC
  5
259
330
1F
100
AcDbEntity
  8
0
  6
Continuous
 62
     7
370
    15
100
AcDbCircle
 10
83.16391898997173
 20
113.784599873629
 30
0.0
 40
4.050000000000005
100
AcDbArc
 50
116.3877999612429
 51
243.6122000387579
  0
ARC
  5
25A
330
1F
100
AcDbEntity
  8
0
  6
Continuous
 62
     7
370
    15
100
AcDbCircle
 10
83.16391898997173
 20
113.784599873629
 30
0.0
 40
5.49999999999182
100
AcDbArc
 50
289.1033244775162
 51
70.89667552248456
  0
LINE
  5
25B
330
1F
100
AcDbEntity
  8
0
  6
Continuous
 62
     7
370
    15
100
AcDbLine
 10
84.96391895905182
 20
117.9089179853169
 30
0.0
 11
84.96391895905182
 21
118.9817145126133
 31
0.0
  0
LINE
  5
25C
330
1F
100
AcDbEntity
  8
0
  6
Continuous
 62
     7
370
    15
100
AcDbLine
 10
84.96391895905182
 20
108.587485191804
 30
0.0
 11
84.96391895905182
 21
109.6602817191003
 31
0.0
  0
ARC
  5
25D
330
1F
100
AcDbEntity
  8
0
  6
Continuous
 62
     7
370
    15
100
AcDbCircle
 10
83.16391898997173
 20
113.784599873629
 30
0.0
 40
5.499999999992657
100
AcDbArc
 50
109.1033244775126
 51
250.8966755224882
  0
LINE
  5
25E
330
1F
100
AcDbEntity
  8
0
  6
Continuous
 62
     7
370
    15
100
AcDbLine
 10
81.36391902089163
 20
117.9089179853169
 30
0.0
 11
81.36391902089163
 21
118.9817145126133
 31
0.0
  0
LINE
  5
25F
330
1F
100
AcDbEntity
  8
0
  6
Continuous
 62
     7
370
    15
100
AcDbLine
 10
81.36391902089163
 20
108.587485191804
 30
0.0
 11
81.36391902089163
 21
109.6602817191003
 31
0.0
  0
ARC
  5
260
330
1F
100
AcDbEntity
  8
0
  6
Continuous
 62
     7
370
    15
100
AcDbCircle
 10
83.20658598938939
 20
113.6590896813259
 30
0.0
 40
5.367438054081397
100
AcDbArc
 50
287.6224367749463
 51
289.1114231273361
  0
ARC
  5
261
330
1F
100
AcDbEntity
  8
0
  6
Continuous
 62
     7
370
    15
100
AcDbCircle
 10
83.39148752019303
 20
113.3206359861852
 30
0.0
 40
3.533237387189393
100
AcDbArc
 50
294.1835741445879
 51
296.4258884223533
  0
ARC
  5
262
330
1F
100
AcDbEntity
  8
0
  6
Continuous
 62
     7
370
    15
100
AcDbCircle
 10
83.09908041326092
 20
113.9753962336333
 30
0.0
 40
5.298491084074584
100
AcDbArc
 50
107.6914292155347
 51
109.116024908605
  0
ARC
  5
263
330
1F
100
AcDbEntity
  8
0
  6
Continuous
 62
     7
370
    15
100
AcDbCircle
 10
82.93605089094533
 20
114.2491972091002
 30
0.0
 40
3.532536665016221
100
AcDbArc
 50
114.1833517208563
 51
116.4261108460831
  0
ARC
  5
264
330
1F
100
AcDbEntity
  8
0
  6
Continuous
 62
     7
370
    15
100
AcDbCircle
 10
83.36214367145911
 20
114.3639713583055
 30
0.0
 40
4.887661599486871
100
AcDbArc
 50
70.86966673954385
 51
72.41360667346318
  0
ARC
  5
265
330
1F
100
AcDbEntity
  8
0
  6
Continuous
 62
     7
370
    15
100
AcDbCircle
 10
83.24361359095757
 20
113.9483769276433
 30
0.0
 40
3.867867754653711
100
AcDbArc
 50
63.5914777259562
 51
65.64111329757806
  0
ARC
  5
266
330
1F
100
AcDbEntity
  8
0
  6
Continuous
 62
     7
370
    15
100
AcDbCircle
 10
82.96658452218006
 20
113.2079109343303
 30
0.0
 40
4.890487782544742
100
AcDbArc
 50
250.8701128832533
 51
252.4131605297557
  0
ARC
  5
267
330
1F
100
AcDbEntity
  8
0
  6
Continuous
 62
     7
370
    15
100
AcDbCircle
 10
83.08468855755938
 20
113.6218216690219
 30
0.0
 40
3.868968960003085
100
AcDbArc
 50
243.5919012196764
 51
245.6409511340745
  0
CIRCLE
  5
268
330
1F
100
AcDbEntity
  8
0
  6
Continuous
 62
     7
370
    15
100
AcDbCircle
 10
-83.16391898997174
 20
113.784599873629
 30
0.0000000000002904
 40
7.034529946110964
210
0.0000000000000035
220
0.0
230
-1.0
  0
CIRCLE
  5
269
330
1F
100
AcDbEntity
  8
0
  6
Continuous
 62
     7
370
    15
100
AcDbCircle
 10
83.16391898997174
 20
113.784599873629
 30
0.0
 40
7.149999999967349
  0
ARC
  5
26A
330
1F
100
AcDbEntity
  8
0
  6
Continuous
 62
     7
370
    15
100
AcDbCircle
 10
83.16391898997174
 20
113.784599873629
 30
0.0
 40
7.299999999999997
100
AcDbArc
 50
358.0374320167876
 51
0.0
  0
LINE
  5
26B
330
1F
100
AcDbEntity
  8
0
  6
Continuous
 62
     7
370
    15
100
AcDbLine
 10
91.06391860850202
 20
113.7845997357933
 30
0.0
 11
90.46391916208015
 21
113.784599968624
 31
0.0
  0
LINE
  5
26C
330
1F
100
AcDbEntity
  8
0
  6
Continuous
 62
     7
370
    15
100
AcDbLine
 10
91.06391860850202
 20
113.7845997357933
 30
0.0
 11
90.77523422174202
 21
113.5557878654642
 31
0.0
  0
ARC
  5
26D
330
1F
100
AcDbEntity
  8
0
  6
Continuous
 62
     7
370
    15
100
AcDbCircle
 10
90.69072670708385
 20
113.7123718812912
 30
0.0
 40
0.1779327795719376
100
AcDbArc
 50
267.563758163721
 51
298.355487535965
  0
LINE
  5
26E
330
1F
100
AcDbEntity
  8
0
  6
Continuous
 62
     7
370
    15
100
AcDbLine
 10
90.45963694088207
 20
113.5345999276458
 30
0.0
 11
90.68316320635425
 21
113.5345999276458
 31
0.0
  0
ARC
  5
26F
330
1F
100
AcDbEntity
  8
0
  6
Continuous
 62
     7
370
    15
100
AcDbCircle
 10
83.16391898997174
 20
113.784599873629
 30
0.0
 40
7.300000000000003
100
AcDbArc
 50
58.0374320167886
 51
59.99999999999997
  0
LINE
  5
270
330
1F
100
AcDbEntity
  8
0
  6
Continuous
 62
     7
370
    15
100
AcDbLine
 10
86.81391907602595
 20
120.1065854760079
 30
0.0
 11
87.11391879923688
 21
120.6262001427083
 31
0.0
  0
LINE
  5
271
330
1F
100
AcDbEntity
  8
0
  6
Continuous
 62
     7
370
    15
100
AcDbLine
 10
87.11391879923688
 20
120.6262001427083
 30
0.0
 11
87.16773341156589
 21
120.2617857264547
 31
0.0
  0
ARC
  5
272
330
1F
100
AcDbEntity
  8
0
  6
Continuous
 62
     7
370
    15
100
AcDbCircle
 10
86.98988241124508
 20
120.2668898167867
 30
0.0
 40
0.1779242255940186
100
AcDbArc
 50
327.5631880255457
 51
358.3561375158796
  0
LINE
  5
273
330
1F
100
AcDbEntity
  8
0
  6
Continuous
 62
     7
370
    15
100
AcDbLine
 10
87.140047519729
 20
120.1714567499427
 30
0.0
 11
87.02828438699292
 21
119.977876696196
 31
0.0
  0
ARC
  5
274
330
1F
100
AcDbEntity
  8
0
  6
Continuous
 62
     7
370
    15
100
AcDbCircle
 10
83.16391898997174
 20
113.784599873629
 30
0.0
 40
7.300000000000004
100
AcDbArc
 50
298.0374320167893
 51
300.0000000000008
  0
LINE
  5
275
330
1F
100
AcDbEntity
  8
0
  6
Continuous
 62
     7
370
    15
100
AcDbLine
 10
87.11391879923688
 20
106.9429993288784
 30
0.0
 11
86.81391907602595
 21
107.46261446124
 31
0.0
  0
LINE
  5
276
330
1F
100
AcDbEntity
  8
0
  6
Continuous
 62
     7
370
    15
100
AcDbLine
 10
87.11391879923688
 20
106.9429993288784
 30
0.0
 11
86.77141956731723
 21
107.0786017583875
 31
0.0
  0
ARC
  5
277
330
1F
100
AcDbEntity
  8
0
  6
Continuous
 62
     7
370
    15
100
AcDbCircle
 10
86.86477282217115
 20
107.230081389675
 30
0.0
 40
0.1779351255003248
100
AcDbArc
 50
207.5642538872144
 51
238.3554701879759
  0
LINE
  5
278
330
1F
100
AcDbEntity
  8
0
  6
Continuous
 62
     7
370
    15
100
AcDbLine
 10
86.70703467659699
 20
107.147743146327
 30
0.0
 11
86.5952715438609
 21
107.3413227344124
 31
0.0
  0
ARC
  5
279
330
1F
100
AcDbEntity
  8
0
  6
Continuous
 62
     7
370
    15
100
AcDbCircle
 10
83.16391898997174
 20
113.784599873629
 30
0.0
 40
7.300000000000003
100
AcDbArc
 50
118.0374320167884
 51
120.0
  0
LINE
  5
27A
330
1F
100
AcDbEntity
  8
0
  6
Continuous
 62
     7
370
    15
100
AcDbLine
 10
79.51391890391754
 20
120.1065854760079
 30
0.0
 11
79.21391918070661
 21
120.6262001427083
 31
0.0
  0
LINE
  5
27B
330
1F
100
AcDbEntity
  8
0
  6
Continuous
 62
     7
370
    15
100
AcDbLine
 10
79.21391918070661
 20
120.6262001427083
 30
0.0
 11
79.55641841262625
 21
120.4905986445217
 31
0.0
  0
ARC
  5
27C
330
1F
100
AcDbEntity
  8
0
  6
Continuous
 62
     7
370
    15
100
AcDbCircle
 10
79.46306295947029
 20
120.3391180752499
 30
0.0
 40
0.1779370773640232
100
AcDbArc
 50
27.56392823438306
 51
58.35502603825154
  0
LINE
  5
27D
330
1F
100
AcDbEntity
  8
0
  6
Continuous
 62
     7
370
    15
100
AcDbLine
 10
79.6208033033465
 20
120.4214563252596
 30
0.0
 11
79.73256643608259
 21
120.2278772028355
 31
0.0
  0
ARC
  5
27E
330
1F
100
AcDbEntity
  8
0
  6
Continuous
 62
     7
370
    15
100
AcDbCircle
 10
83.16391898997174
 20
113.784599873629
 30
0.0
 40
7.300000000000006
100
AcDbArc
 50
238.0374320167895
 51
240.0000000000008
  0
LINE
  5
27F
330
1F
100
AcDbEntity
  8
0
  6
Continuous
 62
     7
370
    15
100
AcDbLine
 10
79.51391890391754
 20
107.46261446124
 30
0.0
 11
79.21391918070661
 21
106.9429993288784
 31
0.0
  0
LINE
  5
280
330
1F
100
AcDbEntity
  8
0
  6
Continuous
 62
     7
370
    15
100
AcDbLine
 10
79.21391918070661
 20
106.9429993288784
 30
0.0
 11
79.1601045683776
 21
107.3074137451319
 31
0.0
  0
ARC
  5
281
330
1F
100
AcDbEntity
  8
0
  6
Continuous
 62
     7
370
    15
100
AcDbCircle
 10
79.33795928504612
 20
107.3023090077152
 30
0.0
 40
0.1779279589759113
100
AcDbArc
 50
147.5635274939639
 51
178.3559635598469
  0
LINE
  5
282
330
1F
100
AcDbEntity
  8
0
  6
Continuous
 62
     7
370
    15
100
AcDbLine
 10
79.18779046021448
 20
107.3977431873052
 30
0.0
 11
79.29955359295057
 21
107.5913227753906
 31
0.0
  0
ARC
  5
283
330
1F
100
AcDbEntity
  8
0
  6
Continuous
 62
     7
370
    15
100
AcDbCircle
 10
83.16391898997174
 20
113.784599873629
 30
0.0
 40
7.299999999999997
100
AcDbArc
 50
178.0374320167868
 51
180.0000000000004
  0
LINE
  5
284
330
1F
100
AcDbEntity
  8
0
  6
Continuous
 62
     7
370
    15
100
AcDbLine
 10
75.86391881786333
 20
113.784599968624
 30
0.0
 11
75.26391937144147
 21
113.7845997357933
 31
0.0
  0
LINE
  5
285
330
1F
100
AcDbEntity
  8
0
  6
Continuous
 62
     7
370
    15
100
AcDbLine
 10
75.26391937144147
 20
113.784599968624
 30
0.0
 11
75.55260375820147
 21
114.0134119553684
 31
0.0
  0
ARC
  5
286
330
1F
100
AcDbEntity
  8
0
  6
Continuous
 62
     7
370
    15
100
AcDbCircle
 10
75.6371120993288
 20
113.8568233713876
 30
0.0
 40
0.1779371921583404
100
AcDbArc
 50
87.56408497925185
 51
118.3550231171136
  0
LINE
  5
287
330
1F
100
AcDbEntity
  8
0
  6
Continuous
 62
     7
370
    15
100
AcDbLine
 10
75.64467477358924
 20
114.0345997767715
 30
0.0
 11
75.86820103906141
 21
114.0345997767715
 31
0.0
  0
LINE
  5
288
330
1F
100
AcDbEntity
  8
0
  6
Continuous
 62
     7
370
    15
100
AcDbLine
 10
90.77523422174202
 20
114.0134119553684
 30
0.0
 11
91.06391860850202
 21
113.784599968624
 31
0.0
  0
ARC
  5
289
330
1F
100
AcDbEntity
  8
0
  6
Continuous
 62
     7
370
    15
100
AcDbCircle
 10
83.16391898997174
 20
113.784599873629
 30
0.0
 40
7.299999999999997
100
AcDbArc
 50
0.0
 51
1.962567983213221
  0
LINE
  5
28A
330
1F
100
AcDbEntity
  8
0
  6
Continuous
 62
     7
370
    15
100
AcDbLine
 10
90.68316320635425
 20
114.0345997767715
 30
0.0
 11
90.45963694088207
 21
114.0345997767715
 31
0.0
  0
ARC
  5
28B
330
1F
100
AcDbEntity
  8
0
  6
Continuous
 62
     7
370
    15
100
AcDbCircle
 10
90.69469091097808
 20
113.8740532868496
 30
0.0
 40
0.1609598192100402
100
AcDbArc
 50
59.97393673799222
 51
94.10695516563922
  0
LINE
  5
28C
330
1F
100
AcDbEntity
  8
0
  6
Continuous
 62
     7
370
    15
100
AcDbLine
 10
87.16773341156589
 20
107.3074137451319
 30
0.0
 11
87.11391879923688
 21
106.9429993288784
 31
0.0
  0
ARC
  5
28D
330
1F
100
AcDbEntity
  8
0
  6
Continuous
 62
     7
370
    15
100
AcDbCircle
 10
83.16391898997174
 20
113.784599873629
 30
0.0
 40
7.300000000000006
100
AcDbArc
 50
300.0000000000008
 51
301.9625679832122
  0
LINE
  5
28E
330
1F
100
AcDbEntity
  8
0
  6
Continuous
 62
     7
370
    15
100
AcDbLine
 10
87.140047519729
 20
107.3977431873052
 30
0.0
 11
87.02828438699292
 21
107.5913227753906
 31
0.0
  0
ARC
  5
28F
330
1F
100
AcDbEntity
  8
0
  6
Continuous
 62
     7
370
    15
100
AcDbCircle
 10
87.00677596076836
 20
107.3074880043301
 30
0.0
 40
0.1609574679276062
100
AcDbArc
 50
359.9735660676129
 51
34.10694287839966
  0
LINE
  5
290
330
1F
100
AcDbEntity
  8
0
  6
Continuous
 62
     7
370
    15
100
AcDbLine
 10
86.77141956731723
 20
120.4905986445217
 30
0.0
 11
87.11391879923688
 21
120.6262001427083
 31
0.0
  0
ARC
  5
291
330
1F
100
AcDbEntity
  8
0
  6
Continuous
 62
     7
370
    15
100
AcDbCircle
 10
83.16391898997174
 20
113.784599873629
 30
0.0
 40
7.300000000000003
100
AcDbArc
 50
59.99999999999997
 51
61.96256798321154
  0
LINE
  5
292
330
1F
100
AcDbEntity
  8
0
  6
Continuous
 62
     7
370
    15
100
AcDbLine
 10
86.70703467659699
 20
120.4214563252596
 30
0.0
 11
86.5952715438609
 21
120.2278772028355
 31
0.0
  0
ARC
  5
293
330
1F
100
AcDbEntity
  8
0
  6
Continuous
 62
     7
370
    15
100
AcDbCircle
 10
86.85184311947255
 20
120.3511601797327
 30
0.0
 40
0.160969044241424
100
AcDbArc
 50
119.9749440556517
 51
154.1061016717067
  0
LINE
  5
294
330
1F
100
AcDbEntity
  8
0
  6
Continuous
 62
     7
370
    15
100
AcDbLine
 10
79.55641841262625
 20
107.0786017583875
 30
0.0
 11
79.21391918070661
 21
106.9429993288784
 31
0.0
  0
ARC
  5
295
330
1F
100
AcDbEntity
  8
0
  6
Continuous
 62
     7
370
    15
100
AcDbCircle
 10
83.16391898997174
 20
113.784599873629
 30
0.0
 40
7.300000000000004
100
AcDbArc
 50
240.0000000000007
 51
241.9625679832123
  0
LINE
  5
296
330
1F
100
AcDbEntity
  8
0
  6
Continuous
 62
     7
370
    15
100
AcDbLine
 10
79.6208033033465
 20
107.147743146327
 30
0.0
 11
79.73256643608259
 21
107.3413227344124
 31
0.0
  0
ARC
  5
297
330
1F
100
AcDbEntity
  8
0
  6
Continuous
 62
     7
370
    15
100
AcDbCircle
 10
79.47600505611567
 20
107.218031675812
 30
0.0
 40
0.1609565462424082
100
AcDbArc
 50
299.9733203066207
 51
334.1069556181906
  0
LINE
  5
298
330
1F
100
AcDbEntity
  8
0
  6
Continuous
 62
     7
370
    15
100
AcDbLine
 10
79.1601045683776
 20
120.2617857264547
 30
0.0
 11
79.21391918070661
 21
120.6262001427083
 31
0.0
  0
ARC
  5
299
330
1F
100
AcDbEntity
  8
0
  6
Continuous
 62
     7
370
    15
100
AcDbCircle
 10
83.16391898997174
 20
113.784599873629
 30
0.0
 40
7.300000000000003
100
AcDbArc
 50
120.0
 51
121.9625679832114
  0
LINE
  5
29A
330
1F
100
AcDbEntity
  8
0
  6
Continuous
 62
     7
370
    15
100
AcDbLine
 10
79.18779046021448
 20
120.1714567499427
 30
0.0
 11
79.29955359295057
 21
119.977876696196
 31
0.0
  0
ARC
  5
29B
330
1F
100
AcDbEntity
  8
0
  6
Continuous
 62
     7
370
    15
100
AcDbCircle
 10
79.32105967308801
 20
120.2617112134589
 30
0.0
 40
0.1609551219580345
100
AcDbArc
 50
179.9734753372431
 51
214.1071991213324
  0
LINE
  5
29C
330
1F
100
AcDbEntity
  8
0
  6
Continuous
 62
     7
370
    15
100
AcDbLine
 10
75.55260375820147
 20
113.5557878654642
 30
0.0
 11
75.26391937144147
 21
113.7845997357933
 31
0.0
  0
ARC
  5
29D
330
1F
100
AcDbEntity
  8
0
  6
Continuous
 62
     7
370
    15
100
AcDbCircle
 10
83.16391898997174
 20
113.784599873629
 30
0.0
 40
7.299999999999997
100
AcDbArc
 50
180.0000000000004
 51
181.962567983214
  0
LINE
  5
29E
330
1F
100
AcDbEntity
  8
0
  6
Continuous
 62
     7
370
    15
100
AcDbLine
 10
75.64467477358924
 20
113.5345999276458
 30
0.0
 11
75.86820103906141
 21
113.5345999276458
 31
0.0
  0
ARC
  5
29F
330
1F
100
AcDbEntity
  8
0
  6
Continuous
 62
     7
370
    15
100
AcDbCircle
 10
75.63314688179729
 20
113.6951448385449
 30
0.0
 40
0.1609582576470332
100
AcDbArc
 50
239.9736924248412
 51
274.1070618754773
  0
ARC
  5
2A0
330
1F
100
AcDbEntity
  8
0
  6
Continuous
 62
     7
370
    15
100
AcDbCircle
 10
83.16374500041106
 20
113.784499853065
 30
0.0
 40
7.523576285763831
100
AcDbArc
 50
1.904986405361191
 51
58.09500884972518
  0
ARC
  5
2A1
330
1F
100
AcDbEntity
  8
0
  6
Continuous
 62
     7
370
    15
100
AcDbCircle
 10
83.16391898997174
 20
113.784599873629
 30
0.0
 40
7.299999999999994
100
AcDbArc
 50
1.962567983212664
 51
58.03743201678855
  0
ARC
  5
2A2
330
1F
100
AcDbEntity
  8
0
  6
Continuous
 62
     7
370
    15
100
AcDbCircle
 10
83.16391898997174
 20
113.7846019669545
 30
0.0
 40
7.523401077554675
100
AcDbArc
 50
241.9042786532342
 51
298.0957213467673
  0
ARC
  5
2A3
330
1F
100
AcDbEntity
  8
0
  6
Continuous
 62
     7
370
    15
100
AcDbCircle
 10
83.16391898997174
 20
113.784599873629
 30
0.0
 40
7.300000000000004
100
AcDbArc
 50
241.9625679832123
 51
298.0374320167893
  0
ARC
  5
2A4
330
1F
100
AcDbEntity
  8
0
  6
Continuous
 62
     7
370
    15
100
AcDbCircle
 10
83.16409252101173
 20
113.7845001177921
 30
0.0
 40
7.523575818696453
100
AcDbArc
 50
121.904989251438
 51
178.0950154934775
  0
ARC
  5
2A5
330
1F
100
AcDbEntity
  8
0
  6
Continuous
 62
     7
370
    15
100
AcDbCircle
 10
83.16391898997174
 20
113.784599873629
 30
0.0
 40
7.299999999999994
100
AcDbArc
 50
121.9625679832114
 51
178.0374320167873
  0
ARC
  5
2A6
330
1F
100
AcDbEntity
  8
0
  6
Continuous
 62
     7
370
    15
100
AcDbCircle
 10
83.16391898997174
 20
113.784599873629
 30
0.0
 40
7.300000000000006
100
AcDbArc
 50
301.9625679832122
 51
358.0374320167856
  0
ARC
  5
2A7
330
1F
100
AcDbEntity
  8
0
  6
Continuous
 62
     7
370
    15
100
AcDbCircle
 10
83.16374809358633
 20
113.7846983078261
 30
0.0
 40
7.523573142988087
100
AcDbArc
 50
301.9049783025487
 51
358.0950245598136
  0
ARC
  5
2A8
330
1F
100
AcDbEntity
  8
0
  6
Continuous
 62
     7
370
    15
100
AcDbCircle
 10
83.16391898997174
 20
113.7844038661746
 30
0.0
 40
7.52357189860355
100
AcDbArc
 50
61.9049731357056
 51
118.0950268642944
  0
ARC
  5
2A9
330
1F
100
AcDbEntity
  8
0
  6
Continuous
 62
     7
370
    15
100
AcDbCircle
 10
83.16391898997174
 20
113.784599873629
 30
0.0
 40
7.299999999999991
100
AcDbArc
 50
61.96256798321148
 51
118.0374320167885
  0
ARC
  5
2AA
330
1F
100
AcDbEntity
  8
0
  6
Continuous
 62
     7
370
    15
100
AcDbCircle
 10
83.16408961213339
 20
113.784698149503
 30
0.0
 40
7.523572863652874
100
AcDbArc
 50
181.9049743045644
 51
238.095022833076
  0
ARC
  5
2AB
330
1F
100
AcDbEntity
  8
0
  6
Continuous
 62
     7
370
    15
100
AcDbCircle
 10
83.16391898997174
 20
113.784599873629
 30
0.0
 40
7.300000000000006
100
AcDbArc
 50
181.962567983216
 51
238.0374320167895
  0
ARC
  5
2AC
330
1F
100
AcDbEntity
  8
0
  6
Continuous
 62
     7
370
    15
100
AcDbCircle
 10
83.16391898997174
 20
113.784599873629
 30
0.0
 40
7.614753706739733
100
AcDbArc
 50
1.721912143767941
 51
58.27808785623371
  0
ARC
  5
2AD
330
1F
100
AcDbEntity
  8
0
  6
Continuous
 62
     7
370
    15
100
AcDbCircle
 10
83.16391898997174
 20
113.784599873629
 30
0.0
 40
7.614753706739728
100
AcDbArc
 50
241.7219121437671
 51
298.2780878562346
  0
ARC
  5
2AE
330
1F
100
AcDbEntity
  8
0
  6
Continuous
 62
     7
370
    15
100
AcDbCircle
 10
83.16391898997174
 20
113.784599873629
 30
0.0
 40
7.614753706739726
100
AcDbArc
 50
121.7219121437663
 51
178.2780878562337
  0
ARC
  5
2AF
330
1F
100
AcDbEntity
  8
0
  6
Continuous
 62
     7
370
    15
100
AcDbCircle
 10
83.16391898997174
 20
113.784599873629
 30
0.0
 40
7.614753706739733
100
AcDbArc
 50
301.7219121437671
 51
358.2780878562648
  0
ARC
  5
2B0
330
1F
100
AcDbEntity
  8
0
  6
Continuous
 62
     7
370
    15
100
AcDbCircle
 10
83.16391898997174
 20
113.784599873629
 30
0.0
 40
7.614753706739728
100
AcDbArc
 50
61.72191214376633
 51
118.2780878562338
  0
ARC
  5
2B1
330
1F
100
AcDbEntity
  8
0
  6
Continuous
 62
     7
370
    15
100
AcDbCircle
 10
83.16391898997174
 20
113.784599873629
 30
0.0
 40
7.614753706739746
100
AcDbArc
 50
181.7219121437719
 51
238.2780878562345
  0
ARC
  5
2B2
330
1F
100
AcDbEntity
  8
0
  6
Continuous
 62
     7
370
    15
100
AcDbCircle
 10
83.16391898997174
 20
113.784599873629
 30
0.0
 40
7.899999944322049
100
AcDbArc
 50
299.9999996761363
 51
360.0000000000008
  0
ARC
  5
2B3
330
1F
100
AcDbEntity
  8
0
  6
Continuous
 62
     7
370
    15
100
AcDbCircle
 10
83.16391898997174
 20
113.784599873629
 30
0.0
 40
7.899999944322047
100
AcDbArc
 50
360.0000000000008
 51
59.99999967613542
  0
ARC
  5
2B4
330
1F
100
AcDbEntity
  8
0
  6
Continuous
 62
     7
370
    15
100
AcDbCircle
 10
83.16391898997174
 20
113.784599873629
 30
0.0
 40
7.899999944322054
100
AcDbArc
 50
59.99999967613546
 51
119.9999996761354
  0
ARC
  5
2B5
330
1F
100
AcDbEntity
  8
0
  6
Continuous
 62
     7
370
    15
100
AcDbCircle
 10
83.16391898997174
 20
113.784599873629
 30
0.0
 40
7.899999944322049
100
AcDbArc
 50
239.9999996761362
 51
299.9999996761363
  0
ARC
  5
2B6
330
1F
100
AcDbEntity
  8
0
  6
Continuous
 62
     7
370
    15
100
AcDbCircle
 10
83.16391898997174
 20
113.784599873629
 30
0.0
 40
7.899999944322062
100
AcDbArc
 50
180.0000000000004
 51
239.9999996761363
  0
ARC
  5
2B7
330
1F
100
AcDbEntity
  8
0
  6
Continuous
 62
     7
370
    15
100
AcDbCircle
 10
83.16391898997174
 20
113.784599873629
 30
0.0
 40
7.899999944322062
100
AcDbArc
 50
119.9999996761353
 51
180.0000000000004
  0
CIRCLE
  5
2B8
330
1F
100
AcDbEntity
  8
0
  6
Continuous
 62
     7
370
    15
100
AcDbCircle
 10
83.16391898997174
 20
113.784599873629
 30
0.0
 40
7.20000000000698
  0
ARC
  5
2B9
330
1F
100
AcDbEntity
  8
0
  6
Continuous
 62
     7
370
    15
100
AcDbCircle
 10
83.16391898997174
 20
113.784599873629
 30
0.0
 40
8.000000000000227
100
AcDbArc
 50
0.0
 51
180.0000000000004
  0
ARC
  5
2BA
330
1F
100
AcDbEntity
  8
0
  6
Continuous
 62
     7
370
    15
100
AcDbCircle
 10
83.16391898997174
 20
113.784599873629
 30
0.0
 40
8.000000000000227
100
AcDbArc
 50
180.0000000000004
 51
0.0
  0
LINE
  5
2BB
330
1F
100
AcDbEntity
  8
0
  6
Continuous
 62
     7
370
    15
100
AcDbLine
 10
81.52761211831169
 20
104.9345998684136
 30
0.0
 11
84.8002258616318
 21
104.9345998684136
 31
0.0
  0
ARC
  5
2BC
330
1F
100
AcDbEntity
  8
0
  6
Continuous
 62
     7
370
    15
100
AcDbCircle
 10
77.16391898997176
 20
110.179048598165
 30
0.0
 40
2.000000000000023
100
AcDbArc
 50
180.0000000000004
 51
211.0027191338747
  0
LINE
  5
2BD
330
1F
100
AcDbEntity
  8
0
  6
Continuous
 62
     7
370
    15
100
AcDbLine
 10
75.16391860999213
 20
110.1790486494271
 30
0.0
 11
75.16391860999213
 21
113.784599968624
 31
0.0
  0
ARC
  5
2BE
330
1F
100
AcDbEntity
  8
0
  6
Continuous
 62
     7
370
    15
100
AcDbCircle
 10
83.16391898997174
 20
113.784599873629
 30
0.0
 40
9.000000000000014
100
AcDbArc
 50
211.0027191338748
 51
259.5246861567714
  0
ARC
  5
2BF
330
1F
100
AcDbEntity
  8
0
  6
Continuous
 62
     7
370
    15
100
AcDbCircle
 10
83.16391898997174
 20
113.784599873629
 30
0.0
 40
9.000000000000001
100
AcDbArc
 50
280.4753138432303
 51
328.9972808661267
  0
ARC
  5
2C0
330
1F
100
AcDbEntity
  8
0
  6
Continuous
 62
     7
370
    15
100
AcDbCircle
 10
89.16391898997174
 20
110.179048598165
 30
0.0
 40
2.0
100
AcDbArc
 50
328.9972808661265
 51
0.0
  0
LINE
  5
2C1
330
1F
100
AcDbEntity
  8
0
  6
Continuous
 62
     7
370
    15
100
AcDbLine
 10
91.16391936995135
 20
110.1790486494271
 30
0.0
 11
91.16391936995135
 21
113.784599968624
 31
0.0
  0
LINE
  5
2C2
330
1F
100
AcDbEntity
  8
0
  6
Continuous
 62
     7
370
    15
100
AcDbLine
 10
75.16391860999213
 20
120.1722260223894
 30
0.0
 11
75.16391860999213
 21
113.784599968624
 31
0.0
  0
ARC
  5
2C3
330
1F
100
AcDbEntity
  8
0
  6
Continuous
 62
     7
370
    15
100
AcDbCircle
 10
77.16391898997176
 20
120.1722261088515
 30
0.0
 40
2.000000000000014
100
AcDbArc
 50
101.655119866287
 51
180.0000000000004
  0
ARC
  5
2C4
330
1F
100
AcDbEntity
  8
0
  6
Continuous
 62
     7
370
    15
100
AcDbCircle
 10
83.16391898997174
 20
91.08459987362907
 30
0.0
 40
31.70000000000002
100
AcDbArc
 50
78.34488013371322
 51
101.6551198662867
  0
ARC
  5
2C5
330
1F
100
AcDbEntity
  8
0
  6
Continuous
 62
     7
370
    15
100
AcDbCircle
 10
89.16391898997174
 20
120.1722261088515
 30
0.0
 40
2.000000000000009
100
AcDbArc
 50
0.0
 51
78.34488013371296
  0
LINE
  5
2C6
330
1F
100
AcDbEntity
  8
0
  6
Continuous
 62
     7
370
    15
100
AcDbLine
 10
91.16391936995135
 20
113.784599968624
 30
0.0
 11
91.16391936995135
 21
120.1722260223894
 31
0.0
  0
ARC
  5
2C7
330
1F
100
AcDbEntity
  8
0
  6
Continuous
 62
     7
370
    15
100
AcDbCircle
 10
83.16391898997176
 20
113.784599873629
 30
0.0
 40
8.999999999999998
100
AcDbArc
 50
259.5246861567714
 51
280.4753138432304
  0
LWPOLYLINE
  5
2C8
330
1F
100
AcDbEntity
  8
0
  6
Continuous
 62
     7
370
    15
100
AcDbPolyline
 90
        9
 70
   128
 43
0.0
 10
83.16391899019146
 20
104.7846043141751
 10
83.16391899133671
 20
104.7798014836578
 10
83.16391899575098
 20
104.7655750656693
 10
83.16391900326461
 20
104.7424722122221
 10
83.16391901358887
 20
104.7113809393911
 10
83.16391902632695
 20
104.6734961340396
 10
83.16391904098935
 20
104.6302729876904
 10
83.16391905701253
 20
104.5833734454779
 10
83.16391899026703
 20
104.5346000822453
  0
LWPOLYLINE
  5
2C9
330
1F
100
AcDbEntity
  8
0
  6
Continuous
 62
     7
370
    15
100
AcDbPolyline
 90
        3
 70
   128
 43
0.0
 10
90.87820497088188
 20
109.1488906307338
 10
90.85448884151929
 20
109.0875448784052
 10
90.85223084993714
 20
109.0201201508014
  0
ARC
  5
2CA
330
1F
100
AcDbEntity
  8
0
  6
Continuous
 62
     7
370
    15
100
AcDbCircle
 10
83.09875305878845
 20
113.4780503331623
 30
0.0
 40
8.943687661653582
100
AcDbArc
 50
270.4174749839042
 51
330.1028792805511
  0
ARC
  5
2CB
330
1F
100
AcDbEntity
  8
0
  6
Continuous
 62
     7
370
    15
100
AcDbCircle
 10
83.23589710460382
 20
113.4897266106969
 30
0.0
 40
8.955415790992811
100
AcDbArc
 50
209.9401588691786
 51
269.539486866369
  0
ARC
  5
2CC
330
1F
100
AcDbEntity
  8
0
  6
Continuous
 62
     7
370
    15
100
AcDbCircle
 10
88.86108682635082
 20
110.1770082430771
 30
0.0
 40
2.302833447543299
100
AcDbArc
 50
329.8427184228015
 51
0.0507664537422066
  0
ARC
  5
2CD
330
1F
100
AcDbEntity
  8
0
  6
Continuous
 62
     7
370
    15
100
AcDbCircle
 10
77.46901857912963
 20
110.1776180572752
 30
0.0
 40
2.305100412992476
100
AcDbArc
 50
179.9644439664262
 51
210.1420740440105
  0
LINE
  5
2CE
330
1F
100
AcDbEntity
  8
0
  6
Continuous
 62
     7
370
    15
100
AcDbLine
 10
75.16391860999222
 20
104.2846000412671
 30
0.0
 11
91.16391936995144
 21
104.2846000412671
 31
0.0
  0
LINE
  5
2CF
330
1F
100
AcDbEntity
  8
0
  6
Continuous
 62
     7
370
    15
100
AcDbLine
 10
83.47424798275396
 20
102.2846001791029
 30
0.0
 11
83.47424798275396
 21
104.2846000412671
 31
0.0
  0
LINE
  5
2D0
330
1F
100
AcDbEntity
  8
0
  6
Continuous
 62
     7
370
    15
100
AcDbLine
 10
83.90131383648194
 20
102.4845998393564
 30
0.0
 11
83.90131383648194
 21
104.2846000412671
 31
0.0
  0
LWPOLYLINE
  5
2D1
330
1F
100
AcDbEntity
  8
0
  6
Continuous
 62
     7
370
    15
100
AcDbPolyline
 90
        6
 70
   128
 43
0.0
 10
83.78051320768944
 20
102.2846001791029
 10
83.82463158786348
 20
102.2983492942719
 10
83.86367350330628
 20
102.3393889548449
 10
83.88983982594735
 20
102.3993940683274
 10
83.90070463510282
 20
102.4645037608413
 10
83.90131383648194
 20
102.4845998393564
  0
LINE
  5
2D2
330
1F
100
AcDbEntity
  8
0
  6
Continuous
 62
     7
370
    15
100
AcDbLine
 10
83.47424798275396
 20
102.2846001791029
 30
0.0
 11
83.7805132658971
 21
102.2846001791029
 31
0.0
  0
LINE
  5
2D3
330
1F
100
AcDbEntity
  8
0
  6
Continuous
 62
     7
370
    15
100
AcDbLine
 10
82.85358999718964
 20
104.2846000412671
 30
0.0
 11
82.85358999718964
 21
102.2846001791029
 31
0.0
  0
LINE
  5
2D4
330
1F
100
AcDbEntity
  8
0
  6
Continuous
 62
     7
370
    15
100
AcDbLine
 10
82.85358999718964
 20
102.2846001791029
 30
0.0
 11
82.54732465583883
 21
102.2846001791029
 31
0.0
  0
LWPOLYLINE
  5
2D5
330
1F
100
AcDbEntity
  8
0
  6
Continuous
 62
     7
370
    15
100
AcDbPolyline
 90
        6
 70
   128
 43
0.0
 10
82.42652414346165
 20
102.4845998393564
 10
82.43224374463833
 20
102.4236866863637
 10
82.44836971143312
 20
102.3697351696162
 10
82.47369796017236
 20
102.3259099232225
 10
82.50810805920563
 20
102.2953774439363
 10
82.54732471404649
 20
102.2846001791029
  0
LINE
  5
2D6
330
1F
100
AcDbEntity
  8
0
  6
Continuous
 62
     7
370
    15
100
AcDbLine
 10
82.42652414346165
 20
104.2846000412671
 30
0.0
 11
82.42652414346165
 21
102.4845998393564
 31
0.0
  0
LINE
  5
2D7
330
1F
100
AcDbEntity
  8
0
  6
Continuous
 62
     7
370
    15
100
AcDbLine
 10
84.42498586818627
 20
102.2846001791029
 30
0.0
 11
83.7805129748588
 21
102.2846001791029
 31
0.0
  0
LINE
  5
2D8
330
1F
100
AcDbEntity
  8
0
  6
Continuous
 62
     7
370
    15
100
AcDbLine
 10
84.35737848494254
 20
102.4845998393564
 30
0.0
 11
83.90131383648194
 21
102.4845998393564
 31
0.0
  0
LWPOLYLINE
  5
2D9
330
1F
100
AcDbEntity
  8
0
  6
Continuous
 62
     7
370
    15
100
AcDbPolyline
 90
        6
 70
   128
 43
0.0
 10
84.35737848494254
 20
102.4845998393564
 10
84.36057955704681
 20
102.4236866863637
 10
84.36960465487144
 20
102.3697351696162
 10
84.38377985011838
 20
102.3259099232225
 10
84.4030378547316
 20
102.2953774439363
 10
84.42498586818627
 20
102.2846001791029
  0
LINE
  5
2DA
330
1F
100
AcDbEntity
  8
0
  6
Continuous
 62
     7
370
    15
100
AcDbLine
 10
82.54732465583883
 20
102.2846001791029
 30
0.0
 11
81.90285187892667
 21
102.2846001791029
 31
0.0
  0
LWPOLYLINE
  5
2DB
330
1F
100
AcDbEntity
  8
0
  6
Continuous
 62
     7
370
    15
100
AcDbPolyline
 90
        6
 70
   128
 43
0.0
 10
81.90285211175732
 20
102.2846001791029
 10
81.92754345227085
 20
102.2983492942719
 10
81.94939367685519
 20
102.3393889548449
 10
81.96403790943376
 20
102.3993940683274
 10
81.97011851452343
 20
102.4645037608413
 10
81.97045949500106
 20
102.4845998393564
  0
LINE
  5
2DC
330
1F
100
AcDbEntity
  8
0
  6
Continuous
 62
     7
370
    15
100
AcDbLine
 10
82.42652414346165
 20
102.4845998393564
 30
0.0
 11
81.97045949500106
 21
102.4845998393564
 31
0.0
  0
LINE
  5
2DD
330
1F
100
AcDbEntity
  8
0
  6
Continuous
 62
     7
370
    15
100
AcDbLine
 10
84.35737848494254
 20
104.2846000412671
 30
0.0
 11
84.35737848494254
 21
102.4845998393564
 31
0.0
  0
LINE
  5
2DE
330
1F
100
AcDbEntity
  8
0
  6
Continuous
 62
     7
370
    15
100
AcDbLine
 10
81.97045949500106
 20
102.4845998393564
 30
0.0
 11
81.97045949500106
 21
104.2846000412671
 31
0.0
  0
LINE
  5
2DF
330
1F
100
AcDbEntity
  8
0
  6
Continuous
 62
     7
370
    15
100
AcDbLine
 10
81.7314473141735
 20
102.2846001791029
 30
0.0
 11
81.7314473141735
 21
104.2846000412671
 31
0.0
  0
LINE
  5
2E0
330
1F
100
AcDbEntity
  8
0
  6
Continuous
 62
     7
370
    15
100
AcDbLine
 10
81.7314473141735
 20
102.2846001791029
 30
0.0
 11
81.90285211175732
 21
102.2846001791029
 31
0.0
  0
LINE
  5
2E1
330
1F
100
AcDbEntity
  8
0
  6
Continuous
 62
     7
370
    15
100
AcDbLine
 10
84.59639066577009
 20
104.2846000412671
 30
0.0
 11
84.59639066577009
 21
102.2846001791029
 31
0.0
  0
LINE
  5
2E2
330
1F
100
AcDbEntity
  8
0
  6
Continuous
 62
     7
370
    15
100
AcDbLine
 10
84.59639066577009
 20
102.2846001791029
 30
0.0
 11
84.42498586818627
 21
102.2846001791029
 31
0.0
  0
LINE
  5
2E3
330
1F
100
AcDbEntity
  8
0
  6
Continuous
 62
     7
370
    15
100
AcDbLine
 10
86.21670731090061
 20
102.2846001791029
 30
0.0
 11
85.61615419320814
 21
102.2846001791029
 31
0.0
  0
ARC
  5
2E4
330
1F
100
AcDbEntity
  8
0
  6
Continuous
 62
     7
370
    15
100
AcDbCircle
 10
85.58839202469787
 20
102.4763019887741
 30
0.0
 40
0.1937016643177104
100
AcDbArc
 50
278.2403286259616
 51
2.45520528543115
  0
LINE
  5
2E5
330
1F
100
AcDbEntity
  8
0
  6
Continuous
 62
     7
370
    15
100
AcDbLine
 10
86.20690048418991
 20
102.4845998393564
 30
0.0
 11
85.78191587448172
 21
102.4845998393564
 31
0.0
  0
ARC
  5
2E6
330
1F
100
AcDbEntity
  8
0
  6
Continuous
 62
     7
370
    15
100
AcDbCircle
 10
87.04420800966998
 20
102.42541629297
 30
0.0
 40
0.8393965596715492
100
AcDbArc
 50
175.9568772827923
 51
189.6575332753946
  0
LINE
  5
2E7
330
1F
100
AcDbEntity
  8
0
  6
Continuous
 62
     7
370
    15
100
AcDbLine
 10
80.71168332107417
 20
102.2846001791029
 30
0.0
 11
80.11113043621234
 21
102.2846001791029
 31
0.0
  0
ARC
  5
2E8
330
1F
100
AcDbEntity
  8
0
  6
Continuous
 62
     7
370
    15
100
AcDbCircle
 10
78.60837293129499
 20
102.4585287424915
 30
0.0
 40
1.512789233088296
100
AcDbArc
 50
353.3979838569545
 51
0.987472502487569
  0
LINE
  5
2E9
330
1F
100
AcDbEntity
  8
0
  6
Continuous
 62
     7
370
    15
100
AcDbLine
 10
80.54592210546188
 20
102.4845998393564
 30
0.0
 11
80.12093749575369
 21
102.4845998393564
 31
0.0
  0
ARC
  5
2EA
330
1F
100
AcDbEntity
  8
0
  6
Continuous
 62
     7
370
    15
100
AcDbCircle
 10
80.72683264051484
 20
102.4658479467822
 30
0.0
 40
0.1818797821866513
100
AcDbArc
 50
174.0822619951303
 51
265.2221250131631
  0
LINE
  5
2EB
330
1F
100
AcDbEntity
  8
0
  6
Continuous
 62
     7
370
    15
100
AcDbLine
 10
85.19590023651771
 20
102.2846001791029
 30
0.0
 11
85.19590023651771
 21
104.2846000412671
 31
0.0
  0
LINE
  5
2EC
330
1F
100
AcDbEntity
  8
0
  6
Continuous
 62
     7
370
    15
100
AcDbLine
 10
85.78191587448172
 20
102.4845998393564
 30
0.0
 11
85.78191587448172
 21
104.2846000412671
 31
0.0
  0
LINE
  5
2ED
330
1F
100
AcDbEntity
  8
0
  6
Continuous
 62
     7
370
    15
100
AcDbLine
 10
85.19590023651771
 20
102.2846001791029
 30
0.0
 11
85.61615442603878
 21
102.2846001791029
 31
0.0
  0
LINE
  5
2EE
330
1F
100
AcDbEntity
  8
0
  6
Continuous
 62
     7
370
    15
100
AcDbLine
 10
81.13193774342589
 20
104.2846000412671
 30
0.0
 11
81.13193774342589
 21
102.2846001791029
 31
0.0
  0
LINE
  5
2EF
330
1F
100
AcDbEntity
  8
0
  6
Continuous
 62
     7
370
    15
100
AcDbLine
 10
81.13193774342589
 20
102.2846001791029
 30
0.0
 11
80.71168332107417
 21
102.2846001791029
 31
0.0
  0
LINE
  5
2F0
330
1F
100
AcDbEntity
  8
0
  6
Continuous
 62
     7
370
    15
100
AcDbLine
 10
80.54592210546188
 20
104.2846000412671
 30
0.0
 11
80.54592210546188
 21
102.4845998393564
 31
0.0
  0
LINE
  5
2F1
330
1F
100
AcDbEntity
  8
0
  6
Continuous
 62
     7
370
    15
100
AcDbLine
 10
86.20690048418991
 20
104.2846000412671
 30
0.0
 11
86.20690048418991
 21
102.4845998393564
 31
0.0
  0
LINE
  5
2F2
330
1F
100
AcDbEntity
  8
0
  6
Continuous
 62
     7
370
    15
100
AcDbLine
 10
80.12093749575369
 20
102.4845998393564
 30
0.0
 11
80.12093749575369
 21
104.2846000412671
 31
0.0
  0
LINE
  5
2F3
330
1F
100
AcDbEntity
  8
0
  6
Continuous
 62
     7
370
    15
100
AcDbLine
 10
80.08626715026847
 20
102.2846001791029
 30
0.0
 11
80.08626715026847
 21
104.2846000412671
 31
0.0
  0
LINE
  5
2F4
330
1F
100
AcDbEntity
  8
0
  6
Continuous
 62
     7
370
    15
100
AcDbLine
 10
80.08626715026847
 20
102.2846001791029
 30
0.0
 11
80.11113066904298
 21
102.2846001791029
 31
0.0
  0
LINE
  5
2F5
330
1F
100
AcDbEntity
  8
0
  6
Continuous
 62
     7
370
    15
100
AcDbLine
 10
86.24157082967512
 20
104.2846000412671
 30
0.0
 11
86.24157082967512
 21
102.2846001791029
 31
0.0
  0
LINE
  5
2F6
330
1F
100
AcDbEntity
  8
0
  6
Continuous
 62
     7
370
    15
100
AcDbLine
 10
86.24157082967512
 20
102.2846001791029
 30
0.0
 11
86.21670731090061
 21
102.2846001791029
 31
0.0
  0
LINE
  5
2F7
330
1F
100
AcDbEntity
  8
0
  6
Continuous
 62
     7
370
    15
100
AcDbLine
 10
77.21261174164766
 20
104.2846000412671
 30
0.0
 11
77.21261174164766
 21
102.2846001791029
 31
0.0
  0
LINE
  5
2F8
330
1F
100
AcDbEntity
  8
0
  6
Continuous
 62
     7
370
    15
100
AcDbLine
 10
89.11522623829597
 20
102.2846001791029
 30
0.0
 11
89.11522623829597
 21
104.2846000412671
 31
0.0
  0
LINE
  5
2F9
330
1F
100
AcDbEntity
  8
0
  6
Continuous
 62
     7
370
    15
100
AcDbLine
 10
76.46391919560786
 20
102.1345995025901
 30
0.0
 11
89.86391878433581
 21
102.1345995025901
 31
0.0
  0
LINE
  5
2FA
330
1F
100
AcDbEntity
  8
0
  6
Continuous
 62
     7
370
    15
100
AcDbLine
 10
76.81391906671281
 20
100.8345998482971
 30
0.0
 11
89.51391891323085
 21
100.8345998482971
 31
0.0
  0
LINE
  5
2FB
330
1F
100
AcDbEntity
  8
0
  6
Continuous
 62
     7
370
    15
100
AcDbLine
 10
76.81391906671281
 20
99.68459993919418
 30
0.0
 11
89.51391891323085
 21
99.68459993919418
 31
0.0
  0
LINE
  5
2FC
330
1F
100
AcDbEntity
  8
0
  6
Continuous
 62
     7
370
    15
100
AcDbLine
 10
76.81391906671281
 20
98.48460011502789
 30
0.0
 11
89.51391891323085
 21
98.48460011502789
 31
0.0
  0
LINE
  5
2FD
330
1F
100
AcDbEntity
  8
0
  6
Continuous
 62
     7
370
    15
100
AcDbLine
 10
76.81391906671281
 20
97.88460020294474
 30
0.0
 11
89.51391891323085
 21
97.88460020294474
 31
0.0
  0
LINE
  5
2FE
330
1F
100
AcDbEntity
  8
0
  6
Continuous
 62
     7
370
    15
100
AcDbLine
 10
85.91391897507065
 20
96.18460029682205
 30
0.0
 11
80.41391900487298
 21
96.18460029682205
 31
0.0
  0
LWPOLYLINE
  5
2FF
330
1F
100
AcDbEntity
  8
0
  6
Continuous
 62
     7
370
    15
100
AcDbPolyline
 90
        9
 70
   128
 43
0.0
 10
86.03891899555975
 20
95.93459979018257
 10
86.03651711463982
 20
95.98337315341519
 10
86.02940390564555
 20
96.03027083298252
 10
86.01785271175259
 20
96.07349165102528
 10
86.00230730816775
 20
96.11137599071549
 10
85.98336537115329
 20
96.14246726354645
 10
85.96175449647063
 20
96.16556965133236
 10
85.93830519102567
 20
96.17979653498219
 10
85.91391897507065
 20
96.18460029682205
  0
LINE
  5
300
330
1F
100
AcDbEntity
  8
0
  6
Continuous
 62
     7
370
    15
100
AcDbLine
 10
86.03891899555975
 20
95.93459979018257
 30
0.0
 11
80.28891898438388
 21
95.93459979018257
 31
0.0
  0
LWPOLYLINE
  5
301
330
1F
100
AcDbEntity
  8
0
  6
Continuous
 62
     7
370
    15
100
AcDbPolyline
 90
        5
 70
   128
 43
0.0
 10
80.28891898438388
 20
95.93459979018257
 10
80.29843407429808
 20
96.03027083298252
 10
80.32553067177587
 20
96.11137599071549
 10
80.366083483473
 20
96.16556965133236
 10
80.41391900487298
 20
96.18460029682205
  0
LINE
  5
302
330
1F
100
AcDbEntity
  8
0
  6
Continuous
 62
     7
370
    15
100
AcDbLine
 10
77.51391880892272
 20
94.53460030576275
 30
0.0
 11
77.51391880892272
 21
94.336245361176
 31
0.0
  0
LINE
  5
303
330
1F
100
AcDbEntity
  8
0
  6
Continuous
 62
     7
370
    15
100
AcDbLine
 10
77.51391880892272
 20
94.53460030576275
 30
0.0
 11
88.81391917102094
 21
94.53460030576275
 31
0.0
  0
LINE
  5
304
330
1F
100
AcDbEntity
  8
0
  6
Continuous
 62
     7
370
    15
100
AcDbLine
 10
88.81391917102094
 20
94.53460030576275
 30
0.0
 11
88.81391917102094
 21
94.3347738715081
 31
0.0
  0
LINE
  5
305
330
1F
100
AcDbEntity
  8
0
  6
Continuous
 62
     7
370
    15
100
AcDbLine
 10
83.16391898997181
 20
94.28459979912327
 30
0.0
 11
88.66391896016951
 21
94.28459979912327
 31
0.0
  0
LINE
  5
306
330
1F
100
AcDbEntity
  8
0
  6
Continuous
 62
     7
370
    15
100
AcDbLine
 10
77.66391901977415
 20
94.28459979912327
 30
0.0
 11
83.16391898997181
 21
94.28459979912327
 31
0.0
  0
LINE
  5
307
330
1F
100
AcDbEntity
  8
0
  6
Continuous
 62
     7
370
    15
100
AcDbLine
 10
86.56164637513512
 20
97.63459969630526
 30
0.0
 11
86.56164637513512
 21
96.43459987213896
 31
0.0
  0
LWPOLYLINE
  5
308
330
1F
100
AcDbEntity
  8
0
  6
Continuous
 62
     7
370
    15
100
AcDbPolyline
 90
        3
 70
   128
 43
0.0
 10
86.56164637513512
 20
97.63459969630526
 10
86.54376009225899
 20
97.76531920155571
 10
86.49151708677464
 20
97.88460020294474
  0
LINE
  5
309
330
1F
100
AcDbEntity
  8
0
  6
Continuous
 62
     7
370
    15
100
AcDbLine
 10
88.81391917102094
 20
94.53460030576275
 30
0.0
 11
88.81391917102094
 21
97.88460020294474
 31
0.0
  0
LINE
  5
30A
330
1F
100
AcDbEntity
  8
0
  6
Continuous
 62
     7
370
    15
100
AcDbLine
 10
77.51391880892272
 20
97.88460020294474
 30
0.0
 11
77.51391880892272
 21
94.53460030576275
 31
0.0
  0
LWPOLYLINE
  5
30B
330
1F
100
AcDbEntity
  8
0
  6
Continuous
 62
     7
370
    15
100
AcDbPolyline
 90
        3
 70
   128
 43
0.0
 10
79.83632089316898
 20
97.88460020294474
 10
79.78407788768464
 20
97.76531920155571
 10
79.76619160480851
 20
97.63459969630526
  0
LINE
  5
30C
330
1F
100
AcDbEntity
  8
0
  6
Continuous
 62
     7
370
    15
100
AcDbLine
 10
79.76619160480851
 20
96.43459987213896
 30
0.0
 11
79.76619160480851
 21
97.63459969630526
 31
0.0
  0
ARC
  5
30D
330
1F
100
AcDbEntity
  8
0
  6
Continuous
 62
     7
370
    15
100
AcDbCircle
 10
80.27513504467366
 20
96.44343321672252
 30
0.0
 40
0.5090200909181368
100
AcDbArc
 50
180.9943394743148
 51
271.5517228835846
  0
ARC
  5
30E
330
1F
100
AcDbEntity
  8
0
  6
Continuous
 62
     7
370
    15
100
AcDbCircle
 10
86.05270405176034
 20
96.44343204948256
 30
0.0
 40
0.5090189543413623
100
AcDbArc
 50
268.4481479311728
 51
359.0057897109093
  0
ARC
  5
30F
330
1F
100
AcDbEntity
  8
0
  6
Continuous
 62
     7
370
    15
100
AcDbCircle
 10
85.91391926293132
 20
97.63460044982624
 30
0.0
 40
0.2499997531186709
100
AcDbArc
 50
360.0000000000008
 51
90.00006597286832
  0
LINE
  5
310
330
1F
100
AcDbEntity
  8
0
  6
Continuous
 62
     7
370
    15
100
AcDbLine
 10
86.16391901604885
 20
97.63459969630526
 30
0.0
 11
86.56164637513512
 21
97.63459969630526
 31
0.0
  0
ARC
  5
311
330
1F
100
AcDbEntity
  8
0
  6
Continuous
 62
     7
370
    15
100
AcDbCircle
 10
80.40131312168755
 20
97.63774578434578
 30
0.0
 40
0.2374150037889229
100
AcDbArc
 50
117.5588555428841
 51
180.7592731705543
  0
LINE
  5
312
330
1F
100
AcDbEntity
  8
0
  6
Continuous
 62
     7
370
    15
100
AcDbLine
 10
79.76619160480851
 20
97.63459969630526
 30
0.0
 11
80.16391896389478
 21
97.63459969630526
 31
0.0
  0
ARC
  5
313
330
1F
100
AcDbEntity
  8
0
  6
Continuous
 62
     7
370
    15
100
AcDbCircle
 10
85.91395536432187
 20
96.43456394848168
 30
0.0
 40
0.2499636543083672
100
AcDbArc
 50
269.9916589852731
 51
0.0082342952612204
  0
LINE
  5
314
330
1F
100
AcDbEntity
  8
0
  6
Continuous
 62
     7
370
    15
100
AcDbLine
 10
86.56164637513512
 20
96.43459987213896
 30
0.0
 11
86.16391901604885
 21
96.43459987213896
 31
0.0
  0
LINE
  5
315
330
1F
100
AcDbEntity
  8
0
  6
Continuous
 62
     7
370
    15
100
AcDbLine
 10
79.76619160480851
 20
96.43459987213896
 30
0.0
 11
80.16391896389478
 21
96.43459987213896
 31
0.0
  0
ARC
  5
316
330
1F
100
AcDbEntity
  8
0
  6
Continuous
 62
     7
370
    15
100
AcDbCircle
 10
80.41391696121079
 20
96.43459829413469
 30
0.0
 40
0.2499979973209861
100
AcDbArc
 50
180.0000000000004
 51
270.0004683766263
  0
LINE
  5
317
330
1F
100
AcDbEntity
  8
0
  6
Continuous
 62
     7
370
    15
100
AcDbLine
 10
86.16391901604885
 20
96.43459987213896
 30
0.0
 11
86.16391901604885
 21
97.63459969630526
 31
0.0
  0
LINE
  5
318
330
1F
100
AcDbEntity
  8
0
  6
Continuous
 62
     7
370
    15
100
AcDbLine
 10
80.16391896389478
 20
96.43459987213896
 30
0.0
 11
80.16391896389478
 21
97.63459969630526
 31
0.0
  0
LINE
  5
319
330
1F
100
AcDbEntity
  8
0
  6
Continuous
 62
     7
370
    15
100
AcDbLine
 10
76.3943885148322
 20
102.2846001791029
 30
0.0
 11
76.64314524017328
 21
102.2846001791029
 31
0.0
  0
ARC
  5
31A
330
1F
100
AcDbEntity
  8
0
  6
Continuous
 62
     7
370
    15
100
AcDbCircle
 10
76.41685725817817
 20
102.4593423651417
 30
0.0
 40
0.1761808048829241
100
AcDbArc
 50
171.7576143058727
 51
262.6729834349678
  0
LINE
  5
31B
330
1F
100
AcDbEntity
  8
0
  6
Continuous
 62
     7
370
    15
100
AcDbLine
 10
76.24249632217043
 20
102.4845998393564
 30
0.0
 11
76.41853072427267
 21
102.4845998393564
 31
0.0
  0
ARC
  5
31C
330
1F
100
AcDbEntity
  8
0
  6
Continuous
 62
     7
370
    15
100
AcDbCircle
 10
76.62577003498869
 20
102.491215735263
 30
0.0
 40
0.2073448865651105
100
AcDbArc
 50
181.8284861980868
 51
274.8070706930377
  0
LINE
  5
31D
330
1F
100
AcDbEntity
  8
0
  6
Continuous
 62
     7
370
    15
100
AcDbLine
 10
89.93344946511143
 20
102.2846001791029
 30
0.0
 11
89.68469180844778
 21
102.2846001791029
 31
0.0
  0
ARC
  5
31E
330
1F
100
AcDbEntity
  8
0
  6
Continuous
 62
     7
370
    15
100
AcDbCircle
 10
89.70206678074687
 20
102.4912170427581
 30
0.0
 40
0.2073460919034397
100
AcDbArc
 50
265.1932801572217
 51
358.1711629516491
  0
LINE
  5
31F
330
1F
100
AcDbEntity
  8
0
  6
Continuous
 62
     7
370
    15
100
AcDbLine
 10
90.08534165777319
 20
102.4845998393564
 30
0.0
 11
89.90930725567096
 21
102.4845998393564
 31
0.0
  0
ARC
  5
320
330
1F
100
AcDbEntity
  8
0
  6
Continuous
 62
     7
370
    15
100
AcDbCircle
 10
89.91098072174844
 20
102.4593423651547
 30
0.0
 40
0.1761808048979214
100
AcDbArc
 50
277.3270165699888
 51
8.242385689177048
  0
LINE
  5
321
330
1F
100
AcDbEntity
  8
0
  6
Continuous
 62
     7
370
    15
100
AcDbLine
 10
89.90930725567096
 20
102.4845998393564
 30
0.0
 11
89.90930725567096
 21
104.2846000412671
 31
0.0
  0
LINE
  5
322
330
1F
100
AcDbEntity
  8
0
  6
Continuous
 62
     7
370
    15
100
AcDbLine
 10
89.11522623829597
 20
102.2846001791029
 30
0.0
 11
89.68469227410906
 21
102.2846001791029
 31
0.0
  0
LINE
  5
323
330
1F
100
AcDbEntity
  8
0
  6
Continuous
 62
     7
370
    15
100
AcDbLine
 10
76.64314524017328
 20
102.2846001791029
 30
0.0
 11
77.21261174164766
 21
102.2846001791029
 31
0.0
  0
LINE
  5
324
330
1F
100
AcDbEntity
  8
0
  6
Continuous
 62
     7
370
    15
100
AcDbLine
 10
76.41853072427267
 20
102.4845998393564
 30
0.0
 11
76.41853072427267
 21
104.2846000412671
 31
0.0
  0
LINE
  5
325
330
1F
100
AcDbEntity
  8
0
  6
Continuous
 62
     7
370
    15
100
AcDbLine
 10
90.08534165777319
 20
104.2846000412671
 30
0.0
 11
90.08534165777319
 21
102.4845998393564
 31
0.0
  0
LINE
  5
326
330
1F
100
AcDbEntity
  8
0
  6
Continuous
 62
     7
370
    15
100
AcDbLine
 10
76.24249632217043
 20
104.2846000412671
 30
0.0
 11
76.24249632217043
 21
102.4845998393564
 31
0.0
  0
LINE
  5
327
330
1F
100
AcDbEntity
  8
0
  6
Continuous
 62
     7
370
    15
100
AcDbLine
 10
90.46704514630194
 20
102.4845998393564
 30
0.0
 11
90.46704514630194
 21
104.2846000412671
 31
0.0
  0
ARC
  5
328
330
1F
100
AcDbEntity
  8
0
  6
Continuous
 62
     7
370
    15
100
AcDbCircle
 10
90.26309901504232
 20
102.4883108318248
 30
0.0
 40
0.2039798909718065
100
AcDbArc
 50
267.0558487773691
 51
358.9575642180171
  0
LINE
  5
329
330
1F
100
AcDbEntity
  8
0
  6
Continuous
 62
     7
370
    15
100
AcDbLine
 10
89.96046899564619
 20
102.2846001791029
 30
0.0
 11
90.25262209333535
 21
102.2846001791029
 31
0.0
  0
LINE
  5
32A
330
1F
100
AcDbEntity
  8
0
  6
Continuous
 62
     7
370
    15
100
AcDbLine
 10
76.07521542094703
 20
102.2846001791029
 30
0.0
 11
76.36736851863618
 21
102.2846001791029
 31
0.0
  0
ARC
  5
32B
330
1F
100
AcDbEntity
  8
0
  6
Continuous
 62
     7
370
    15
100
AcDbCircle
 10
76.06473896489659
 20
102.4883108318197
 30
0.0
 40
0.2039798909669541
100
AcDbArc
 50
181.0424357805797
 51
272.9441512240415
  0
LINE
  5
32C
330
1F
100
AcDbEntity
  8
0
  6
Continuous
 62
     7
370
    15
100
AcDbLine
 10
75.86079283364172
 20
102.4845998393564
 30
0.0
 11
75.86079283364172
 21
104.2846000412671
 31
0.0
  0
ARC
  5
32D
330
1F
100
AcDbEntity
  8
0
  6
Continuous
 62
     7
370
    15
100
AcDbCircle
 10
75.99446174992195
 20
102.4783684569943
 30
0.0
 40
0.1938114835558741
100
AcDbArc
 50
178.1575217073244
 51
268.7901645948768
  0
LINE
  5
32E
330
1F
100
AcDbEntity
  8
0
  6
Continuous
 62
     7
370
    15
100
AcDbLine
 10
75.80075046725626
 20
102.4845998393564
 30
0.0
 11
75.86079283364172
 21
102.4845998393564
 31
0.0
  0
LINE
  5
32F
330
1F
100
AcDbEntity
  8
0
  6
Continuous
 62
     7
370
    15
100
AcDbLine
 10
75.99036914043184
 20
102.2846001791029
 30
0.0
 11
76.07521542094703
 21
102.2846001791029
 31
0.0
  0
LINE
  5
330
330
1F
100
AcDbEntity
  8
0
  6
Continuous
 62
     7
370
    15
100
AcDbLine
 10
90.5270875126874
 20
102.4845998393564
 30
0.0
 11
90.46704514630194
 21
102.4845998393564
 31
0.0
  0
ARC
  5
331
330
1F
100
AcDbEntity
  8
0
  6
Continuous
 62
     7
370
    15
100
AcDbCircle
 10
90.33337623002156
 20
102.4783684569944
 30
0.0
 40
0.1938114835560257
100
AcDbArc
 50
271.20983540517
 51
1.842478292632071
  0
LINE
  5
332
330
1F
100
AcDbEntity
  8
0
  6
Continuous
 62
     7
370
    15
100
AcDbLine
 10
90.33746837385054
 20
102.2846001791029
 30
0.0
 11
90.25262162767406
 21
102.2846001791029
 31
0.0
  0
LINE
  5
333
330
1F
100
AcDbEntity
  8
0
  6
Continuous
 62
     7
370
    15
100
AcDbLine
 10
90.5270875126874
 20
104.2846000412671
 30
0.0
 11
90.5270875126874
 21
102.4845998393564
 31
0.0
  0
LINE
  5
334
330
1F
100
AcDbEntity
  8
0
  6
Continuous
 62
     7
370
    15
100
AcDbLine
 10
75.80075046725626
 20
104.2846000412671
 30
0.0
 11
75.80075046725626
 21
102.4845998393564
 31
0.0
  0
ARC
  5
335
330
1F
100
AcDbEntity
  8
0
  6
Continuous
 62
     7
370
    15
100
AcDbCircle
 10
80.41391898997185
 20
96.43459987362907
 30
0.0
 40
0.2500000000000103
100
AcDbArc
 50
217.2846595315999
 51
243.9884049806673
  0
LWPOLYLINE
  5
336
330
1F
100
AcDbEntity
  8
0
  6
Continuous
 62
     7
370
    15
100
AcDbPolyline
 90
        3
 70
   128
 43
0.0
 10
86.10905177637992
 20
97.78325554302023
 10
86.07251971706805
 20
97.82785099318312
 10
86.03636717170534
 20
97.84822274318026
  0
ARC
  5
337
330
1F
100
AcDbEntity
  8
0
  6
Continuous
 62
     7
370
    15
100
AcDbCircle
 10
83.16391898997173
 20
113.784599873629
 30
0.0
 40
3.999999999996024
100
AcDbArc
 50
295.9444797723985
 51
64.05552022760229
  0
LINE
  5
338
330
1F
100
AcDbEntity
  8
0
  6
Continuous
 62
     7
370
    15
100
AcDbLine
 10
84.91391904398843
 20
110.1877262475161
 30
0.0
 11
84.91391904398843
 21
110.7535109980224
 31
0.0
  0
ARC
  5
339
330
1F
100
AcDbEntity
  8
0
  6
Continuous
 62
     7
370
    15
100
AcDbCircle
 10
83.16391898997173
 20
113.784599873629
 30
0.0
 40
3.499999999981765
100
AcDbArc
 50
300.0000000001731
 51
59.99999999982765
  0
LINE
  5
33A
330
1F
100
AcDbEntity
  8
0
  6
Continuous
 62
     7
370
    15
100
AcDbLine
 10
84.91391904398843
 20
116.8156887063949
 30
0.0
 11
84.91391904398843
 21
117.3814736897318
 31
0.0
  0
LINE
  5
33B
330
1F
100
AcDbEntity
  8
0
  6
Continuous
 62
     7
370
    15
100
AcDbLine
 10
84.91391904398843
 20
110.7535109980224
 30
0.0
 11
84.91391904398843
 21
116.8156887063949
 31
0.0
  0
ARC
  5
33C
330
1F
100
AcDbEntity
  8
0
  6
Continuous
 62
     7
370
    15
100
AcDbCircle
 10
83.16391898997173
 20
113.784599873629
 30
0.0
 40
3.999999999996024
100
AcDbArc
 50
115.9444797723977
 51
244.0555202276031
  0
ARC
  5
33D
330
1F
100
AcDbEntity
  8
0
  6
Continuous
 62
     7
370
    15
100
AcDbCircle
 10
83.16391898997173
 20
113.784599873629
 30
0.0
 40
3.499999999981765
100
AcDbArc
 50
120.0000000001723
 51
239.9999999998284
  0
LINE
  5
33E
330
1F
100
AcDbEntity
  8
0
  6
Continuous
 62
     7
370
    15
100
AcDbLine
 10
81.41391893595502
 20
110.1877262475161
 30
0.0
 11
81.41391893595502
 21
110.7535109980224
 31
0.0
  0
LINE
  5
33F
330
1F
100
AcDbEntity
  8
0
  6
Continuous
 62
     7
370
    15
100
AcDbLine
 10
81.41391893595502
 20
116.8156887063949
 30
0.0
 11
81.41391893595502
 21
117.3814736897318
 31
0.0
  0
LINE
  5
340
330
1F
100
AcDbEntity
  8
0
  6
Continuous
 62
     7
370
    15
100
AcDbLine
 10
81.41391893595502
 20
110.7535109980224
 30
0.0
 11
81.41391893595502
 21
116.8156887063949
 31
0.0
  0
ARC
  5
341
330
1F
100
AcDbEntity
  8
0
  6
Continuous
 62
     7
370
    15
100
AcDbCircle
 10
83.81405234091712
 20
112.4217740760183
 30
0.0
 40
2.490115753245326
100
AcDbArc
 50
294.303741779311
 51
296.2119513246993
  0
ARC
  5
342
330
1F
100
AcDbEntity
  8
0
  6
Continuous
 62
     7
370
    15
100
AcDbCircle
 10
83.43682173143173
 20
114.3452591517285
 30
0.0
 40
3.376450087228425
100
AcDbArc
 50
64.0573997851551
 51
65.46444809600199
  0
ARC
  5
343
330
1F
100
AcDbEntity
  8
0
  6
Continuous
 62
     7
370
    15
100
AcDbCircle
 10
82.51357108720645
 20
115.1478656849075
 30
0.0
 40
2.489626392245875
100
AcDbArc
 50
114.3034098810664
 51
116.2119922521677
  0
ARC
  5
344
330
1F
100
AcDbEntity
  8
0
  6
Continuous
 62
     7
370
    15
100
AcDbCircle
 10
82.87830327556102
 20
113.1969520496349
 30
0.0
 40
3.346619402056447
100
AcDbArc
 50
244.0509820985928
 51
245.4705747225662
  0
LINE
  5
345
330
1F
100
AcDbEntity
  8
0
  6
Continuous
 62
     7
370
    15
100
AcDbLine
 10
80.49829845994764
 20
97.83460028788136
 30
0.0
 11
80.2672957696771
 21
97.83460028788136
 31
0.0
  0
ENDSEC
  0
SECTION
  2
OBJECTS
  0
DICTIONARY
  5
C
330
0
100
AcDbDictionary
281
     1
  3
ACAD_COLOR
350
658
  3
ACAD_GROUP
350
D
  3
ACAD_LAYOUT
350
1A
  3
ACAD_MATERIAL
350
657
  3
ACAD_MLINESTYLE
350
17
  3
ACAD_PLOTSETTINGS
350
19
  3
ACAD_PLOTSTYLENAME
350
E
  3
ACAD_TABLESTYLE
350
659
  3
AcDbVariableDictionary
350
65E
  0
DICTIONARY
  5
658
102
{ACAD_REACTORS
330
C
102
}
330
C
100
AcDbDictionary
281
     1
  0
DICTIONARY
  5
D
102
{ACAD_REACTORS
330
C
102
}
330
C
100
AcDbDictionary
281
     1
  0
DICTIONARY
  5
1A
102
{ACAD_REACTORS
330
C
102
}
330
C
100
AcDbDictionary
281
     1
  3
Layout1
350
1E
  3
Layout2
350
26
  3
Model
350
22
  0
DICTIONARY
  5
657
102
{ACAD_REACTORS
330
C
102
}
330
C
100
AcDbDictionary
281
     1
  0
DICTIONARY
  5
17
102
{ACAD_REACTORS
330
C
102
}
330
C
100
AcDbDictionary
281
     1
  3
Standard
350
18
  0
DICTIONARY
  5
19
102
{ACAD_REACTORS
330
C
102
}
330
C
100
AcDbDictionary
281
     1
  0
ACDBDICTIONARYWDFLT
  5
E
102
{ACAD_REACTORS
330
C
102
}
330
C
100
AcDbDictionary
281
     1
  3
Normal
350
F
100
AcDbDictionaryWithDefault
340
F
  0
DICTIONARY
  5
659
102
{ACAD_REACTORS
330
C
102
}
330
C
100
AcDbDictionary
281
     1
  3
Standard
350
65A
  0
DICTIONARY
  5
65E
102
{ACAD_REACTORS
330
C
102
}
330
C
100
AcDbDictionary
281
     1
  3
CTABLESTYLE
350
65F
  0
LAYOUT
  5
1E
102
{ACAD_REACTORS
330
1A
102
}
330
1A
100
AcDbPlotSettings
  1

  2

  4

  6

 40
0.0
 41
0.0
 42
0.0
 43
0.0
 44
0.0
 45
0.0
 46
0.0
 47
0.0
 48
0.0
 49
0.0
140
0.0
141
0.0
142
1.0
143
1.0
 70
   688
 72
     0
 73
     0
 74
     5
  7

 75
    16
147
1.0
 76
     0
 77
     2
 78
   300
148
0.0
149
0.0
100
AcDbLayout
  1
Layout1
 70
     1
 71
     1
 10
0.0
 20
0.0
 11
420.0
 21
297.0
 12
0.0
 22
0.0
 32
0.0
 14
1.000000000000000E+20
 24
1.000000000000000E+20
 34
1.000000000000000E+20
 15
-1.000000000000000E+20
 25
-1.000000000000000E+20
 35
-1.000000000000000E+20
146
0.0
 13
0.0
 23
0.0
 33
0.0
 16
1.0
 26
0.0
 36
0.0
 17
0.0
 27
1.0
 37
0.0
 76
     0
330
1B
  0
LAYOUT
  5
26
102
{ACAD_REACTORS
330
1A
102
}
330
1A
100
AcDbPlotSettings
  1

  2

  4

  6

 40
0.0
 41
0.0
 42
0.0
 43
0.0
 44
0.0
 45
0.0
 46
0.0
 47
0.0
 48
0.0
 49
0.0
140
0.0
141
0.0
142
1.0
143
1.0
 70
   688
 72
     0
 73
     0
 74
     5
  7

 75
    16
147
1.0
 76
     0
 77
     2
 78
   300
148
0.0
149
0.0
100
AcDbLayout
  1
Layout2
 70
     1
 71
     2
 10
0.0
 20
0.0
 11
0.0
 21
0.0
 12
0.0
 22
0.0
 32
0.0
 14
0.0
 24
0.0
 34
0.0
 15
0.0
 25
0.0
 35
0.0
146
0.0
 13
0.0
 23
0.0
 33
0.0
 16
1.0
 26
0.0
 36
0.0
 17
0.0
 27
1.0
 37
0.0
 76
     0
330
23
  0
LAYOUT
  5
22
102
{ACAD_REACTORS
330
1A
102
}
330
1A
100
AcDbPlotSettings
  1

  2

  4

  6

 40
0.0
 41
0.0
 42
0.0
 43
0.0
 44
0.0
 45
0.0
 46
0.0
 47
0.0
 48
0.0
 49
0.0
140
0.0
141
0.0
142
1.0
143
1.0
 70
  1712
 72
     0
 73
     0
 74
     0
  7

 75
     0
147
1.0
 76
     0
 77
     2
 78
   300
148
0.0
149
0.0
100
AcDbLayout
  1
Model
 70
     1
 71
     0
 10
0.0
 20
0.0
 11
0.0
 21
0.0
 12
0.0
 22
0.0
 32
0.0
 14
0.0
 24
0.0
 34
0.0
 15
279.4
 25
215.9
 35
0.0
146
0.0
 13
0.0
 23
0.0
 33
0.0
 16
1.0
 26
0.0
 36
0.0
 17
0.0
 27
1.0
 37
0.0
 76
     0
330
1F
  0
MLINESTYLE
  5
18
102
{ACAD_REACTORS
330
17
102
}
330
17
100
AcDbMlineStyle
  2
STANDARD
 70
     0
  3

 62
   256
 51
90.0
 52
90.0
 71
     2
 49
0.5
 62
   256
  6
BYLAYER
 49
-0.5
 62
   256
  6
BYLAYER
  0
ACDBPLACEHOLDER
  5
F
102
{ACAD_REACTORS
330
E
102
}
330
E
  0
TABLESTYLE
  5
65A
102
{ACAD_REACTORS
330
659
102
}
330
659
100
AcDbTableStyle
  3
Standard
 70
     0
 71
     8
 40
1.5
 41
1.5
280
     0
281
     0
  7
Standard
140
4.5
170
     2
 62
     0
 63
     7
283
     0
274
    -2
284
     1
 64
     0
275
    -2
285
     1
 65
     0
276
    -2
286
     1
 66
     0
277
    -2
287
     1
 67
     0
278
    -2
288
     1
 68
     0
279
    -2
289
     1
 69
     0
  7
Standard
140
6.0
170
     5
 62
     0
 63
     7
283
     0
274
    -2
284
     1
 64
     0
275
    -2
285
     1
 65
     0
276
    -2
286
     1
 66
     0
277
    -2
287
     1
 67
     0
278
    -2
288
     1
 68
     0
279
    -2
289
     1
 69
     0
  7
Standard
140
4.5
170
     5
 62
     0
 63
     7
283
     0
274
    -2
284
     1
 64
     0
275
    -2
285
     1
 65
     0
276
    -2
286
     1
 66
     0
277
    -2
287
     1
 67
     0
278
    -2
288
     1
 68
     0
279
    -2
289
     1
 69
     0
  0
DICTIONARYVAR
  5
65F
102
{ACAD_REACTORS
330
65E
102
}
330
65E
100
DictionaryVariables
280
     0
  1
STANDARD
  0
ENDSEC
  0
EOF
