  0
SECTION
  2
HEADER
  9
$ACADVER
  1
AC1018
  9
$ACADMAINTVER
 70
    77
  9
$DWGCODEPAGE
  3
ANSI_1252
  9
$INSBASE
 10
0.0
 20
0.0
 30
0.0
  9
$EXTMIN
 10
13.83882987102148
 20
95.06653161437261
 30
0.0
  9
$EXTMAX
 10
47.38306356502425
 20
125.1719914208733
 30
0.0
  9
$LIMMIN
 10
0.0
 20
0.0
  9
$LIMMAX
 10
420.0
 20
297.0
  9
$ORTHOMODE
 70
     0
  9
$REGENMODE
 70
     1
  9
$FILLMODE
 70
     1
  9
$QTEXTMODE
 70
     0
  9
$MIRRTEXT
 70
     1
  9
$LTSCALE
 40
1.0
  9
$ATTMODE
 70
     1
  9
$TEXTSIZE
 40
2.5
  9
$TRACEWID
 40
1.0
  9
$TEXTSTYLE
  7
Standard
  9
$CLAYER
  8
0
  9
$CELTYPE
  6
ByLayer
  9
$CECOLOR
 62
   256
  9
$CELTSCALE
 40
1.0
  9
$DISPSILH
 70
     0
  9
$DIMSCALE
 40
1.0
  9
$DIMASZ
 40
6.0
  9
$DIMEXO
 40
1.0
  9
$DIMDLI
 40
3.75
  9
$DIMRND
 40
0.0
  9
$DIMDLE
 40
0.0
  9
$DIMEXE
 40
1.0
  9
$DIMTP
 40
0.0
  9
$DIMTM
 40
0.0
  9
$DIMTXT
 40
3.5
  9
$DIMCEN
 40
2.5
  9
$DIMTSZ
 40
0.0
  9
$DIMTOL
 70
     0
  9
$DIMLIM
 70
     0
  9
$DIMTIH
 70
     1
  9
$DIMTOH
 70
     1
  9
$DIMSE1
 70
     0
  9
$DIMSE2
 70
     0
  9
$DIMTAD
 70
     1
  9
$DIMZIN
 70
     0
  9
$DIMBLK
  1

  9
$DIMASO
 70
     1
  9
$DIMSHO
 70
     1
  9
$DIMPOST
  1

  9
$DIMAPOST
  1

  9
$DIMALT
 70
     0
  9
$DIMALTD
 70
     3
  9
$DIMALTF
 40
0.0394
  9
$DIMLFAC
 40
1.0
  9
$DIMTOFL
 70
     1
  9
$DIMTVP
 40
0.0
  9
$DIMTIX
 70
     0
  9
$DIMSOXD
 70
     0
  9
$DIMSAH
 70
     0
  9
$DIMBLK1
  1

  9
$DIMBLK2
  1

  9
$DIMSTYLE
  2
ISO-25
  9
$DIMCLRD
 70
     0
  9
$DIMCLRE
 70
     0
  9
$DIMCLRT
 70
     0
  9
$DIMTFAC
 40
1.0
  9
$DIMGAP
 40
1.524
  9
$DIMJUST
 70
     0
  9
$DIMSD1
 70
     0
  9
$DIMSD2
 70
     0
  9
$DIMTOLJ
 70
     0
  9
$DIMTZIN
 70
     0
  9
$DIMALTZ
 70
     0
  9
$DIMALTTZ
 70
     0
  9
$DIMUPT
 70
     0
  9
$DIMDEC
 70
     2
  9
$DIMTDEC
 70
     2
  9
$DIMALTU
 70
     2
  9
$DIMALTTD
 70
     3
  9
$DIMTXSTY
  7
Standard
  9
$DIMAUNIT
 70
     0
  9
$DIMADEC
 70
     0
  9
$DIMALTRND
 40
0.0
  9
$DIMAZIN
 70
     0
  9
$DIMDSEP
 70
    44
  9
$DIMATFIT
 70
     3
  9
$DIMFRAC
 70
     0
  9
$DIMLDRBLK
  1

  9
$DIMLUNIT
 70
     2
  9
$DIMLWD
 70
    -2
  9
$DIMLWE
 70
    -2
  9
$DIMTMOVE
 70
     0
  9
$LUNITS
 70
     2
  9
$LUPREC
 70
     2
  9
$SKETCHINC
 40
1.0
  9
$FILLETRAD
 40
10.0
  9
$AUNITS
 70
     0
  9
$AUPREC
 70
     0
  9
$MENU
  1
.
  9
$ELEVATION
 40
0.0
  9
$PELEVATION
 40
0.0
  9
$THICKNESS
 40
0.0
  9
$LIMCHECK
 70
     0
  9
$CHAMFERA
 40
10.0
  9
$CHAMFERB
 40
10.0
  9
$CHAMFERC
 40
20.0
  9
$CHAMFERD
 40
0.0
  9
$SKPOLY
 70
     0
  9
$TDCREATE
 40
2454502.631635370
  9
$TDUCREATE
 40
2454502.589968704
  9
$TDUPDATE
 40
2454515.424512975
  9
$TDUUPDATE
 40
2454515.382846308
  9
$TDINDWG
 40
0.0013133218
  9
$TDUSRTIMER
 40
0.0013133218
  9
$USRTIMER
 70
     1
  9
$ANGBASE
 50
0.0
  9
$ANGDIR
 70
     0
  9
$PDMODE
 70
     0
  9
$PDSIZE
 40
-1.0
  9
$PLINEWID
 40
0.0
  9
$SPLFRAME
 70
     0
  9
$SPLINETYPE
 70
     6
  9
$SPLINESEGS
 70
     8
  9
$HANDSEED
  5
66B
  9
$SURFTAB1
 70
     6
  9
$SURFTAB2
 70
     6
  9
$SURFTYPE
 70
     6
  9
$SURFU
 70
     6
  9
$SURFV
 70
     6
  9
$UCSBASE
  2

  9
$UCSNAME
  2

  9
$UCSORG
 10
0.0
 20
0.0
 30
0.0
  9
$UCSXDIR
 10
1.0
 20
0.0
 30
0.0
  9
$UCSYDIR
 10
0.0
 20
1.0
 30
0.0
  9
$UCSORTHOREF
  2

  9
$UCSORTHOVIEW
 70
     0
  9
$UCSORGTOP
 10
0.0
 20
0.0
 30
0.0
  9
$UCSORGBOTTOM
 10
0.0
 20
0.0
 30
0.0
  9
$UCSORGLEFT
 10
0.0
 20
0.0
 30
0.0
  9
$UCSORGRIGHT
 10
0.0
 20
0.0
 30
0.0
  9
$UCSORGFRONT
 10
0.0
 20
0.0
 30
0.0
  9
$UCSORGBACK
 10
0.0
 20
0.0
 30
0.0
  9
$PUCSBASE
  2

  9
$PUCSNAME
  2

  9
$PUCSORG
 10
0.0
 20
0.0
 30
0.0
  9
$PUCSXDIR
 10
1.0
 20
0.0
 30
0.0
  9
$PUCSYDIR
 10
0.0
 20
1.0
 30
0.0
  9
$PUCSORTHOREF
  2

  9
$PUCSORTHOVIEW
 70
     0
  9
$PUCSORGTOP
 10
0.0
 20
0.0
 30
0.0
  9
$PUCSORGBOTTOM
 10
0.0
 20
0.0
 30
0.0
  9
$PUCSORGLEFT
 10
0.0
 20
0.0
 30
0.0
  9
$PUCSORGRIGHT
 10
0.0
 20
0.0
 30
0.0
  9
$PUCSORGFRONT
 10
0.0
 20
0.0
 30
0.0
  9
$PUCSORGBACK
 10
0.0
 20
0.0
 30
0.0
  9
$USERI1
 70
     0
  9
$USERI2
 70
     0
  9
$USERI3
 70
     0
  9
$USERI4
 70
     0
  9
$USERI5
 70
     0
  9
$USERR1
 40
0.0
  9
$USERR2
 40
0.0
  9
$USERR3
 40
0.0
  9
$USERR4
 40
0.0
  9
$USERR5
 40
0.0
  9
$WORLDVIEW
 70
     1
  9
$SHADEDGE
 70
     3
  9
$SHADEDIF
 70
    70
  9
$TILEMODE
 70
     1
  9
$MAXACTVP
 70
    64
  9
$PINSBASE
 10
0.0
 20
0.0
 30
0.0
  9
$PLIMCHECK
 70
     0
  9
$PEXTMIN
 10
1.000000000000000E+20
 20
1.000000000000000E+20
 30
1.000000000000000E+20
  9
$PEXTMAX
 10
-1.000000000000000E+20
 20
-1.000000000000000E+20
 30
-1.000000000000000E+20
  9
$PLIMMIN
 10
0.0
 20
0.0
  9
$PLIMMAX
 10
420.0
 20
297.0
  9
$UNITMODE
 70
     0
  9
$VISRETAIN
 70
     1
  9
$PLINEGEN
 70
     0
  9
$PSLTSCALE
 70
     1
  9
$TREEDEPTH
 70
  3020
  9
$CMLSTYLE
  2
Standard
  9
$CMLJUST
 70
     0
  9
$CMLSCALE
 40
20.0
  9
$PROXYGRAPHICS
 70
     1
  9
$MEASUREMENT
 70
     1
  9
$CELWEIGHT
370
    -1
  9
$ENDCAPS
280
     0
  9
$JOINSTYLE
280
     0
  9
$LWDISPLAY
290
     1
  9
$INSUNITS
 70
     4
  9
$HYPERLINKBASE
  1

  9
$STYLESHEET
  1

  9
$XEDIT
290
     1
  9
$CEPSNTYPE
380
     0
  9
$PSTYLEMODE
290
     1
  9
$FINGERPRINTGUID
  2
{FB285621-A601-4E69-83A2-9B3AB370AB16}
  9
$VERSIONGUID
  2
{D1A6B076-3C85-4616-B6C2-A4C66C390AAE}
  9
$EXTNAMES
290
     1
  9
$PSVPSCALE
 40
0.0
  9
$OLESTARTUP
290
     0
  9
$SORTENTS
280
   127
  9
$INDEXCTL
280
     0
  9
$HIDETEXT
280
     0
  9
$XCLIPFRAME
290
     0
  9
$HALOGAP
280
     0
  9
$OBSCOLOR
 70
   257
  9
$OBSLTYPE
280
     0
  9
$INTERSECTIONDISPLAY
280
     0
  9
$INTERSECTIONCOLOR
 70
   257
  9
$DIMASSOC
280
     1
  9
$PROJECTNAME
  1

  0
ENDSEC
  0
SECTION
  2
CLASSES
  0
CLASS
  1
ACDBDICTIONARYWDFLT
  2
AcDbDictionaryWithDefault
  3
ObjectDBX Classes
 90
        0
 91
        1
280
     0
281
     0
  0
CLASS
  1
TABLESTYLE
  2
AcDbTableStyle
  3
ObjectDBX Classes
 90
     2047
 91
        1
280
     0
281
     0
  0
CLASS
  1
DICTIONARYVAR
  2
AcDbDictionaryVar
  3
ObjectDBX Classes
 90
        0
 91
        1
280
     0
281
     0
  0
ENDSEC
  0
SECTION
  2
TABLES
  0
TABLE
  2
VPORT
  5
8
330
0
100
AcDbSymbolTable
 70
     2
  0
VPORT
  5
66A
330
8
100
AcDbSymbolTableRecord
100
AcDbViewportTableRecord
  2
*Active
 70
     0
 10
0.0
 20
0.0
 11
1.0
 21
1.0
 12
-110.2119579507256
 22
0.6954348937409165
 13
0.0
 23
0.0
 14
10.0
 24
10.0
 15
10.0
 25
10.0
 16
0.0
 26
0.0
 36
1.0
 17
142.9456957125343
 27
108.9595727604956
 37
0.0
 40
34.13575534797879
 41
1.632538569424965
 42
50.0
 43
0.0
 44
0.0
 50
0.0
 51
0.0
 71
     0
 72
  2000
 73
     1
 74
     3
 75
     0
 76
     0
 77
     0
 78
     0
281
     0
 65
     1
110
0.0
120
0.0
130
0.0
111
1.0
121
0.0
131
0.0
112
0.0
122
1.0
132
0.0
 79
     0
146
0.0
  0
ENDTAB
  0
TABLE
  2
LTYPE
  5
5
330
0
100
AcDbSymbolTable
 70
     6
  0
LTYPE
  5
14
330
5
100
AcDbSymbolTableRecord
100
AcDbLinetypeTableRecord
  2
ByBlock
 70
     0
  3

 72
    65
 73
     0
 40
0.0
  0
LTYPE
  5
15
330
5
100
AcDbSymbolTableRecord
100
AcDbLinetypeTableRecord
  2
ByLayer
 70
     0
  3

 72
    65
 73
     0
 40
0.0
  0
LTYPE
  5
16
330
5
100
AcDbSymbolTableRecord
100
AcDbLinetypeTableRecord
  2
Continuous
 70
     0
  3
Solid line
 72
    65
 73
     0
 40
0.0
  0
LTYPE
  5
2A
330
5
100
AcDbSymbolTableRecord
100
AcDbLinetypeTableRecord
  2
HIDDEN
 70
     0
  3
Hidden __ __ __ __ __ __ __ __ __ __ __ __ __ __
 72
    65
 73
     2
 40
1.905
 49
1.27
 74
     0
 49
-0.635
 74
     0
  0
LTYPE
  5
2B
330
5
100
AcDbSymbolTableRecord
100
AcDbLinetypeTableRecord
  2
PHANTOM
 70
     0
  3
Phantom ______  __  __  ______  __  __  ______
 72
    65
 73
     6
 40
12.7
 49
6.349999999999999
 74
     0
 49
-1.27
 74
     0
 49
1.27
 74
     0
 49
-1.27
 74
     0
 49
1.27
 74
     0
 49
-1.27
 74
     0
  0
LTYPE
  5
2C
330
5
100
AcDbSymbolTableRecord
100
AcDbLinetypeTableRecord
  2
CENTER
 70
     0
  3
Center ____ _ ____ _ ____ _ ____ _ ____ _ ____
 72
    65
 73
     4
 40
10.16
 49
6.349999999999999
 74
     0
 49
-1.27
 74
     0
 49
1.27
 74
     0
 49
-1.27
 74
     0
  0
LTYPE
  5
2D
330
5
100
AcDbSymbolTableRecord
100
AcDbLinetypeTableRecord
  2
CENTERX2
 70
     0
  3
Center (2x) ________  __  ________  __  _____
 72
    65
 73
     4
 40
20.32
 49
12.7
 74
     0
 49
-2.54
 74
     0
 49
2.54
 74
     0
 49
-2.54
 74
     0
  0
LTYPE
  5
2E
330
5
100
AcDbSymbolTableRecord
100
AcDbLinetypeTableRecord
  2
DOT2
 70
     0
  3
Dot (.5x) ........................................
 72
    65
 73
     2
 40
0.635
 49
0.0
 74
     0
 49
-0.635
 74
     0
  0
ENDTAB
  0
TABLE
  2
LAYER
  5
2
330
0
100
AcDbSymbolTable
 70
     2
  0
LAYER
  5
10
330
2
100
AcDbSymbolTableRecord
100
AcDbLayerTableRecord
  2
0
 70
     0
 62
     7
  6
Continuous
370
    -3
390
F
  0
LAYER
  5
2F
330
2
100
AcDbSymbolTableRecord
100
AcDbLayerTableRecord
  2
FORMAT
 70
     0
 62
     7
  6
Continuous
370
     0
390
F
  0
ENDTAB
  0
TABLE
  2
STYLE
  5
3
330
0
100
AcDbSymbolTable
 70
     1
  0
STYLE
  5
11
330
3
100
AcDbSymbolTableRecord
100
AcDbTextStyleTableRecord
  2
Standard
 70
     0
 40
0.0
 41
1.0
 50
0.0
 71
     0
 42
2.5
  3
txt
  4

  0
ENDTAB
  0
TABLE
  2
VIEW
  5
6
330
0
100
AcDbSymbolTable
 70
     0
  0
ENDTAB
  0
TABLE
  2
UCS
  5
7
330
0
100
AcDbSymbolTable
 70
     0
  0
ENDTAB
  0
TABLE
  2
APPID
  5
9
330
0
100
AcDbSymbolTable
 70
     1
  0
APPID
  5
12
330
9
100
AcDbSymbolTableRecord
100
AcDbRegAppTableRecord
  2
ACAD
 70
     0
  0
ENDTAB
  0
TABLE
  2
DIMSTYLE
  5
A
330
0
100
AcDbSymbolTable
 70
     1
100
AcDbDimStyleTable
 71
     0
  0
DIMSTYLE
105
27
330
A
100
AcDbSymbolTableRecord
100
AcDbDimStyleTableRecord
  2
ISO-25
 70
     0
 41
2.5
 42
0.625
 43
3.75
 44
1.25
 73
     0
 74
     0
 77
     1
 78
     8
140
2.5
141
2.5
143
0.03937007874016
147
0.625
171
     3
172
     1
271
     2
272
     2
274
     3
278
    44
283
     0
284
     8
340
11
  0
ENDTAB
  0
TABLE
  2
BLOCK_RECORD
  5
1
330
0
100
AcDbSymbolTable
 70
     1
  0
BLOCK_RECORD
  5
1F
330
1
100
AcDbSymbolTableRecord
100
AcDbBlockTableRecord
  2
*Model_Space
340
22
  0
BLOCK_RECORD
  5
1B
330
1
100
AcDbSymbolTableRecord
100
AcDbBlockTableRecord
  2
*Paper_Space
340
1E
  0
BLOCK_RECORD
  5
23
330
1
100
AcDbSymbolTableRecord
100
AcDbBlockTableRecord
  2
*Paper_Space0
340
26
  0
ENDTAB
  0
ENDSEC
  0
SECTION
  2
BLOCKS
  0
BLOCK
  5
20
330
1F
100
AcDbEntity
  8
0
100
AcDbBlockBegin
  2
*Model_Space
 70
     0
 10
0.0
 20
0.0
 30
0.0
  3
*Model_Space
  1

  0
ENDBLK
  5
21
330
1F
100
AcDbEntity
  8
0
100
AcDbBlockEnd
  0
BLOCK
  5
1C
330
1B
100
AcDbEntity
 67
     1
  8
0
100
AcDbBlockBegin
  2
*Paper_Space
 70
     0
 10
0.0
 20
0.0
 30
0.0
  3
*Paper_Space
  1

  0
ENDBLK
  5
1D
330
1B
100
AcDbEntity
 67
     1
  8
0
100
AcDbBlockEnd
  0
BLOCK
  5
24
330
23
100
AcDbEntity
 67
     1
  8
0
100
AcDbBlockBegin
  2
*Paper_Space0
 70
     0
 10
0.0
 20
0.0
 30
0.0
  3
*Paper_Space0
  1

  0
ENDBLK
  5
25
330
23
100
AcDbEntity
 67
     1
  8
0
100
AcDbBlockEnd
  0
ENDSEC
  0
SECTION
  2
ENTITIES
  0
ARC
  5
30
330
1F
100
AcDbEntity
  8
0
  6
Continuous
 62
     7
370
    15
100
AcDbCircle
 10
22.27181687801861
 20
105.9328774373194
 30
0.0
 40
7.701271923355773
100
AcDbArc
 50
266.7769718017569
 51
314.58424923643
  0
LWPOLYLINE
  5
31
330
1F
100
AcDbEntity
  8
0
  6
Continuous
 62
     7
370
    15
100
AcDbPolyline
 90
       25
 70
   128
 43
0.0
 10
15.48613878652526
 20
103.0538699639897
 10
15.47277840018344
 20
103.0207288925946
 10
15.38636139103178
 20
102.6938925211807
 10
15.343316287812
 20
102.3572378761126
 10
15.3464888259792
 20
102.01191071085
 10
15.3993106809645
 20
101.6591962522935
 10
15.50562199043005
 20
101.3014429988283
 10
15.64740464736521
 20
100.9831962447735
 10
15.83156974710899
 20
100.6735603446833
 10
16.05677797476828
 20
100.3751599368143
 10
16.32105929444746
 20
100.0905043148905
 10
16.62193757879651
 20
99.82180791090467
 10
16.95663212363047
 20
99.5708872874337
 10
17.32220316054132
 20
99.33919500427217
 10
17.71540854629427
 20
99.12799740341867
 10
18.13307702379699
 20
98.93821311679078
 10
18.57171005991618
 20
98.77066497390858
 10
19.02719944821589
 20
98.6261038836529
 10
19.4942097434105
 20
98.5052171098882
 10
19.96446995575201
 20
98.40866745207929
 10
20.42064587670129
 20
98.33726769465208
 10
20.82886971466569
 20
98.29090158442189
 10
21.14079310750262
 20
98.2662186595482
 10
21.49746114229831
 20
98.24913964248064
 10
21.83882987108455
 20
98.24378701716611
  0
LINE
  5
32
330
1F
100
AcDbEntity
  8
0
  6
Continuous
 62
     7
370
    15
100
AcDbLine
 10
41.06393289640851
 20
97.17213330857642
 30
0.0
 11
41.19521176844133
 21
97.0963229883298
 31
0.0
  0
LINE
  5
33
330
1F
100
AcDbEntity
  8
0
  6
Continuous
 62
     7
370
    15
100
AcDbLine
 10
44.09564197912765
 20
96.80879168973467
 30
0.0
 11
46.18160706212647
 21
98.01299369998938
 31
0.0
  0
LINE
  5
34
330
1F
100
AcDbEntity
  8
0
  6
Continuous
 62
     7
370
    15
100
AcDbLine
 10
40.38207821774899
 20
108.0591605113286
 30
0.0
 11
38.84110868217041
 21
107.1695777337409
 31
0.0
  0
LINE
  5
35
330
1F
100
AcDbEntity
  8
0
  6
Continuous
 62
     7
370
    15
100
AcDbLine
 10
47.38306356502425
 20
100.6684928511741
 30
0.0
 11
47.38306109548235
 21
100.8317758118879
 31
0.0
  0
LINE
  5
36
330
1F
100
AcDbEntity
  8
0
  6
Continuous
 62
     7
370
    15
100
AcDbLine
 10
43.42390731855843
 20
107.6899752111958
 30
0.0
 11
43.28250974552432
 21
107.7716286425098
 31
0.0
  0
LINE
  5
37
330
1F
100
AcDbEntity
  8
0
  6
Continuous
 62
     7
370
    15
100
AcDbLine
 10
40.5064552140659
 20
100.1345248120071
 30
0.0
 11
40.55411786673952
 21
100.1280253753091
 31
0.0
  0
LINE
  5
38
330
1F
100
AcDbEntity
  8
0
  6
Continuous
 62
     7
370
    15
100
AcDbLine
 10
35.31715346712043
 20
100.0791115184978
 30
0.0
 11
39.91334763966339
 21
97.42578510032958
 31
0.0
  0
LINE
  5
39
330
1F
100
AcDbEntity
  8
0
  6
Continuous
 62
     7
370
    15
100
AcDbLine
 10
36.12203841857805
 20
98.42870716521636
 30
0.0
 11
36.29258481789675
 21
98.45196343688455
 31
0.0
  0
LINE
  5
3A
330
1F
100
AcDbEntity
  8
0
  6
Continuous
 62
     7
370
    15
100
AcDbLine
 10
42.71357651682923
 20
109.5746525954558
 30
0.0
 11
42.64842901356028
 21
109.7339721481912
 31
0.0
  0
LINE
  5
3B
330
1F
100
AcDbEntity
  8
0
  6
Continuous
 62
     7
370
    15
100
AcDbLine
 10
45.41290057030391
 20
106.9523224004739
 30
0.0
 11
40.81670639776096
 21
109.6056488186422
 31
0.0
  0
LINE
  5
3C
330
1F
100
AcDbEntity
  8
0
  6
Continuous
 62
     7
370
    15
100
AcDbLine
 10
34.08189634416981
 20
98.02100402202768
 30
0.0
 11
34.40009451371493
 21
97.83731212874116
 31
0.0
  0
LINE
  5
3D
330
1F
100
AcDbEntity
  8
0
  6
Continuous
 62
     7
370
    15
100
AcDbLine
 10
42.29945244934557
 20
111.5208840927926
 30
0.0
 11
41.98125427980045
 21
111.7045759860791
 31
0.0
  0
LINE
  5
3E
330
1F
100
AcDbEntity
  8
0
  6
Continuous
 62
     7
370
    15
100
AcDbLine
 10
43.6150929966657
 20
109.9848412288341
 30
0.0
 11
43.34233538598815
 21
110.4549149835924
 31
0.0
  0
LINE
  5
3F
330
1F
100
AcDbEntity
  8
0
  6
Continuous
 62
     7
370
    15
100
AcDbLine
 10
20.89361468260413
 20
104.3643004161696
 30
0.0
 11
33.35516383292478
 21
97.17040121813944
 31
0.0
  0
LINE
  5
40
330
1F
100
AcDbEntity
  8
0
  6
Continuous
 62
     7
370
    15
100
AcDbLine
 10
43.09735781683534
 20
114.3619210944955
 30
0.0
 11
27.08138942947963
 21
123.6077428416664
 31
0.0
  0
LINE
  5
41
330
1F
100
AcDbEntity
  8
0
  6
Continuous
 62
     7
370
    15
100
AcDbLine
 10
13.83882987102148
 20
119.6777366863958
 30
0.0
 11
13.83882987102148
 21
106.4535254134738
 31
0.0
  0
LINE
  5
42
330
1F
100
AcDbEntity
  8
0
  6
Continuous
 62
     7
370
    15
100
AcDbLine
 10
35.8447269726278
 20
97.46726888781369
 30
0.0
 11
36.38820169382492
 21
97.46614187259103
 31
0.0
  0
ARC
  5
43
330
1F
100
AcDbEntity
  8
0
  6
Continuous
 62
     7
370
    15
100
AcDbCircle
 10
18.97657734223907
 20
119.5642076420528
 30
0.0
 40
5.129150462993579
100
AcDbArc
 50
117.6900964078477
 51
178.4114286392301
  0
ARC
  5
44
330
1F
100
AcDbEntity
  8
0
  6
Continuous
 62
     7
370
    15
100
AcDbCircle
 10
21.36592443296459
 20
113.9484216553134
 30
0.0
 40
11.22356976555993
100
AcDbArc
 50
59.39637346056673
 51
115.1311176221985
  0
LINE
  5
45
330
1F
100
AcDbEntity
  8
0
  6
Continuous
 62
     7
370
    15
100
AcDbLine
 10
15.48882959938488
 20
103.0538019132142
 30
0.0
 11
15.48882959938488
 21
102.6974375954526
 31
0.0
  0
LWPOLYLINE
  5
46
330
1F
100
AcDbEntity
  8
0
  6
Continuous
 62
     7
370
    15
100
AcDbPolyline
 90
        3
 70
   128
 43
0.0
 10
18.79234156788112
 20
101.0129725883064
 10
18.9036886025631
 20
100.9819272993605
 10
19.28986371185571
 20
100.8940615560794
  0
ARC
  5
47
330
1F
100
AcDbEntity
  8
0
  6
Continuous
 62
     7
370
    15
100
AcDbCircle
 10
23.38445243818261
 20
106.2184987858485
 30
0.0
 40
5.41959930392484
100
AcDbArc
 50
280.6863280866093
 51
286.080349932407
  0
LINE
  5
48
330
1F
100
AcDbEntity
  8
0
  6
Continuous
 62
     7
370
    15
100
AcDbLine
 10
15.48882959938488
 20
101.3579521751827
 30
0.0
 11
15.48882959938488
 21
101.2276643494214
 31
0.0
  0
LWPOLYLINE
  5
49
330
1F
100
AcDbEntity
  8
0
  6
Continuous
 62
     7
370
    15
100
AcDbPolyline
 90
        3
 70
   128
 43
0.0
 10
17.17093991679847
 20
101.6004398122076
 10
17.4679550555866
 20
101.4627227735214
 10
17.59108822596407
 20
101.4140104717364
  0
LINE
  5
4A
330
1F
100
AcDbEntity
  8
0
  6
Continuous
 62
     7
370
    15
100
AcDbLine
 10
27.58882958301669
 20
98.49225271355924
 30
0.0
 11
27.58882958301669
 21
99.67219758203192
 31
0.0
  0
LWPOLYLINE
  5
4B
330
1F
100
AcDbEntity
  8
0
  6
Continuous
 62
     7
370
    15
100
AcDbPolyline
 90
        3
 70
   128
 43
0.0
 10
15.85525709915274
 20
102.4133572661633
 10
15.88580747278644
 20
102.3869784181887
 10
16.17048984277842
 20
102.1776489082885
  0
LWPOLYLINE
  5
4C
330
1F
100
AcDbEntity
  8
0
  6
Continuous
 62
     7
370
    15
100
AcDbPolyline
 90
        3
 70
   128
 43
0.0
 10
14.93776630518614
 20
103.4117220319916
 10
15.04286902084342
 20
103.2510307526048
 10
15.12922313899456
 20
103.1443044819327
  0
ARC
  5
4D
330
1F
100
AcDbEntity
  8
0
  6
Continuous
 62
     7
370
    15
100
AcDbCircle
 10
21.73466046545069
 20
103.5554738147446
 30
0.0
 40
8.488942200371976
100
AcDbArc
 50
245.0398344767428
 51
270.7031049284069
  0
ARC
  5
4E
330
1F
100
AcDbEntity
  8
0
  6
Continuous
 62
     7
370
    15
100
AcDbCircle
 10
18.71800967216487
 20
98.60170663963128
 30
0.0
 40
2.625247159427852
100
AcDbArc
 50
181.8414606462259
 51
235.3204652110249
  0
LINE
  5
4F
330
1F
100
AcDbEntity
  8
0
  6
Continuous
 62
     7
370
    15
100
AcDbLine
 10
18.09518126530077
 20
95.88708879230832
 30
0.0
 11
18.15242825126649
 21
95.85938701397909
 31
0.0
  0
LWPOLYLINE
  5
50
330
1F
100
AcDbEntity
  8
0
  6
Continuous
 62
     7
370
    15
100
AcDbPolyline
 90
       22
 70
   128
 43
0.0
 10
21.83882987108455
 20
95.06717077961525
 10
22.38155928453477
 20
95.08226840399485
 10
22.59937749036161
 20
95.09688406730901
 10
22.95768974615761
 20
95.13181767089704
 10
23.3234880066481
 20
95.18187351979312
 10
23.70730453878539
 20
95.25078689144562
 10
24.09643206774342
 20
95.33894214627123
 10
24.48404255710926
 20
95.44669119066872
 10
24.86421577407419
 20
95.57389684500369
 10
25.23210544844494
 20
95.72014890075148
 10
25.58362963324781
 20
95.88483057816302
 10
25.91530841981138
 20
96.06720162303069
 10
26.2241345492053
 20
96.26644602565388
 10
26.50746245778048
 20
96.48172506316472
 10
26.76286157609018
 20
96.71214925261553
 10
26.98812701480361
 20
96.95688564495306
 10
27.18113060502516
 20
97.21512238806793
 10
27.33972754961038
 20
97.48606957253679
 10
27.46165904089691
 20
97.76896915094853
 10
27.5444268902937
 20
98.06310770553697
 10
27.58511209926913
 20
98.36782879306609
 10
27.58399553705584
 20
98.43843918936389
  0
LINE
  5
51
330
1F
100
AcDbEntity
  8
0
  6
Continuous
 62
     7
370
    15
100
AcDbLine
 10
22.92820802562424
 20
96.89728574875893
 30
0.0
 11
22.92820802562424
 21
97.61623421026925
 31
0.0
  0
LWPOLYLINE
  5
52
330
1F
100
AcDbEntity
  8
0
  6
Continuous
 62
     7
370
    15
100
AcDbPolyline
 90
        3
 70
   128
 43
0.0
 10
22.97944937379037
 20
96.85063852831058
 10
22.93582442213131
 20
96.88708165721287
 10
22.92820456826557
 20
96.90419813977101
  0
LINE
  5
53
330
1F
100
AcDbEntity
  8
0
  6
Continuous
 62
     7
370
    15
100
AcDbLine
 10
16.08883015915244
 20
99.67219758203192
 30
0.0
 11
16.08883015915244
 21
98.49225271355924
 31
0.0
  0
LINE
  5
54
330
1F
100
AcDbEntity
  8
0
  6
Continuous
 62
     7
370
    15
100
AcDbLine
 10
41.05315416917409
 20
98.49979259902719
 30
0.0
 11
42.36034262700652
 21
97.74516876494047
 31
0.0
  0
LINE
  5
55
330
1F
100
AcDbEntity
  8
0
  6
Continuous
 62
     7
370
    15
100
AcDbLine
 10
46.36001763532338
 20
104.6735597447083
 30
0.0
 11
46.2077147298732
 21
104.7614823405397
 31
0.0
  0
LINE
  5
56
330
1F
100
AcDbEntity
  8
0
  6
Continuous
 62
     7
370
    15
100
AcDbLine
 10
47.18860804879873
 20
102.4339761005625
 30
0.0
 11
47.18860739025422
 21
102.8421806035534
 31
0.0
  0
LINE
  5
57
330
1F
100
AcDbEntity
  8
0
  6
Continuous
 62
     7
370
    15
100
AcDbLine
 10
23.03019878920905
 20
97.63986335704988
 30
0.0
 11
23.09203150869707
 21
97.4833366181754
 31
0.0
  0
ARC
  5
58
330
1F
100
AcDbEntity
  8
0
  6
Continuous
 62
     7
370
    15
100
AcDbCircle
 10
22.16381753206086
 20
104.1167693949571
 30
0.0
 40
6.698060285672679
100
AcDbArc
 50
277.9656575048039
 51
295.0235968750198
  0
LINE
  5
59
330
1F
100
AcDbEntity
  8
0
  6
Continuous
 62
     7
370
    15
100
AcDbLine
 10
23.09203150869707
 20
97.4833366181754
 30
0.0
 11
23.09203150869707
 21
97.07506690577469
 31
0.0
  0
LINE
  5
5A
330
1F
100
AcDbEntity
  8
0
  6
Continuous
 62
     7
370
    15
100
AcDbLine
 10
23.09203150869707
 20
97.07506690577469
 30
0.0
 11
22.92820802562424
 21
97.1696401895037
 31
0.0
  0
ARC
  5
5B
330
1F
100
AcDbEntity
  8
0
  6
Continuous
 62
     7
370
    15
100
AcDbCircle
 10
22.7011497179045
 20
102.0214074726534
 30
0.0
 40
4.961761136725878
100
AcDbArc
 50
274.5183769259509
 51
316.9537102388939
  0
LWPOLYLINE
  5
5C
330
1F
100
AcDbEntity
  8
0
  6
Continuous
 62
     7
370
    15
100
AcDbPolyline
 90
       21
 70
   128
 43
0.0
 10
39.37614703662995
 20
106.860706870188
 10
39.93885224527693
 20
106.7816639252561
 10
40.67805396750835
 20
106.5194500159111
 10
41.43085990218568
 20
106.0848644002368
 10
42.17006030732809
 20
105.4936149279278
 10
42.86894198351377
 20
104.7670684798756
 10
43.50224052923846
 20
103.9314875527793
 10
44.04707283993879
 20
103.0170687413184
 10
44.48374316647
 20
102.0568637169456
 10
44.79647014824279
 20
101.0855760536969
 10
44.97395052732218
 20
100.1383114603249
 10
45.00977008020036
 20
99.24930594467202
 10
44.90263542546371
 20
98.45068984557943
 10
44.6564161706411
 20
97.77132870127946
 10
44.28001320330244
 20
97.23577527164406
 10
43.78702941880461
 20
96.86338660987154
 10
43.19528503153362
 20
96.66762044624539
 10
42.5261642987527
 20
96.65555375382545
 10
41.80385292606202
 20
96.82762169553258
 10
41.05445693484703
 20
97.17760556417887
 10
41.05445693484703
 20
97.17760556417887
  0
LWPOLYLINE
  5
5D
330
1F
100
AcDbEntity
  8
0
  6
Continuous
 62
     7
370
    15
100
AcDbPolyline
 90
       18
 70
   128
 43
0.0
 10
41.19587821548341
 20
106.5678113639433
 10
41.97203877259185
 20
106.0341590167858
 10
42.72014665074923
 20
105.3486251491897
 10
43.41316332954681
 20
104.5359869073563
 10
44.02604436134601
 20
103.625613299534
 10
44.53663235763123
 20
102.6504112782429
 10
44.92647753546684
 20
101.645625046364
 10
45.18148967656004
 20
100.6475697574848
 10
45.2924517919771
 20
99.69231824468515
 10
45.25535202857538
 20
98.8143963825332
 10
45.07153381715118
 20
98.04553329823605
 10
44.74763792052299
 20
97.41351925193821
 10
44.29537326004274
 20
96.94119542344234
 10
43.73108227622054
 20
96.64563495983179
 10
43.0751666779137
 20
96.53751619916564
 10
42.35132484778646
 20
96.62075166532353
 10
41.58572339331903
 20
96.89232990904613
 10
41.19521176844133
 20
97.0963229883298
  0
ARC
  5
5E
330
1F
100
AcDbEntity
  8
0
  6
Continuous
 62
     7
370
    15
100
AcDbCircle
 10
39.38461860262954
 20
103.8805926048138
 30
0.0
 40
3.240649015949261
100
AcDbArc
 50
56.01894249613142
 51
97.33655787587558
  0
LWPOLYLINE
  5
5F
330
1F
100
AcDbEntity
  8
0
  6
Continuous
 62
     7
370
    15
100
AcDbPolyline
 90
       18
 70
   128
 43
0.0
 10
40.38207821774899
 20
108.0591605113286
 10
40.9029026298663
 20
108.2671902791779
 10
41.57813465568129
 20
108.3275663304346
 10
42.31494454425972
 20
108.1966936437535
 10
43.08669943860975
 20
107.8793036015882
 10
43.86550734464027
 20
107.3868663101543
 10
44.62322075299109
 20
106.7371800436406
 10
45.33245343175324
 20
105.9537264670863
 10
45.96756956031997
 20
105.0648220526082
 10
46.50561886258808
 20
104.1025926829379
 10
46.92715320214781
 20
103.1018159232941
 10
47.21693385908446
 20
102.0986649931675
 10
47.36449260989913
 20
101.1293930280517
 10
47.36449260989913
 20
100.2290341476296
 10
47.21693385908446
 20
99.43012984229685
 10
46.92715320214781
 20
98.76155244201159
 10
46.50561886258808
 20
98.2474690138544
 10
46.18160706212647
 20
98.01299369998938
  0
ARC
  5
60
330
1F
100
AcDbEntity
  8
0
  6
Continuous
 62
     7
370
    15
100
AcDbCircle
 10
38.64458044691263
 20
100.358992633918
 30
0.0
 40
8.751260936505028
100
AcDbArc
 50
3.096888007815501
 51
56.90309975896432
  0
LWPOLYLINE
  5
61
330
1F
100
AcDbEntity
  8
0
  6
Continuous
 62
     7
370
    15
100
AcDbPolyline
 90
        3
 70
   128
 43
0.0
 10
40.8334401783449
 20
100.3187909326483
 10
40.61414354009763
 20
100.1595446352015
 10
40.50647809848754
 20
100.1425080536573
  0
LINE
  5
62
330
1F
100
AcDbEntity
  8
0
  6
Continuous
 62
     7
370
    15
100
AcDbLine
 10
40.95809376335517
 20
100.3150754045758
 30
0.0
 11
40.8334401783449
 21
100.3187909326483
 31
0.0
  0
LINE
  5
63
330
1F
100
AcDbEntity
  8
0
  6
Continuous
 62
     7
370
    15
100
AcDbLine
 10
40.66867497662566
 20
100.523757103846
 30
0.0
 11
40.5162337768288
 21
100.4064083187095
 31
0.0
  0
LINE
  5
64
330
1F
100
AcDbEntity
  8
0
  6
Continuous
 62
     7
370
    15
100
AcDbLine
 10
40.65935920601574
 20
101.2820537978974
 30
0.0
 11
40.66867497662566
 21
101.2586438219195
 31
0.0
  0
LINE
  5
65
330
1F
100
AcDbEntity
  8
0
  6
Continuous
 62
     7
370
    15
100
AcDbLine
 10
40.8334401783449
 20
100.3187909326483
 30
0.0
 11
40.66867497662566
 21
100.523757103846
 31
0.0
  0
LINE
  5
66
330
1F
100
AcDbEntity
  8
0
  6
Continuous
 62
     7
370
    15
100
AcDbLine
 10
40.73053733061654
 20
101.2641753401401
 30
0.0
 11
40.66867497662566
 21
101.2586438219195
 31
0.0
  0
LINE
  5
67
330
1F
100
AcDbEntity
  8
0
  6
Continuous
 62
     7
370
    15
100
AcDbLine
 10
40.66867497662566
 20
100.523757103846
 30
0.0
 11
40.9270471764347
 21
100.6729121999403
 31
0.0
  0
LWPOLYLINE
  5
68
330
1F
100
AcDbEntity
  8
0
  6
Continuous
 62
     7
370
    15
100
AcDbPolyline
 90
       13
 70
   128
 43
0.0
 10
41.39033192071154
 20
97.21063028564177
 10
40.66478544812539
 20
97.18267245665025
 10
40.02392911635483
 20
97.36688666416119
 10
39.49492278263421
 20
97.75546572902817
 10
39.10018560692105
 20
98.33194157731085
 10
38.85644708926001
 20
99.07188319660859
 10
38.77403682953106
 20
99.94393159764154
 10
38.85644708926001
 20
100.9111286691414
 10
39.10018560692105
 20
101.9324846482676
 10
39.49492278263421
 20
102.9647145762801
 10
40.02392911635483
 20
103.9640714483496
 10
40.66478544812539
 20
104.8882024368315
 10
41.39033192071154
 20
105.697942734182
  0
LINE
  5
69
330
1F
100
AcDbEntity
  8
0
  6
Continuous
 62
     7
370
    15
100
AcDbLine
 10
42.09743881780191
 20
104.413756463974
 30
0.0
 11
41.39033192071154
 21
105.697942734182
 31
0.0
  0
LWPOLYLINE
  5
6A
330
1F
100
AcDbEntity
  8
0
  6
Continuous
 62
     7
370
    15
100
AcDbPolyline
 90
       11
 70
   128
 43
0.0
 10
42.09743881780191
 20
97.67840831020729
 10
41.46136944605989
 20
97.73905749520267
 10
40.92745629721028
 20
98.01601033620414
 10
40.52427230036549
 20
98.49444508379987
 10
40.27339516023793
 20
99.14875780101219
 10
40.18825062371181
 20
99.94393159764154
 10
40.27339516023793
 20
100.8374110410596
 10
40.52427230036549
 20
101.7813805058434
 10
40.92745629721028
 20
102.7253212304056
 10
41.46136944605989
 20
103.6187174044131
 10
42.09743881780191
 20
104.413756463974
  0
LINE
  5
6B
330
1F
100
AcDbEntity
  8
0
  6
Continuous
 62
     7
370
    15
100
AcDbLine
 10
41.39033192071154
 20
97.21063028564177
 30
0.0
 11
42.09743881780191
 21
97.67840831020729
 31
0.0
  0
LWPOLYLINE
  5
6C
330
1F
100
AcDbEntity
  8
0
  6
Continuous
 62
     7
370
    15
100
AcDbPolyline
 90
       12
 70
   128
 43
0.0
 10
37.00626975144125
 20
108.5508021245088
 10
36.28694800618067
 20
107.8078056451658
 10
35.63799882095151
 20
106.9475695081805
 10
35.0850785958764
 20
106.0041031039999
 10
34.65004804517006
 20
105.0147079379144
 10
34.35010571720298
 20
104.01849946656
 10
34.1971100229304
 20
103.0548634218648
 10
34.1971100229304
 20
102.1618980468445
 10
34.35010571720298
 20
101.3749071182894
 10
34.65004804517006
 20
100.7250046399454
 10
35.0850785958764
 20
100.2378848663534
 10
35.31715346712043
 20
100.0791115184978
  0
ARC
  5
6D
330
1F
100
AcDbEntity
  8
0
  6
Continuous
 62
     7
370
    15
100
AcDbCircle
 10
37.11636254997479
 20
108.3898050916292
 30
0.0
 40
0.1950396597746022
100
AcDbArc
 50
124.3650545955346
 51
235.6352969489092
  0
LINE
  5
6E
330
1F
100
AcDbEntity
  8
0
  6
Continuous
 62
     7
370
    15
100
AcDbLine
 10
41.39033192071154
 20
105.697942734182
 30
0.0
 11
37.006270739258
 21
108.2288073832663
 31
0.0
  0
LINE
  5
6F
330
1F
100
AcDbEntity
  8
0
  6
Continuous
 62
     7
370
    15
100
AcDbLine
 10
42.09743881780191
 20
104.00850540902
 30
0.0
 11
42.09743881780191
 21
104.413756463974
 31
0.0
  0
LWPOLYLINE
  5
70
330
1F
100
AcDbEntity
  8
0
  6
Continuous
 62
     7
370
    15
100
AcDbPolyline
 90
       10
 70
   128
 43
0.0
 10
41.68763381447386
 20
98.13351536221249
 10
41.50944698177354
 20
98.19288079239832
 10
41.03414956249047
 20
98.51940004756079
 10
40.70033203430502
 20
99.04344206174423
 10
40.52821105506773
 20
99.73326925305205
 10
40.52821105506773
 20
100.5471038064073
 10
40.70033203430502
 20
101.4356576503267
 10
41.03414956249047
 20
102.345116941066
 10
41.50944698177354
 20
103.2204032484071
 10
42.09743881780191
 20
104.00850540902
  0
LINE
  5
71
330
1F
100
AcDbEntity
  8
0
  6
Continuous
 62
     7
370
    15
100
AcDbLine
 10
42.09743881780191
 20
97.89693996469035
 30
0.0
 11
42.09743881780191
 21
97.67840831020729
 31
0.0
  0
LINE
  5
72
330
1F
100
AcDbEntity
  8
0
  6
Continuous
 62
     7
370
    15
100
AcDbLine
 10
39.55185510780223
 20
108.4171087569631
 30
0.0
 11
40.27699295352117
 21
107.9984955890614
 31
0.0
  0
ARC
  5
73
330
1F
100
AcDbEntity
  8
0
  6
Continuous
 62
     7
370
    15
100
AcDbCircle
 10
39.64011538874365
 20
105.366484203082
 30
0.0
 40
3.201306804257973
100
AcDbArc
 50
99.2126291126901
 51
128.7177142593642
  0
ARC
  5
74
330
1F
100
AcDbEntity
  8
0
  6
Continuous
 62
     7
370
    15
100
AcDbCircle
 10
39.14828851020115
 20
107.7293235662479
 30
0.0
 40
0.7974424538902589
100
AcDbArc
 50
59.59718509038142
 51
91.48733488474041
  0
ARC
  5
75
330
1F
100
AcDbEntity
  8
0
  6
Continuous
 62
     7
370
    15
100
AcDbCircle
 10
35.9880268073688
 20
101.5361460936908
 30
0.0
 40
3.11961615872376
100
AcDbArc
 50
237.9867217214263
 51
299.2049239541856
  0
ARC
  5
76
330
1F
100
AcDbEntity
  8
0
  6
Continuous
 62
     7
370
    15
100
AcDbCircle
 10
39.96253913500125
 20
108.3344869138387
 30
0.0
 40
3.047213886958067
100
AcDbArc
 50
0.0967508242603963
 51
64.35636529235249
  0
ARC
  5
77
330
1F
100
AcDbEntity
  8
0
  6
Continuous
 62
     7
370
    15
100
AcDbCircle
 10
40.0949734568323
 20
108.7863049572108
 30
0.0
 40
2.723638813250707
100
AcDbArc
 50
20.36146450610941
 51
54.89568876413287
  0
ARC
  5
78
330
1F
100
AcDbEntity
  8
0
  6
Continuous
 62
     7
370
    15
100
AcDbCircle
 10
35.68398523064445
 20
101.2500087418051
 30
0.0
 40
2.855106509663148
100
AcDbArc
 50
245.9279696305571
 51
278.8256348779853
  0
ARC
  5
79
330
1F
100
AcDbEntity
  8
0
  6
Continuous
 62
     7
370
    15
100
AcDbCircle
 10
39.75986841821491
 20
107.5784100552968
 30
0.0
 40
2.286176615797886
100
AcDbArc
 50
62.46611516751021
 51
106.0553484187456
  0
LINE
  5
7A
330
1F
100
AcDbEntity
  8
0
  6
Continuous
 62
     7
370
    15
100
AcDbLine
 10
39.12759011344014
 20
108.52649735134
 30
0.0
 11
39.12759011344014
 21
109.7754143028876
 31
0.0
  0
LINE
  5
7B
330
1F
100
AcDbEntity
  8
0
  6
Continuous
 62
     7
370
    15
100
AcDbLine
 10
39.55185510780223
 20
109.698341959304
 30
0.0
 11
39.55185510780223
 21
108.4171087569631
 31
0.0
  0
LINE
  5
7C
330
1F
100
AcDbEntity
  8
0
  6
Continuous
 62
     7
370
    15
100
AcDbLine
 10
42.02748328108019
 20
108.2691922351778
 30
0.0
 11
39.55185510780223
 21
109.698341959304
 31
0.0
  0
LWPOLYLINE
  5
7D
330
1F
100
AcDbEntity
  8
0
  6
Continuous
 62
     7
370
    15
100
AcDbPolyline
 90
        7
 70
   128
 43
0.0
 10
46.55112280636454
 20
104.5397973616706
 10
46.46980112070727
 20
105.3062243992528
 10
46.22606260304625
 20
106.0461658759637
 10
45.83132542733308
 20
106.6226419618911
 10
45.30231909361247
 20
107.0112211218159
 10
44.66146276184191
 20
107.1954351392111
 10
44.14544868808316
 20
107.1967472576282
  0
ARC
  5
7E
330
1F
100
AcDbEntity
  8
0
  6
Continuous
 62
     7
370
    15
100
AcDbCircle
 10
44.63796257536226
 20
104.1188956330456
 30
0.0
 40
1.84124560378414
100
AcDbArc
 50
16.72281843881713
 51
58.89809083164753
  0
ARC
  5
7F
330
1F
100
AcDbEntity
  8
0
  6
Continuous
 62
     7
370
    15
100
AcDbCircle
 10
39.22437102151155
 20
109.101894957785
 30
0.0
 40
0.6804372508869903
100
AcDbArc
 50
61.23065392007701
 51
98.17710453164416
  0
ARC
  5
80
330
1F
100
AcDbEntity
  8
0
  6
Continuous
 62
     7
370
    15
100
AcDbCircle
 10
35.36453227305854
 20
106.7356942715995
 30
0.0
 40
3.171659079701476
100
AcDbArc
 50
129.9851740598833
 51
176.7597414967259
  0
ARC
  5
81
330
1F
100
AcDbEntity
  8
0
  6
Continuous
 62
     7
370
    15
100
AcDbCircle
 10
52.48702124758709
 20
86.43350880848164
 30
0.0
 40
29.73023184756417
100
AcDbArc
 50
109.867865268741
 51
130.1267581985591
  0
LWPOLYLINE
  5
82
330
1F
100
AcDbEntity
  8
0
  6
Continuous
 62
     7
370
    15
100
AcDbPolyline
 90
        9
 70
   128
 43
0.0
 10
42.38313863905875
 20
114.394164057295
 10
42.61456072805924
 20
114.4483392016857
 10
42.83091235526681
 20
114.4495173902553
 10
43.0258879570175
 20
114.397663092687
 10
43.19380561129646
 20
114.2942886423611
 10
43.32977167386485
 20
114.142406311744
 10
43.42982335314591
 20
113.9464417963565
 10
43.49104494333053
 20
113.7121073966799
 10
43.51165277661883
 20
113.4462312862656
  0
LINE
  5
83
330
1F
100
AcDbEntity
  8
0
  6
Continuous
 62
     7
370
    15
100
AcDbLine
 10
43.51165277661883
 20
110.163111842503
 30
0.0
 11
43.51165277661883
 21
113.4462312862656
 31
0.0
  0
LWPOLYLINE
  5
84
330
1F
100
AcDbEntity
  8
0
  6
Continuous
 62
     7
370
    15
100
AcDbPolyline
 90
       17
 70
   128
 43
0.0
 10
32.19794374026174
 20
101.6992087175013
 10
32.27509618063896
 20
102.8189334651418
 10
32.5044481349786
 20
103.9971929200004
 10
32.87974343045485
 20
105.2018468951321
 10
33.39074532196334
 20
106.4000361792066
 10
34.02351505644813
 20
107.5590773850764
 10
34.76079218235497
 20
108.647354366716
 10
35.58246573822686
 20
109.6351822509684
 10
36.46612265564296
 20
110.4956152828511
 10
37.38765892968114
 20
111.2051825398195
 10
38.32193758719943
 20
111.7445301284685
 10
39.24347386123761
 20
112.0989460059868
 10
40.1271307786537
 20
112.2587615343516
 10
40.94880433452559
 20
112.2196177444001
 10
41.68608146043244
 20
111.9825828131361
 10
42.31885119491722
 20
111.5541219918616
 10
42.45055877942474
 20
111.426708144471
  0
LINE
  5
85
330
1F
100
AcDbEntity
  8
0
  6
Continuous
 62
     7
370
    15
100
AcDbLine
 10
32.19794374026174
 20
106.9149660814655
 30
0.0
 11
32.19794374026174
 21
101.6992087175013
 31
0.0
  0
ARC
  5
86
330
1F
100
AcDbEntity
  8
0
  6
Continuous
 62
     7
370
    15
100
AcDbCircle
 10
44.95818948430316
 20
100.8642032898685
 30
0.0
 40
12.20882772368379
100
AcDbArc
 50
140.3589665082807
 51
177.2296739591087
  0
ARC
  5
87
330
1F
100
AcDbEntity
  8
0
  6
Continuous
 62
     7
370
    15
100
AcDbCircle
 10
36.14747899832849
 20
100.8640078725093
 30
0.0
 40
3.434947051549459
100
AcDbArc
 50
170.1048950969863
 51
260.0964473709249
  0
LINE
  5
88
330
1F
100
AcDbEntity
  8
0
  6
Continuous
 62
     7
370
    15
100
AcDbLine
 10
35.8447269726278
 20
97.46726888781369
 30
0.0
 11
35.5567018307133
 21
97.48024612185771
 31
0.0
  0
ARC
  5
89
330
1F
100
AcDbEntity
  8
0
  6
Continuous
 62
     7
370
    15
100
AcDbCircle
 10
40.91280944899146
 20
109.1110788652354
 30
0.0
 40
2.776417078095555
100
AcDbArc
 50
28.94816099127663
 51
85.24739989748983
  0
ARC
  5
8A
330
1F
100
AcDbEntity
  8
0
  6
Continuous
 62
     7
370
    15
100
AcDbCircle
 10
41.57419397639477
 20
104.6800786476976
 30
0.0
 40
7.210784459932923
100
AcDbArc
 50
93.42947872153461
 51
146.5651447457658
  0
LWPOLYLINE
  5
8B
330
1F
100
AcDbEntity
  8
0
  6
Continuous
 62
     7
370
    15
100
AcDbPolyline
 90
       16
 70
   128
 43
0.0
 10
32.44543201035123
 20
101.637978213129
 10
32.51777081964736
 20
102.7144990440939
 10
32.73291467622727
 20
103.8466598112148
 10
33.08529097646444
 20
105.0051377784174
 10
33.56577328129499
 20
106.159928788113
 10
34.16191773369606
 20
107.2811250024362
 10
34.8582840991335
 20
108.3396873133031
 10
35.63683714843943
 20
109.308200254283
 10
36.47741257805169
 20
110.1615789972532
 10
37.35824010014828
 20
110.8777218992985
 10
38.25650664225834
 20
111.4380812604399
 10
39.14894753501465
 20
111.828143773769
 10
40.01244920385556
 20
112.0378073495511
 10
40.82464696280207
 20
112.0616418028468
 10
41.56450591245247
 20
111.8990302807485
 10
41.98125427980045
 20
111.7045759860791
  0
ARC
  5
8C
330
1F
100
AcDbEntity
  8
0
  6
Continuous
 62
     7
370
    15
100
AcDbCircle
 10
36.51643833034942
 20
101.3011767327516
 30
0.0
 40
4.084914649616276
100
AcDbArc
 50
175.2705904382786
 51
233.4172201433861
  0
LINE
  5
8D
330
1F
100
AcDbEntity
  8
0
  6
Continuous
 62
     7
370
    15
100
AcDbLine
 10
17.31048949046609
 20
118.4116752887224
 30
0.0
 11
33.32645787782181
 21
109.1658535415514
 31
0.0
  0
LINE
  5
8E
330
1F
100
AcDbEntity
  8
0
  6
Continuous
 62
     7
370
    15
100
AcDbLine
 10
16.18197535290602
 20
116.1607878286365
 30
0.0
 11
32.19794374026174
 21
106.9149660814655
 31
0.0
  0
ARC
  5
8F
330
1F
100
AcDbEntity
  8
0
  6
Continuous
 62
     7
370
    15
100
AcDbCircle
 10
19.34856388570403
 20
115.9815160187699
 30
0.0
 40
3.171659079702727
100
AcDbArc
 50
129.985174059893
 51
176.7597414967152
  0
ARC
  5
90
330
1F
100
AcDbEntity
  8
0
  6
Continuous
 62
     7
370
    15
100
AcDbCircle
 10
35.7580643592868
 20
101.1497715705463
 30
0.0
 40
3.602268729628792
100
AcDbArc
 50
171.2266996831755
 51
250.52719737739
  0
LINE
  5
91
330
1F
100
AcDbEntity
  8
0
  6
Continuous
 62
     7
370
    15
100
AcDbLine
 10
32.76363017989635
 20
101.4542863198425
 30
0.0
 11
33.42078548823948
 21
101.4974372359371
 31
0.0
  0
LINE
  5
92
330
1F
100
AcDbEntity
  8
0
  6
Continuous
 62
     7
370
    15
100
AcDbLine
 10
35.971673774251
 20
108.072085890363
 30
0.0
 11
35.5567018307133
 21
108.6531380235781
 31
0.0
  0
ARC
  5
93
330
1F
100
AcDbEntity
  8
0
  6
Continuous
 62
     7
370
    15
100
AcDbCircle
 10
45.22161286446625
 20
100.7010335638855
 30
0.0
 40
11.82767033579988
100
AcDbArc
 50
141.4495077528478
 51
176.1391280891941
  0
ARC
  5
94
330
1F
100
AcDbEntity
  8
0
  6
Continuous
 62
     7
370
    15
100
AcDbCircle
 10
40.91302042436055
 20
108.0091982953385
 30
0.0
 40
3.090888805682191
100
AcDbArc
 50
355.580535853943
 51
77.59007489456749
  0
ARC
  5
95
330
1F
100
AcDbEntity
  8
0
  6
Continuous
 62
     7
370
    15
100
AcDbCircle
 10
36.42626521220782
 20
102.1596426735135
 30
0.0
 40
4.4281846340641
100
AcDbArc
 50
269.8984234210954
 51
297.8534686544886
  0
ELLIPSE
  5
96
330
1F
100
AcDbEntity
  8
0
  6
Continuous
 62
     7
370
    15
100
AcDbEllipse
 10
38.34977321179042
 20
104.679098283975
 30
0.0
 11
18.85534967317446
 21
-8.902314378598447
 31
0.0
210
0.0
220
0.0
230
0.9999999999999998
 40
0.3414356626918911
 41
4.736667344920287
 42
4.770920618021552
  0
ELLIPSE
  5
97
330
1F
100
AcDbEntity
  8
0
  6
Continuous
 62
     7
370
    15
100
AcDbEllipse
 10
38.34977321179042
 20
104.679098283975
 30
0.0
 11
-9.153327599310882
 21
9.230015780265645
 31
0.0
210
0.0
220
0.0
230
1.0
 40
0.5143345726446783
 41
1.79625218154439
 42
1.830505454645655
  0
ARC
  5
98
330
1F
100
AcDbEntity
  8
0
  6
Continuous
 62
     7
370
    15
100
AcDbCircle
 10
36.80589373663491
 20
100.8251378565005
 30
0.0
 40
3.143777658294895
100
AcDbArc
 50
172.9483818768218
 51
257.2529586902115
  0
ELLIPSE
  5
99
330
1F
100
AcDbEntity
  8
0
  6
Continuous
 62
     7
370
    15
100
AcDbEllipse
 10
38.34977321179042
 20
104.679098283975
 30
0.0
 11
14.83465284087329
 21
-14.00476693097479
 31
0.0
210
0.0
220
0.0
230
1.0
 40
0.2808909134735045
 41
4.643959531645187
 42
4.662829613540318
  0
ARC
  5
9A
330
1F
100
AcDbEntity
  8
0
  6
Continuous
 62
     7
370
    15
100
AcDbCircle
 10
45.00461118626127
 20
100.8253225898367
 30
0.0
 40
11.34653239671924
100
AcDbArc
 50
141.6014598669823
 51
175.9871801778237
  0
ELLIPSE
  5
9B
330
1F
100
AcDbEntity
  8
0
  6
Continuous
 62
     7
370
    15
100
AcDbEllipse
 10
38.34977321179042
 20
104.679098283975
 30
0.0
 11
19.0907047481437
 21
-3.346836024426579
 31
0.0
210
0.0
220
0.0
230
0.9999999999999998
 40
0.1658685714785211
 41
1.701164799535244
 42
1.735418072636508
  0
ARC
  5
9C
330
1F
100
AcDbEntity
  8
0
  6
Continuous
 62
     7
370
    15
100
AcDbCircle
 10
41.88144720983069
 20
104.3942663333601
 30
0.0
 40
6.688886872750495
100
AcDbArc
 50
95.23557638395274
 51
144.7590470833476
  0
ELLIPSE
  5
9D
330
1F
100
AcDbEntity
  8
0
  6
Continuous
 62
     7
370
    15
100
AcDbEllipse
 10
38.34977321179042
 20
104.679098283975
 30
0.0
 11
18.85534967317446
 21
-8.902314378598449
 31
0.0
210
0.0
220
0.0
230
1.0
 40
0.3414356626918912
 41
1.560821418229225
 42
1.575023292621505
  0
ARC
  5
9E
330
1F
100
AcDbEntity
  8
0
  6
Continuous
 62
     7
370
    15
100
AcDbCircle
 10
35.92394729577367
 20
101.845146191537
 30
0.0
 40
3.696957305885265
100
AcDbArc
 50
253.2532422204448
 51
300.2820750886506
  0
ARC
  5
9F
330
1F
100
AcDbEntity
  8
0
  6
Continuous
 62
     7
370
    15
100
AcDbCircle
 10
39.66773589786174
 20
108.2300506183588
 30
0.0
 40
3.620340413553953
100
AcDbArc
 50
359.1946370415846
 51
47.28079227088563
  0
ARC
  5
A0
330
1F
100
AcDbEntity
  8
0
  6
Continuous
 62
     7
370
    15
100
AcDbCircle
 10
33.4037066776806
 20
101.7592374381363
 30
0.0
 40
0.262356687815787
100
AcDbArc
 50
273.7324614208684
 51
298.2384860319756
  0
ARC
  5
A1
330
1F
100
AcDbEntity
  8
0
  6
Continuous
 62
     7
370
    15
100
AcDbCircle
 10
22.35354718766647
 20
98.33983088401675
 30
0.0
 40
16.73828423814077
100
AcDbArc
 50
35.18782947815379
 51
35.55166552245203
  0
ARC
  5
A2
330
1F
100
AcDbEntity
  8
0
  6
Continuous
 62
     7
370
    15
100
AcDbCircle
 10
44.71953876913106
 20
100.7892283253069
 30
0.0
 40
11.22492979234434
100
AcDbArc
 50
150.718597257261
 51
165.4831651580215
  0
LWPOLYLINE
  5
A3
330
1F
100
AcDbEntity
  8
0
  6
Continuous
 62
     7
370
    15
100
AcDbPolyline
 90
       15
 70
   128
 43
0.0
 10
17.5961891470868
 20
124.0087546045649
 10
17.05567396606758
 20
123.6485727226882
 10
16.59226084677072
 20
123.2376893024268
 10
16.21337722458855
 20
122.7834569027394
 10
15.92444609006719
 20
122.2926971955582
 10
15.73186923668682
 20
121.7752955358792
 10
15.64089542881218
 20
121.2440822792785
 10
15.64110319960445
 20
120.8398574314054
 10
15.70143394370589
 20
120.4416175781658
 10
15.82314531649062
 20
120.0486190215671
 10
16.00456477954449
 20
119.6727716939625
 10
16.24692990263413
 20
119.3145224033218
 10
16.54732333358918
 20
118.9818865774923
 10
16.90216028538042
 20
118.6804318180784
 10
17.31048949046609
 20
118.4116752887224
  0
ARC
  5
A4
330
1F
100
AcDbEntity
  8
0
  6
Continuous
 62
     7
370
    15
100
AcDbCircle
 10
21.61479068088205
 20
115.0980987628837
 30
0.0
 40
9.774914107873723
100
AcDbArc
 50
60.91010889080311
 51
114.274817664158
  0
LINE
  5
A5
330
1F
100
AcDbEntity
  8
0
  6
Continuous
 62
     7
370
    15
100
AcDbLine
 10
42.38313863905875
 20
114.394164057295
 30
0.0
 11
26.36717025170304
 21
123.639985804466
 31
0.0
  0
LINE
  5
A6
330
1F
100
AcDbEntity
  8
0
  6
Continuous
 62
     7
370
    15
100
AcDbLine
 10
36.03319994127055
 20
107.9854132810316
 30
0.0
 11
36.11222841031489
 21
107.8729694308647
 31
0.0
  0
LINE
  5
A7
330
1F
100
AcDbEntity
  8
0
  6
Continuous
 62
     7
370
    15
100
AcDbLine
 10
33.5278388127294
 20
101.5281049118881
 30
0.0
 11
33.68589575081808
 21
101.6193492400566
 31
0.0
  0
LINE
  5
A8
330
1F
100
AcDbEntity
  8
0
  6
Continuous
 62
     7
370
    15
100
AcDbLine
 10
34.54202501389213
 20
98.61653350109088
 30
0.0
 11
34.68165357174168
 21
98.57324606836876
 31
0.0
  0
LINE
  5
A9
330
1F
100
AcDbEntity
  8
0
  6
Continuous
 62
     7
370
    15
100
AcDbLine
 10
41.80295203717512
 20
110.9090333036928
 30
0.0
 11
41.6956402339658
 21
111.0083012710421
 31
0.0
  0
LINE
  5
AA
330
1F
100
AcDbEntity
  8
0
  6
Continuous
 62
     7
370
    15
100
AcDbLine
 10
32.19794374026174
 20
98.75512891602861
 30
0.0
 11
32.19794374026174
 21
101.6992087175013
 31
0.0
  0
LINE
  5
AB
330
1F
100
AcDbEntity
  8
0
  6
Continuous
 62
     7
370
    15
100
AcDbLine
 10
16.18197535290602
 20
108.0009506631996
 30
0.0
 11
32.19794374026174
 21
98.75512891602861
 31
0.0
  0
LINE
  5
AC
330
1F
100
AcDbEntity
  8
0
  6
Continuous
 62
     7
370
    15
100
AcDbLine
 10
16.18197535290602
 20
116.1607878286365
 30
0.0
 11
16.18197535290602
 21
108.0009506631996
 31
0.0
  0
LINE
  5
AD
330
1F
100
AcDbEntity
  8
0
  6
Continuous
 62
     7
370
    15
100
AcDbLine
 10
35.5567018307133
 20
108.6531380235781
 30
0.0
 11
36.25190998099732
 21
108.4206978948874
 31
0.0
  0
LINE
  5
AE
330
1F
100
AcDbEntity
  8
0
  6
Continuous
 62
     7
370
    15
100
AcDbLine
 10
41.35368622374809
 20
111.3658906296374
 30
0.0
 11
41.1428451323472
 21
111.8779499095603
 31
0.0
  0
ARC
  5
AF
330
1F
100
AcDbEntity
  8
0
  6
Continuous
 62
     7
370
    15
100
AcDbCircle
 10
41.9633186645366
 20
104.4185188669123
 30
0.0
 40
6.974068118564071
100
AcDbArc
 50
95.01486405267431
 51
144.9797594146263
  0
ARC
  5
B0
330
1F
100
AcDbEntity
  8
0
  6
Continuous
 62
     7
370
    15
100
AcDbCircle
 10
36.20680185784885
 20
108.2506146697239
 30
0.0
 40
0.1759631957427565
100
AcDbArc
 50
41.10743995394027
 51
75.14642045305798
  0
ARC
  5
B1
330
1F
100
AcDbEntity
  8
0
  6
Continuous
 62
     7
370
    15
100
AcDbCircle
 10
41.2098167041604
 20
111.317164991638
 30
0.0
 40
0.151896762522574
100
AcDbArc
 50
337.4581475777461
 51
18.71017999611907
  0
ARC
  5
B2
330
1F
100
AcDbEntity
  8
0
  6
Continuous
 62
     7
370
    15
100
AcDbCircle
 10
41.97277186181135
 20
104.3941355090598
 30
0.0
 40
6.892979737554909
100
AcDbArc
 50
95.18276300982638
 51
144.8118604574739
  0
LINE
  5
B3
330
1F
100
AcDbEntity
  8
0
  6
Continuous
 62
     7
370
    15
100
AcDbLine
 10
41.35010851607234
 20
111.2589341237473
 30
0.0
 11
41.271080047028
 21
111.0552467058748
 31
0.0
  0
LINE
  5
B4
330
1F
100
AcDbEntity
  8
0
  6
Continuous
 62
     7
370
    15
100
AcDbLine
 10
36.33938625899006
 20
108.3663057360602
 30
0.0
 11
36.4184147280344
 21
108.2538626463561
 31
0.0
  0
LINE
  5
B5
330
1F
100
AcDbEntity
  8
0
  6
Continuous
 62
     7
370
    15
100
AcDbLine
 10
33.42078548823948
 20
101.1237684900283
 30
0.0
 11
32.76363017989635
 21
101.4542861297268
 31
0.0
  0
LINE
  5
B6
330
1F
100
AcDbEntity
  8
0
  6
Continuous
 62
     7
370
    15
100
AcDbLine
 10
33.5278388127294
 20
101.1198346291402
 30
0.0
 11
33.68589575081808
 21
101.2110789573087
 31
0.0
  0
ARC
  5
B7
330
1F
100
AcDbEntity
  8
0
  6
Continuous
 62
     7
370
    15
100
AcDbCircle
 10
33.47822209862158
 20
101.228204139282
 30
0.0
 40
0.1191879568044451
100
AcDbArc
 50
241.1904685080585
 51
294.6005588539432
  0
LINE
  5
B8
330
1F
100
AcDbEntity
  8
0
  6
Continuous
 62
     7
370
    15
100
AcDbLine
 10
35.5567018307133
 20
97.48024612185771
 30
0.0
 11
35.971673774251
 21
97.49431247526368
 31
0.0
  0
ARC
  5
B9
330
1F
100
AcDbEntity
  8
0
  6
Continuous
 62
     7
370
    15
100
AcDbCircle
 10
36.67650937344392
 20
100.7008392472132
 30
0.0
 40
3.283078914847902
100
AcDbArc
 50
172.5985369466595
 51
257.6028129741751
  0
ARC
  5
BA
330
1F
100
AcDbEntity
  8
0
  6
Continuous
 62
     7
370
    15
100
AcDbCircle
 10
35.94854601907154
 20
97.57923017185122
 30
0.0
 40
0.088010841680865
100
AcDbArc
 50
285.23526128057
 51
344.1243991931543
  0
ARC
  5
BB
330
1F
100
AcDbEntity
  8
0
  6
Continuous
 62
     7
370
    15
100
AcDbCircle
 10
36.74368322751462
 20
100.7172636574514
 30
0.0
 40
3.240944104323899
100
AcDbArc
 50
172.8646263799554
 51
257.3367122412191
  0
LINE
  5
BC
330
1F
100
AcDbEntity
  8
0
  6
Continuous
 62
     7
370
    15
100
AcDbLine
 10
36.03319994127055
 20
97.55515483779959
 30
0.0
 11
36.11222841031489
 21
97.75884263590358
 31
0.0
  0
LINE
  5
BD
330
1F
100
AcDbEntity
  8
0
  6
Continuous
 62
     7
370
    15
100
AcDbLine
 10
36.69775457338731
 20
97.07050795115941
 30
0.0
 11
37.91082805350497
 21
97.7708003650882
 31
0.0
  0
ARC
  5
BE
330
1F
100
AcDbEntity
  8
0
  6
Continuous
 62
     7
370
    15
100
AcDbCircle
 10
35.14706059751895
 20
100.2283489087789
 30
0.0
 40
3.518040835523904
100
AcDbArc
 50
218.6609141594539
 51
296.1538753705509
  0
ARC
  5
BF
330
1F
100
AcDbEntity
  8
0
  6
Continuous
 62
     7
370
    15
100
AcDbCircle
 10
33.40421807165919
 20
98.70105354407673
 30
0.0
 40
1.207485779808657
100
AcDbArc
 50
177.4332392074168
 51
213.7281565070013
  0
LINE
  5
C0
330
1F
100
AcDbEntity
  8
0
  6
Continuous
 62
     7
370
    15
100
AcDbLine
 10
41.1428451323472
 20
111.8779499095603
 30
0.0
 11
41.63392243049442
 21
111.3408324623851
 31
0.0
  0
ARC
  5
C1
330
1F
100
AcDbEntity
  8
0
  6
Continuous
 62
     7
370
    15
100
AcDbCircle
 10
41.55655526584759
 20
111.2680648010214
 30
0.0
 40
0.1062111609287968
100
AcDbArc
 50
339.8957263974707
 51
43.24524573644314
  0
LINE
  5
C2
330
1F
100
AcDbEntity
  8
0
  6
Continuous
 62
     7
370
    15
100
AcDbLine
 10
41.65629483379187
 20
111.2315568663752
 30
0.0
 11
41.57726636474752
 21
111.0278686880397
 31
0.0
  0
LINE
  5
C3
330
1F
100
AcDbEntity
  8
0
  6
Continuous
 62
     7
370
    15
100
AcDbLine
 10
17.99649744470134
 20
106.3455436048099
 30
0.0
 11
32.3999746585987
 21
98.03059319792289
 31
0.0
  0
ARC
  5
C4
330
1F
100
AcDbEntity
  8
0
  6
Continuous
 62
     7
370
    15
100
AcDbCircle
 10
25.33098787849204
 20
116.2071823580875
 30
0.0
 40
12.29010450824209
100
AcDbArc
 50
221.8906042552496
 51
233.3603606090405
  0
ARC
  5
C5
330
1F
100
AcDbEntity
  8
0
  6
Continuous
 62
     7
370
    15
100
AcDbCircle
 10
40.59096991490147
 20
107.98858819501
 30
0.0
 40
3.604516320126871
100
AcDbArc
 50
355.5892152200853
 51
61.97588482171701
  0
LWPOLYLINE
  5
C6
330
1F
100
AcDbEntity
  8
0
  6
Continuous
 62
     7
370
    15
100
AcDbPolyline
 90
        5
 70
   128
 43
0.0
 10
44.16764015627705
 20
107.6711961042242
 10
44.18055882389015
 20
107.6805239680482
 10
44.19012846340789
 20
107.6938088660054
 10
44.18969184839911
 20
107.7057177226213
 10
44.18481071650594
 20
107.7113767327941
  0
ARC
  5
C7
330
1F
100
AcDbEntity
  8
0
  6
Continuous
 62
     7
370
    15
100
AcDbCircle
 10
40.94581013732628
 20
108.0694470341082
 30
0.0
 40
3.240945401457973
100
AcDbArc
 50
352.8646439048576
 51
77.3366918411807
  0
ARC
  5
C8
330
1F
100
AcDbEntity
  8
0
  6
Continuous
 62
     7
370
    15
100
AcDbCircle
 10
35.40789281313271
 20
128.7151152259369
 30
0.0
 40
28.34703552734507
100
AcDbArc
 50
232.1045311844055
 51
239.2029863667418
  0
ARC
  5
C9
330
1F
100
AcDbEntity
  8
0
  6
Continuous
 62
     7
370
    15
100
AcDbCircle
 10
26.69009095968223
 20
122.8665407928499
 30
0.0
 40
0.8381497298428726
100
AcDbArc
 50
62.16934412139795
 51
112.6610040999954
  0
LWPOLYLINE
  5
CA
330
1F
100
AcDbEntity
  8
0
  6
Continuous
 62
     7
370
    15
100
AcDbPolyline
 90
        3
 70
   128
 43
0.0
 10
13.84096190886607
 20
119.7069233409717
 10
13.83882987102148
 20
119.6776880239388
 10
13.83883349301627
 20
119.677736496311
  0
ARC
  5
CB
330
1F
100
AcDbEntity
  8
0
  6
Continuous
 62
     7
370
    15
100
AcDbCircle
 10
24.83355552604883
 20
115.1803445111468
 30
0.0
 40
11.24248802005925
100
AcDbArc
 50
219.6871139525492
 51
232.3484856184551
  0
ARC
  5
CC
330
1F
100
AcDbEntity
  8
0
  6
Continuous
 62
     7
370
    15
100
AcDbCircle
 10
30.54407213008212
 20
121.3071962260207
 30
0.0
 40
19.59715046019176
100
AcDbArc
 50
230.0714605794418
 51
245.7624757601331
  0
ARC
  5
CD
330
1F
100
AcDbEntity
  8
0
  6
Continuous
 62
     7
370
    15
100
AcDbCircle
 10
21.89499901097007
 20
114.489020407102
 30
0.0
 40
12.66310089430354
100
AcDbArc
 50
243.1821762352916
 51
282.9499346077255
  0
ARC
  5
CE
330
1F
100
AcDbEntity
  8
0
  6
Continuous
 62
     7
370
    15
100
AcDbCircle
 10
17.94719693636633
 20
106.9279076830471
 30
0.0
 40
4.135664212831573
100
AcDbArc
 50
186.5866228346526
 51
244.7335093224198
  0
LINE
  5
CF
330
1F
100
AcDbEntity
  8
0
  6
Continuous
 62
     7
370
    15
100
AcDbLine
 10
36.25190998099732
 20
97.46925506847434
 30
0.0
 11
35.5567018307133
 21
97.48024612185771
 31
0.0
  0
LINE
  5
D0
330
1F
100
AcDbEntity
  8
0
  6
Continuous
 62
     7
370
    15
100
AcDbLine
 10
36.33938625899006
 20
97.52777720019599
 30
0.0
 11
36.4184147280344
 21
97.73146499829998
 31
0.0
  0
ARC
  5
D1
330
1F
100
AcDbEntity
  8
0
  6
Continuous
 62
     7
370
    15
100
AcDbCircle
 10
36.25389499389829
 20
97.5609268490159
 30
0.0
 40
0.0916932692397699
100
AcDbArc
 50
268.7595409361092
 51
338.8059583160716
  0
ARC
  5
D2
330
1F
100
AcDbEntity
  8
0
  6
Continuous
 62
     7
370
    15
100
AcDbCircle
 10
36.26961987258274
 20
102.1942308554337
 30
0.0
 40
4.725008976458402
100
AcDbArc
 50
269.785248149926
 51
300.7630916463607
  0
ARC
  5
D3
330
1F
100
AcDbEntity
  8
0
  6
Continuous
 62
     7
370
    15
100
AcDbCircle
 10
17.02114000563615
 20
123.2927173240691
 30
0.0
 40
0.918362861561475
100
AcDbArc
 50
51.23192486685951
 51
117.7555161502083
  0
LWPOLYLINE
  5
D4
330
1F
100
AcDbEntity
  8
0
  6
Continuous
 62
     7
370
    15
100
AcDbPolyline
 90
        3
 70
   128
 43
0.0
 10
17.99650287769353
 20
106.3455501631381
 10
17.98757400198205
 20
106.3196693258513
 10
17.96599712045025
 20
106.2792071568487
  0
LINE
  5
D5
330
1F
100
AcDbEntity
  8
0
  6
Continuous
 62
     7
370
    15
100
AcDbLine
 10
16.88686346949239
 20
102.8263375595359
 30
0.0
 11
16.88686346949239
 21
102.2150896549923
 31
0.0
  0
LINE
  5
D6
330
1F
100
AcDbEntity
  8
0
  6
Continuous
 62
     7
370
    15
100
AcDbLine
 10
18.22367258016986
 20
102.3336706751117
 30
0.0
 11
18.22367258016986
 21
101.5639765248713
 31
0.0
  0
LINE
  5
D7
330
1F
100
AcDbEntity
  8
0
  6
Continuous
 62
     7
370
    15
100
AcDbLine
 10
18.76117792467437
 20
101.3848272787604
 30
0.0
 11
18.76117792467437
 21
102.1906525418877
 31
0.0
  0
LINE
  5
D8
330
1F
100
AcDbEntity
  8
0
  6
Continuous
 62
     7
370
    15
100
AcDbLine
 10
19.80684864485536
 20
101.9866818078625
 30
0.0
 11
19.80684864485536
 21
101.1347861818603
 31
0.0
  0
LINE
  5
D9
330
1F
100
AcDbEntity
  8
0
  6
Continuous
 62
     7
370
    15
100
AcDbLine
 10
23.87081109731374
 20
101.1347861818603
 30
0.0
 11
23.87081109731374
 21
101.9866818078625
 31
0.0
  0
LINE
  5
DA
330
1F
100
AcDbEntity
  8
0
  6
Continuous
 62
     7
370
    15
100
AcDbLine
 10
24.91648181749474
 20
102.0419493467529
 30
0.0
 11
24.91648181749474
 21
101.3848272787604
 31
0.0
  0
LINE
  5
DB
330
1F
100
AcDbEntity
  8
0
  6
Continuous
 62
     7
370
    15
100
AcDbLine
 10
25.45398716199926
 20
101.5639765248713
 30
0.0
 11
25.45398716199926
 21
101.7316540296044
 31
0.0
  0
LINE
  5
DC
330
1F
100
AcDbEntity
  8
0
  6
Continuous
 62
     7
370
    15
100
AcDbLine
 10
17.10121458254131
 20
101.9629951374031
 30
0.0
 11
17.15370049750947
 21
101.9330275517409
 31
0.0
  0
LINE
  5
DD
330
1F
100
AcDbEntity
  8
0
  6
Continuous
 62
     7
370
    15
100
AcDbLine
 10
18.04452567189497
 20
101.5101392810564
 30
0.0
 11
18.77065487405262
 21
101.2595217994422
 31
0.0
  0
ARC
  5
DE
330
1F
100
AcDbEntity
  8
0
  6
Continuous
 62
     7
370
    15
100
AcDbCircle
 10
21.83882987108455
 20
112.2088921379449
 30
0.0
 40
11.3790323892927
100
AcDbArc
 50
258.9036081707602
 51
281.0963918292415
  0
LINE
  5
DF
330
1F
100
AcDbEntity
  8
0
  6
Continuous
 62
     7
370
    15
100
AcDbLine
 10
24.90700486811649
 20
101.2595217994422
 30
0.0
 11
25.63313407027414
 21
101.5101392810564
 31
0.0
  0
LINE
  5
E0
330
1F
100
AcDbEntity
  8
0
  6
Continuous
 62
     7
370
    15
100
AcDbLine
 10
15.78029843516774
 20
103.046455266081
 30
0.0
 11
15.83083645779935
 21
102.9860326222199
 31
0.0
  0
LINE
  5
E1
330
1F
100
AcDbEntity
  8
0
  6
Continuous
 62
     7
370
    15
100
AcDbLine
 10
16.73069826224145
 20
102.1951028239427
 30
0.0
 11
17.10121458254131
 21
101.9629951374031
 31
0.0
  0
LINE
  5
E2
330
1F
100
AcDbEntity
  8
0
  6
Continuous
 62
     7
370
    15
100
AcDbLine
 10
24.88181142478298
 20
102.0619639553043
 30
0.0
 11
24.88181142478298
 21
101.0897220349176
 31
0.0
  0
ARC
  5
E3
330
1F
100
AcDbEntity
  8
0
  6
Continuous
 62
     7
370
    15
100
AcDbCircle
 10
22.11498106276919
 20
111.721137166757
 30
0.0
 40
10.98555132697785
100
AcDbArc
 50
282.3084850349982
 51
284.587655426139
  0
LINE
  5
E4
330
1F
100
AcDbEntity
  8
0
  6
Continuous
 62
     7
370
    15
100
AcDbLine
 10
24.45682680590979
 20
100.9880995504528
 30
0.0
 11
24.45682680590979
 21
102.0895167393911
 31
0.0
  0
LINE
  5
E5
330
1F
100
AcDbEntity
  8
0
  6
Continuous
 62
     7
370
    15
100
AcDbLine
 10
19.22083293625932
 20
100.9880995504528
 30
0.0
 11
19.22083293625932
 21
102.0895167393911
 31
0.0
  0
ARC
  5
E6
330
1F
100
AcDbEntity
  8
0
  6
Continuous
 62
     7
370
    15
100
AcDbCircle
 10
21.56267867938764
 20
111.7211371667055
 30
0.0
 40
10.98555132692496
100
AcDbArc
 50
255.412344573857
 51
257.6915149650087
  0
LINE
  5
E7
330
1F
100
AcDbEntity
  8
0
  6
Continuous
 62
     7
370
    15
100
AcDbLine
 10
18.79584831738613
 20
102.1823665239429
 30
0.0
 11
18.79584831738613
 21
101.0897220349176
 31
0.0
  0
LWPOLYLINE
  5
E8
330
1F
100
AcDbEntity
  8
0
  6
Continuous
 62
     7
370
    15
100
AcDbPolyline
 90
        6
 70
   128
 43
0.0
 10
24.29106539098609
 20
100.9124771305032
 10
24.35160407051593
 20
100.8916798733332
 10
24.4051771601487
 20
100.8968509694921
 10
24.44108215917681
 20
100.9268542227001
 10
24.45599061902078
 20
100.9721325145345
 10
24.45682680590979
 20
100.9880995504528
  0
LINE
  5
E9
330
1F
100
AcDbEntity
  8
0
  6
Continuous
 62
     7
370
    15
100
AcDbLine
 10
23.87081109731374
 20
101.1347861818603
 30
0.0
 11
24.29106555562222
 21
100.9124772255457
 31
0.0
  0
LINE
  5
EA
330
1F
100
AcDbEntity
  8
0
  6
Continuous
 62
     7
370
    15
100
AcDbLine
 10
19.38659385727463
 20
100.9124770354608
 30
0.0
 11
19.80684864485536
 21
101.1347861818603
 31
0.0
  0
LWPOLYLINE
  5
EB
330
1F
100
AcDbEntity
  8
0
  6
Continuous
 62
     7
370
    15
100
AcDbPolyline
 90
        6
 70
   128
 43
0.0
 10
19.38659418654689
 20
100.9124772255457
 10
19.32605534238092
 20
100.8916796832484
 10
19.2724825820204
 20
100.8968509694921
 10
19.23657725372004
 20
100.9268540326152
 10
19.22166879387608
 20
100.9721323244497
 10
19.22083293625932
 20
100.9880995504528
  0
LINE
  5
EC
330
1F
100
AcDbEntity
  8
0
  6
Continuous
 62
     7
370
    15
100
AcDbLine
 10
24.91648181749474
 20
101.3848272787604
 30
0.0
 11
24.89161830495973
 21
101.0560815595888
 31
0.0
  0
LWPOLYLINE
  5
ED
330
1F
100
AcDbEntity
  8
0
  6
Continuous
 62
     7
370
    15
100
AcDbPolyline
 90
        6
 70
   128
 43
0.0
 10
24.88181142478298
 20
101.0897220349176
 10
24.8822756986611
 20
101.0461233192337
 10
24.88358472050685
 20
101.0193794935132
 10
24.88564102573302
 20
101.010781653673
 10
24.88843457153588
 20
101.0227864009886
 10
24.89161830495973
 20
101.0560815595888
  0
LWPOLYLINE
  5
EE
330
1F
100
AcDbEntity
  8
0
  6
Continuous
 62
     7
370
    15
100
AcDbPolyline
 90
        5
 70
   128
 43
0.0
 10
18.79584831738613
 20
101.0897220349176
 10
18.795384043508
 20
101.0461233192337
 10
18.79407502166226
 20
101.0193794935132
 10
18.79201871643608
 20
101.010781653673
 10
18.79194100818414
 20
101.0111145697011
  0
LINE
  5
EF
330
1F
100
AcDbEntity
  8
0
  6
Continuous
 62
     7
370
    15
100
AcDbLine
 10
18.78922517063322
 20
101.0227864009886
 30
0.0
 11
18.78604143720938
 21
101.0560815595888
 31
0.0
  0
LINE
  5
F0
330
1F
100
AcDbEntity
  8
0
  6
Continuous
 62
     7
370
    15
100
AcDbLine
 10
18.78604127257325
 20
101.0560816546312
 30
0.0
 11
18.76117792467437
 21
101.3848272787604
 31
0.0
  0
ARC
  5
F1
330
1F
100
AcDbEntity
  8
0
  6
Continuous
 62
     7
370
    15
100
AcDbCircle
 10
21.82778060725295
 20
109.8186091132381
 30
0.0
 40
9.851371904733868
100
AcDbArc
 50
242.9565872655522
 51
298.2060752242537
  0
LWPOLYLINE
  5
F2
330
1F
100
AcDbEntity
  8
0
  6
Continuous
 62
     7
370
    15
100
AcDbPolyline
 90
        3
 70
   128
 43
0.0
 10
15.57012724816759
 20
103.0517530171722
 10
15.68130141491622
 20
102.7407620761457
 10
15.81932460589143
 20
102.4692448154165
  0
ARC
  5
F3
330
1F
100
AcDbEntity
  8
0
  6
Continuous
 62
     7
370
    15
100
AcDbCircle
 10
19.40843956127959
 20
104.8029091558902
 30
0.0
 40
4.285928497745151
100
AcDbArc
 50
214.5440669775909
 51
241.2766162264837
  0
ARC
  5
F4
330
1F
100
AcDbEntity
  8
0
  6
Continuous
 62
     7
370
    15
100
AcDbCircle
 10
21.75831346186485
 20
108.5356934425636
 30
0.0
 40
9.513963529702358
100
AcDbArc
 50
242.3875632456697
 51
304.8419812382511
  0
ARC
  5
F5
330
1F
100
AcDbEntity
  8
0
  6
Continuous
 62
     7
370
    15
100
AcDbCircle
 10
18.69634085720044
 20
103.0355881811536
 30
0.0
 40
3.225286698515888
100
AcDbArc
 50
186.0181542857818
 51
245.3019968405595
  0
ARC
  5
F6
330
1F
100
AcDbEntity
  8
0
  6
Continuous
 62
     7
370
    15
100
AcDbCircle
 10
21.83882987108456
 20
108.9984751580296
 30
0.0
 40
8.537098167146211
100
AcDbArc
 50
242.1346229148143
 51
297.8653770851873
  0
LINE
  5
F7
330
1F
100
AcDbEntity
  8
0
  6
Continuous
 62
     7
370
    15
100
AcDbLine
 10
25.95959096417582
 20
101.4120339298438
 30
0.0
 11
26.02396788805236
 21
101.4026108992378
 31
0.0
  0
LINE
  5
F8
330
1F
100
AcDbEntity
  8
0
  6
Continuous
 62
     7
370
    15
100
AcDbLine
 10
25.45398716199926
 20
101.5639765248713
 30
0.0
 11
25.95959096417582
 21
101.4120339298438
 31
0.0
  0
LINE
  5
F9
330
1F
100
AcDbEntity
  8
0
  6
Continuous
 62
     7
370
    15
100
AcDbLine
 10
17.71806836640298
 20
101.4120337872802
 30
0.0
 11
18.22367258016986
 21
101.5639765248713
 31
0.0
  0
LWPOLYLINE
  5
FA
330
1F
100
AcDbEntity
  8
0
  6
Continuous
 62
     7
370
    15
100
AcDbPolyline
 90
        6
 70
   128
 43
0.0
 10
17.7180687779933
 20
101.4120339298438
 10
17.64523499018136
 20
101.4013728034652
 10
17.58078225136833
 20
101.4155142876978
 10
17.53758485973108
 20
101.4515293537027
 10
17.51964882382972
 20
101.4993039820379
 10
17.51864314404797
 20
101.5154110629519
  0
LINE
  5
FB
330
1F
100
AcDbEntity
  8
0
  6
Continuous
 62
     7
370
    15
100
AcDbLine
 10
17.51864314404797
 20
101.5154110629519
 30
0.0
 11
17.51864314404797
 21
102.5665312362659
 31
0.0
  0
ARC
  5
FC
330
1F
100
AcDbEntity
  8
0
  6
Continuous
 62
     7
370
    15
100
AcDbCircle
 10
20.7264544981501
 20
109.2498044877495
 30
0.0
 40
8.373224906394087
100
AcDbArc
 50
244.7424483457871
 51
247.473949484548
  0
LINE
  5
FD
330
1F
100
AcDbEntity
  8
0
  6
Continuous
 62
     7
370
    15
100
AcDbLine
 10
17.15370037403238
 20
102.71006654688
 30
0.0
 11
17.15370037403238
 21
101.6770689647262
 31
0.0
  0
LINE
  5
FE
330
1F
100
AcDbEntity
  8
0
  6
Continuous
 62
     7
370
    15
100
AcDbLine
 10
16.33036596891136
 20
102.1438681377132
 30
0.0
 11
16.88686346949239
 21
102.2150896549923
 31
0.0
  0
LWPOLYLINE
  5
FF
330
1F
100
AcDbEntity
  8
0
  6
Continuous
 62
     7
370
    15
100
AcDbPolyline
 90
        6
 70
   128
 43
0.0
 10
16.33036642166072
 20
102.1438682565162
 10
16.2502013047956
 20
102.1448352367295
 10
16.17926066780799
 20
102.1692667254202
 10
16.13171515373871
 20
102.2121783065242
 10
16.11197367690969
 20
102.2628165865261
 10
16.11086658127371
 20
102.2790840990334
  0
LINE
  5
100
330
1F
100
AcDbEntity
  8
0
  6
Continuous
 62
     7
370
    15
100
AcDbLine
 10
16.11086658127371
 20
102.2790840990334
 30
0.0
 11
16.11086658127371
 21
103.2294657531496
 31
0.0
  0
LWPOLYLINE
  5
101
330
1F
100
AcDbEntity
  8
0
  6
Continuous
 62
     7
370
    15
100
AcDbPolyline
 90
       13
 70
   128
 43
0.0
 10
17.34870186481404
 20
99.12549304105404
 10
18.22260326852502
 20
98.70431239740536
 10
19.21273316808339
 20
98.37998111319413
 10
20.28726838795765
 20
98.16292325020212
 10
21.41167156142664
 20
98.06011530171904
 10
22.54980440007032
 20
98.07486132219322
 10
23.66508574428699
 20
98.20668781032269
 10
24.7216693701459
 20
98.45135758524753
 10
25.68559652459421
 20
98.80100669514586
 10
26.52588546676597
 20
99.24439702808758
 10
27.21552852494674
 20
99.76727786525398
 10
27.73236001707603
 20
100.3528432012688
 10
27.76343195796005
 20
100.3984398939863
  0
ARC
  5
102
330
1F
100
AcDbEntity
  8
0
  6
Continuous
 62
     7
370
    15
100
AcDbCircle
 10
18.89460657433283
 20
102.2936776719099
 30
0.0
 40
3.525225556769899
100
AcDbArc
 50
200.3473945093038
 51
243.9900983105349
  0
LWPOLYLINE
  5
103
330
1F
100
AcDbEntity
  8
0
  6
Continuous
 62
     7
370
    15
100
AcDbPolyline
 90
       13
 70
   128
 43
0.0
 10
17.34870186481404
 20
98.63556862571028
 10
18.22260326852502
 20
98.21438798206161
 10
19.21273316808339
 20
97.89005669785039
 10
20.28726838795765
 20
97.67299883485836
 10
21.41167156142664
 20
97.57019088637528
 10
22.54980440007032
 20
97.58493690684947
 10
23.66508574428699
 20
97.71676339497894
 10
24.7216693701459
 20
97.96143316990377
 10
25.68559652459421
 20
98.31108227980209
 10
26.52588546676597
 20
98.75447261274382
 10
27.21552852494674
 20
99.2773534499102
 10
27.73236001707603
 20
99.8629187859251
 10
27.97204848601297
 20
100.2780081613195
  0
ARC
  5
104
330
1F
100
AcDbEntity
  8
0
  6
Continuous
 62
     7
370
    15
100
AcDbCircle
 10
18.69634085720089
 20
101.5658149351227
 30
0.0
 40
3.225286698516359
100
AcDbArc
 50
186.0181542857853
 51
245.3019968405547
  0
LWPOLYLINE
  5
105
330
1F
100
AcDbEntity
  8
0
  6
Continuous
 62
     7
370
    15
100
AcDbPolyline
 90
        4
 70
   128
 43
0.0
 10
17.15370037403238
 20
101.6770689647262
 10
17.15600437431161
 20
101.6333304891739
 10
17.16250050429255
 20
101.6061923800028
 10
17.17029092118586
 20
101.5991548960121
  0
ARC
  5
106
330
1F
100
AcDbEntity
  8
0
  6
Continuous
 62
     7
370
    15
100
AcDbCircle
 10
19.37606308636973
 20
106.9106007128732
 30
0.0
 40
5.666785187490848
100
AcDbArc
 50
231.2726494566318
 51
234.8163510266764
  0
LINE
  5
107
330
1F
100
AcDbEntity
  8
0
  6
Continuous
 62
     7
370
    15
100
AcDbLine
 10
15.83083654011741
 20
103.4040465983002
 30
0.0
 11
15.83083654011741
 21
102.4897610757778
 31
0.0
  0
LINE
  5
108
330
1F
100
AcDbEntity
  8
0
  6
Continuous
 62
     7
370
    15
100
AcDbLine
 10
27.58819013629944
 20
98.44273979821075
 30
0.0
 11
27.58882958301669
 21
98.49225271355924
 31
0.0
  0
LINE
  5
109
330
1F
100
AcDbEntity
  8
0
  6
Continuous
 62
     7
370
    15
100
AcDbLine
 10
18.59865984145249
 20
98.07502863949537
 30
0.0
 11
18.59865984145249
 21
95.75005707712541
 31
0.0
  0
LWPOLYLINE
  5
10A
330
1F
100
AcDbEntity
  8
0
  6
Continuous
 62
     7
370
    15
100
AcDbPolyline
 90
        7
 70
   128
 43
0.0
 10
23.32703953717965
 20
96.42911094991108
 10
23.11601471186104
 20
96.42571345028002
 10
22.92281158265357
 20
96.48157439414237
 10
22.83907452037716
 20
96.53336422060245
 10
22.77530749103306
 20
96.59714821240495
 10
22.73188718207986
 20
96.67585725347205
 10
22.71636150139578
 20
96.76315947591609
  0
ARC
  5
10B
330
1F
100
AcDbEntity
  8
0
  6
Continuous
 62
     7
370
    15
100
AcDbCircle
 10
23.01267026417001
 20
101.6687832470697
 30
0.0
 40
5.249094571583245
100
AcDbArc
 50
273.433509802724
 51
326.5611136645778
  0
ARC
  5
10C
330
1F
100
AcDbEntity
  8
0
  6
Continuous
 62
     7
370
    15
100
AcDbCircle
 10
25.26661718273369
 20
99.5268762991548
 30
0.0
 40
2.254879607698165
100
AcDbArc
 50
340.5566581623614
 51
0.2595703637424381
  0
LWPOLYLINE
  5
10D
330
1F
100
AcDbEntity
  8
0
  6
Continuous
 62
     7
370
    15
100
AcDbPolyline
 90
        4
 70
   128
 43
0.0
 10
15.83083654011741
 20
102.4897610757778
 10
15.83575183400693
 20
102.4454739203748
 10
15.84961016231486
 20
102.4167887108036
 10
15.85547935792419
 20
102.4136479392309
  0
LINE
  5
10E
330
1F
100
AcDbEntity
  8
0
  6
Continuous
 62
     7
370
    15
100
AcDbLine
 10
15.31805633148317
 20
103.0581067468202
 30
0.0
 11
15.83083662243547
 21
103.0451821191503
 31
0.0
  0
LWPOLYLINE
  5
10F
330
1F
100
AcDbEntity
  8
0
  6
Continuous
 62
     7
370
    15
100
AcDbPolyline
 90
        6
 70
   128
 43
0.0
 10
15.3180564961193
 20
103.0581066517778
 10
15.23602325312117
 20
103.0714009180948
 10
15.1634292578282
 20
103.1067412323952
 10
15.11477615421456
 20
103.1569641887315
 10
15.09457431361543
 20
103.2106381471677
 10
15.0934416170617
 20
103.227075928158
  0
LINE
  5
110
330
1F
100
AcDbEntity
  8
0
  6
Continuous
 62
     7
370
    15
100
AcDbLine
 10
15.0934416170617
 20
103.227075928158
 30
0.0
 11
15.0934416170617
 21
103.9705348691148
 31
0.0
  0
ARC
  5
111
330
1F
100
AcDbEntity
  8
0
  6
Continuous
 62
     7
370
    15
100
AcDbCircle
 10
17.94906374745266
 20
105.4618552830141
 30
0.0
 40
3.626129688313615
100
AcDbArc
 50
213.2737832345716
 51
218.0463537266279
  0
LINE
  5
112
330
1F
100
AcDbEntity
  8
0
  6
Continuous
 62
     7
370
    15
100
AcDbLine
 10
14.91740723708573
 20
104.1376079475787
 30
0.0
 11
14.91740723708573
 21
103.4724143264589
 31
0.0
  0
LWPOLYLINE
  5
113
330
1F
100
AcDbEntity
  8
0
  6
Continuous
 62
     7
370
    15
100
AcDbPolyline
 90
        3
 70
   128
 43
0.0
 10
14.91740723708573
 20
103.4724143264589
 10
14.92459887238515
 20
103.4272069228912
 10
14.93556594334884
 20
103.4102887324672
  0
ARC
  5
114
330
1F
100
AcDbEntity
  8
0
  6
Continuous
 62
     7
370
    15
100
AcDbCircle
 10
19.00428657605673
 20
98.19635330244697
 30
0.0
 40
2.4796972133404
100
AcDbArc
 50
219.4200802272097
 51
260.5852963054911
  0
LWPOLYLINE
  5
115
330
1F
100
AcDbEntity
  8
0
  6
Continuous
 62
     7
370
    15
100
AcDbPolyline
 90
        7
 70
   128
 43
0.0
 10
22.71636150139578
 20
96.76315947591609
 10
22.78210432889995
 20
96.77452217656947
 10
22.84001805002097
 20
96.7957763213217
 10
22.88573898421281
 20
96.82532016038521
 10
22.9158221205181
 20
96.86092770540319
 10
22.92800074874035
 20
96.8999157189696
 10
22.92702198696536
 20
96.905724236045
  0
ARC
  5
116
330
1F
100
AcDbEntity
  8
0
  6
Continuous
 62
     7
370
    15
100
AcDbCircle
 10
23.29080807790343
 20
97.38986840692865
 30
0.0
 40
0.6178739392771135
100
AcDbArc
 50
239.6725250553281
 51
267.3587168411131
  0
ARC
  5
117
330
1F
100
AcDbEntity
  8
0
  6
Continuous
 62
     7
370
    15
100
AcDbCircle
 10
22.34677661480809
 20
96.4223445879486
 30
0.0
 40
0.9802862748353881
100
AcDbArc
 50
0.395483514938609
 51
20.93760151513956
  0
ARC
  5
118
330
1F
100
AcDbEntity
  8
0
  6
Continuous
 62
     7
370
    15
100
AcDbCircle
 10
22.96163378834974
 20
101.7845111476836
 30
0.0
 40
5.020872871517545
100
AcDbArc
 50
273.4335088899178
 51
326.5611145773842
  0
ARC
  5
119
330
1F
100
AcDbEntity
  8
0
  6
Continuous
 62
     7
370
    15
100
AcDbCircle
 10
27.12158620718771
 20
98.74645675861925
 30
0.0
 40
0.2729519631652315
100
AcDbArc
 50
6.273670237743538
 51
83.7245788173265
  0
LINE
  5
11A
330
1F
100
AcDbEntity
  8
0
  6
Continuous
 62
     7
370
    15
100
AcDbLine
 10
17.08869301726653
 20
96.62174237038481
 30
0.0
 11
17.08869301726653
 21
98.79491185133836
 31
0.0
  0
ARC
  5
11B
330
1F
100
AcDbEntity
  8
0
  6
Continuous
 62
     7
370
    15
100
AcDbCircle
 10
27.34682882778839
 20
99.61726755495764
 30
0.0
 40
0.192169159655737
100
AcDbArc
 50
276.0655738246596
 51
335.341108860624
  0
LWPOLYLINE
  5
11C
330
1F
100
AcDbEntity
  8
0
  6
Continuous
 62
     7
370
    15
100
AcDbPolyline
 90
       12
 70
   128
 43
0.0
 10
27.12214806616769
 20
99.22083613604371
 10
27.12370733492646
 20
99.20952468380981
 10
27.13955883050586
 20
99.10404876700793
 10
27.14868543420586
 20
99.03763659324162
 10
27.1507237940942
 20
99.02274646907045
 10
27.15123844662719
 20
99.01907915498057
 10
27.1513714726178
 20
99.01813481306987
 10
27.15140703402123
 20
99.01788162008143
 10
27.15141691218885
 20
99.01780938784748
 10
27.15142004027527
 20
99.01778686279557
 10
27.15142201590879
 20
99.01777317668809
 10
27.15142201590879
 20
99.01777317668809
  0
LWPOLYLINE
  5
11D
330
1F
100
AcDbEntity
  8
0
  6
Continuous
 62
     7
370
    15
100
AcDbPolyline
 90
       10
 70
   128
 43
0.0
 10
43.12274322589291
 20
97.55801299397475
 10
42.53534045792693
 20
97.660453128221
 10
42.05999315389738
 20
97.98081632213769
 10
41.72589014666772
 20
98.49943034534236
 10
41.55354707329511
 20
99.18444938827354
 10
41.55354707329511
 20
99.99380947303482
 10
41.72589014666772
 20
100.877811640537
 10
42.05999315389738
 20
101.782172951382
 10
42.53534045792693
 20
102.651360246597
 10
43.12274322589291
 20
103.4320013709425
  0
LINE
  5
11E
330
1F
100
AcDbEntity
  8
0
  6
Continuous
 62
     7
370
    15
100
AcDbLine
 10
43.47629733298261
 20
102.7659123997156
 30
0.0
 11
43.12274322589291
 21
103.4320013709425
 31
0.0
  0
LWPOLYLINE
  5
11F
330
1F
100
AcDbEntity
  8
0
  6
Continuous
 62
     7
370
    15
100
AcDbPolyline
 90
        9
 70
   128
 43
0.0
 10
43.47629733298261
 20
97.81589689192546
 10
42.96373419708181
 20
97.97417286134557
 10
42.57043067276253
 20
98.33901256047401
 10
42.32318985077191
 20
98.88555280168549
 10
42.23886042771056
 20
99.57654762098369
 10
42.32318985077191
 20
100.3649069295673
 10
42.57043067276253
 20
101.1969053239365
 10
42.96373419708181
 20
102.0158436064839
 10
43.47629733298261
 20
102.7659123997156
  0
LINE
  5
120
330
1F
100
AcDbEntity
  8
0
  6
Continuous
 62
     7
370
    15
100
AcDbLine
 10
43.12274322589291
 20
97.55801299397475
 30
0.0
 11
43.47629733298261
 21
97.81589689192546
 31
0.0
  0
LWPOLYLINE
  5
121
330
1F
100
AcDbEntity
  8
0
  6
Continuous
 62
     7
370
    15
100
AcDbPolyline
 90
        5
 70
   128
 43
0.0
 10
41.0473854839203
 20
99.85616734247042
 10
41.01083823936077
 20
99.50653930102493
 10
40.90792814764283
 20
99.27769577861226
 10
40.80065157656469
 20
99.18555117524444
 10
40.6821129065833
 20
99.14861474166862
  0
ARC
  5
122
330
1F
100
AcDbEntity
  8
0
  6
Continuous
 62
     7
370
    15
100
AcDbCircle
 10
37.19574815121301
 20
99.73340803980695
 30
0.0
 40
3.853593127082172
100
AcDbArc
 50
1.825511893834939
 51
24.85562651756211
  0
LINE
  5
123
330
1F
100
AcDbEntity
  8
0
  6
Continuous
 62
     7
370
    15
100
AcDbLine
 10
43.12274322589291
 20
103.4320013709425
 30
0.0
 11
42.09743947634643
 21
104.023896626711
 31
0.0
  0
ARC
  5
124
330
1F
100
AcDbEntity
  8
0
  6
Continuous
 62
     7
370
    15
100
AcDbCircle
 10
45.24075726681735
 20
103.0471586048874
 30
0.0
 40
1.958605648006749
100
AcDbArc
 50
353.9927062525737
 51
60.09282198185922
  0
LINE
  5
125
330
1F
100
AcDbEntity
  8
0
  6
Continuous
 62
     7
370
    15
100
AcDbLine
 10
39.26224106262609
 20
108.518050311855
 30
0.0
 11
40.21961331199612
 21
107.965371076402
 31
0.0
  0
LINE
  5
126
330
1F
100
AcDbEntity
  8
0
  6
Continuous
 62
     7
370
    15
100
AcDbLine
 10
43.47629733298261
 20
97.81589689192546
 30
0.0
 11
43.47629733298261
 21
102.7659123997156
 31
0.0
  0
ARC
  5
127
330
1F
100
AcDbEntity
  8
0
  6
Continuous
 62
     7
370
    15
100
AcDbCircle
 10
40.53809558301009
 20
100.5622532098599
 30
0.0
 40
0.4864309351174083
100
AcDbArc
 50
266.3099759622775
 51
339.8594337176517
  0
ARC
  5
128
330
1F
100
AcDbEntity
  8
0
  6
Continuous
 62
     7
370
    15
100
AcDbCircle
 10
45.18974756085774
 20
102.5293290426343
 30
0.0
 40
2.005048183414221
100
AcDbArc
 50
355.2273018186056
 51
43.17981053543276
  0
LINE
  5
129
330
1F
100
AcDbEntity
  8
0
  6
Continuous
 62
     7
370
    15
100
AcDbLine
 10
37.00626975144125
 20
108.5508021245088
 30
0.0
 11
37.00626975144125
 21
108.2288076875781
 31
0.0
  0
ARC
  5
12A
330
1F
100
AcDbEntity
  8
0
  6
Continuous
 62
     7
370
    15
100
AcDbCircle
 10
41.70149639062194
 20
101.3101222418088
 30
0.0
 40
8.176563743107196
100
AcDbArc
 50
163.7152741743521
 51
178.4723451926179
  0
ARC
  5
12B
330
1F
100
AcDbEntity
  8
0
  6
Continuous
 62
     7
370
    15
100
AcDbCircle
 10
45.6074852735903
 20
100.5774227719722
 30
0.0
 40
12.10558809009245
100
AcDbArc
 50
142.2695097517995
 51
151.8998079842361
  0
LWPOLYLINE
  5
12C
330
1F
100
AcDbEntity
  8
0
  6
Continuous
 62
     7
370
    15
100
AcDbPolyline
 90
        3
 70
   128
 43
0.0
 10
41.63392243049442
 20
111.3408324623851
 10
42.17608368467038
 20
111.2112458617442
 10
42.28452719661666
 20
111.1704746850675
  0
ARC
  5
12D
330
1F
100
AcDbEntity
  8
0
  6
Continuous
 62
     7
370
    15
100
AcDbCircle
 10
17.93604054751157
 20
119.8684462757501
 30
0.0
 40
4.101643069232101
100
AcDbArc
 50
182.6649823514846
 51
244.681522650096
  0
ARC
  5
12E
330
1F
100
AcDbEntity
  8
0
  6
Continuous
 62
     7
370
    15
100
AcDbCircle
 10
36.35809688045072
 20
102.0517542141554
 30
0.0
 40
4.524015706227011
100
AcDbArc
 50
269.7630329407236
 51
300.4866440122868
  0
LINE
  5
12F
330
1F
100
AcDbEntity
  8
0
  6
Continuous
 62
     7
370
    15
100
AcDbLine
 10
27.52147365074022
 20
99.59178264513518
 30
0.0
 11
27.52147365074022
 21
99.53709167492556
 31
0.0
  0
LWPOLYLINE
  5
130
330
1F
100
AcDbEntity
  8
0
  6
Continuous
 62
     7
370
    15
100
AcDbPolyline
 90
       12
 70
   128
 43
0.0
 10
18.59865984145249
 20
95.75005707712541
 10
19.59486580191376
 20
95.43605405194359
 10
20.67850770451666
 20
95.24113593890888
 10
21.80736198031511
 20
95.17289795742021
 10
22.9374423013513
 20
95.23399929915312
 10
24.02471508909896
 20
95.42205858140548
 10
25.02681461131636
 20
95.72974827173487
 10
25.90469387080962
 20
96.14507938750683
 10
26.62414641947321
 20
96.65186829670719
 10
27.15713834687421
 20
97.23036803717009
 10
27.48290187572703
 20
97.85803725722182
 10
27.58819013629944
 20
98.44273979821075
  0
LINE
  5
131
330
1F
100
AcDbEntity
  8
0
  6
Continuous
 62
     7
370
    15
100
AcDbLine
 10
22.71636150139578
 20
96.76315947591609
 30
0.0
 11
22.71636150139578
 21
97.59705950806083
 31
0.0
  0
ARC
  5
132
330
1F
100
AcDbEntity
  8
0
  6
Continuous
 62
     7
370
    15
100
AcDbCircle
 10
18.4833955415275
 20
98.56975543799606
 30
0.0
 40
2.395819284245818
100
AcDbArc
 50
181.853793352539
 51
234.3987915540717
  0
LINE
  5
133
330
1F
100
AcDbEntity
  8
0
  6
Continuous
 62
     7
370
    15
100
AcDbLine
 10
27.00944739324955
 20
99.09973338177726
 30
0.0
 11
27.15142201590879
 21
99.01777317668809
 31
0.0
  0
LINE
  5
134
330
1F
100
AcDbEntity
  8
0
  6
Continuous
 62
     7
370
    15
100
AcDbLine
 10
22.92820802562424
 20
96.96553812809309
 30
0.0
 11
23.26233474045619
 21
96.77265088134108
 31
0.0
  0
LINE
  5
135
330
1F
100
AcDbEntity
  8
0
  6
Continuous
 62
     7
370
    15
100
AcDbLine
 10
39.09223516371233
 20
108.5220530258206
 30
0.0
 11
39.09223516371233
 21
107.3145497426336
 31
0.0
  0
LINE
  5
136
330
1F
100
AcDbEntity
  8
0
  6
Continuous
 62
     7
370
    15
100
AcDbLine
 10
38.66797140412119
 20
107.2695278204796
 30
0.0
 11
38.66797140412119
 21
108.4226899463869
 31
0.0
  0
ENDSEC
  0
SECTION
  2
OBJECTS
  0
DICTIONARY
  5
C
330
0
100
AcDbDictionary
281
     1
  3
ACAD_COLOR
350
658
  3
ACAD_GROUP
350
D
  3
ACAD_LAYOUT
350
1A
  3
ACAD_MATERIAL
350
657
  3
ACAD_MLINESTYLE
350
17
  3
ACAD_PLOTSETTINGS
350
19
  3
ACAD_PLOTSTYLENAME
350
E
  3
ACAD_TABLESTYLE
350
659
  3
AcDbVariableDictionary
350
65E
  0
DICTIONARY
  5
658
102
{ACAD_REACTORS
330
C
102
}
330
C
100
AcDbDictionary
281
     1
  0
DICTIONARY
  5
D
102
{ACAD_REACTORS
330
C
102
}
330
C
100
AcDbDictionary
281
     1
  0
DICTIONARY
  5
1A
102
{ACAD_REACTORS
330
C
102
}
330
C
100
AcDbDictionary
281
     1
  3
Layout1
350
1E
  3
Layout2
350
26
  3
Model
350
22
  0
DICTIONARY
  5
657
102
{ACAD_REACTORS
330
C
102
}
330
C
100
AcDbDictionary
281
     1
  0
DICTIONARY
  5
17
102
{ACAD_REACTORS
330
C
102
}
330
C
100
AcDbDictionary
281
     1
  3
Standard
350
18
  0
DICTIONARY
  5
19
102
{ACAD_REACTORS
330
C
102
}
330
C
100
AcDbDictionary
281
     1
  0
ACDBDICTIONARYWDFLT
  5
E
102
{ACAD_REACTORS
330
C
102
}
330
C
100
AcDbDictionary
281
     1
  3
Normal
350
F
100
AcDbDictionaryWithDefault
340
F
  0
DICTIONARY
  5
659
102
{ACAD_REACTORS
330
C
102
}
330
C
100
AcDbDictionary
281
     1
  3
Standard
350
65A
  0
DICTIONARY
  5
65E
102
{ACAD_REACTORS
330
C
102
}
330
C
100
AcDbDictionary
281
     1
  3
CTABLESTYLE
350
65F
  0
LAYOUT
  5
1E
102
{ACAD_REACTORS
330
1A
102
}
330
1A
100
AcDbPlotSettings
  1

  2

  4

  6

 40
0.0
 41
0.0
 42
0.0
 43
0.0
 44
0.0
 45
0.0
 46
0.0
 47
0.0
 48
0.0
 49
0.0
140
0.0
141
0.0
142
1.0
143
1.0
 70
   688
 72
     0
 73
     0
 74
     5
  7

 75
    16
147
1.0
 76
     0
 77
     2
 78
   300
148
0.0
149
0.0
100
AcDbLayout
  1
Layout1
 70
     1
 71
     1
 10
0.0
 20
0.0
 11
420.0
 21
297.0
 12
0.0
 22
0.0
 32
0.0
 14
1.000000000000000E+20
 24
1.000000000000000E+20
 34
1.000000000000000E+20
 15
-1.000000000000000E+20
 25
-1.000000000000000E+20
 35
-1.000000000000000E+20
146
0.0
 13
0.0
 23
0.0
 33
0.0
 16
1.0
 26
0.0
 36
0.0
 17
0.0
 27
1.0
 37
0.0
 76
     0
330
1B
  0
LAYOUT
  5
26
102
{ACAD_REACTORS
330
1A
102
}
330
1A
100
AcDbPlotSettings
  1

  2

  4

  6

 40
0.0
 41
0.0
 42
0.0
 43
0.0
 44
0.0
 45
0.0
 46
0.0
 47
0.0
 48
0.0
 49
0.0
140
0.0
141
0.0
142
1.0
143
1.0
 70
   688
 72
     0
 73
     0
 74
     5
  7

 75
    16
147
1.0
 76
     0
 77
     2
 78
   300
148
0.0
149
0.0
100
AcDbLayout
  1
Layout2
 70
     1
 71
     2
 10
0.0
 20
0.0
 11
0.0
 21
0.0
 12
0.0
 22
0.0
 32
0.0
 14
0.0
 24
0.0
 34
0.0
 15
0.0
 25
0.0
 35
0.0
146
0.0
 13
0.0
 23
0.0
 33
0.0
 16
1.0
 26
0.0
 36
0.0
 17
0.0
 27
1.0
 37
0.0
 76
     0
330
23
  0
LAYOUT
  5
22
102
{ACAD_REACTORS
330
1A
102
}
330
1A
100
AcDbPlotSettings
  1

  2

  4

  6

 40
0.0
 41
0.0
 42
0.0
 43
0.0
 44
0.0
 45
0.0
 46
0.0
 47
0.0
 48
0.0
 49
0.0
140
0.0
141
0.0
142
1.0
143
1.0
 70
  1712
 72
     0
 73
     0
 74
     0
  7

 75
     0
147
1.0
 76
     0
 77
     2
 78
   300
148
0.0
149
0.0
100
AcDbLayout
  1
Model
 70
     1
 71
     0
 10
0.0
 20
0.0
 11
0.0
 21
0.0
 12
0.0
 22
0.0
 32
0.0
 14
0.0
 24
0.0
 34
0.0
 15
279.4
 25
215.9
 35
0.0
146
0.0
 13
0.0
 23
0.0
 33
0.0
 16
1.0
 26
0.0
 36
0.0
 17
0.0
 27
1.0
 37
0.0
 76
     0
330
1F
  0
MLINESTYLE
  5
18
102
{ACAD_REACTORS
330
17
102
}
330
17
100
AcDbMlineStyle
  2
STANDARD
 70
     0
  3

 62
   256
 51
90.0
 52
90.0
 71
     2
 49
0.5
 62
   256
  6
BYLAYER
 49
-0.5
 62
   256
  6
BYLAYER
  0
ACDBPLACEHOLDER
  5
F
102
{ACAD_REACTORS
330
E
102
}
330
E
  0
TABLESTYLE
  5
65A
102
{ACAD_REACTORS
330
659
102
}
330
659
100
AcDbTableStyle
  3
Standard
 70
     0
 71
     8
 40
1.5
 41
1.5
280
     0
281
     0
  7
Standard
140
4.5
170
     2
 62
     0
 63
     7
283
     0
274
    -2
284
     1
 64
     0
275
    -2
285
     1
 65
     0
276
    -2
286
     1
 66
     0
277
    -2
287
     1
 67
     0
278
    -2
288
     1
 68
     0
279
    -2
289
     1
 69
     0
  7
Standard
140
6.0
170
     5
 62
     0
 63
     7
283
     0
274
    -2
284
     1
 64
     0
275
    -2
285
     1
 65
     0
276
    -2
286
     1
 66
     0
277
    -2
287
     1
 67
     0
278
    -2
288
     1
 68
     0
279
    -2
289
     1
 69
     0
  7
Standard
140
4.5
170
     5
 62
     0
 63
     7
283
     0
274
    -2
284
     1
 64
     0
275
    -2
285
     1
 65
     0
276
    -2
286
     1
 66
     0
277
    -2
287
     1
 67
     0
278
    -2
288
     1
 68
     0
279
    -2
289
     1
 69
     0
  0
DICTIONARYVAR
  5
65F
102
{ACAD_REACTORS
330
65E
102
}
330
65E
100
DictionaryVariables
280
     0
  1
STANDARD
  0
ENDSEC
  0
EOF
