  0
SECTION
  2
HEADER
  9
$ACADVER
  1
AC1006
  9
$EXTMIN
 10
-1.855776
 20
-3.555000
  9
$EXTMAX
 10
1.852732
 20
3.549000
  9
$LTSCALE
 40
0.000394
  9
$PDMODE
 70
    35
  9
$PDSIZE
 40
0.000315
  0
ENDSEC
  0
SECTION
  2
TABLES
  0
TABLE
  2
LTYPE
 70
     9
  0
LTYPE
  2
CONTINUOUS
 70
    64
  3
Solid line
 72
    65
 73
     0
 40
0.000000
  0
LTYPE
  2
DASHED
 70
    64
  3
__ __ __ __ __ __ __ __ __ __ __ __ __ __ __
 72
    65
 73
     2
 40
0.000003
 49
0.000002
 49
-0.000001
  0
LTYPE
  2
HIDDEN
 70
    64
  3
 _ _ _ _ _ _ _ _ _ _ _ _ _ _ _ _ _ _ _ _ _ _
 72
    65
 73
     2
 40
0.000001
 49
0.000001
 49
-0.000000
  0
LTYPE
  2
CENTER
 70
    64
  3
____ _ ____ _ ____ _ ____ _ ____ _ ____ _ ____
 72
    65
 73
     4
 40
0.000008
 49
0.000005
 49
-0.000001
 49
0.000001
 49
-0.000001
  0
LTYPE
  2
PHANTOM
 70
    64
  3
_____ _ _ _____ _ _ _____ _ _ _____ _ _ ____
 72
    65
 73
     6
 40
0.000010
 49
0.000005
 49
-0.000001
 49
0.000001
 49
-0.000001
 49
0.000001
 49
-0.000001
  0
LTYPE
  2
DOT
 70
    64
  3
...............................................
 72
    65
 73
     2
 40
0.000001
 49
0.000000
 49
-0.000001
  0
LTYPE
  2
DASHDOT
 70
    64
  3
__ . __ . __ . __ . __ . __ . __ . __ . __ . __
 72
    65
 73
     4
 40
0.000004
 49
0.000002
 49
-0.000001
 49
0.000000
 49
-0.000001
  0
LTYPE
  2
BORDER
 70
    64
  3
__ __ . __ __ . __ __ . __ __ . __ __ . __ __
 72
    65
 73
     6
 40
0.000007
 49
0.000002
 49
-0.000001
 49
0.000002
 49
-0.000001
 49
0.000000
 49
-0.000001
  0
LTYPE
  2
DIVIDE
 70
    64
  3
__ . . __ . . __ . . __ . . __ . . __ . . __
 72
    65
 73
     6
 40
0.000005
 49
0.000002
 49
-0.000001
 49
0.000000
 49
-0.000001
 49
0.000000
 49
-0.000001
  0
LTYPE
  2
DOTDOT
 70
    64
  3
 . .  . .  . .  . .  . .  . . 
 72
    65
 73
     5
 40
0.000002
 49
-0.000001
 49
0.000000
 49
-0.000001
 49
0.000000
 49
-0.000001
  0
ENDTAB
  0
TABLE
  2
STYLE
 70
     0
  0
ENDTAB
  0
TABLE
  2
LAYER
 70
     3
  0
LAYER
  2
FOREGROUND
 70
    64
 62
     7
  6
CONTINUOUS
  0
LAYER
  2
BACKGROUND
 70
    65
 62
    -7
  6
CONTINUOUS
  0
LAYER
  2
PLAN_1
 70
    64
 62
     7
  6
CONTINUOUS
  0
ENDTAB
  0
ENDSEC
  0
SECTION
  2
ENTITIES
  0
POLYLINE
  8
PLAN_1
  6
CONTINUOUS
 66
     1
 40
0.003000
 41
0.003000
  0
VERTEX
  8
PLAN_1
  6
CONTINUOUS
 10
-0.023169
 20
-3.520366
  0
VERTEX
  8
PLAN_1
  6
CONTINUOUS
 10
-0.179902
 20
-3.520366
  0
VERTEX
  8
PLAN_1
  6
CONTINUOUS
 10
-0.179902
 20
-3.497724
  0
VERTEX
  8
PLAN_1
  6
CONTINUOUS
 10
-0.057799
 20
-3.344988
  0
VERTEX
  8
PLAN_1
  6
CONTINUOUS
 10
-0.171020
 20
-3.344988
  0
VERTEX
  8
PLAN_1
  6
CONTINUOUS
 10
-0.171020
 20
-3.321012
  0
VERTEX
  8
PLAN_1
  6
CONTINUOUS
 10
-0.023169
 20
-3.321012
  0
VERTEX
  8
PLAN_1
  6
CONTINUOUS
 10
-0.023169
 20
-3.344543
  0
VERTEX
  8
PLAN_1
  6
CONTINUOUS
 10
-0.146157
 20
-3.496394
  0
VERTEX
  8
PLAN_1
  6
CONTINUOUS
 10
-0.023169
 20
-3.496394
  0
VERTEX
  8
PLAN_1
  6
CONTINUOUS
 10
-0.023169
 20
-3.520366
  0
SEQEND
  8
0
  0
POLYLINE
  8
PLAN_1
  6
CONTINUOUS
 66
     1
 40
0.003000
 41
0.003000
  0
VERTEX
  8
PLAN_1
  6
CONTINUOUS
 10
0.144220
 20
-3.380953
  0
VERTEX
  8
PLAN_1
  6
CONTINUOUS
 10
0.142445
 20
-3.374736
  0
VERTEX
  8
PLAN_1
  6
CONTINUOUS
 10
0.140224
 20
-3.368965
  0
VERTEX
  8
PLAN_1
  6
CONTINUOUS
 10
0.138004
 20
-3.364079
  0
VERTEX
  8
PLAN_1
  6
CONTINUOUS
 10
0.134898
 20
-3.359642
  0
VERTEX
  8
PLAN_1
  6
CONTINUOUS
 10
0.131787
 20
-3.356087
  0
VERTEX
  8
PLAN_1
  6
CONTINUOUS
 10
0.128236
 20
-3.352535
  0
VERTEX
  8
PLAN_1
  6
CONTINUOUS
 10
0.124685
 20
-3.349429
  0
VERTEX
  8
PLAN_1
  6
CONTINUOUS
 10
0.120689
 20
-3.347209
  0
VERTEX
  8
PLAN_1
  6
CONTINUOUS
 10
0.116693
 20
-3.344988
  0
VERTEX
  8
PLAN_1
  6
CONTINUOUS
 10
0.112252
 20
-3.343657
  0
VERTEX
  8
PLAN_1
  6
CONTINUOUS
 10
0.108256
 20
-3.342323
  0
VERTEX
  8
PLAN_1
  6
CONTINUOUS
 10
0.104260
 20
-3.340992
  0
VERTEX
  8
PLAN_1
  6
CONTINUOUS
 10
0.095823
 20
-3.340102
  0
VERTEX
  8
PLAN_1
  6
CONTINUOUS
 10
0.088276
 20
-3.339661
  0
VERTEX
  8
PLAN_1
  6
CONTINUOUS
 10
0.081614
 20
-3.340102
  0
VERTEX
  8
PLAN_1
  6
CONTINUOUS
 10
0.075402
 20
-3.340992
  0
VERTEX
  8
PLAN_1
  6
CONTINUOUS
 10
0.068740
 20
-3.342323
  0
VERTEX
  8
PLAN_1
  6
CONTINUOUS
 10
0.062969
 20
-3.344543
  0
VERTEX
  8
PLAN_1
  6
CONTINUOUS
 10
0.057197
 20
-3.347209
  0
VERTEX
  8
PLAN_1
  6
CONTINUOUS
 10
0.051866
 20
-3.350760
  0
VERTEX
  8
PLAN_1
  6
CONTINUOUS
 10
0.046984
 20
-3.354756
  0
VERTEX
  8
PLAN_1
  6
CONTINUOUS
 10
0.042098
 20
-3.359642
  0
VERTEX
  8
PLAN_1
  6
CONTINUOUS
 10
0.038102
 20
-3.364969
  0
VERTEX
  8
PLAN_1
  6
CONTINUOUS
 10
0.034106
 20
-3.370740
  0
VERTEX
  8
PLAN_1
  6
CONTINUOUS
 10
0.031000
 20
-3.376957
  0
VERTEX
  8
PLAN_1
  6
CONTINUOUS
 10
0.028335
 20
-3.384059
  0
VERTEX
  8
PLAN_1
  6
CONTINUOUS
 10
0.026114
 20
-3.392051
  0
VERTEX
  8
PLAN_1
  6
CONTINUOUS
 10
0.024339
 20
-3.400043
  0
VERTEX
  8
PLAN_1
  6
CONTINUOUS
 10
0.023453
 20
-3.409366
  0
VERTEX
  8
PLAN_1
  6
CONTINUOUS
 10
0.023008
 20
-3.418693
  0
VERTEX
  8
PLAN_1
  6
CONTINUOUS
 10
0.023453
 20
-3.427571
  0
VERTEX
  8
PLAN_1
  6
CONTINUOUS
 10
0.023898
 20
-3.435563
  0
VERTEX
  8
PLAN_1
  6
CONTINUOUS
 10
0.024783
 20
-3.444000
  0
VERTEX
  8
PLAN_1
  6
CONTINUOUS
 10
0.026559
 20
-3.451547
  0
VERTEX
  8
PLAN_1
  6
CONTINUOUS
 10
0.028335
 20
-3.458654
  0
VERTEX
  8
PLAN_1
  6
CONTINUOUS
 10
0.031000
 20
-3.465756
  0
VERTEX
  8
PLAN_1
  6
CONTINUOUS
 10
0.034106
 20
-3.471972
  0
VERTEX
  8
PLAN_1
  6
CONTINUOUS
 10
0.037661
 20
-3.477744
  0
VERTEX
  8
PLAN_1
  6
CONTINUOUS
 10
0.041657
 20
-3.483071
  0
VERTEX
  8
PLAN_1
  6
CONTINUOUS
 10
0.046539
 20
-3.487957
  0
VERTEX
  8
PLAN_1
  6
CONTINUOUS
 10
0.049205
 20
-3.489732
  0
VERTEX
  8
PLAN_1
  6
CONTINUOUS
 10
0.051866
 20
-3.491953
  0
VERTEX
  8
PLAN_1
  6
CONTINUOUS
 10
0.054976
 20
-3.493728
  0
VERTEX
  8
PLAN_1
  6
CONTINUOUS
 10
0.058083
 20
-3.495504
  0
VERTEX
  8
PLAN_1
  6
CONTINUOUS
 10
0.061193
 20
-3.496835
  0
VERTEX
  8
PLAN_1
  6
CONTINUOUS
 10
0.064744
 20
-3.498169
  0
VERTEX
  8
PLAN_1
  6
CONTINUOUS
 10
0.068295
 20
-3.499055
  0
VERTEX
  8
PLAN_1
  6
CONTINUOUS
 10
0.072291
 20
-3.499945
  0
VERTEX
  8
PLAN_1
  6
CONTINUOUS
 10
0.080283
 20
-3.501276
  0
VERTEX
  8
PLAN_1
  6
CONTINUOUS
 10
0.089165
 20
-3.501720
  0
VERTEX
  8
PLAN_1
  6
CONTINUOUS
 10
0.092717
 20
-3.501720
  0
VERTEX
  8
PLAN_1
  6
CONTINUOUS
 10
0.096268
 20
-3.501276
  0
VERTEX
  8
PLAN_1
  6
CONTINUOUS
 10
0.100264
 20
-3.500831
  0
VERTEX
  8
PLAN_1
  6
CONTINUOUS
 10
0.104260
 20
-3.499500
  0
VERTEX
  8
PLAN_1
  6
CONTINUOUS
 10
0.108256
 20
-3.498169
  0
VERTEX
  8
PLAN_1
  6
CONTINUOUS
 10
0.112252
 20
-3.496835
  0
VERTEX
  8
PLAN_1
  6
CONTINUOUS
 10
0.116693
 20
-3.494614
  0
VERTEX
  8
PLAN_1
  6
CONTINUOUS
 10
0.120689
 20
-3.491953
  0
VERTEX
  8
PLAN_1
  6
CONTINUOUS
 10
0.124685
 20
-3.488402
  0
VERTEX
  8
PLAN_1
  6
CONTINUOUS
 10
0.128681
 20
-3.484846
  0
VERTEX
  8
PLAN_1
  6
CONTINUOUS
 10
0.132232
 20
-3.480409
  0
VERTEX
  8
PLAN_1
  6
CONTINUOUS
 10
0.135783
 20
-3.475079
  0
VERTEX
  8
PLAN_1
  6
CONTINUOUS
 10
0.138894
 20
-3.469307
  0
VERTEX
  8
PLAN_1
  6
CONTINUOUS
 10
0.141555
 20
-3.462650
  0
VERTEX
  8
PLAN_1
  6
CONTINUOUS
 10
0.144220
 20
-3.455098
  0
VERTEX
  8
PLAN_1
  6
CONTINUOUS
 10
0.145996
 20
-3.447106
  0
VERTEX
  8
PLAN_1
  6
CONTINUOUS
 10
0.172193
 20
-3.447106
  0
VERTEX
  8
PLAN_1
  6
CONTINUOUS
 10
0.170858
 20
-3.453768
  0
VERTEX
  8
PLAN_1
  6
CONTINUOUS
 10
0.169528
 20
-3.460429
  0
VERTEX
  8
PLAN_1
  6
CONTINUOUS
 10
0.167752
 20
-3.466201
  0
VERTEX
  8
PLAN_1
  6
CONTINUOUS
 10
0.165976
 20
-3.471972
  0
VERTEX
  8
PLAN_1
  6
CONTINUOUS
 10
0.163756
 20
-3.477299
  0
VERTEX
  8
PLAN_1
  6
CONTINUOUS
 10
0.161091
 20
-3.482185
  0
VERTEX
  8
PLAN_1
  6
CONTINUOUS
 10
0.158870
 20
-3.486626
  0
VERTEX
  8
PLAN_1
  6
CONTINUOUS
 10
0.155764
 20
-3.491063
  0
VERTEX
  8
PLAN_1
  6
CONTINUOUS
 10
0.153098
 20
-3.495059
  0
VERTEX
  8
PLAN_1
  6
CONTINUOUS
 10
0.149992
 20
-3.498610
  0
VERTEX
  8
PLAN_1
  6
CONTINUOUS
 10
0.146886
 20
-3.501720
  0
VERTEX
  8
PLAN_1
  6
CONTINUOUS
 10
0.143776
 20
-3.504827
  0
VERTEX
  8
PLAN_1
  6
CONTINUOUS
 10
0.140224
 20
-3.507937
  0
VERTEX
  8
PLAN_1
  6
CONTINUOUS
 10
0.137114
 20
-3.510157
  0
VERTEX
  8
PLAN_1
  6
CONTINUOUS
 10
0.133563
 20
-3.512378
  0
VERTEX
  8
PLAN_1
  6
CONTINUOUS
 10
0.130012
 20
-3.514594
  0
VERTEX
  8
PLAN_1
  6
CONTINUOUS
 10
0.122909
 20
-3.518150
  0
VERTEX
  8
PLAN_1
  6
CONTINUOUS
 10
0.116248
 20
-3.520366
  0
VERTEX
  8
PLAN_1
  6
CONTINUOUS
 10
0.109587
 20
-3.522587
  0
VERTEX
  8
PLAN_1
  6
CONTINUOUS
 10
0.103370
 20
-3.523921
  0
VERTEX
  8
PLAN_1
  6
CONTINUOUS
 10
0.092717
 20
-3.525252
  0
VERTEX
  8
PLAN_1
  6
CONTINUOUS
 10
0.085169
 20
-3.525697
  0
VERTEX
  8
PLAN_1
  6
CONTINUOUS
 10
0.076732
 20
-3.525252
  0
VERTEX
  8
PLAN_1
  6
CONTINUOUS
 10
0.068295
 20
-3.524362
  0
VERTEX
  8
PLAN_1
  6
CONTINUOUS
 10
0.059858
 20
-3.522146
  0
VERTEX
  8
PLAN_1
  6
CONTINUOUS
 10
0.051866
 20
-3.519925
  0
VERTEX
  8
PLAN_1
  6
CONTINUOUS
 10
0.047870
 20
-3.518150
  0
VERTEX
  8
PLAN_1
  6
CONTINUOUS
 10
0.044319
 20
-3.516374
  0
VERTEX
  8
PLAN_1
  6
CONTINUOUS
 10
0.040323
 20
-3.514594
  0
VERTEX
  8
PLAN_1
  6
CONTINUOUS
 10
0.036772
 20
-3.512378
  0
VERTEX
  8
PLAN_1
  6
CONTINUOUS
 10
0.033220
 20
-3.509713
  0
VERTEX
  8
PLAN_1
  6
CONTINUOUS
 10
0.029669
 20
-3.507047
  0
VERTEX
  8
PLAN_1
  6
CONTINUOUS
 10
0.026559
 20
-3.504386
  0
VERTEX
  8
PLAN_1
  6
CONTINUOUS
 10
0.023453
 20
-3.501276
  0
VERTEX
  8
PLAN_1
  6
CONTINUOUS
 10
0.020343
 20
-3.498169
  0
VERTEX
  8
PLAN_1
  6
CONTINUOUS
 10
0.017236
 20
-3.494614
  0
VERTEX
  8
PLAN_1
  6
CONTINUOUS
 10
0.014571
 20
-3.490618
  0
VERTEX
  8
PLAN_1
  6
CONTINUOUS
 10
0.011909
 20
-3.486626
  0
VERTEX
  8
PLAN_1
  6
CONTINUOUS
 10
0.009244
 20
-3.482630
  0
VERTEX
  8
PLAN_1
  6
CONTINUOUS
 10
0.007024
 20
-3.478189
  0
VERTEX
  8
PLAN_1
  6
CONTINUOUS
 10
0.004803
 20
-3.473303
  0
VERTEX
  8
PLAN_1
  6
CONTINUOUS
 10
0.003028
 20
-3.468421
  0
VERTEX
  8
PLAN_1
  6
CONTINUOUS
 10
0.001252
 20
-3.463091
  0
VERTEX
  8
PLAN_1
  6
CONTINUOUS
 10
-0.000079
 20
-3.457764
  0
VERTEX
  8
PLAN_1
  6
CONTINUOUS
 10
-0.001413
 20
-3.451992
  0
VERTEX
  8
PLAN_1
  6
CONTINUOUS
 10
-0.002744
 20
-3.446220
  0
VERTEX
  8
PLAN_1
  6
CONTINUOUS
 10
-0.003634
 20
-3.440004
  0
VERTEX
  8
PLAN_1
  6
CONTINUOUS
 10
-0.004075
 20
-3.433343
  0
VERTEX
  8
PLAN_1
  6
CONTINUOUS
 10
-0.004520
 20
-3.426685
  0
VERTEX
  8
PLAN_1
  6
CONTINUOUS
 10
-0.004520
 20
-3.419579
  0
VERTEX
  8
PLAN_1
  6
CONTINUOUS
 10
-0.004075
 20
-3.408480
  0
VERTEX
  8
PLAN_1
  6
CONTINUOUS
 10
-0.003189
 20
-3.397382
  0
VERTEX
  8
PLAN_1
  6
CONTINUOUS
 10
-0.000969
 20
-3.387169
  0
VERTEX
  8
PLAN_1
  6
CONTINUOUS
 10
0.001697
 20
-3.377402
  0
VERTEX
  8
PLAN_1
  6
CONTINUOUS
 10
0.003472
 20
-3.372961
  0
VERTEX
  8
PLAN_1
  6
CONTINUOUS
 10
0.005248
 20
-3.368075
  0
VERTEX
  8
PLAN_1
  6
CONTINUOUS
 10
0.007469
 20
-3.364079
  0
VERTEX
  8
PLAN_1
  6
CONTINUOUS
 10
0.009689
 20
-3.359642
  0
VERTEX
  8
PLAN_1
  6
CONTINUOUS
 10
0.011909
 20
-3.355646
  0
VERTEX
  8
PLAN_1
  6
CONTINUOUS
 10
0.014571
 20
-3.351650
  0
VERTEX
  8
PLAN_1
  6
CONTINUOUS
 10
0.017236
 20
-3.348094
  0
VERTEX
  8
PLAN_1
  6
CONTINUOUS
 10
0.019902
 20
-3.344543
  0
VERTEX
  8
PLAN_1
  6
CONTINUOUS
 10
0.023008
 20
-3.341437
  0
VERTEX
  8
PLAN_1
  6
CONTINUOUS
 10
0.026559
 20
-3.338327
  0
VERTEX
  8
PLAN_1
  6
CONTINUOUS
 10
0.029669
 20
-3.335220
  0
VERTEX
  8
PLAN_1
  6
CONTINUOUS
 10
0.033665
 20
-3.332555
  0
VERTEX
  8
PLAN_1
  6
CONTINUOUS
 10
0.037217
 20
-3.329894
  0
VERTEX
  8
PLAN_1
  6
CONTINUOUS
 10
0.041213
 20
-3.327673
  0
VERTEX
  8
PLAN_1
  6
CONTINUOUS
 10
0.045209
 20
-3.325453
  0
VERTEX
  8
PLAN_1
  6
CONTINUOUS
 10
0.049205
 20
-3.323232
  0
VERTEX
  8
PLAN_1
  6
CONTINUOUS
 10
0.053646
 20
-3.321457
  0
VERTEX
  8
PLAN_1
  6
CONTINUOUS
 10
0.058083
 20
-3.320126
  0
VERTEX
  8
PLAN_1
  6
CONTINUOUS
 10
0.062969
 20
-3.318791
  0
VERTEX
  8
PLAN_1
  6
CONTINUOUS
 10
0.067850
 20
-3.317461
  0
VERTEX
  8
PLAN_1
  6
CONTINUOUS
 10
0.072736
 20
-3.317016
  0
VERTEX
  8
PLAN_1
  6
CONTINUOUS
 10
0.077618
 20
-3.316130
  0
VERTEX
  8
PLAN_1
  6
CONTINUOUS
 10
0.082949
 20
-3.315685
  0
VERTEX
  8
PLAN_1
  6
CONTINUOUS
 10
0.088276
 20
-3.315685
  0
VERTEX
  8
PLAN_1
  6
CONTINUOUS
 10
0.097598
 20
-3.316130
  0
VERTEX
  8
PLAN_1
  6
CONTINUOUS
 10
0.106480
 20
-3.317016
  0
VERTEX
  8
PLAN_1
  6
CONTINUOUS
 10
0.114472
 20
-3.318791
  0
VERTEX
  8
PLAN_1
  6
CONTINUOUS
 10
0.122465
 20
-3.321457
  0
VERTEX
  8
PLAN_1
  6
CONTINUOUS
 10
0.129126
 20
-3.324118
  0
VERTEX
  8
PLAN_1
  6
CONTINUOUS
 10
0.135783
 20
-3.327673
  0
VERTEX
  8
PLAN_1
  6
CONTINUOUS
 10
0.141555
 20
-3.331669
  0
VERTEX
  8
PLAN_1
  6
CONTINUOUS
 10
0.146886
 20
-3.335665
  0
VERTEX
  8
PLAN_1
  6
CONTINUOUS
 10
0.151768
 20
-3.340547
  0
VERTEX
  8
PLAN_1
  6
CONTINUOUS
 10
0.156209
 20
-3.345878
  0
VERTEX
  8
PLAN_1
  6
CONTINUOUS
 10
0.159760
 20
-3.351205
  0
VERTEX
  8
PLAN_1
  6
CONTINUOUS
 10
0.162866
 20
-3.356531
  0
VERTEX
  8
PLAN_1
  6
CONTINUOUS
 10
0.165531
 20
-3.362748
  0
VERTEX
  8
PLAN_1
  6
CONTINUOUS
 10
0.167752
 20
-3.368520
  0
VERTEX
  8
PLAN_1
  6
CONTINUOUS
 10
0.169083
 20
-3.374736
  0
VERTEX
  8
PLAN_1
  6
CONTINUOUS
 10
0.170417
 20
-3.380953
  0
VERTEX
  8
PLAN_1
  6
CONTINUOUS
 10
0.144220
 20
-3.380953
  0
SEQEND
  8
0
  0
POLYLINE
  8
PLAN_1
  6
CONTINUOUS
 66
     1
 40
0.003000
 41
0.003000
  0
VERTEX
  8
PLAN_1
  6
CONTINUOUS
 10
0.231689
 20
-3.520366
  0
VERTEX
  8
PLAN_1
  6
CONTINUOUS
 10
0.204602
 20
-3.520366
  0
VERTEX
  8
PLAN_1
  6
CONTINUOUS
 10
0.204602
 20
-3.321012
  0
VERTEX
  8
PLAN_1
  6
CONTINUOUS
 10
0.231689
 20
-3.321012
  0
VERTEX
  8
PLAN_1
  6
CONTINUOUS
 10
0.231689
 20
-3.417803
  0
VERTEX
  8
PLAN_1
  6
CONTINUOUS
 10
0.328480
 20
-3.321012
  0
VERTEX
  8
PLAN_1
  6
CONTINUOUS
 10
0.365331
 20
-3.321012
  0
VERTEX
  8
PLAN_1
  6
CONTINUOUS
 10
0.282303
 20
-3.401378
  0
VERTEX
  8
PLAN_1
  6
CONTINUOUS
 10
0.367551
 20
-3.520366
  0
VERTEX
  8
PLAN_1
  6
CONTINUOUS
 10
0.332921
 20
-3.520366
  0
VERTEX
  8
PLAN_1
  6
CONTINUOUS
 10
0.263213
 20
-3.420469
  0
VERTEX
  8
PLAN_1
  6
CONTINUOUS
 10
0.231689
 20
-3.450217
  0
VERTEX
  8
PLAN_1
  6
CONTINUOUS
 10
0.231689
 20
-3.520366
  0
SEQEND
  8
0
  0
POLYLINE
  8
PLAN_1
  6
CONTINUOUS
 66
     1
 40
0.003000
 41
0.003000
  0
VERTEX
  8
PLAN_1
  6
CONTINUOUS
 10
0.391528
 20
-3.321012
  0
VERTEX
  8
PLAN_1
  6
CONTINUOUS
 10
0.472335
 20
-3.321012
  0
VERTEX
  8
PLAN_1
  6
CONTINUOUS
 10
0.476776
 20
-3.321012
  0
VERTEX
  8
PLAN_1
  6
CONTINUOUS
 10
0.481661
 20
-3.321457
  0
VERTEX
  8
PLAN_1
  6
CONTINUOUS
 10
0.486098
 20
-3.321902
  0
VERTEX
  8
PLAN_1
  6
CONTINUOUS
 10
0.490539
 20
-3.322787
  0
VERTEX
  8
PLAN_1
  6
CONTINUOUS
 10
0.494980
 20
-3.323677
  0
VERTEX
  8
PLAN_1
  6
CONTINUOUS
 10
0.498976
 20
-3.325008
  0
VERTEX
  8
PLAN_1
  6
CONTINUOUS
 10
0.503417
 20
-3.326339
  0
VERTEX
  8
PLAN_1
  6
CONTINUOUS
 10
0.506969
 20
-3.328114
  0
VERTEX
  8
PLAN_1
  6
CONTINUOUS
 10
0.510965
 20
-3.329894
  0
VERTEX
  8
PLAN_1
  6
CONTINUOUS
 10
0.514516
 20
-3.332110
  0
VERTEX
  8
PLAN_1
  6
CONTINUOUS
 10
0.518067
 20
-3.334331
  0
VERTEX
  8
PLAN_1
  6
CONTINUOUS
 10
0.521618
 20
-3.336551
  0
VERTEX
  8
PLAN_1
  6
CONTINUOUS
 10
0.524728
 20
-3.339217
  0
VERTEX
  8
PLAN_1
  6
CONTINUOUS
 10
0.527835
 20
-3.341882
  0
VERTEX
  8
PLAN_1
  6
CONTINUOUS
 10
0.530945
 20
-3.344988
  0
VERTEX
  8
PLAN_1
  6
CONTINUOUS
 10
0.533606
 20
-3.348094
  0
VERTEX
  8
PLAN_1
  6
CONTINUOUS
 10
0.538492
 20
-3.354756
  0
VERTEX
  8
PLAN_1
  6
CONTINUOUS
 10
0.542933
 20
-3.361858
  0
VERTEX
  8
PLAN_1
  6
CONTINUOUS
 10
0.546929
 20
-3.369850
  0
VERTEX
  8
PLAN_1
  6
CONTINUOUS
 10
0.550035
 20
-3.378287
  0
VERTEX
  8
PLAN_1
  6
CONTINUOUS
 10
0.552701
 20
-3.387610
  0
VERTEX
  8
PLAN_1
  6
CONTINUOUS
 10
0.554476
 20
-3.397382
  0
VERTEX
  8
PLAN_1
  6
CONTINUOUS
 10
0.555807
 20
-3.407150
  0
VERTEX
  8
PLAN_1
  6
CONTINUOUS
 10
0.555807
 20
-3.417803
  0
VERTEX
  8
PLAN_1
  6
CONTINUOUS
 10
0.555807
 20
-3.426240
  0
VERTEX
  8
PLAN_1
  6
CONTINUOUS
 10
0.554921
 20
-3.435118
  0
VERTEX
  8
PLAN_1
  6
CONTINUOUS
 10
0.553587
 20
-3.444000
  0
VERTEX
  8
PLAN_1
  6
CONTINUOUS
 10
0.551811
 20
-3.452882
  0
VERTEX
  8
PLAN_1
  6
CONTINUOUS
 10
0.549591
 20
-3.461315
  0
VERTEX
  8
PLAN_1
  6
CONTINUOUS
 10
0.546484
 20
-3.469752
  0
VERTEX
  8
PLAN_1
  6
CONTINUOUS
 10
0.542488
 20
-3.478189
  0
VERTEX
  8
PLAN_1
  6
CONTINUOUS
 10
0.538047
 20
-3.485736
  0
VERTEX
  8
PLAN_1
  6
CONTINUOUS
 10
0.535386
 20
-3.489732
  0
VERTEX
  8
PLAN_1
  6
CONTINUOUS
 10
0.532720
 20
-3.493283
  0
VERTEX
  8
PLAN_1
  6
CONTINUOUS
 10
0.529610
 20
-3.496394
  0
VERTEX
  8
PLAN_1
  6
CONTINUOUS
 10
0.526504
 20
-3.499500
  0
VERTEX
  8
PLAN_1
  6
CONTINUOUS
 10
0.523398
 20
-3.502606
  0
VERTEX
  8
PLAN_1
  6
CONTINUOUS
 10
0.519843
 20
-3.505717
  0
VERTEX
  8
PLAN_1
  6
CONTINUOUS
 10
0.515846
 20
-3.508382
  0
VERTEX
  8
PLAN_1
  6
CONTINUOUS
 10
0.511850
 20
-3.510598
  0
VERTEX
  8
PLAN_1
  6
CONTINUOUS
 10
0.507854
 20
-3.512819
  0
VERTEX
  8
PLAN_1
  6
CONTINUOUS
 10
0.502972
 20
-3.514594
  0
VERTEX
  8
PLAN_1
  6
CONTINUOUS
 10
0.498531
 20
-3.516374
  0
VERTEX
  8
PLAN_1
  6
CONTINUOUS
 10
0.493650
 20
-3.517705
  0
VERTEX
  8
PLAN_1
  6
CONTINUOUS
 10
0.488319
 20
-3.519035
  0
VERTEX
  8
PLAN_1
  6
CONTINUOUS
 10
0.482992
 20
-3.519480
  0
VERTEX
  8
PLAN_1
  6
CONTINUOUS
 10
0.477220
 20
-3.519925
  0
VERTEX
  8
PLAN_1
  6
CONTINUOUS
 10
0.471004
 20
-3.520366
  0
VERTEX
  8
PLAN_1
  6
CONTINUOUS
 10
0.391528
 20
-3.520366
  0
VERTEX
  8
PLAN_1
  6
CONTINUOUS
 10
0.391528
 20
-3.321012
  0
SEQEND
  8
0
  0
POLYLINE
  8
PLAN_1
  6
CONTINUOUS
 66
     1
 40
0.003000
 41
0.003000
  0
VERTEX
  8
PLAN_1
  6
CONTINUOUS
 10
0.418169
 20
-3.497280
  0
VERTEX
  8
PLAN_1
  6
CONTINUOUS
 10
0.470559
 20
-3.497280
  0
VERTEX
  8
PLAN_1
  6
CONTINUOUS
 10
0.476776
 20
-3.496835
  0
VERTEX
  8
PLAN_1
  6
CONTINUOUS
 10
0.482992
 20
-3.495949
  0
VERTEX
  8
PLAN_1
  6
CONTINUOUS
 10
0.488764
 20
-3.494614
  0
VERTEX
  8
PLAN_1
  6
CONTINUOUS
 10
0.494091
 20
-3.492398
  0
VERTEX
  8
PLAN_1
  6
CONTINUOUS
 10
0.499421
 20
-3.489287
  0
VERTEX
  8
PLAN_1
  6
CONTINUOUS
 10
0.504303
 20
-3.485736
  0
VERTEX
  8
PLAN_1
  6
CONTINUOUS
 10
0.508299
 20
-3.481740
  0
VERTEX
  8
PLAN_1
  6
CONTINUOUS
 10
0.512295
 20
-3.477299
  0
VERTEX
  8
PLAN_1
  6
CONTINUOUS
 10
0.515846
 20
-3.471972
  0
VERTEX
  8
PLAN_1
  6
CONTINUOUS
 10
0.518957
 20
-3.466201
  0
VERTEX
  8
PLAN_1
  6
CONTINUOUS
 10
0.522063
 20
-3.459984
  0
VERTEX
  8
PLAN_1
  6
CONTINUOUS
 10
0.524283
 20
-3.452882
  0
VERTEX
  8
PLAN_1
  6
CONTINUOUS
 10
0.526059
 20
-3.445331
  0
VERTEX
  8
PLAN_1
  6
CONTINUOUS
 10
0.526949
 20
-3.437339
  0
VERTEX
  8
PLAN_1
  6
CONTINUOUS
 10
0.527835
 20
-3.428906
  0
VERTEX
  8
PLAN_1
  6
CONTINUOUS
 10
0.528280
 20
-3.419579
  0
VERTEX
  8
PLAN_1
  6
CONTINUOUS
 10
0.527835
 20
-3.410256
  0
VERTEX
  8
PLAN_1
  6
CONTINUOUS
 10
0.526949
 20
-3.401819
  0
VERTEX
  8
PLAN_1
  6
CONTINUOUS
 10
0.525614
 20
-3.393827
  0
VERTEX
  8
PLAN_1
  6
CONTINUOUS
 10
0.523839
 20
-3.386724
  0
VERTEX
  8
PLAN_1
  6
CONTINUOUS
 10
0.521618
 20
-3.379618
  0
VERTEX
  8
PLAN_1
  6
CONTINUOUS
 10
0.518957
 20
-3.373406
  0
VERTEX
  8
PLAN_1
  6
CONTINUOUS
 10
0.515846
 20
-3.368075
  0
VERTEX
  8
PLAN_1
  6
CONTINUOUS
 10
0.512295
 20
-3.362748
  0
VERTEX
  8
PLAN_1
  6
CONTINUOUS
 10
0.507854
 20
-3.358307
  0
VERTEX
  8
PLAN_1
  6
CONTINUOUS
 10
0.503417
 20
-3.354756
  0
VERTEX
  8
PLAN_1
  6
CONTINUOUS
 10
0.498531
 20
-3.351650
  0
VERTEX
  8
PLAN_1
  6
CONTINUOUS
 10
0.493205
 20
-3.348984
  0
VERTEX
  8
PLAN_1
  6
CONTINUOUS
 10
0.487433
 20
-3.346764
  0
VERTEX
  8
PLAN_1
  6
CONTINUOUS
 10
0.481661
 20
-3.345433
  0
VERTEX
  8
PLAN_1
  6
CONTINUOUS
 10
0.475445
 20
-3.344543
  0
VERTEX
  8
PLAN_1
  6
CONTINUOUS
 10
0.468339
 20
-3.344098
  0
VERTEX
  8
PLAN_1
  6
CONTINUOUS
 10
0.418169
 20
-3.344098
  0
VERTEX
  8
PLAN_1
  6
CONTINUOUS
 10
0.418169
 20
-3.497280
  0
SEQEND
  8
0
  0
POLYLINE
  8
PLAN_1
  6
CONTINUOUS
 66
     1
 40
0.003000
 41
0.003000
  0
VERTEX
  8
PLAN_1
  6
CONTINUOUS
 10
0.581559
 20
-3.395161
  0
VERTEX
  8
PLAN_1
  6
CONTINUOUS
 10
0.581559
 20
-3.389390
  0
VERTEX
  8
PLAN_1
  6
CONTINUOUS
 10
0.582004
 20
-3.384059
  0
VERTEX
  8
PLAN_1
  6
CONTINUOUS
 10
0.582894
 20
-3.378732
  0
VERTEX
  8
PLAN_1
  6
CONTINUOUS
 10
0.583780
 20
-3.373846
  0
VERTEX
  8
PLAN_1
  6
CONTINUOUS
 10
0.584669
 20
-3.369409
  0
VERTEX
  8
PLAN_1
  6
CONTINUOUS
 10
0.586000
 20
-3.364969
  0
VERTEX
  8
PLAN_1
  6
CONTINUOUS
 10
0.587331
 20
-3.360972
  0
VERTEX
  8
PLAN_1
  6
CONTINUOUS
 10
0.589106
 20
-3.357421
  0
VERTEX
  8
PLAN_1
  6
CONTINUOUS
 10
0.590886
 20
-3.353866
  0
VERTEX
  8
PLAN_1
  6
CONTINUOUS
 10
0.593102
 20
-3.350760
  0
VERTEX
  8
PLAN_1
  6
CONTINUOUS
 10
0.595323
 20
-3.347654
  0
VERTEX
  8
PLAN_1
  6
CONTINUOUS
 10
0.597543
 20
-3.344988
  0
VERTEX
  8
PLAN_1
  6
CONTINUOUS
 10
0.601984
 20
-3.340102
  0
VERTEX
  8
PLAN_1
  6
CONTINUOUS
 10
0.607311
 20
-3.336106
  0
VERTEX
  8
PLAN_1
  6
CONTINUOUS
 10
0.612642
 20
-3.333000
  0
VERTEX
  8
PLAN_1
  6
CONTINUOUS
 10
0.618413
 20
-3.330335
  0
VERTEX
  8
PLAN_1
  6
CONTINUOUS
 10
0.624185
 20
-3.328559
  0
VERTEX
  8
PLAN_1
  6
CONTINUOUS
 10
0.629512
 20
-3.327228
  0
VERTEX
  8
PLAN_1
  6
CONTINUOUS
 10
0.634839
 20
-3.326339
  0
VERTEX
  8
PLAN_1
  6
CONTINUOUS
 10
0.640169
 20
-3.325453
  0
VERTEX
  8
PLAN_1
  6
CONTINUOUS
 10
0.644606
 20
-3.325453
  0
VERTEX
  8
PLAN_1
  6
CONTINUOUS
 10
0.649047
 20
-3.325008
  0
VERTEX
  8
PLAN_1
  6
CONTINUOUS
 10
0.655264
 20
-3.325453
  0
VERTEX
  8
PLAN_1
  6
CONTINUOUS
 10
0.661480
 20
-3.326339
  0
VERTEX
  8
PLAN_1
  6
CONTINUOUS
 10
0.667252
 20
-3.327228
  0
VERTEX
  8
PLAN_1
  6
CONTINUOUS
 10
0.673024
 20
-3.329004
  0
VERTEX
  8
PLAN_1
  6
CONTINUOUS
 10
0.678350
 20
-3.331224
  0
VERTEX
  8
PLAN_1
  6
CONTINUOUS
 10
0.683236
 20
-3.333890
  0
VERTEX
  8
PLAN_1
  6
CONTINUOUS
 10
0.688118
 20
-3.336996
  0
VERTEX
  8
PLAN_1
  6
CONTINUOUS
 10
0.692114
 20
-3.340547
  0
VERTEX
  8
PLAN_1
  6
CONTINUOUS
 10
0.696110
 20
-3.344543
  0
VERTEX
  8
PLAN_1
  6
CONTINUOUS
 10
0.699665
 20
-3.348984
  0
VERTEX
  8
PLAN_1
  6
CONTINUOUS
 10
0.702772
 20
-3.353866
  0
VERTEX
  8
PLAN_1
  6
CONTINUOUS
 10
0.705437
 20
-3.359197
  0
VERTEX
  8
PLAN_1
  6
CONTINUOUS
 10
0.707213
 20
-3.364524
  0
VERTEX
  8
PLAN_1
  6
CONTINUOUS
 10
0.708988
 20
-3.370740
  0
VERTEX
  8
PLAN_1
  6
CONTINUOUS
 10
0.709878
 20
-3.376957
  0
VERTEX
  8
PLAN_1
  6
CONTINUOUS
 10
0.710319
 20
-3.383614
  0
VERTEX
  8
PLAN_1
  6
CONTINUOUS
 10
0.709878
 20
-3.389831
  0
VERTEX
  8
PLAN_1
  6
CONTINUOUS
 10
0.708988
 20
-3.395602
  0
VERTEX
  8
PLAN_1
  6
CONTINUOUS
 10
0.707657
 20
-3.400933
  0
VERTEX
  8
PLAN_1
  6
CONTINUOUS
 10
0.705882
 20
-3.406260
  0
VERTEX
  8
PLAN_1
  6
CONTINUOUS
 10
0.703661
 20
-3.411146
  0
VERTEX
  8
PLAN_1
  6
CONTINUOUS
 10
0.701441
 20
-3.415583
  0
VERTEX
  8
PLAN_1
  6
CONTINUOUS
 10
0.698331
 20
-3.419579
  0
VERTEX
  8
PLAN_1
  6
CONTINUOUS
 10
0.694780
 20
-3.423575
  0
VERTEX
  8
PLAN_1
  6
CONTINUOUS
 10
0.691228
 20
-3.427130
  0
VERTEX
  8
PLAN_1
  6
CONTINUOUS
 10
0.687232
 20
-3.430236
  0
VERTEX
  8
PLAN_1
  6
CONTINUOUS
 10
0.682791
 20
-3.433787
  0
VERTEX
  8
PLAN_1
  6
CONTINUOUS
 10
0.678350
 20
-3.436898
  0
VERTEX
  8
PLAN_1
  6
CONTINUOUS
 10
0.668583
 20
-3.442669
  0
VERTEX
  8
PLAN_1
  6
CONTINUOUS
 10
0.657929
 20
-3.448886
  0
VERTEX
  8
PLAN_1
  6
CONTINUOUS
 10
0.637504
 20
-3.459984
  0
VERTEX
  8
PLAN_1
  6
CONTINUOUS
 10
0.633063
 20
-3.462650
  0
VERTEX
  8
PLAN_1
  6
CONTINUOUS
 10
0.628626
 20
-3.465311
  0
VERTEX
  8
PLAN_1
  6
CONTINUOUS
 10
0.624630
 20
-3.467976
  0
VERTEX
  8
PLAN_1
  6
CONTINUOUS
 10
0.621520
 20
-3.470642
  0
VERTEX
  8
PLAN_1
  6
CONTINUOUS
 10
0.615748
 20
-3.475969
  0
VERTEX
  8
PLAN_1
  6
CONTINUOUS
 10
0.611307
 20
-3.481295
  0
VERTEX
  8
PLAN_1
  6
CONTINUOUS
 10
0.608201
 20
-3.486181
  0
VERTEX
  8
PLAN_1
  6
CONTINUOUS
 10
0.605980
 20
-3.490177
  0
VERTEX
  8
PLAN_1
  6
CONTINUOUS
 10
0.604650
 20
-3.494173
  0
VERTEX
  8
PLAN_1
  6
CONTINUOUS
 10
0.604205
 20
-3.497280
  0
VERTEX
  8
PLAN_1
  6
CONTINUOUS
 10
0.710319
 20
-3.497280
  0
VERTEX
  8
PLAN_1
  6
CONTINUOUS
 10
0.710319
 20
-3.520366
  0
VERTEX
  8
PLAN_1
  6
CONTINUOUS
 10
0.576677
 20
-3.520366
  0
VERTEX
  8
PLAN_1
  6
CONTINUOUS
 10
0.577118
 20
-3.512819
  0
VERTEX
  8
PLAN_1
  6
CONTINUOUS
 10
0.578008
 20
-3.506161
  0
VERTEX
  8
PLAN_1
  6
CONTINUOUS
 10
0.578898
 20
-3.499500
  0
VERTEX
  8
PLAN_1
  6
CONTINUOUS
 10
0.580673
 20
-3.493283
  0
VERTEX
  8
PLAN_1
  6
CONTINUOUS
 10
0.582449
 20
-3.487512
  0
VERTEX
  8
PLAN_1
  6
CONTINUOUS
 10
0.584669
 20
-3.482185
  0
VERTEX
  8
PLAN_1
  6
CONTINUOUS
 10
0.587331
 20
-3.476854
  0
VERTEX
  8
PLAN_1
  6
CONTINUOUS
 10
0.590441
 20
-3.471972
  0
VERTEX
  8
PLAN_1
  6
CONTINUOUS
 10
0.593547
 20
-3.467531
  0
VERTEX
  8
PLAN_1
  6
CONTINUOUS
 10
0.596657
 20
-3.463535
  0
VERTEX
  8
PLAN_1
  6
CONTINUOUS
 10
0.600654
 20
-3.459539
  0
VERTEX
  8
PLAN_1
  6
CONTINUOUS
 10
0.604205
 20
-3.455543
  0
VERTEX
  8
PLAN_1
  6
CONTINUOUS
 10
0.608646
 20
-3.452437
  0
VERTEX
  8
PLAN_1
  6
CONTINUOUS
 10
0.613083
 20
-3.448886
  0
VERTEX
  8
PLAN_1
  6
CONTINUOUS
 10
0.617524
 20
-3.445776
  0
VERTEX
  8
PLAN_1
  6
CONTINUOUS
 10
0.622409
 20
-3.442669
  0
VERTEX
  8
PLAN_1
  6
CONTINUOUS
 10
0.648161
 20
-3.428016
  0
VERTEX
  8
PLAN_1
  6
CONTINUOUS
 10
0.655709
 20
-3.423575
  0
VERTEX
  8
PLAN_1
  6
CONTINUOUS
 10
0.662366
 20
-3.419138
  0
VERTEX
  8
PLAN_1
  6
CONTINUOUS
 10
0.668583
 20
-3.415142
  0
VERTEX
  8
PLAN_1
  6
CONTINUOUS
 10
0.673913
 20
-3.410256
  0
VERTEX
  8
PLAN_1
  6
CONTINUOUS
 10
0.676134
 20
-3.407591
  0
VERTEX
  8
PLAN_1
  6
CONTINUOUS
 10
0.678350
 20
-3.404929
  0
VERTEX
  8
PLAN_1
  6
CONTINUOUS
 10
0.679685
 20
-3.401819
  0
VERTEX
  8
PLAN_1
  6
CONTINUOUS
 10
0.681461
 20
-3.398713
  0
VERTEX
  8
PLAN_1
  6
CONTINUOUS
 10
0.682346
 20
-3.395161
  0
VERTEX
  8
PLAN_1
  6
CONTINUOUS
 10
0.683236
 20
-3.391165
  0
VERTEX
  8
PLAN_1
  6
CONTINUOUS
 10
0.683681
 20
-3.386724
  0
VERTEX
  8
PLAN_1
  6
CONTINUOUS
 10
0.684126
 20
-3.382283
  0
VERTEX
  8
PLAN_1
  6
CONTINUOUS
 10
0.683681
 20
-3.379177
  0
VERTEX
  8
PLAN_1
  6
CONTINUOUS
 10
0.683681
 20
-3.376512
  0
VERTEX
  8
PLAN_1
  6
CONTINUOUS
 10
0.682791
 20
-3.373406
  0
VERTEX
  8
PLAN_1
  6
CONTINUOUS
 10
0.681906
 20
-3.370295
  0
VERTEX
  8
PLAN_1
  6
CONTINUOUS
 10
0.681016
 20
-3.367189
  0
VERTEX
  8
PLAN_1
  6
CONTINUOUS
 10
0.679240
 20
-3.364524
  0
VERTEX
  8
PLAN_1
  6
CONTINUOUS
 10
0.677465
 20
-3.361417
  0
VERTEX
  8
PLAN_1
  6
CONTINUOUS
 10
0.675244
 20
-3.358752
  0
VERTEX
  8
PLAN_1
  6
CONTINUOUS
 10
0.673024
 20
-3.356531
  0
VERTEX
  8
PLAN_1
  6
CONTINUOUS
 10
0.670358
 20
-3.354311
  0
VERTEX
  8
PLAN_1
  6
CONTINUOUS
 10
0.667252
 20
-3.352091
  0
VERTEX
  8
PLAN_1
  6
CONTINUOUS
 10
0.663701
 20
-3.350315
  0
VERTEX
  8
PLAN_1
  6
CONTINUOUS
 10
0.659705
 20
-3.348984
  0
VERTEX
  8
PLAN_1
  6
CONTINUOUS
 10
0.655264
 20
-3.348094
  0
VERTEX
  8
PLAN_1
  6
CONTINUOUS
 10
0.650382
 20
-3.347209
  0
VERTEX
  8
PLAN_1
  6
CONTINUOUS
 10
0.645496
 20
-3.347209
  0
VERTEX
  8
PLAN_1
  6
CONTINUOUS
 10
0.638835
 20
-3.347654
  0
VERTEX
  8
PLAN_1
  6
CONTINUOUS
 10
0.633063
 20
-3.348539
  0
VERTEX
  8
PLAN_1
  6
CONTINUOUS
 10
0.628181
 20
-3.350315
  0
VERTEX
  8
PLAN_1
  6
CONTINUOUS
 10
0.623740
 20
-3.352535
  0
VERTEX
  8
PLAN_1
  6
CONTINUOUS
 10
0.620189
 20
-3.355646
  0
VERTEX
  8
PLAN_1
  6
CONTINUOUS
 10
0.617079
 20
-3.358752
  0
VERTEX
  8
PLAN_1
  6
CONTINUOUS
 10
0.614417
 20
-3.362303
  0
VERTEX
  8
PLAN_1
  6
CONTINUOUS
 10
0.612197
 20
-3.365854
  0
VERTEX
  8
PLAN_1
  6
CONTINUOUS
 10
0.610421
 20
-3.369850
  0
VERTEX
  8
PLAN_1
  6
CONTINUOUS
 10
0.609087
 20
-3.373846
  0
VERTEX
  8
PLAN_1
  6
CONTINUOUS
 10
0.608201
 20
-3.377843
  0
VERTEX
  8
PLAN_1
  6
CONTINUOUS
 10
0.607311
 20
-3.381839
  0
VERTEX
  8
PLAN_1
  6
CONTINUOUS
 10
0.606425
 20
-3.388945
  0
VERTEX
  8
PLAN_1
  6
CONTINUOUS
 10
0.605980
 20
-3.395161
  0
VERTEX
  8
PLAN_1
  6
CONTINUOUS
 10
0.581559
 20
-3.395161
  0
SEQEND
  8
0
  0
SOLID
  8
PLAN_1
 10
0.723642
 20
-3.555000
 11
0.723642
 21
-3.541236
 12
0.878154
 22
-3.555000
 13
0.878154
 23
-3.541236
  0
POLYLINE
  8
PLAN_1
  6
CONTINUOUS
 66
     1
 40
0.003000
 41
0.003000
  0
VERTEX
  8
PLAN_1
  6
CONTINUOUS
 10
0.723642
 20
-3.555000
  0
VERTEX
  8
PLAN_1
  6
CONTINUOUS
 10
0.723642
 20
-3.541236
  0
VERTEX
  8
PLAN_1
  6
CONTINUOUS
 10
0.878154
 20
-3.541236
  0
VERTEX
  8
PLAN_1
  6
CONTINUOUS
 10
0.878154
 20
-3.555000
  0
VERTEX
  8
PLAN_1
  6
CONTINUOUS
 10
0.723642
 20
-3.555000
  0
SEQEND
  8
0
  0
SOLID
  8
PLAN_1
 10
0.878154
 20
-3.555000
 11
0.878154
 21
-3.541236
 12
1.032665
 22
-3.555000
 13
1.032665
 23
-3.541236
  0
POLYLINE
  8
PLAN_1
  6
CONTINUOUS
 66
     1
 40
0.003000
 41
0.003000
  0
VERTEX
  8
PLAN_1
  6
CONTINUOUS
 10
0.878154
 20
-3.555000
  0
VERTEX
  8
PLAN_1
  6
CONTINUOUS
 10
0.878154
 20
-3.541236
  0
VERTEX
  8
PLAN_1
  6
CONTINUOUS
 10
1.032665
 20
-3.541236
  0
VERTEX
  8
PLAN_1
  6
CONTINUOUS
 10
1.032665
 20
-3.555000
  0
VERTEX
  8
PLAN_1
  6
CONTINUOUS
 10
0.878154
 20
-3.555000
  0
SEQEND
  8
0
  0
POLYLINE
  8
PLAN_1
  6
CONTINUOUS
 66
     1
 40
0.003000
 41
0.003000
  0
VERTEX
  8
PLAN_1
  6
CONTINUOUS
 10
1.083724
 20
-3.520366
  0
VERTEX
  8
PLAN_1
  6
CONTINUOUS
 10
1.057083
 20
-3.520366
  0
VERTEX
  8
PLAN_1
  6
CONTINUOUS
 10
1.057083
 20
-3.321012
  0
VERTEX
  8
PLAN_1
  6
CONTINUOUS
 10
1.148992
 20
-3.321012
  0
VERTEX
  8
PLAN_1
  6
CONTINUOUS
 10
1.155209
 20
-3.321012
  0
VERTEX
  8
PLAN_1
  6
CONTINUOUS
 10
1.161425
 20
-3.321457
  0
VERTEX
  8
PLAN_1
  6
CONTINUOUS
 10
1.167197
 20
-3.322343
  0
VERTEX
  8
PLAN_1
  6
CONTINUOUS
 10
1.172969
 20
-3.323232
  0
VERTEX
  8
PLAN_1
  6
CONTINUOUS
 10
1.178740
 20
-3.325008
  0
VERTEX
  8
PLAN_1
  6
CONTINUOUS
 10
1.184067
 20
-3.326783
  0
VERTEX
  8
PLAN_1
  6
CONTINUOUS
 10
1.189398
 20
-3.329004
  0
VERTEX
  8
PLAN_1
  6
CONTINUOUS
 10
1.194280
 20
-3.332110
  0
VERTEX
  8
PLAN_1
  6
CONTINUOUS
 10
1.198720
 20
-3.335220
  0
VERTEX
  8
PLAN_1
  6
CONTINUOUS
 10
1.202717
 20
-3.339217
  0
VERTEX
  8
PLAN_1
  6
CONTINUOUS
 10
1.205823
 20
-3.343657
  0
VERTEX
  8
PLAN_1
  6
CONTINUOUS
 10
1.208933
 20
-3.348539
  0
VERTEX
  8
PLAN_1
  6
CONTINUOUS
 10
1.211154
 20
-3.353866
  0
VERTEX
  8
PLAN_1
  6
CONTINUOUS
 10
1.212929
 20
-3.360083
  0
VERTEX
  8
PLAN_1
  6
CONTINUOUS
 10
1.214260
 20
-3.367189
  0
VERTEX
  8
PLAN_1
  6
CONTINUOUS
 10
1.214705
 20
-3.374736
  0
VERTEX
  8
PLAN_1
  6
CONTINUOUS
 10
1.214260
 20
-3.380063
  0
VERTEX
  8
PLAN_1
  6
CONTINUOUS
 10
1.213815
 20
-3.384949
  0
VERTEX
  8
PLAN_1
  6
CONTINUOUS
 10
1.212929
 20
-3.389390
  0
VERTEX
  8
PLAN_1
  6
CONTINUOUS
 10
1.212039
 20
-3.393386
  0
VERTEX
  8
PLAN_1
  6
CONTINUOUS
 10
1.210709
 20
-3.397382
  0
VERTEX
  8
PLAN_1
  6
CONTINUOUS
 10
1.209378
 20
-3.400488
  0
VERTEX
  8
PLAN_1
  6
CONTINUOUS
 10
1.207598
 20
-3.403594
  0
VERTEX
  8
PLAN_1
  6
CONTINUOUS
 10
1.205382
 20
-3.406705
  0
VERTEX
  8
PLAN_1
  6
CONTINUOUS
 10
1.201386
 20
-3.411587
  0
VERTEX
  8
PLAN_1
  6
CONTINUOUS
 10
1.196500
 20
-3.416028
  0
VERTEX
  8
PLAN_1
  6
CONTINUOUS
 10
1.191614
 20
-3.419138
  0
VERTEX
  8
PLAN_1
  6
CONTINUOUS
 10
1.186732
 20
-3.422244
  0
VERTEX
  8
PLAN_1
  6
CONTINUOUS
 10
1.191173
 20
-3.424020
  0
VERTEX
  8
PLAN_1
  6
CONTINUOUS
 10
1.195169
 20
-3.426240
  0
VERTEX
  8
PLAN_1
  6
CONTINUOUS
 10
1.199165
 20
-3.428906
  0
VERTEX
  8
PLAN_1
  6
CONTINUOUS
 10
1.202717
 20
-3.432457
  0
VERTEX
  8
PLAN_1
  6
CONTINUOUS
 10
1.204047
 20
-3.434677
  0
VERTEX
  8
PLAN_1
  6
CONTINUOUS
 10
1.205823
 20
-3.436898
  0
VERTEX
  8
PLAN_1
  6
CONTINUOUS
 10
1.207157
 20
-3.439559
  0
VERTEX
  8
PLAN_1
  6
CONTINUOUS
 10
1.208043
 20
-3.443110
  0
VERTEX
  8
PLAN_1
  6
CONTINUOUS
 10
1.208933
 20
-3.446665
  0
VERTEX
  8
PLAN_1
  6
CONTINUOUS
 10
1.209819
 20
-3.450217
  0
VERTEX
  8
PLAN_1
  6
CONTINUOUS
 10
1.210264
 20
-3.454657
  0
VERTEX
  8
PLAN_1
  6
CONTINUOUS
 10
1.210709
 20
-3.459984
  0
VERTEX
  8
PLAN_1
  6
CONTINUOUS
 10
1.212484
 20
-3.495949
  0
VERTEX
  8
PLAN_1
  6
CONTINUOUS
 10
1.212484
 20
-3.499945
  0
VERTEX
  8
PLAN_1
  6
CONTINUOUS
 10
1.212929
 20
-3.503051
  0
VERTEX
  8
PLAN_1
  6
CONTINUOUS
 10
1.213370
 20
-3.505717
  0
VERTEX
  8
PLAN_1
  6
CONTINUOUS
 10
1.214260
 20
-3.508382
  0
VERTEX
  8
PLAN_1
  6
CONTINUOUS
 10
1.215591
 20
-3.510598
  0
VERTEX
  8
PLAN_1
  6
CONTINUOUS
 10
1.217366
 20
-3.512378
  0
VERTEX
  8
PLAN_1
  6
CONTINUOUS
 10
1.219587
 20
-3.514154
  0
VERTEX
  8
PLAN_1
  6
CONTINUOUS
 10
1.222252
 20
-3.515929
  0
VERTEX
  8
PLAN_1
  6
CONTINUOUS
 10
1.222252
 20
-3.520366
  0
VERTEX
  8
PLAN_1
  6
CONTINUOUS
 10
1.189398
 20
-3.520366
  0
VERTEX
  8
PLAN_1
  6
CONTINUOUS
 10
1.188063
 20
-3.515039
  0
VERTEX
  8
PLAN_1
  6
CONTINUOUS
 10
1.187177
 20
-3.508382
  0
VERTEX
  8
PLAN_1
  6
CONTINUOUS
 10
1.186287
 20
-3.501276
  0
VERTEX
  8
PLAN_1
  6
CONTINUOUS
 10
1.185402
 20
-3.493728
  0
VERTEX
  8
PLAN_1
  6
CONTINUOUS
 10
1.184957
 20
-3.486181
  0
VERTEX
  8
PLAN_1
  6
CONTINUOUS
 10
1.184957
 20
-3.479520
  0
VERTEX
  8
PLAN_1
  6
CONTINUOUS
 10
1.184512
 20
-3.474193
  0
VERTEX
  8
PLAN_1
  6
CONTINUOUS
 10
1.184512
 20
-3.470197
  0
VERTEX
  8
PLAN_1
  6
CONTINUOUS
 10
1.184512
 20
-3.463980
  0
VERTEX
  8
PLAN_1
  6
CONTINUOUS
 10
1.183626
 20
-3.457764
  0
VERTEX
  8
PLAN_1
  6
CONTINUOUS
 10
1.182736
 20
-3.454657
  0
VERTEX
  8
PLAN_1
  6
CONTINUOUS
 10
1.181846
 20
-3.451992
  0
VERTEX
  8
PLAN_1
  6
CONTINUOUS
 10
1.180516
 20
-3.448886
  0
VERTEX
  8
PLAN_1
  6
CONTINUOUS
 10
1.178740
 20
-3.446220
  0
VERTEX
  8
PLAN_1
  6
CONTINUOUS
 10
1.176965
 20
-3.444000
  0
VERTEX
  8
PLAN_1
  6
CONTINUOUS
 10
1.174299
 20
-3.441780
  0
VERTEX
  8
PLAN_1
  6
CONTINUOUS
 10
1.171638
 20
-3.439559
  0
VERTEX
  8
PLAN_1
  6
CONTINUOUS
 10
1.168083
 20
-3.438228
  0
VERTEX
  8
PLAN_1
  6
CONTINUOUS
 10
1.164531
 20
-3.436898
  0
VERTEX
  8
PLAN_1
  6
CONTINUOUS
 10
1.160091
 20
-3.435563
  0
VERTEX
  8
PLAN_1
  6
CONTINUOUS
 10
1.154764
 20
-3.435118
  0
VERTEX
  8
PLAN_1
  6
CONTINUOUS
 10
1.148992
 20
-3.434677
  0
VERTEX
  8
PLAN_1
  6
CONTINUOUS
 10
1.083724
 20
-3.434677
  0
VERTEX
  8
PLAN_1
  6
CONTINUOUS
 10
1.083724
 20
-3.520366
  0
SEQEND
  8
0
  0
POLYLINE
  8
PLAN_1
  6
CONTINUOUS
 66
     1
 40
0.003000
 41
0.003000
  0
VERTEX
  8
PLAN_1
  6
CONTINUOUS
 10
1.083724
 20
-3.411587
  0
VERTEX
  8
PLAN_1
  6
CONTINUOUS
 10
1.146327
 20
-3.411587
  0
VERTEX
  8
PLAN_1
  6
CONTINUOUS
 10
1.153878
 20
-3.411587
  0
VERTEX
  8
PLAN_1
  6
CONTINUOUS
 10
1.160980
 20
-3.410701
  0
VERTEX
  8
PLAN_1
  6
CONTINUOUS
 10
1.164531
 20
-3.409811
  0
VERTEX
  8
PLAN_1
  6
CONTINUOUS
 10
1.167642
 20
-3.408480
  0
VERTEX
  8
PLAN_1
  6
CONTINUOUS
 10
1.171193
 20
-3.407150
  0
VERTEX
  8
PLAN_1
  6
CONTINUOUS
 10
1.173854
 20
-3.405815
  0
VERTEX
  8
PLAN_1
  6
CONTINUOUS
 10
1.176520
 20
-3.403594
  0
VERTEX
  8
PLAN_1
  6
CONTINUOUS
 10
1.179185
 20
-3.401378
  0
VERTEX
  8
PLAN_1
  6
CONTINUOUS
 10
1.181406
 20
-3.398268
  0
VERTEX
  8
PLAN_1
  6
CONTINUOUS
 10
1.183181
 20
-3.395161
  0
VERTEX
  8
PLAN_1
  6
CONTINUOUS
 10
1.184957
 20
-3.391606
  0
VERTEX
  8
PLAN_1
  6
CONTINUOUS
 10
1.185843
 20
-3.387169
  0
VERTEX
  8
PLAN_1
  6
CONTINUOUS
 10
1.186732
 20
-3.382728
  0
VERTEX
  8
PLAN_1
  6
CONTINUOUS
 10
1.186732
 20
-3.377402
  0
VERTEX
  8
PLAN_1
  6
CONTINUOUS
 10
1.186732
 20
-3.372071
  0
VERTEX
  8
PLAN_1
  6
CONTINUOUS
 10
1.185843
 20
-3.367189
  0
VERTEX
  8
PLAN_1
  6
CONTINUOUS
 10
1.184512
 20
-3.362748
  0
VERTEX
  8
PLAN_1
  6
CONTINUOUS
 10
1.183181
 20
-3.359197
  0
VERTEX
  8
PLAN_1
  6
CONTINUOUS
 10
1.181406
 20
-3.356087
  0
VERTEX
  8
PLAN_1
  6
CONTINUOUS
 10
1.179185
 20
-3.353425
  0
VERTEX
  8
PLAN_1
  6
CONTINUOUS
 10
1.176520
 20
-3.351205
  0
VERTEX
  8
PLAN_1
  6
CONTINUOUS
 10
1.173854
 20
-3.348984
  0
VERTEX
  8
PLAN_1
  6
CONTINUOUS
 10
1.171193
 20
-3.347654
  0
VERTEX
  8
PLAN_1
  6
CONTINUOUS
 10
1.168083
 20
-3.346319
  0
VERTEX
  8
PLAN_1
  6
CONTINUOUS
 10
1.165421
 20
-3.345433
  0
VERTEX
  8
PLAN_1
  6
CONTINUOUS
 10
1.162311
 20
-3.344988
  0
VERTEX
  8
PLAN_1
  6
CONTINUOUS
 10
1.156539
 20
-3.344098
  0
VERTEX
  8
PLAN_1
  6
CONTINUOUS
 10
1.151213
 20
-3.344098
  0
VERTEX
  8
PLAN_1
  6
CONTINUOUS
 10
1.083724
 20
-3.344098
  0
VERTEX
  8
PLAN_1
  6
CONTINUOUS
 10
1.083724
 20
-3.411587
  0
SEQEND
  8
0
  0
SOLID
  8
PLAN_1
 10
1.286189
 20
-3.520366
 11
1.257327
 21
-3.520366
 12
1.286189
 22
-3.491063
 13
1.257327
 23
-3.491063
  0
POLYLINE
  8
PLAN_1
  6
CONTINUOUS
 66
     1
 40
0.003000
 41
0.003000
  0
VERTEX
  8
PLAN_1
  6
CONTINUOUS
 10
1.286189
 20
-3.520366
  0
VERTEX
  8
PLAN_1
  6
CONTINUOUS
 10
1.257327
 20
-3.520366
  0
VERTEX
  8
PLAN_1
  6
CONTINUOUS
 10
1.257327
 20
-3.491063
  0
VERTEX
  8
PLAN_1
  6
CONTINUOUS
 10
1.286189
 20
-3.491063
  0
VERTEX
  8
PLAN_1
  6
CONTINUOUS
 10
1.286189
 20
-3.520366
  0
SEQEND
  8
0
  0
POLYLINE
  8
PLAN_1
  6
CONTINUOUS
 66
     1
 40
0.003000
 41
0.003000
  0
VERTEX
  8
PLAN_1
  6
CONTINUOUS
 10
1.481102
 20
-3.520366
  0
VERTEX
  8
PLAN_1
  6
CONTINUOUS
 10
1.334142
 20
-3.520366
  0
VERTEX
  8
PLAN_1
  6
CONTINUOUS
 10
1.334142
 20
-3.321012
  0
VERTEX
  8
PLAN_1
  6
CONTINUOUS
 10
1.479327
 20
-3.321012
  0
VERTEX
  8
PLAN_1
  6
CONTINUOUS
 10
1.479327
 20
-3.344988
  0
VERTEX
  8
PLAN_1
  6
CONTINUOUS
 10
1.360780
 20
-3.344988
  0
VERTEX
  8
PLAN_1
  6
CONTINUOUS
 10
1.360780
 20
-3.405815
  0
VERTEX
  8
PLAN_1
  6
CONTINUOUS
 10
1.470004
 20
-3.405815
  0
VERTEX
  8
PLAN_1
  6
CONTINUOUS
 10
1.470004
 20
-3.429791
  0
VERTEX
  8
PLAN_1
  6
CONTINUOUS
 10
1.360780
 20
-3.429791
  0
VERTEX
  8
PLAN_1
  6
CONTINUOUS
 10
1.360780
 20
-3.496394
  0
VERTEX
  8
PLAN_1
  6
CONTINUOUS
 10
1.481102
 20
-3.496394
  0
VERTEX
  8
PLAN_1
  6
CONTINUOUS
 10
1.481102
 20
-3.520366
  0
SEQEND
  8
0
  0
POLYLINE
  8
PLAN_1
  6
CONTINUOUS
 66
     1
 40
0.003000
 41
0.003000
  0
VERTEX
  8
PLAN_1
  6
CONTINUOUS
 10
1.546370
 20
-3.520366
  0
VERTEX
  8
PLAN_1
  6
CONTINUOUS
 10
1.519287
 20
-3.520366
  0
VERTEX
  8
PLAN_1
  6
CONTINUOUS
 10
1.519287
 20
-3.321012
  0
VERTEX
  8
PLAN_1
  6
CONTINUOUS
 10
1.608976
 20
-3.321012
  0
VERTEX
  8
PLAN_1
  6
CONTINUOUS
 10
1.615638
 20
-3.321457
  0
VERTEX
  8
PLAN_1
  6
CONTINUOUS
 10
1.621850
 20
-3.321902
  0
VERTEX
  8
PLAN_1
  6
CONTINUOUS
 10
1.628067
 20
-3.323232
  0
VERTEX
  8
PLAN_1
  6
CONTINUOUS
 10
1.633839
 20
-3.325453
  0
VERTEX
  8
PLAN_1
  6
CONTINUOUS
 10
1.639169
 20
-3.327673
  0
VERTEX
  8
PLAN_1
  6
CONTINUOUS
 10
1.644051
 20
-3.330335
  0
VERTEX
  8
PLAN_1
  6
CONTINUOUS
 10
1.648492
 20
-3.333445
  0
VERTEX
  8
PLAN_1
  6
CONTINUOUS
 10
1.652488
 20
-3.336996
  0
VERTEX
  8
PLAN_1
  6
CONTINUOUS
 10
1.656039
 20
-3.340992
  0
VERTEX
  8
PLAN_1
  6
CONTINUOUS
 10
1.659150
 20
-3.344988
  0
VERTEX
  8
PLAN_1
  6
CONTINUOUS
 10
1.661811
 20
-3.349874
  0
VERTEX
  8
PLAN_1
  6
CONTINUOUS
 10
1.664031
 20
-3.354756
  0
VERTEX
  8
PLAN_1
  6
CONTINUOUS
 10
1.665807
 20
-3.360083
  0
VERTEX
  8
PLAN_1
  6
CONTINUOUS
 10
1.667142
 20
-3.365413
  0
VERTEX
  8
PLAN_1
  6
CONTINUOUS
 10
1.667583
 20
-3.371185
  0
VERTEX
  8
PLAN_1
  6
CONTINUOUS
 10
1.668028
 20
-3.376957
  0
VERTEX
  8
PLAN_1
  6
CONTINUOUS
 10
1.668028
 20
-3.382283
  0
VERTEX
  8
PLAN_1
  6
CONTINUOUS
 10
1.667142
 20
-3.387610
  0
VERTEX
  8
PLAN_1
  6
CONTINUOUS
 10
1.666252
 20
-3.392941
  0
VERTEX
  8
PLAN_1
  6
CONTINUOUS
 10
1.664921
 20
-3.397823
  0
VERTEX
  8
PLAN_1
  6
CONTINUOUS
 10
1.663146
 20
-3.403154
  0
VERTEX
  8
PLAN_1
  6
CONTINUOUS
 10
1.660925
 20
-3.408035
  0
VERTEX
  8
PLAN_1
  6
CONTINUOUS
 10
1.657815
 20
-3.412476
  0
VERTEX
  8
PLAN_1
  6
CONTINUOUS
 10
1.654709
 20
-3.416917
  0
VERTEX
  8
PLAN_1
  6
CONTINUOUS
 10
1.651157
 20
-3.420913
  0
VERTEX
  8
PLAN_1
  6
CONTINUOUS
 10
1.646717
 20
-3.424909
  0
VERTEX
  8
PLAN_1
  6
CONTINUOUS
 10
1.641831
 20
-3.428016
  0
VERTEX
  8
PLAN_1
  6
CONTINUOUS
 10
1.636504
 20
-3.430681
  0
VERTEX
  8
PLAN_1
  6
CONTINUOUS
 10
1.630287
 20
-3.433343
  0
VERTEX
  8
PLAN_1
  6
CONTINUOUS
 10
1.624071
 20
-3.434677
  0
VERTEX
  8
PLAN_1
  6
CONTINUOUS
 10
1.616524
 20
-3.436008
  0
VERTEX
  8
PLAN_1
  6
CONTINUOUS
 10
1.608976
 20
-3.436008
  0
VERTEX
  8
PLAN_1
  6
CONTINUOUS
 10
1.546370
 20
-3.436008
  0
VERTEX
  8
PLAN_1
  6
CONTINUOUS
 10
1.546370
 20
-3.520366
  0
SEQEND
  8
0
  0
POLYLINE
  8
PLAN_1
  6
CONTINUOUS
 66
     1
 40
0.003000
 41
0.003000
  0
VERTEX
  8
PLAN_1
  6
CONTINUOUS
 10
1.546370
 20
-3.413362
  0
VERTEX
  8
PLAN_1
  6
CONTINUOUS
 10
1.599654
 20
-3.413362
  0
VERTEX
  8
PLAN_1
  6
CONTINUOUS
 10
1.604091
 20
-3.412921
  0
VERTEX
  8
PLAN_1
  6
CONTINUOUS
 10
1.608531
 20
-3.412921
  0
VERTEX
  8
PLAN_1
  6
CONTINUOUS
 10
1.612528
 20
-3.412031
  0
VERTEX
  8
PLAN_1
  6
CONTINUOUS
 10
1.616079
 20
-3.411146
  0
VERTEX
  8
PLAN_1
  6
CONTINUOUS
 10
1.620075
 20
-3.410256
  0
VERTEX
  8
PLAN_1
  6
CONTINUOUS
 10
1.623185
 20
-3.408925
  0
VERTEX
  8
PLAN_1
  6
CONTINUOUS
 10
1.626291
 20
-3.407150
  0
VERTEX
  8
PLAN_1
  6
CONTINUOUS
 10
1.628957
 20
-3.405374
  0
VERTEX
  8
PLAN_1
  6
CONTINUOUS
 10
1.631618
 20
-3.403154
  0
VERTEX
  8
PLAN_1
  6
CONTINUOUS
 10
1.633839
 20
-3.400488
  0
VERTEX
  8
PLAN_1
  6
CONTINUOUS
 10
1.635614
 20
-3.397382
  0
VERTEX
  8
PLAN_1
  6
CONTINUOUS
 10
1.637394
 20
-3.394272
  0
VERTEX
  8
PLAN_1
  6
CONTINUOUS
 10
1.638724
 20
-3.390720
  0
VERTEX
  8
PLAN_1
  6
CONTINUOUS
 10
1.639610
 20
-3.386724
  0
VERTEX
  8
PLAN_1
  6
CONTINUOUS
 10
1.640055
 20
-3.382283
  0
VERTEX
  8
PLAN_1
  6
CONTINUOUS
 10
1.640500
 20
-3.377402
  0
VERTEX
  8
PLAN_1
  6
CONTINUOUS
 10
1.640055
 20
-3.372961
  0
VERTEX
  8
PLAN_1
  6
CONTINUOUS
 10
1.639610
 20
-3.368520
  0
VERTEX
  8
PLAN_1
  6
CONTINUOUS
 10
1.638724
 20
-3.364969
  0
VERTEX
  8
PLAN_1
  6
CONTINUOUS
 10
1.637394
 20
-3.361417
  0
VERTEX
  8
PLAN_1
  6
CONTINUOUS
 10
1.635614
 20
-3.358307
  0
VERTEX
  8
PLAN_1
  6
CONTINUOUS
 10
1.633839
 20
-3.355646
  0
VERTEX
  8
PLAN_1
  6
CONTINUOUS
 10
1.631618
 20
-3.353425
  0
VERTEX
  8
PLAN_1
  6
CONTINUOUS
 10
1.628957
 20
-3.351205
  0
VERTEX
  8
PLAN_1
  6
CONTINUOUS
 10
1.626291
 20
-3.349429
  0
VERTEX
  8
PLAN_1
  6
CONTINUOUS
 10
1.623185
 20
-3.348094
  0
VERTEX
  8
PLAN_1
  6
CONTINUOUS
 10
1.620075
 20
-3.346764
  0
VERTEX
  8
PLAN_1
  6
CONTINUOUS
 10
1.616524
 20
-3.345878
  0
VERTEX
  8
PLAN_1
  6
CONTINUOUS
 10
1.612972
 20
-3.344988
  0
VERTEX
  8
PLAN_1
  6
CONTINUOUS
 10
1.608976
 20
-3.344543
  0
VERTEX
  8
PLAN_1
  6
CONTINUOUS
 10
1.604980
 20
-3.344098
  0
VERTEX
  8
PLAN_1
  6
CONTINUOUS
 10
1.600984
 20
-3.344098
  0
VERTEX
  8
PLAN_1
  6
CONTINUOUS
 10
1.546370
 20
-3.344098
  0
VERTEX
  8
PLAN_1
  6
CONTINUOUS
 10
1.546370
 20
-3.413362
  0
SEQEND
  8
0
  0
POLYLINE
  8
PLAN_1
  6
CONTINUOUS
 66
     1
 40
0.003000
 41
0.003000
  0
VERTEX
  8
PLAN_1
  6
CONTINUOUS
 10
1.822094
 20
-3.379177
  0
VERTEX
  8
PLAN_1
  6
CONTINUOUS
 10
1.821209
 20
-3.373846
  0
VERTEX
  8
PLAN_1
  6
CONTINUOUS
 10
1.820319
 20
-3.368520
  0
VERTEX
  8
PLAN_1
  6
CONTINUOUS
 10
1.818988
 20
-3.364079
  0
VERTEX
  8
PLAN_1
  6
CONTINUOUS
 10
1.816768
 20
-3.360083
  0
VERTEX
  8
PLAN_1
  6
CONTINUOUS
 10
1.814547
 20
-3.356087
  0
VERTEX
  8
PLAN_1
  6
CONTINUOUS
 10
1.811441
 20
-3.352980
  0
VERTEX
  8
PLAN_1
  6
CONTINUOUS
 10
1.808331
 20
-3.349874
  0
VERTEX
  8
PLAN_1
  6
CONTINUOUS
 10
1.805224
 20
-3.347654
  0
VERTEX
  8
PLAN_1
  6
CONTINUOUS
 10
1.801673
 20
-3.345433
  0
VERTEX
  8
PLAN_1
  6
CONTINUOUS
 10
1.797677
 20
-3.343657
  0
VERTEX
  8
PLAN_1
  6
CONTINUOUS
 10
1.793681
 20
-3.341882
  0
VERTEX
  8
PLAN_1
  6
CONTINUOUS
 10
1.789685
 20
-3.340992
  0
VERTEX
  8
PLAN_1
  6
CONTINUOUS
 10
1.785244
 20
-3.339661
  0
VERTEX
  8
PLAN_1
  6
CONTINUOUS
 10
1.781248
 20
-3.339217
  0
VERTEX
  8
PLAN_1
  6
CONTINUOUS
 10
1.776807
 20
-3.338772
  0
VERTEX
  8
PLAN_1
  6
CONTINUOUS
 10
1.772366
 20
-3.338772
  0
VERTEX
  8
PLAN_1
  6
CONTINUOUS
 10
1.765709
 20
-3.339217
  0
VERTEX
  8
PLAN_1
  6
CONTINUOUS
 10
1.758161
 20
-3.340102
  0
VERTEX
  8
PLAN_1
  6
CONTINUOUS
 10
1.754606
 20
-3.340992
  0
VERTEX
  8
PLAN_1
  6
CONTINUOUS
 10
1.750610
 20
-3.341882
  0
VERTEX
  8
PLAN_1
  6
CONTINUOUS
 10
1.747059
 20
-3.343213
  0
VERTEX
  8
PLAN_1
  6
CONTINUOUS
 10
1.743508
 20
-3.344988
  0
VERTEX
  8
PLAN_1
  6
CONTINUOUS
 10
1.739957
 20
-3.346764
  0
VERTEX
  8
PLAN_1
  6
CONTINUOUS
 10
1.736846
 20
-3.349429
  0
VERTEX
  8
PLAN_1
  6
CONTINUOUS
 10
1.734185
 20
-3.352091
  0
VERTEX
  8
PLAN_1
  6
CONTINUOUS
 10
1.731520
 20
-3.355646
  0
VERTEX
  8
PLAN_1
  6
CONTINUOUS
 10
1.729744
 20
-3.359197
  0
VERTEX
  8
PLAN_1
  6
CONTINUOUS
 10
1.728413
 20
-3.363638
  0
VERTEX
  8
PLAN_1
  6
CONTINUOUS
 10
1.727524
 20
-3.368520
  0
VERTEX
  8
PLAN_1
  6
CONTINUOUS
 10
1.727079
 20
-3.373846
  0
VERTEX
  8
PLAN_1
  6
CONTINUOUS
 10
1.727079
 20
-3.376957
  0
VERTEX
  8
PLAN_1
  6
CONTINUOUS
 10
1.727524
 20
-3.379618
  0
VERTEX
  8
PLAN_1
  6
CONTINUOUS
 10
1.727969
 20
-3.382283
  0
VERTEX
  8
PLAN_1
  6
CONTINUOUS
 10
1.728854
 20
-3.384504
  0
VERTEX
  8
PLAN_1
  6
CONTINUOUS
 10
1.730189
 20
-3.386724
  0
VERTEX
  8
PLAN_1
  6
CONTINUOUS
 10
1.731520
 20
-3.388500
  0
VERTEX
  8
PLAN_1
  6
CONTINUOUS
 10
1.732850
 20
-3.390276
  0
VERTEX
  8
PLAN_1
  6
CONTINUOUS
 10
1.734630
 20
-3.391606
  0
VERTEX
  8
PLAN_1
  6
CONTINUOUS
 10
1.738181
 20
-3.394272
  0
VERTEX
  8
PLAN_1
  6
CONTINUOUS
 10
1.742177
 20
-3.396492
  0
VERTEX
  8
PLAN_1
  6
CONTINUOUS
 10
1.746173
 20
-3.397823
  0
VERTEX
  8
PLAN_1
  6
CONTINUOUS
 10
1.750610
 20
-3.399157
  0
VERTEX
  8
PLAN_1
  6
CONTINUOUS
 10
1.807445
 20
-3.412031
  0
VERTEX
  8
PLAN_1
  6
CONTINUOUS
 10
1.812327
 20
-3.413362
  0
VERTEX
  8
PLAN_1
  6
CONTINUOUS
 10
1.816768
 20
-3.414697
  0
VERTEX
  8
PLAN_1
  6
CONTINUOUS
 10
1.821209
 20
-3.416472
  0
VERTEX
  8
PLAN_1
  6
CONTINUOUS
 10
1.825650
 20
-3.418693
  0
VERTEX
  8
PLAN_1
  6
CONTINUOUS
 10
1.829201
 20
-3.420913
  0
VERTEX
  8
PLAN_1
  6
CONTINUOUS
 10
1.833197
 20
-3.423134
  0
VERTEX
  8
PLAN_1
  6
CONTINUOUS
 10
1.836748
 20
-3.426240
  0
VERTEX
  8
PLAN_1
  6
CONTINUOUS
 10
1.839854
 20
-3.428906
  0
VERTEX
  8
PLAN_1
  6
CONTINUOUS
 10
1.842520
 20
-3.432457
  0
VERTEX
  8
PLAN_1
  6
CONTINUOUS
 10
1.845185
 20
-3.436008
  0
VERTEX
  8
PLAN_1
  6
CONTINUOUS
 10
1.847406
 20
-3.440004
  0
VERTEX
  8
PLAN_1
  6
CONTINUOUS
 10
1.849181
 20
-3.444445
  0
VERTEX
  8
PLAN_1
  6
CONTINUOUS
 10
1.850957
 20
-3.449327
  0
VERTEX
  8
PLAN_1
  6
CONTINUOUS
 10
1.851843
 20
-3.454213
  0
VERTEX
  8
PLAN_1
  6
CONTINUOUS
 10
1.852287
 20
-3.459539
  0
VERTEX
  8
PLAN_1
  6
CONTINUOUS
 10
1.852732
 20
-3.465311
  0
VERTEX
  8
PLAN_1
  6
CONTINUOUS
 10
1.852732
 20
-3.469752
  0
VERTEX
  8
PLAN_1
  6
CONTINUOUS
 10
1.852287
 20
-3.473748
  0
VERTEX
  8
PLAN_1
  6
CONTINUOUS
 10
1.851402
 20
-3.477744
  0
VERTEX
  8
PLAN_1
  6
CONTINUOUS
 10
1.850957
 20
-3.481295
  0
VERTEX
  8
PLAN_1
  6
CONTINUOUS
 10
1.849626
 20
-3.484846
  0
VERTEX
  8
PLAN_1
  6
CONTINUOUS
 10
1.848291
 20
-3.488402
  0
VERTEX
  8
PLAN_1
  6
CONTINUOUS
 10
1.846961
 20
-3.491508
  0
VERTEX
  8
PLAN_1
  6
CONTINUOUS
 10
1.845185
 20
-3.494614
  0
VERTEX
  8
PLAN_1
  6
CONTINUOUS
 10
1.843409
 20
-3.497724
  0
VERTEX
  8
PLAN_1
  6
CONTINUOUS
 10
1.841634
 20
-3.500390
  0
VERTEX
  8
PLAN_1
  6
CONTINUOUS
 10
1.839413
 20
-3.502606
  0
VERTEX
  8
PLAN_1
  6
CONTINUOUS
 10
1.837193
 20
-3.505272
  0
VERTEX
  8
PLAN_1
  6
CONTINUOUS
 10
1.831862
 20
-3.509268
  0
VERTEX
  8
PLAN_1
  6
CONTINUOUS
 10
1.826535
 20
-3.513264
  0
VERTEX
  8
PLAN_1
  6
CONTINUOUS
 10
1.820764
 20
-3.516374
  0
VERTEX
  8
PLAN_1
  6
CONTINUOUS
 10
1.814547
 20
-3.519035
  0
VERTEX
  8
PLAN_1
  6
CONTINUOUS
 10
1.807890
 20
-3.521256
  0
VERTEX
  8
PLAN_1
  6
CONTINUOUS
 10
1.801228
 20
-3.522587
  0
VERTEX
  8
PLAN_1
  6
CONTINUOUS
 10
1.794567
 20
-3.523921
  0
VERTEX
  8
PLAN_1
  6
CONTINUOUS
 10
1.787909
 20
-3.524807
  0
VERTEX
  8
PLAN_1
  6
CONTINUOUS
 10
1.781248
 20
-3.525252
  0
VERTEX
  8
PLAN_1
  6
CONTINUOUS
 10
1.774587
 20
-3.525697
  0
VERTEX
  8
PLAN_1
  6
CONTINUOUS
 10
1.767929
 20
-3.525252
  0
VERTEX
  8
PLAN_1
  6
CONTINUOUS
 10
1.761713
 20
-3.525252
  0
VERTEX
  8
PLAN_1
  6
CONTINUOUS
 10
1.756386
 20
-3.524362
  0
VERTEX
  8
PLAN_1
  6
CONTINUOUS
 10
1.751055
 20
-3.523921
  0
VERTEX
  8
PLAN_1
  6
CONTINUOUS
 10
1.746173
 20
-3.522587
  0
VERTEX
  8
PLAN_1
  6
CONTINUOUS
 10
1.741732
 20
-3.521701
  0
VERTEX
  8
PLAN_1
  6
CONTINUOUS
 10
1.737736
 20
-3.520366
  0
VERTEX
  8
PLAN_1
  6
CONTINUOUS
 10
1.734185
 20
-3.519035
  0
VERTEX
  8
PLAN_1
  6
CONTINUOUS
 10
1.727524
 20
-3.515929
  0
VERTEX
  8
PLAN_1
  6
CONTINUOUS
 10
1.722642
 20
-3.512819
  0
VERTEX
  8
PLAN_1
  6
CONTINUOUS
 10
1.718201
 20
-3.509713
  0
VERTEX
  8
PLAN_1
  6
CONTINUOUS
 10
1.714650
 20
-3.506602
  0
VERTEX
  8
PLAN_1
  6
CONTINUOUS
 10
1.711539
 20
-3.503496
  0
VERTEX
  8
PLAN_1
  6
CONTINUOUS
 10
1.708878
 20
-3.500831
  0
VERTEX
  8
PLAN_1
  6
CONTINUOUS
 10
1.706213
 20
-3.497724
  0
VERTEX
  8
PLAN_1
  6
CONTINUOUS
 10
1.703992
 20
-3.494614
  0
VERTEX
  8
PLAN_1
  6
CONTINUOUS
 10
1.702217
 20
-3.491508
  0
VERTEX
  8
PLAN_1
  6
CONTINUOUS
 10
1.700441
 20
-3.488843
  0
VERTEX
  8
PLAN_1
  6
CONTINUOUS
 10
1.699106
 20
-3.485736
  0
VERTEX
  8
PLAN_1
  6
CONTINUOUS
 10
1.698220
 20
-3.482630
  0
VERTEX
  8
PLAN_1
  6
CONTINUOUS
 10
1.696000
 20
-3.475969
  0
VERTEX
  8
PLAN_1
  6
CONTINUOUS
 10
1.695110
 20
-3.469307
  0
VERTEX
  8
PLAN_1
  6
CONTINUOUS
 10
1.694224
 20
-3.462650
  0
VERTEX
  8
PLAN_1
  6
CONTINUOUS
 10
1.694224
 20
-3.455988
  0
VERTEX
  8
PLAN_1
  6
CONTINUOUS
 10
1.719531
 20
-3.455988
  0
VERTEX
  8
PLAN_1
  6
CONTINUOUS
 10
1.719976
 20
-3.462205
  0
VERTEX
  8
PLAN_1
  6
CONTINUOUS
 10
1.720862
 20
-3.468421
  0
VERTEX
  8
PLAN_1
  6
CONTINUOUS
 10
1.722197
 20
-3.473748
  0
VERTEX
  8
PLAN_1
  6
CONTINUOUS
 10
1.724417
 20
-3.478634
  0
VERTEX
  8
PLAN_1
  6
CONTINUOUS
 10
1.727079
 20
-3.482630
  0
VERTEX
  8
PLAN_1
  6
CONTINUOUS
 10
1.730189
 20
-3.486626
  0
VERTEX
  8
PLAN_1
  6
CONTINUOUS
 10
1.733740
 20
-3.489732
  0
VERTEX
  8
PLAN_1
  6
CONTINUOUS
 10
1.737291
 20
-3.492839
  0
VERTEX
  8
PLAN_1
  6
CONTINUOUS
 10
1.741287
 20
-3.495059
  0
VERTEX
  8
PLAN_1
  6
CONTINUOUS
 10
1.745728
 20
-3.497280
  0
VERTEX
  8
PLAN_1
  6
CONTINUOUS
 10
1.750169
 20
-3.499055
  0
VERTEX
  8
PLAN_1
  6
CONTINUOUS
 10
1.755051
 20
-3.500390
  0
VERTEX
  8
PLAN_1
  6
CONTINUOUS
 10
1.759937
 20
-3.501276
  0
VERTEX
  8
PLAN_1
  6
CONTINUOUS
 10
1.764819
 20
-3.502165
  0
VERTEX
  8
PLAN_1
  6
CONTINUOUS
 10
1.769705
 20
-3.502606
  0
VERTEX
  8
PLAN_1
  6
CONTINUOUS
 10
1.774587
 20
-3.502606
  0
VERTEX
  8
PLAN_1
  6
CONTINUOUS
 10
1.782138
 20
-3.502165
  0
VERTEX
  8
PLAN_1
  6
CONTINUOUS
 10
1.791016
 20
-3.501276
  0
VERTEX
  8
PLAN_1
  6
CONTINUOUS
 10
1.795012
 20
-3.500390
  0
VERTEX
  8
PLAN_1
  6
CONTINUOUS
 10
1.799453
 20
-3.499500
  0
VERTEX
  8
PLAN_1
  6
CONTINUOUS
 10
1.803894
 20
-3.498169
  0
VERTEX
  8
PLAN_1
  6
CONTINUOUS
 10
1.807890
 20
-3.496394
  0
VERTEX
  8
PLAN_1
  6
CONTINUOUS
 10
1.811886
 20
-3.494614
  0
VERTEX
  8
PLAN_1
  6
CONTINUOUS
 10
1.815437
 20
-3.491953
  0
VERTEX
  8
PLAN_1
  6
CONTINUOUS
 10
1.818543
 20
-3.489287
  0
VERTEX
  8
PLAN_1
  6
CONTINUOUS
 10
1.821209
 20
-3.486181
  0
VERTEX
  8
PLAN_1
  6
CONTINUOUS
 10
1.823429
 20
-3.482630
  0
VERTEX
  8
PLAN_1
  6
CONTINUOUS
 10
1.825205
 20
-3.478634
  0
VERTEX
  8
PLAN_1
  6
CONTINUOUS
 10
1.826091
 20
-3.474193
  0
VERTEX
  8
PLAN_1
  6
CONTINUOUS
 10
1.826535
 20
-3.468862
  0
VERTEX
  8
PLAN_1
  6
CONTINUOUS
 10
1.826535
 20
-3.465311
  0
VERTEX
  8
PLAN_1
  6
CONTINUOUS
 10
1.826091
 20
-3.461760
  0
VERTEX
  8
PLAN_1
  6
CONTINUOUS
 10
1.825650
 20
-3.458654
  0
VERTEX
  8
PLAN_1
  6
CONTINUOUS
 10
1.824760
 20
-3.455543
  0
VERTEX
  8
PLAN_1
  6
CONTINUOUS
 10
1.823429
 20
-3.453323
  0
VERTEX
  8
PLAN_1
  6
CONTINUOUS
 10
1.821654
 20
-3.450661
  0
VERTEX
  8
PLAN_1
  6
CONTINUOUS
 10
1.819878
 20
-3.448441
  0
VERTEX
  8
PLAN_1
  6
CONTINUOUS
 10
1.817657
 20
-3.446220
  0
VERTEX
  8
PLAN_1
  6
CONTINUOUS
 10
1.814992
 20
-3.444445
  0
VERTEX
  8
PLAN_1
  6
CONTINUOUS
 10
1.811886
 20
-3.442669
  0
VERTEX
  8
PLAN_1
  6
CONTINUOUS
 10
1.808331
 20
-3.441335
  0
VERTEX
  8
PLAN_1
  6
CONTINUOUS
 10
1.804780
 20
-3.439559
  0
VERTEX
  8
PLAN_1
  6
CONTINUOUS
 10
1.795457
 20
-3.436453
  0
VERTEX
  8
PLAN_1
  6
CONTINUOUS
 10
1.784354
 20
-3.433787
  0
VERTEX
  8
PLAN_1
  6
CONTINUOUS
 10
1.743508
 20
-3.424465
  0
VERTEX
  8
PLAN_1
  6
CONTINUOUS
 10
1.737736
 20
-3.422689
  0
VERTEX
  8
PLAN_1
  6
CONTINUOUS
 10
1.731075
 20
-3.420469
  0
VERTEX
  8
PLAN_1
  6
CONTINUOUS
 10
1.727524
 20
-3.419138
  0
VERTEX
  8
PLAN_1
  6
CONTINUOUS
 10
1.724417
 20
-3.417358
  0
VERTEX
  8
PLAN_1
  6
CONTINUOUS
 10
1.720862
 20
-3.415142
  0
VERTEX
  8
PLAN_1
  6
CONTINUOUS
 10
1.717311
 20
-3.412476
  0
VERTEX
  8
PLAN_1
  6
CONTINUOUS
 10
1.713760
 20
-3.409811
  0
VERTEX
  8
PLAN_1
  6
CONTINUOUS
 10
1.711094
 20
-3.406705
  0
VERTEX
  8
PLAN_1
  6
CONTINUOUS
 10
1.707988
 20
-3.403154
  0
VERTEX
  8
PLAN_1
  6
CONTINUOUS
 10
1.705768
 20
-3.398713
  0
VERTEX
  8
PLAN_1
  6
CONTINUOUS
 10
1.703547
 20
-3.394272
  0
VERTEX
  8
PLAN_1
  6
CONTINUOUS
 10
1.702217
 20
-3.389390
  0
VERTEX
  8
PLAN_1
  6
CONTINUOUS
 10
1.701327
 20
-3.383614
  0
VERTEX
  8
PLAN_1
  6
CONTINUOUS
 10
1.700886
 20
-3.377402
  0
VERTEX
  8
PLAN_1
  6
CONTINUOUS
 10
1.701327
 20
-3.371630
  0
VERTEX
  8
PLAN_1
  6
CONTINUOUS
 10
1.701772
 20
-3.365854
  0
VERTEX
  8
PLAN_1
  6
CONTINUOUS
 10
1.703102
 20
-3.360083
  0
VERTEX
  8
PLAN_1
  6
CONTINUOUS
 10
1.704882
 20
-3.354756
  0
VERTEX
  8
PLAN_1
  6
CONTINUOUS
 10
1.707098
 20
-3.349429
  0
VERTEX
  8
PLAN_1
  6
CONTINUOUS
 10
1.709764
 20
-3.344098
  0
VERTEX
  8
PLAN_1
  6
CONTINUOUS
 10
1.713315
 20
-3.339217
  0
VERTEX
  8
PLAN_1
  6
CONTINUOUS
 10
1.716866
 20
-3.334776
  0
VERTEX
  8
PLAN_1
  6
CONTINUOUS
 10
1.721307
 20
-3.330780
  0
VERTEX
  8
PLAN_1
  6
CONTINUOUS
 10
1.726638
 20
-3.327228
  0
VERTEX
  8
PLAN_1
  6
CONTINUOUS
 10
1.731965
 20
-3.323677
  0
VERTEX
  8
PLAN_1
  6
CONTINUOUS
 10
1.738181
 20
-3.321012
  0
VERTEX
  8
PLAN_1
  6
CONTINUOUS
 10
1.745283
 20
-3.318791
  0
VERTEX
  8
PLAN_1
  6
CONTINUOUS
 10
1.752831
 20
-3.317016
  0
VERTEX
  8
PLAN_1
  6
CONTINUOUS
 10
1.760823
 20
-3.316130
  0
VERTEX
  8
PLAN_1
  6
CONTINUOUS
 10
1.769260
 20
-3.315685
  0
VERTEX
  8
PLAN_1
  6
CONTINUOUS
 10
1.775921
 20
-3.315685
  0
VERTEX
  8
PLAN_1
  6
CONTINUOUS
 10
1.781693
 20
-3.316130
  0
VERTEX
  8
PLAN_1
  6
CONTINUOUS
 10
1.787465
 20
-3.316571
  0
VERTEX
  8
PLAN_1
  6
CONTINUOUS
 10
1.792791
 20
-3.317461
  0
VERTEX
  8
PLAN_1
  6
CONTINUOUS
 10
1.797677
 20
-3.318346
  0
VERTEX
  8
PLAN_1
  6
CONTINUOUS
 10
1.802559
 20
-3.319681
  0
VERTEX
  8
PLAN_1
  6
CONTINUOUS
 10
1.806555
 20
-3.321012
  0
VERTEX
  8
PLAN_1
  6
CONTINUOUS
 10
1.810996
 20
-3.322787
  0
VERTEX
  8
PLAN_1
  6
CONTINUOUS
 10
1.814547
 20
-3.324118
  0
VERTEX
  8
PLAN_1
  6
CONTINUOUS
 10
1.818098
 20
-3.325898
  0
VERTEX
  8
PLAN_1
  6
CONTINUOUS
 10
1.821209
 20
-3.328114
  0
VERTEX
  8
PLAN_1
  6
CONTINUOUS
 10
1.824315
 20
-3.329894
  0
VERTEX
  8
PLAN_1
  6
CONTINUOUS
 10
1.829646
 20
-3.334331
  0
VERTEX
  8
PLAN_1
  6
CONTINUOUS
 10
1.834083
 20
-3.339217
  0
VERTEX
  8
PLAN_1
  6
CONTINUOUS
 10
1.837638
 20
-3.344543
  0
VERTEX
  8
PLAN_1
  6
CONTINUOUS
 10
1.840299
 20
-3.349429
  0
VERTEX
  8
PLAN_1
  6
CONTINUOUS
 10
1.842520
 20
-3.354756
  0
VERTEX
  8
PLAN_1
  6
CONTINUOUS
 10
1.844295
 20
-3.360083
  0
VERTEX
  8
PLAN_1
  6
CONTINUOUS
 10
1.845630
 20
-3.365413
  0
VERTEX
  8
PLAN_1
  6
CONTINUOUS
 10
1.846516
 20
-3.370295
  0
VERTEX
  8
PLAN_1
  6
CONTINUOUS
 10
1.846961
 20
-3.375181
  0
VERTEX
  8
PLAN_1
  6
CONTINUOUS
 10
1.847406
 20
-3.379177
  0
VERTEX
  8
PLAN_1
  6
CONTINUOUS
 10
1.822094
 20
-3.379177
  0
SEQEND
  8
0
  0
POLYLINE
  8
PLAN_1
  6
CONTINUOUS
 66
     1
 40
0.007102
 41
0.007102
  0
VERTEX
  8
PLAN_1
  6
CONTINUOUS
 10
-0.802831
 20
1.216669
  0
VERTEX
  8
PLAN_1
  6
CONTINUOUS
 10
-0.802831
 20
1.297476
  0
VERTEX
  8
PLAN_1
  6
CONTINUOUS
 10
-0.762429
 20
1.297476
  0
SEQEND
  8
0
  0
POLYLINE
  8
PLAN_1
  6
CONTINUOUS
 66
     1
 40
0.008433
 41
0.008433
  0
VERTEX
  8
PLAN_1
  6
CONTINUOUS
 10
-1.022610
 20
2.527354
  0
VERTEX
  8
PLAN_1
  6
CONTINUOUS
 10
-1.022610
 20
1.880004
  0
VERTEX
  8
PLAN_1
  6
CONTINUOUS
 10
-1.584272
 20
1.880004
  0
VERTEX
  8
PLAN_1
  6
CONTINUOUS
 10
-1.584272
 20
2.527354
  0
SEQEND
  8
0
  0
POLYLINE
  8
PLAN_1
  6
CONTINUOUS
 66
     1
 40
0.008433
 41
0.008433
  0
VERTEX
  8
PLAN_1
  6
CONTINUOUS
 10
-0.761094
 20
1.217110
  0
VERTEX
  8
PLAN_1
  6
CONTINUOUS
 10
-0.761094
 20
1.650902
  0
VERTEX
  8
PLAN_1
  6
CONTINUOUS
 10
-1.845343
 20
1.650902
  0
VERTEX
  8
PLAN_1
  6
CONTINUOUS
 10
-1.845343
 20
1.217110
  0
VERTEX
  8
PLAN_1
  6
CONTINUOUS
 10
-0.761094
 20
1.217110
  0
SEQEND
  8
0
  0
POLYLINE
  8
PLAN_1
  6
CONTINUOUS
 66
     1
 40
0.008433
 41
0.008433
  0
VERTEX
  8
PLAN_1
  6
CONTINUOUS
 10
-1.503909
 20
1.880004
  0
VERTEX
  8
PLAN_1
  6
CONTINUOUS
 10
-1.102531
 20
1.880004
  0
VERTEX
  8
PLAN_1
  6
CONTINUOUS
 10
-1.102531
 20
2.120654
  0
SEQEND
  8
0
  0
POLYLINE
  8
PLAN_1
  6
CONTINUOUS
 66
     1
 40
0.008433
 41
0.008433
  0
VERTEX
  8
PLAN_1
  6
CONTINUOUS
 10
-1.102531
 20
2.120654
  0
VERTEX
  8
PLAN_1
  6
CONTINUOUS
 10
-1.111413
 20
2.128646
  0
VERTEX
  8
PLAN_1
  6
CONTINUOUS
 10
-1.121181
 20
2.135748
  0
VERTEX
  8
PLAN_1
  6
CONTINUOUS
 10
-1.131835
 20
2.142850
  0
VERTEX
  8
PLAN_1
  6
CONTINUOUS
 10
-1.142492
 20
2.149512
  0
VERTEX
  8
PLAN_1
  6
CONTINUOUS
 10
-1.153591
 20
2.155728
  0
VERTEX
  8
PLAN_1
  6
CONTINUOUS
 10
-1.165579
 20
2.161055
  0
VERTEX
  8
PLAN_1
  6
CONTINUOUS
 10
-1.177567
 20
2.166386
  0
VERTEX
  8
PLAN_1
  6
CONTINUOUS
 10
-1.190445
 20
2.171268
  0
VERTEX
  8
PLAN_1
  6
CONTINUOUS
 10
-1.203319
 20
2.175709
  0
VERTEX
  8
PLAN_1
  6
CONTINUOUS
 10
-1.216642
 20
2.179260
  0
VERTEX
  8
PLAN_1
  6
CONTINUOUS
 10
-1.230406
 20
2.182366
  0
VERTEX
  8
PLAN_1
  6
CONTINUOUS
 10
-1.244169
 20
2.185031
  0
VERTEX
  8
PLAN_1
  6
CONTINUOUS
 10
-1.258819
 20
2.187252
  0
VERTEX
  8
PLAN_1
  6
CONTINUOUS
 10
-1.273472
 20
2.188583
  0
VERTEX
  8
PLAN_1
  6
CONTINUOUS
 10
-1.288122
 20
2.189472
  0
VERTEX
  8
PLAN_1
  6
CONTINUOUS
 10
-1.303220
 20
2.189917
  0
VERTEX
  8
PLAN_1
  6
CONTINUOUS
 10
-1.318315
 20
2.189472
  0
VERTEX
  8
PLAN_1
  6
CONTINUOUS
 10
-1.332969
 20
2.188583
  0
VERTEX
  8
PLAN_1
  6
CONTINUOUS
 10
-1.347618
 20
2.187252
  0
VERTEX
  8
PLAN_1
  6
CONTINUOUS
 10
-1.361827
 20
2.185031
  0
VERTEX
  8
PLAN_1
  6
CONTINUOUS
 10
-1.376035
 20
2.182366
  0
VERTEX
  8
PLAN_1
  6
CONTINUOUS
 10
-1.389799
 20
2.179260
  0
VERTEX
  8
PLAN_1
  6
CONTINUOUS
 10
-1.403118
 20
2.175709
  0
VERTEX
  8
PLAN_1
  6
CONTINUOUS
 10
-1.415996
 20
2.171268
  0
VERTEX
  8
PLAN_1
  6
CONTINUOUS
 10
-1.428429
 20
2.166386
  0
VERTEX
  8
PLAN_1
  6
CONTINUOUS
 10
-1.440858
 20
2.161055
  0
VERTEX
  8
PLAN_1
  6
CONTINUOUS
 10
-1.452406
 20
2.155728
  0
VERTEX
  8
PLAN_1
  6
CONTINUOUS
 10
-1.463949
 20
2.149512
  0
VERTEX
  8
PLAN_1
  6
CONTINUOUS
 10
-1.474602
 20
2.142850
  0
VERTEX
  8
PLAN_1
  6
CONTINUOUS
 10
-1.485260
 20
2.135748
  0
VERTEX
  8
PLAN_1
  6
CONTINUOUS
 10
-1.495028
 20
2.128646
  0
VERTEX
  8
PLAN_1
  6
CONTINUOUS
 10
-1.503909
 20
2.120654
  0
SEQEND
  8
0
  0
POLYLINE
  8
PLAN_1
  6
CONTINUOUS
 66
     1
 40
0.008433
 41
0.008433
  0
VERTEX
  8
PLAN_1
  6
CONTINUOUS
 10
-1.503909
 20
2.120654
  0
VERTEX
  8
PLAN_1
  6
CONTINUOUS
 10
-1.503909
 20
1.880004
  0
SEQEND
  8
0
  0
POLYLINE
  8
PLAN_1
  6
CONTINUOUS
 66
     1
 40
0.007102
 41
0.007102
  0
VERTEX
  8
PLAN_1
  6
CONTINUOUS
 10
-1.804941
 20
1.216669
  0
VERTEX
  8
PLAN_1
  6
CONTINUOUS
 10
-1.804941
 20
1.297476
  0
VERTEX
  8
PLAN_1
  6
CONTINUOUS
 10
-1.844902
 20
1.297476
  0
SEQEND
  8
0
  0
POLYLINE
  8
PLAN_1
  6
CONTINUOUS
 66
     1
 40
0.008433
 41
0.008433
  0
VERTEX
  8
PLAN_1
  6
CONTINUOUS
 10
-1.102531
 20
2.121094
  0
VERTEX
  8
PLAN_1
  6
CONTINUOUS
 10
-1.503909
 20
2.121094
  0
SEQEND
  8
0
  0
POLYLINE
  8
PLAN_1
  6
CONTINUOUS
 66
     1
 40
0.008433
 41
0.008433
  0
VERTEX
  8
PLAN_1
  6
CONTINUOUS
 10
-1.162472
 20
2.341764
  0
VERTEX
  8
PLAN_1
  6
CONTINUOUS
 10
-1.162472
 20
3.144961
  0
VERTEX
  8
PLAN_1
  6
CONTINUOUS
 10
-1.443524
 20
3.144961
  0
VERTEX
  8
PLAN_1
  6
CONTINUOUS
 10
-1.443524
 20
2.341764
  0
VERTEX
  8
PLAN_1
  6
CONTINUOUS
 10
-1.162472
 20
2.341764
  0
SEQEND
  8
0
  0
POLYLINE
  8
PLAN_1
  6
CONTINUOUS
 66
     1
 40
0.008433
 41
0.008433
  0
VERTEX
  8
PLAN_1
  6
CONTINUOUS
 10
-0.956012
 20
2.602835
  0
VERTEX
  8
PLAN_1
  6
CONTINUOUS
 10
-0.956012
 20
2.883890
  0
VERTEX
  8
PLAN_1
  6
CONTINUOUS
 10
-0.976437
 20
2.883890
  0
VERTEX
  8
PLAN_1
  6
CONTINUOUS
 10
-0.976437
 20
2.602835
  0
VERTEX
  8
PLAN_1
  6
CONTINUOUS
 10
-0.956012
 20
2.602835
  0
SEQEND
  8
0
  0
POLYLINE
  8
PLAN_1
  6
CONTINUOUS
 66
     1
 40
0.008433
 41
0.008433
  0
VERTEX
  8
PLAN_1
  6
CONTINUOUS
 10
-1.584272
 20
2.189917
  0
VERTEX
  8
PLAN_1
  6
CONTINUOUS
 10
-1.022169
 20
2.189917
  0
SEQEND
  8
0
  0
POLYLINE
  8
PLAN_1
  6
CONTINUOUS
 66
     1
 40
0.008433
 41
0.008433
  0
VERTEX
  8
PLAN_1
  6
CONTINUOUS
 10
-0.901402
 20
2.258291
  0
VERTEX
  8
PLAN_1
  6
CONTINUOUS
 10
-1.022610
 20
2.258291
  0
SEQEND
  8
0
  0
POLYLINE
  8
PLAN_1
  6
CONTINUOUS
 66
     1
 40
0.008433
 41
0.008433
  0
VERTEX
  8
PLAN_1
  6
CONTINUOUS
 10
-1.583827
 20
2.258291
  0
VERTEX
  8
PLAN_1
  6
CONTINUOUS
 10
-1.705039
 20
2.258291
  0
SEQEND
  8
0
  0
POLYLINE
  8
PLAN_1
  6
CONTINUOUS
 66
     1
 40
0.008433
 41
0.008433
  0
VERTEX
  8
PLAN_1
  6
CONTINUOUS
 10
-0.901402
 20
2.066929
  0
VERTEX
  8
PLAN_1
  6
CONTINUOUS
 10
-1.022610
 20
2.066929
  0
SEQEND
  8
0
  0
POLYLINE
  8
PLAN_1
  6
CONTINUOUS
 66
     1
 40
0.008433
 41
0.008433
  0
VERTEX
  8
PLAN_1
  6
CONTINUOUS
 10
-1.583827
 20
2.066929
  0
VERTEX
  8
PLAN_1
  6
CONTINUOUS
 10
-1.705039
 20
2.066929
  0
SEQEND
  8
0
  0
POLYLINE
  8
PLAN_1
  6
CONTINUOUS
 66
     1
 40
0.003992
 41
0.003992
  0
VERTEX
  8
PLAN_1
  6
CONTINUOUS
 10
-1.853780
 20
0.541787
  0
VERTEX
  8
PLAN_1
  6
CONTINUOUS
 10
-1.853780
 20
1.215780
  0
VERTEX
  8
PLAN_1
  6
CONTINUOUS
 10
-0.749551
 20
1.213114
  0
VERTEX
  8
PLAN_1
  6
CONTINUOUS
 10
-0.749551
 20
0.543563
  0
SEQEND
  8
0
  0
POLYLINE
  8
PLAN_1
  6
CONTINUOUS
 66
     1
 40
0.008433
 41
0.008433
  0
VERTEX
  8
PLAN_1
  6
CONTINUOUS
 10
-0.837020
 20
1.170047
  0
VERTEX
  8
PLAN_1
  6
CONTINUOUS
 10
-0.837020
 20
1.215780
  0
VERTEX
  8
PLAN_1
  6
CONTINUOUS
 10
-1.781409
 20
1.215780
  0
VERTEX
  8
PLAN_1
  6
CONTINUOUS
 10
-1.781409
 20
1.170047
  0
VERTEX
  8
PLAN_1
  6
CONTINUOUS
 10
-0.837020
 20
1.170047
  0
SEQEND
  8
0
  0
POLYLINE
  8
PLAN_1
  6
CONTINUOUS
 66
     1
 40
0.008433
 41
0.008433
  0
VERTEX
  8
PLAN_1
  6
CONTINUOUS
 10
-0.890299
 20
0.908087
  0
VERTEX
  8
PLAN_1
  6
CONTINUOUS
 10
-0.928039
 20
0.870346
  0
VERTEX
  8
PLAN_1
  6
CONTINUOUS
 10
-1.686835
 20
0.870346
  0
VERTEX
  8
PLAN_1
  6
CONTINUOUS
 10
-1.724575
 20
0.908087
  0
VERTEX
  8
PLAN_1
  6
CONTINUOUS
 10
-1.724575
 20
1.170047
  0
VERTEX
  8
PLAN_1
  6
CONTINUOUS
 10
-0.890299
 20
1.170047
  0
VERTEX
  8
PLAN_1
  6
CONTINUOUS
 10
-0.890299
 20
0.908087
  0
SEQEND
  8
0
  0
POLYLINE
  8
PLAN_1
  6
CONTINUOUS
 66
     1
 40
0.008433
 41
0.008433
  0
VERTEX
  8
PLAN_1
  6
CONTINUOUS
 10
-1.636220
 20
0.870346
  0
VERTEX
  8
PLAN_1
  6
CONTINUOUS
 10
-1.586937
 20
0.682091
  0
VERTEX
  8
PLAN_1
  6
CONTINUOUS
 10
-1.035043
 20
0.682091
  0
VERTEX
  8
PLAN_1
  6
CONTINUOUS
 10
-0.973327
 20
0.870346
  0
VERTEX
  8
PLAN_1
  6
CONTINUOUS
 10
-1.636220
 20
0.870346
  0
SEQEND
  8
0
  0
POLYLINE
  8
PLAN_1
  6
CONTINUOUS
 66
     1
 40
0.007102
 41
0.007102
  0
VERTEX
  8
PLAN_1
  6
CONTINUOUS
 10
-1.586492
 20
0.867685
  0
VERTEX
  8
PLAN_1
  6
CONTINUOUS
 10
-1.538539
 20
0.682091
  0
SEQEND
  8
0
  0
POLYLINE
  8
PLAN_1
  6
CONTINUOUS
 66
     1
 40
0.007102
 41
0.007102
  0
VERTEX
  8
PLAN_1
  6
CONTINUOUS
 10
-1.554524
 20
0.867685
  0
VERTEX
  8
PLAN_1
  6
CONTINUOUS
 10
-1.507016
 20
0.682091
  0
SEQEND
  8
0
  0
POLYLINE
  8
PLAN_1
  6
CONTINUOUS
 66
     1
 40
0.007102
 41
0.007102
  0
VERTEX
  8
PLAN_1
  6
CONTINUOUS
 10
-1.035043
 20
0.869461
  0
VERTEX
  8
PLAN_1
  6
CONTINUOUS
 10
-1.082996
 20
0.683866
  0
SEQEND
  8
0
  0
POLYLINE
  8
PLAN_1
  6
CONTINUOUS
 66
     1
 40
0.007102
 41
0.007102
  0
VERTEX
  8
PLAN_1
  6
CONTINUOUS
 10
-1.067012
 20
0.869461
  0
VERTEX
  8
PLAN_1
  6
CONTINUOUS
 10
-1.114965
 20
0.683866
  0
SEQEND
  8
0
  0
POLYLINE
  8
PLAN_1
  6
CONTINUOUS
 66
     1
 40
0.007102
 41
0.007102
  0
VERTEX
  8
PLAN_1
  6
CONTINUOUS
 10
-1.713031
 20
1.713949
  0
VERTEX
  8
PLAN_1
  6
CONTINUOUS
 10
-1.623787
 20
1.713949
  0
VERTEX
  8
PLAN_1
  6
CONTINUOUS
 10
-1.623787
 20
1.650902
  0
VERTEX
  8
PLAN_1
  6
CONTINUOUS
 10
-1.844457
 20
1.650902
  0
VERTEX
  8
PLAN_1
  6
CONTINUOUS
 10
-1.844457
 20
1.713949
  0
VERTEX
  8
PLAN_1
  6
CONTINUOUS
 10
-1.755657
 20
1.713949
  0
VERTEX
  8
PLAN_1
  6
CONTINUOUS
 10
-1.755213
 20
1.713949
  0
VERTEX
  8
PLAN_1
  6
CONTINUOUS
 10
-1.755213
 20
1.682866
  0
VERTEX
  8
PLAN_1
  6
CONTINUOUS
 10
-1.713031
 20
1.682866
  0
VERTEX
  8
PLAN_1
  6
CONTINUOUS
 10
-1.713031
 20
1.713949
  0
SEQEND
  8
0
  0
POLYLINE
  8
PLAN_1
  6
CONTINUOUS
 66
     1
 40
0.007102
 41
0.007102
  0
VERTEX
  8
PLAN_1
  6
CONTINUOUS
 10
-0.850783
 20
1.713949
  0
VERTEX
  8
PLAN_1
  6
CONTINUOUS
 10
-0.761539
 20
1.713949
  0
VERTEX
  8
PLAN_1
  6
CONTINUOUS
 10
-0.761539
 20
1.650902
  0
VERTEX
  8
PLAN_1
  6
CONTINUOUS
 10
-0.982209
 20
1.650902
  0
VERTEX
  8
PLAN_1
  6
CONTINUOUS
 10
-0.982209
 20
1.713949
  0
VERTEX
  8
PLAN_1
  6
CONTINUOUS
 10
-0.893409
 20
1.713949
  0
VERTEX
  8
PLAN_1
  6
CONTINUOUS
 10
-0.892965
 20
1.713949
  0
VERTEX
  8
PLAN_1
  6
CONTINUOUS
 10
-0.892965
 20
1.682866
  0
VERTEX
  8
PLAN_1
  6
CONTINUOUS
 10
-0.850783
 20
1.682866
  0
VERTEX
  8
PLAN_1
  6
CONTINUOUS
 10
-0.850783
 20
1.713949
  0
SEQEND
  8
0
  0
POLYLINE
  8
PLAN_1
  6
CONTINUOUS
 66
     1
 40
0.008433
 41
0.008433
  0
VERTEX
  8
PLAN_1
  6
CONTINUOUS
 10
-1.584272
 20
2.265398
  0
VERTEX
  8
PLAN_1
  6
CONTINUOUS
 10
-1.022169
 20
2.265398
  0
SEQEND
  8
0
  0
POLYLINE
  8
PLAN_1
  6
CONTINUOUS
 66
     1
 40
0.008433
 41
0.008433
  0
VERTEX
  8
PLAN_1
  6
CONTINUOUS
 10
-0.888969
 20
0.914303
  0
VERTEX
  8
PLAN_1
  6
CONTINUOUS
 10
-1.723244
 20
0.914303
  0
SEQEND
  8
0
  0
POLYLINE
  8
PLAN_1
  6
CONTINUOUS
 66
     1
 40
0.008433
 41
0.008433
  0
VERTEX
  8
PLAN_1
  6
CONTINUOUS
 10
-1.020835
 20
2.422130
  0
VERTEX
  8
PLAN_1
  6
CONTINUOUS
 10
-0.981764
 20
2.422130
  0
VERTEX
  8
PLAN_1
  6
CONTINUOUS
 10
-0.981764
 20
3.064594
  0
VERTEX
  8
PLAN_1
  6
CONTINUOUS
 10
-1.162917
 20
3.064594
  0
SEQEND
  8
0
  0
POLYLINE
  8
PLAN_1
  6
CONTINUOUS
 66
     1
 40
0.008433
 41
0.008433
  0
VERTEX
  8
PLAN_1
  6
CONTINUOUS
 10
-1.444413
 20
3.064594
  0
VERTEX
  8
PLAN_1
  6
CONTINUOUS
 10
-1.624232
 20
3.064594
  0
VERTEX
  8
PLAN_1
  6
CONTINUOUS
 10
-1.624232
 20
2.422130
  0
VERTEX
  8
PLAN_1
  6
CONTINUOUS
 10
-1.588268
 20
2.422130
  0
SEQEND
  8
0
  0
POLYLINE
  8
PLAN_1
  6
CONTINUOUS
 66
     1
 40
0.008433
 41
0.008433
  0
VERTEX
  8
PLAN_1
  6
CONTINUOUS
 10
-1.705039
 20
1.715724
  0
VERTEX
  8
PLAN_1
  6
CONTINUOUS
 10
-1.705039
 20
2.422130
  0
VERTEX
  8
PLAN_1
  6
CONTINUOUS
 10
-1.624677
 20
2.422130
  0
SEQEND
  8
0
  0
POLYLINE
  8
PLAN_1
  6
CONTINUOUS
 66
     1
 40
0.008433
 41
0.008433
  0
VERTEX
  8
PLAN_1
  6
CONTINUOUS
 10
-0.981764
 20
2.422130
  0
VERTEX
  8
PLAN_1
  6
CONTINUOUS
 10
-0.901402
 20
2.422130
  0
VERTEX
  8
PLAN_1
  6
CONTINUOUS
 10
-0.901402
 20
1.714835
  0
SEQEND
  8
0
  0
POLYLINE
  8
PLAN_1
  6
CONTINUOUS
 66
     1
 40
0.008433
 41
0.008433
  0
VERTEX
  8
PLAN_1
  6
CONTINUOUS
 10
-1.687724
 20
1.715280
  0
VERTEX
  8
PLAN_1
  6
CONTINUOUS
 10
-1.650870
 20
1.856472
  0
SEQEND
  8
0
  0
POLYLINE
  8
PLAN_1
  6
CONTINUOUS
 66
     1
 40
0.008433
 41
0.008433
  0
VERTEX
  8
PLAN_1
  6
CONTINUOUS
 10
-1.650870
 20
1.856472
  0
VERTEX
  8
PLAN_1
  6
CONTINUOUS
 10
-1.649094
 20
1.861354
  0
VERTEX
  8
PLAN_1
  6
CONTINUOUS
 10
-1.645988
 20
1.865795
  0
VERTEX
  8
PLAN_1
  6
CONTINUOUS
 10
-1.642882
 20
1.869791
  0
VERTEX
  8
PLAN_1
  6
CONTINUOUS
 10
-1.638886
 20
1.873343
  0
VERTEX
  8
PLAN_1
  6
CONTINUOUS
 10
-1.634000
 20
1.876008
  0
VERTEX
  8
PLAN_1
  6
CONTINUOUS
 10
-1.629114
 20
1.878228
  0
VERTEX
  8
PLAN_1
  6
CONTINUOUS
 10
-1.626453
 20
1.879114
  0
VERTEX
  8
PLAN_1
  6
CONTINUOUS
 10
-1.623787
 20
1.879559
  0
VERTEX
  8
PLAN_1
  6
CONTINUOUS
 10
-1.621122
 20
1.880004
  0
VERTEX
  8
PLAN_1
  6
CONTINUOUS
 10
-1.618461
 20
1.880004
  0
SEQEND
  8
0
  0
POLYLINE
  8
PLAN_1
  6
CONTINUOUS
 66
     1
 40
0.008433
 41
0.008433
  0
VERTEX
  8
PLAN_1
  6
CONTINUOUS
 10
-1.618461
 20
1.880004
  0
VERTEX
  8
PLAN_1
  6
CONTINUOUS
 10
-0.987091
 20
1.880004
  0
SEQEND
  8
0
  0
POLYLINE
  8
PLAN_1
  6
CONTINUOUS
 66
     1
 40
0.008433
 41
0.008433
  0
VERTEX
  8
PLAN_1
  6
CONTINUOUS
 10
-0.987091
 20
1.880004
  0
VERTEX
  8
PLAN_1
  6
CONTINUOUS
 10
-0.983539
 20
1.880004
  0
VERTEX
  8
PLAN_1
  6
CONTINUOUS
 10
-0.979988
 20
1.879559
  0
VERTEX
  8
PLAN_1
  6
CONTINUOUS
 10
-0.976882
 20
1.878673
  0
VERTEX
  8
PLAN_1
  6
CONTINUOUS
 10
-0.973772
 20
1.877339
  0
VERTEX
  8
PLAN_1
  6
CONTINUOUS
 10
-0.970665
 20
1.876008
  0
VERTEX
  8
PLAN_1
  6
CONTINUOUS
 10
-0.968000
 20
1.874232
  0
VERTEX
  8
PLAN_1
  6
CONTINUOUS
 10
-0.965335
 20
1.872012
  0
VERTEX
  8
PLAN_1
  6
CONTINUOUS
 10
-0.962673
 20
1.869791
  0
VERTEX
  8
PLAN_1
  6
CONTINUOUS
 10
-0.960453
 20
1.867571
  0
VERTEX
  8
PLAN_1
  6
CONTINUOUS
 10
-0.958677
 20
1.864909
  0
VERTEX
  8
PLAN_1
  6
CONTINUOUS
 10
-0.956902
 20
1.862244
  0
VERTEX
  8
PLAN_1
  6
CONTINUOUS
 10
-0.955567
 20
1.859138
  0
VERTEX
  8
PLAN_1
  6
CONTINUOUS
 10
-0.954236
 20
1.856028
  0
VERTEX
  8
PLAN_1
  6
CONTINUOUS
 10
-0.953346
 20
1.852476
  0
VERTEX
  8
PLAN_1
  6
CONTINUOUS
 10
-0.952906
 20
1.849366
  0
VERTEX
  8
PLAN_1
  6
CONTINUOUS
 10
-0.952461
 20
1.845815
  0
SEQEND
  8
0
  0
POLYLINE
  8
PLAN_1
  6
CONTINUOUS
 66
     1
 40
0.008433
 41
0.008433
  0
VERTEX
  8
PLAN_1
  6
CONTINUOUS
 10
-0.952461
 20
1.845815
  0
VERTEX
  8
PLAN_1
  6
CONTINUOUS
 10
-0.918717
 20
1.716169
  0
SEQEND
  8
0
  0
POLYLINE
  8
PLAN_1
 62
     2
  6
CONTINUOUS
 66
     1
 40
0.003992
 41
0.003992
  0
VERTEX
  8
PLAN_1
 62
     2
  6
CONTINUOUS
 10
-1.282795
 20
3.452209
  0
VERTEX
  8
PLAN_1
 62
     2
  6
CONTINUOUS
 10
-0.791287
 20
3.452209
  0
SEQEND
  8
0
  0
SOLID
  8
PLAN_1
 62
     2
 10
-0.761539
 20
3.452209
 11
-0.820591
 21
3.468193
 12
-0.761539
 22
3.452209
 13
-0.820591
 23
3.436669
  0
POLYLINE
  8
PLAN_1
 62
     2
  6
CONTINUOUS
 66
     1
 40
0.003000
 41
0.003000
  0
VERTEX
  8
PLAN_1
 62
     2
  6
CONTINUOUS
 10
-0.761539
 20
3.452209
  0
VERTEX
  8
PLAN_1
 62
     2
  6
CONTINUOUS
 10
-0.820591
 20
3.468193
  0
VERTEX
  8
PLAN_1
 62
     2
  6
CONTINUOUS
 10
-0.820591
 20
3.436669
  0
VERTEX
  8
PLAN_1
 62
     2
  6
CONTINUOUS
 10
-0.761539
 20
3.452209
  0
SEQEND
  8
0
  0
SOLID
  8
PLAN_1
 62
     2
 10
-1.312098
 20
3.452209
 11
-1.253047
 21
3.468193
 12
-1.312098
 22
3.452209
 13
-1.253047
 23
3.436669
  0
POLYLINE
  8
PLAN_1
 62
     2
  6
CONTINUOUS
 66
     1
 40
0.003000
 41
0.003000
  0
VERTEX
  8
PLAN_1
 62
     2
  6
CONTINUOUS
 10
-1.312098
 20
3.452209
  0
VERTEX
  8
PLAN_1
 62
     2
  6
CONTINUOUS
 10
-1.253047
 20
3.468193
  0
VERTEX
  8
PLAN_1
 62
     2
  6
CONTINUOUS
 10
-1.253047
 20
3.436669
  0
VERTEX
  8
PLAN_1
 62
     2
  6
CONTINUOUS
 10
-1.312098
 20
3.452209
  0
SEQEND
  8
0
  0
POLYLINE
  8
PLAN_1
 62
     2
  6
CONTINUOUS
 66
     1
 40
0.003000
 41
0.003000
  0
VERTEX
  8
PLAN_1
 62
     2
  6
CONTINUOUS
 10
-1.057244
 20
3.475740
  0
VERTEX
  8
PLAN_1
 62
     2
  6
CONTINUOUS
 10
-1.067012
 20
3.475740
  0
VERTEX
  8
PLAN_1
 62
     2
  6
CONTINUOUS
 10
-1.067012
 20
3.527689
  0
VERTEX
  8
PLAN_1
 62
     2
  6
CONTINUOUS
 10
-1.084327
 20
3.527689
  0
VERTEX
  8
PLAN_1
 62
     2
  6
CONTINUOUS
 10
-1.084327
 20
3.535236
  0
VERTEX
  8
PLAN_1
 62
     2
  6
CONTINUOUS
 10
-1.080331
 20
3.535236
  0
VERTEX
  8
PLAN_1
 62
     2
  6
CONTINUOUS
 10
-1.076780
 20
3.536122
  0
VERTEX
  8
PLAN_1
 62
     2
  6
CONTINUOUS
 10
-1.073673
 20
3.536567
  0
VERTEX
  8
PLAN_1
 62
     2
  6
CONTINUOUS
 10
-1.071008
 20
3.537902
  0
VERTEX
  8
PLAN_1
 62
     2
  6
CONTINUOUS
 10
-1.068787
 20
3.539677
  0
VERTEX
  8
PLAN_1
 62
     2
  6
CONTINUOUS
 10
-1.067457
 20
3.541898
  0
VERTEX
  8
PLAN_1
 62
     2
  6
CONTINUOUS
 10
-1.065681
 20
3.545004
  0
VERTEX
  8
PLAN_1
 62
     2
  6
CONTINUOUS
 10
-1.064791
 20
3.549000
  0
VERTEX
  8
PLAN_1
 62
     2
  6
CONTINUOUS
 10
-1.057244
 20
3.549000
  0
VERTEX
  8
PLAN_1
 62
     2
  6
CONTINUOUS
 10
-1.057244
 20
3.475740
  0
SEQEND
  8
0
  0
POLYLINE
  8
PLAN_1
 62
     2
  6
CONTINUOUS
 66
     1
 40
0.003000
 41
0.003000
  0
VERTEX
  8
PLAN_1
 62
     2
  6
CONTINUOUS
 10
-0.993307
 20
3.493500
  0
VERTEX
  8
PLAN_1
 62
     2
  6
CONTINUOUS
 10
-0.993307
 20
3.475740
  0
VERTEX
  8
PLAN_1
 62
     2
  6
CONTINUOUS
 10
-1.002189
 20
3.475740
  0
VERTEX
  8
PLAN_1
 62
     2
  6
CONTINUOUS
 10
-1.002189
 20
3.493500
  0
VERTEX
  8
PLAN_1
 62
     2
  6
CONTINUOUS
 10
-1.034157
 20
3.493500
  0
VERTEX
  8
PLAN_1
 62
     2
  6
CONTINUOUS
 10
-1.034157
 20
3.502823
  0
VERTEX
  8
PLAN_1
 62
     2
  6
CONTINUOUS
 10
-1.000854
 20
3.549000
  0
VERTEX
  8
PLAN_1
 62
     2
  6
CONTINUOUS
 10
-0.993307
 20
3.549000
  0
VERTEX
  8
PLAN_1
 62
     2
  6
CONTINUOUS
 10
-0.993307
 20
3.501492
  0
VERTEX
  8
PLAN_1
 62
     2
  6
CONTINUOUS
 10
-0.982654
 20
3.501492
  0
VERTEX
  8
PLAN_1
 62
     2
  6
CONTINUOUS
 10
-0.982654
 20
3.493500
  0
VERTEX
  8
PLAN_1
 62
     2
  6
CONTINUOUS
 10
-0.993307
 20
3.493500
  0
SEQEND
  8
0
  0
SOLID
  8
PLAN_1
 62
     2
 10
-1.025720
 20
3.501492
 11
-1.002189
 21
3.501492
 12
-1.002634
 22
3.534791
 13
-1.002189
 23
3.534791
  0
POLYLINE
  8
PLAN_1
 62
     2
  6
CONTINUOUS
 66
     1
 40
0.003000
 41
0.003000
  0
VERTEX
  8
PLAN_1
 62
     2
  6
CONTINUOUS
 10
-1.025720
 20
3.501492
  0
VERTEX
  8
PLAN_1
 62
     2
  6
CONTINUOUS
 10
-1.002189
 20
3.501492
  0
VERTEX
  8
PLAN_1
 62
     2
  6
CONTINUOUS
 10
-1.002189
 20
3.534791
  0
VERTEX
  8
PLAN_1
 62
     2
  6
CONTINUOUS
 10
-1.002634
 20
3.534791
  0
VERTEX
  8
PLAN_1
 62
     2
  6
CONTINUOUS
 10
-1.025720
 20
3.501492
  0
SEQEND
  8
0
  0
POLYLINE
  8
PLAN_1
 62
     2
  6
CONTINUOUS
 66
     1
 40
0.003992
 41
0.003992
  0
VERTEX
  8
PLAN_1
 62
     2
  6
CONTINUOUS
 10
-1.597591
 20
3.295031
  0
VERTEX
  8
PLAN_1
 62
     2
  6
CONTINUOUS
 10
-1.137606
 20
3.295031
  0
SEQEND
  8
0
  0
SOLID
  8
PLAN_1
 62
     2
 10
-1.442193
 20
3.295031
 11
-1.501244
 21
3.310571
 12
-1.442193
 22
3.295031
 13
-1.501244
 23
3.279047
  0
POLYLINE
  8
PLAN_1
 62
     2
  6
CONTINUOUS
 66
     1
 40
0.003000
 41
0.003000
  0
VERTEX
  8
PLAN_1
 62
     2
  6
CONTINUOUS
 10
-1.442193
 20
3.295031
  0
VERTEX
  8
PLAN_1
 62
     2
  6
CONTINUOUS
 10
-1.501244
 20
3.310571
  0
VERTEX
  8
PLAN_1
 62
     2
  6
CONTINUOUS
 10
-1.501244
 20
3.279047
  0
VERTEX
  8
PLAN_1
 62
     2
  6
CONTINUOUS
 10
-1.442193
 20
3.295031
  0
SEQEND
  8
0
  0
SOLID
  8
PLAN_1
 62
     2
 10
-1.167354
 20
3.295031
 11
-1.108303
 21
3.310571
 12
-1.167354
 22
3.295031
 13
-1.108303
 23
3.279047
  0
POLYLINE
  8
PLAN_1
 62
     2
  6
CONTINUOUS
 66
     1
 40
0.003000
 41
0.003000
  0
VERTEX
  8
PLAN_1
 62
     2
  6
CONTINUOUS
 10
-1.167354
 20
3.295031
  0
VERTEX
  8
PLAN_1
 62
     2
  6
CONTINUOUS
 10
-1.108303
 20
3.310571
  0
VERTEX
  8
PLAN_1
 62
     2
  6
CONTINUOUS
 10
-1.108303
 20
3.279047
  0
VERTEX
  8
PLAN_1
 62
     2
  6
CONTINUOUS
 10
-1.167354
 20
3.295031
  0
SEQEND
  8
0
  0
POLYLINE
  8
PLAN_1
 62
     2
  6
CONTINUOUS
 66
     1
 40
0.003000
 41
0.003000
  0
VERTEX
  8
PLAN_1
 62
     2
  6
CONTINUOUS
 10
-1.536319
 20
3.357193
  0
VERTEX
  8
PLAN_1
 62
     2
  6
CONTINUOUS
 10
-1.532768
 20
3.355858
  0
VERTEX
  8
PLAN_1
 62
     2
  6
CONTINUOUS
 10
-1.530102
 20
3.353642
  0
VERTEX
  8
PLAN_1
 62
     2
  6
CONTINUOUS
 10
-1.527886
 20
3.351421
  0
VERTEX
  8
PLAN_1
 62
     2
  6
CONTINUOUS
 10
-1.526551
 20
3.349201
  0
VERTEX
  8
PLAN_1
 62
     2
  6
CONTINUOUS
 10
-1.525220
 20
3.346535
  0
VERTEX
  8
PLAN_1
 62
     2
  6
CONTINUOUS
 10
-1.524776
 20
3.344315
  0
VERTEX
  8
PLAN_1
 62
     2
  6
CONTINUOUS
 10
-1.524331
 20
3.341654
  0
VERTEX
  8
PLAN_1
 62
     2
  6
CONTINUOUS
 10
-1.524331
 20
3.339433
  0
VERTEX
  8
PLAN_1
 62
     2
  6
CONTINUOUS
 10
-1.524331
 20
3.335437
  0
VERTEX
  8
PLAN_1
 62
     2
  6
CONTINUOUS
 10
-1.525665
 20
3.330996
  0
VERTEX
  8
PLAN_1
 62
     2
  6
CONTINUOUS
 10
-1.527441
 20
3.327000
  0
VERTEX
  8
PLAN_1
 62
     2
  6
CONTINUOUS
 10
-1.530102
 20
3.323449
  0
VERTEX
  8
PLAN_1
 62
     2
  6
CONTINUOUS
 10
-1.531882
 20
3.322114
  0
VERTEX
  8
PLAN_1
 62
     2
  6
CONTINUOUS
 10
-1.533657
 20
3.320783
  0
VERTEX
  8
PLAN_1
 62
     2
  6
CONTINUOUS
 10
-1.535433
 20
3.319453
  0
VERTEX
  8
PLAN_1
 62
     2
  6
CONTINUOUS
 10
-1.537654
 20
3.318563
  0
VERTEX
  8
PLAN_1
 62
     2
  6
CONTINUOUS
 10
-1.540315
 20
3.317677
  0
VERTEX
  8
PLAN_1
 62
     2
  6
CONTINUOUS
 10
-1.542980
 20
3.317232
  0
VERTEX
  8
PLAN_1
 62
     2
  6
CONTINUOUS
 10
-1.545646
 20
3.316787
  0
VERTEX
  8
PLAN_1
 62
     2
  6
CONTINUOUS
 10
-1.548752
 20
3.316343
  0
VERTEX
  8
PLAN_1
 62
     2
  6
CONTINUOUS
 10
-1.550528
 20
3.316343
  0
VERTEX
  8
PLAN_1
 62
     2
  6
CONTINUOUS
 10
-1.552748
 20
3.316787
  0
VERTEX
  8
PLAN_1
 62
     2
  6
CONTINUOUS
 10
-1.554524
 20
3.317232
  0
VERTEX
  8
PLAN_1
 62
     2
  6
CONTINUOUS
 10
-1.557189
 20
3.317677
  0
VERTEX
  8
PLAN_1
 62
     2
  6
CONTINUOUS
 10
-1.559409
 20
3.318118
  0
VERTEX
  8
PLAN_1
 62
     2
  6
CONTINUOUS
 10
-1.562071
 20
3.319453
  0
VERTEX
  8
PLAN_1
 62
     2
  6
CONTINUOUS
 10
-1.564291
 20
3.320783
  0
VERTEX
  8
PLAN_1
 62
     2
  6
CONTINUOUS
 10
-1.566512
 20
3.322114
  0
VERTEX
  8
PLAN_1
 62
     2
  6
CONTINUOUS
 10
-1.569177
 20
3.324335
  0
VERTEX
  8
PLAN_1
 62
     2
  6
CONTINUOUS
 10
-1.570953
 20
3.327000
  0
VERTEX
  8
PLAN_1
 62
     2
  6
CONTINUOUS
 10
-1.572283
 20
3.329220
  0
VERTEX
  8
PLAN_1
 62
     2
  6
CONTINUOUS
 10
-1.573173
 20
3.331886
  0
VERTEX
  8
PLAN_1
 62
     2
  6
CONTINUOUS
 10
-1.573614
 20
3.334102
  0
VERTEX
  8
PLAN_1
 62
     2
  6
CONTINUOUS
 10
-1.574059
 20
3.336323
  0
VERTEX
  8
PLAN_1
 62
     2
  6
CONTINUOUS
 10
-1.574059
 20
3.338098
  0
VERTEX
  8
PLAN_1
 62
     2
  6
CONTINUOUS
 10
-1.574059
 20
3.339433
  0
VERTEX
  8
PLAN_1
 62
     2
  6
CONTINUOUS
 10
-1.573614
 20
3.342539
  0
VERTEX
  8
PLAN_1
 62
     2
  6
CONTINUOUS
 10
-1.573173
 20
3.345650
  0
VERTEX
  8
PLAN_1
 62
     2
  6
CONTINUOUS
 10
-1.572283
 20
3.348311
  0
VERTEX
  8
PLAN_1
 62
     2
  6
CONTINUOUS
 10
-1.570508
 20
3.350531
  0
VERTEX
  8
PLAN_1
 62
     2
  6
CONTINUOUS
 10
-1.568732
 20
3.352752
  0
VERTEX
  8
PLAN_1
 62
     2
  6
CONTINUOUS
 10
-1.566957
 20
3.354528
  0
VERTEX
  8
PLAN_1
 62
     2
  6
CONTINUOUS
 10
-1.564291
 20
3.355858
  0
VERTEX
  8
PLAN_1
 62
     2
  6
CONTINUOUS
 10
-1.561630
 20
3.357193
  0
VERTEX
  8
PLAN_1
 62
     2
  6
CONTINUOUS
 10
-1.563846
 20
3.358524
  0
VERTEX
  8
PLAN_1
 62
     2
  6
CONTINUOUS
 10
-1.565622
 20
3.359413
  0
VERTEX
  8
PLAN_1
 62
     2
  6
CONTINUOUS
 10
-1.567402
 20
3.361189
  0
VERTEX
  8
PLAN_1
 62
     2
  6
CONTINUOUS
 10
-1.568732
 20
3.362965
  0
VERTEX
  8
PLAN_1
 62
     2
  6
CONTINUOUS
 10
-1.570063
 20
3.364740
  0
VERTEX
  8
PLAN_1
 62
     2
  6
CONTINUOUS
 10
-1.570953
 20
3.366961
  0
VERTEX
  8
PLAN_1
 62
     2
  6
CONTINUOUS
 10
-1.571398
 20
3.369181
  0
VERTEX
  8
PLAN_1
 62
     2
  6
CONTINUOUS
 10
-1.571398
 20
3.371402
  0
VERTEX
  8
PLAN_1
 62
     2
  6
CONTINUOUS
 10
-1.571398
 20
3.374508
  0
VERTEX
  8
PLAN_1
 62
     2
  6
CONTINUOUS
 10
-1.570508
 20
3.378059
  0
VERTEX
  8
PLAN_1
 62
     2
  6
CONTINUOUS
 10
-1.569177
 20
3.381169
  0
VERTEX
  8
PLAN_1
 62
     2
  6
CONTINUOUS
 10
-1.566957
 20
3.384276
  0
VERTEX
  8
PLAN_1
 62
     2
  6
CONTINUOUS
 10
-1.565622
 20
3.386051
  0
VERTEX
  8
PLAN_1
 62
     2
  6
CONTINUOUS
 10
-1.563846
 20
3.387386
  0
VERTEX
  8
PLAN_1
 62
     2
  6
CONTINUOUS
 10
-1.562071
 20
3.388272
  0
VERTEX
  8
PLAN_1
 62
     2
  6
CONTINUOUS
 10
-1.560295
 20
3.389602
  0
VERTEX
  8
PLAN_1
 62
     2
  6
CONTINUOUS
 10
-1.558075
 20
3.390492
  0
VERTEX
  8
PLAN_1
 62
     2
  6
CONTINUOUS
 10
-1.555413
 20
3.390937
  0
VERTEX
  8
PLAN_1
 62
     2
  6
CONTINUOUS
 10
-1.552303
 20
3.391382
  0
VERTEX
  8
PLAN_1
 62
     2
  6
CONTINUOUS
 10
-1.549197
 20
3.391823
  0
VERTEX
  8
PLAN_1
 62
     2
  6
CONTINUOUS
 10
-1.546531
 20
3.391382
  0
VERTEX
  8
PLAN_1
 62
     2
  6
CONTINUOUS
 10
-1.543866
 20
3.391382
  0
VERTEX
  8
PLAN_1
 62
     2
  6
CONTINUOUS
 10
-1.541205
 20
3.390492
  0
VERTEX
  8
PLAN_1
 62
     2
  6
CONTINUOUS
 10
-1.538984
 20
3.390047
  0
VERTEX
  8
PLAN_1
 62
     2
  6
CONTINUOUS
 10
-1.534988
 20
3.387827
  0
VERTEX
  8
PLAN_1
 62
     2
  6
CONTINUOUS
 10
-1.531882
 20
3.385606
  0
VERTEX
  8
PLAN_1
 62
     2
  6
CONTINUOUS
 10
-1.529661
 20
3.382500
  0
VERTEX
  8
PLAN_1
 62
     2
  6
CONTINUOUS
 10
-1.527886
 20
3.379394
  0
VERTEX
  8
PLAN_1
 62
     2
  6
CONTINUOUS
 10
-1.526996
 20
3.375839
  0
VERTEX
  8
PLAN_1
 62
     2
  6
CONTINUOUS
 10
-1.526551
 20
3.372732
  0
VERTEX
  8
PLAN_1
 62
     2
  6
CONTINUOUS
 10
-1.526996
 20
3.369181
  0
VERTEX
  8
PLAN_1
 62
     2
  6
CONTINUOUS
 10
-1.527886
 20
3.366071
  0
VERTEX
  8
PLAN_1
 62
     2
  6
CONTINUOUS
 10
-1.528772
 20
3.363850
  0
VERTEX
  8
PLAN_1
 62
     2
  6
CONTINUOUS
 10
-1.530102
 20
3.361634
  0
VERTEX
  8
PLAN_1
 62
     2
  6
CONTINUOUS
 10
-1.531882
 20
3.360299
  0
VERTEX
  8
PLAN_1
 62
     2
  6
CONTINUOUS
 10
-1.533213
 20
3.358969
  0
VERTEX
  8
PLAN_1
 62
     2
  6
CONTINUOUS
 10
-1.534988
 20
3.358079
  0
VERTEX
  8
PLAN_1
 62
     2
  6
CONTINUOUS
 10
-1.536319
 20
3.357193
  0
SEQEND
  8
0
  0
POLYLINE
  8
PLAN_1
 62
     2
  6
CONTINUOUS
 66
     1
 40
0.003000
 41
0.003000
  0
VERTEX
  8
PLAN_1
 62
     2
  6
CONTINUOUS
 10
-1.564291
 20
3.339433
  0
VERTEX
  8
PLAN_1
 62
     2
  6
CONTINUOUS
 10
-1.563846
 20
3.337213
  0
VERTEX
  8
PLAN_1
 62
     2
  6
CONTINUOUS
 10
-1.563406
 20
3.334547
  0
VERTEX
  8
PLAN_1
 62
     2
  6
CONTINUOUS
 10
-1.562516
 20
3.332327
  0
VERTEX
  8
PLAN_1
 62
     2
  6
CONTINUOUS
 10
-1.561185
 20
3.329665
  0
VERTEX
  8
PLAN_1
 62
     2
  6
CONTINUOUS
 10
-1.558965
 20
3.327890
  0
VERTEX
  8
PLAN_1
 62
     2
  6
CONTINUOUS
 10
-1.556299
 20
3.326110
  0
VERTEX
  8
PLAN_1
 62
     2
  6
CONTINUOUS
 10
-1.552748
 20
3.325224
  0
VERTEX
  8
PLAN_1
 62
     2
  6
CONTINUOUS
 10
-1.548752
 20
3.324780
  0
VERTEX
  8
PLAN_1
 62
     2
  6
CONTINUOUS
 10
-1.546087
 20
3.324780
  0
VERTEX
  8
PLAN_1
 62
     2
  6
CONTINUOUS
 10
-1.543425
 20
3.325224
  0
VERTEX
  8
PLAN_1
 62
     2
  6
CONTINUOUS
 10
-1.541205
 20
3.326110
  0
VERTEX
  8
PLAN_1
 62
     2
  6
CONTINUOUS
 10
-1.538539
 20
3.327445
  0
VERTEX
  8
PLAN_1
 62
     2
  6
CONTINUOUS
 10
-1.536764
 20
3.329220
  0
VERTEX
  8
PLAN_1
 62
     2
  6
CONTINUOUS
 10
-1.535433
 20
3.331441
  0
VERTEX
  8
PLAN_1
 62
     2
  6
CONTINUOUS
 10
-1.534098
 20
3.334547
  0
VERTEX
  8
PLAN_1
 62
     2
  6
CONTINUOUS
 10
-1.534098
 20
3.338543
  0
VERTEX
  8
PLAN_1
 62
     2
  6
CONTINUOUS
 10
-1.534098
 20
3.342094
  0
VERTEX
  8
PLAN_1
 62
     2
  6
CONTINUOUS
 10
-1.534988
 20
3.344760
  0
VERTEX
  8
PLAN_1
 62
     2
  6
CONTINUOUS
 10
-1.536319
 20
3.347425
  0
VERTEX
  8
PLAN_1
 62
     2
  6
CONTINUOUS
 10
-1.538539
 20
3.349201
  0
VERTEX
  8
PLAN_1
 62
     2
  6
CONTINUOUS
 10
-1.540760
 20
3.350976
  0
VERTEX
  8
PLAN_1
 62
     2
  6
CONTINUOUS
 10
-1.543425
 20
3.351862
  0
VERTEX
  8
PLAN_1
 62
     2
  6
CONTINUOUS
 10
-1.546087
 20
3.352752
  0
VERTEX
  8
PLAN_1
 62
     2
  6
CONTINUOUS
 10
-1.549197
 20
3.352752
  0
VERTEX
  8
PLAN_1
 62
     2
  6
CONTINUOUS
 10
-1.552748
 20
3.352307
  0
VERTEX
  8
PLAN_1
 62
     2
  6
CONTINUOUS
 10
-1.555854
 20
3.351862
  0
VERTEX
  8
PLAN_1
 62
     2
  6
CONTINUOUS
 10
-1.558520
 20
3.350531
  0
VERTEX
  8
PLAN_1
 62
     2
  6
CONTINUOUS
 10
-1.560295
 20
3.348756
  0
VERTEX
  8
PLAN_1
 62
     2
  6
CONTINUOUS
 10
-1.562071
 20
3.346535
  0
VERTEX
  8
PLAN_1
 62
     2
  6
CONTINUOUS
 10
-1.563406
 20
3.344315
  0
VERTEX
  8
PLAN_1
 62
     2
  6
CONTINUOUS
 10
-1.563846
 20
3.341654
  0
VERTEX
  8
PLAN_1
 62
     2
  6
CONTINUOUS
 10
-1.564291
 20
3.339433
  0
SEQEND
  8
0
  0
POLYLINE
  8
PLAN_1
 62
     2
  6
CONTINUOUS
 66
     1
 40
0.003000
 41
0.003000
  0
VERTEX
  8
PLAN_1
 62
     2
  6
CONTINUOUS
 10
-1.536319
 20
3.372287
  0
VERTEX
  8
PLAN_1
 62
     2
  6
CONTINUOUS
 10
-1.536319
 20
3.374063
  0
VERTEX
  8
PLAN_1
 62
     2
  6
CONTINUOUS
 10
-1.536764
 20
3.376283
  0
VERTEX
  8
PLAN_1
 62
     2
  6
CONTINUOUS
 10
-1.537654
 20
3.378059
  0
VERTEX
  8
PLAN_1
 62
     2
  6
CONTINUOUS
 10
-1.538984
 20
3.379835
  0
VERTEX
  8
PLAN_1
 62
     2
  6
CONTINUOUS
 10
-1.540760
 20
3.381169
  0
VERTEX
  8
PLAN_1
 62
     2
  6
CONTINUOUS
 10
-1.542980
 20
3.382500
  0
VERTEX
  8
PLAN_1
 62
     2
  6
CONTINUOUS
 10
-1.546087
 20
3.382945
  0
VERTEX
  8
PLAN_1
 62
     2
  6
CONTINUOUS
 10
-1.549642
 20
3.383390
  0
VERTEX
  8
PLAN_1
 62
     2
  6
CONTINUOUS
 10
-1.553193
 20
3.382945
  0
VERTEX
  8
PLAN_1
 62
     2
  6
CONTINUOUS
 10
-1.555854
 20
3.382055
  0
VERTEX
  8
PLAN_1
 62
     2
  6
CONTINUOUS
 10
-1.558075
 20
3.381169
  0
VERTEX
  8
PLAN_1
 62
     2
  6
CONTINUOUS
 10
-1.559409
 20
3.379394
  0
VERTEX
  8
PLAN_1
 62
     2
  6
CONTINUOUS
 10
-1.560740
 20
3.377614
  0
VERTEX
  8
PLAN_1
 62
     2
  6
CONTINUOUS
 10
-1.561630
 20
3.375839
  0
VERTEX
  8
PLAN_1
 62
     2
  6
CONTINUOUS
 10
-1.562071
 20
3.373618
  0
VERTEX
  8
PLAN_1
 62
     2
  6
CONTINUOUS
 10
-1.562071
 20
3.371843
  0
VERTEX
  8
PLAN_1
 62
     2
  6
CONTINUOUS
 10
-1.561630
 20
3.369622
  0
VERTEX
  8
PLAN_1
 62
     2
  6
CONTINUOUS
 10
-1.560740
 20
3.367406
  0
VERTEX
  8
PLAN_1
 62
     2
  6
CONTINUOUS
 10
-1.559850
 20
3.365185
  0
VERTEX
  8
PLAN_1
 62
     2
  6
CONTINUOUS
 10
-1.558075
 20
3.363850
  0
VERTEX
  8
PLAN_1
 62
     2
  6
CONTINUOUS
 10
-1.556299
 20
3.362520
  0
VERTEX
  8
PLAN_1
 62
     2
  6
CONTINUOUS
 10
-1.554079
 20
3.361634
  0
VERTEX
  8
PLAN_1
 62
     2
  6
CONTINUOUS
 10
-1.551858
 20
3.360744
  0
VERTEX
  8
PLAN_1
 62
     2
  6
CONTINUOUS
 10
-1.549197
 20
3.360744
  0
VERTEX
  8
PLAN_1
 62
     2
  6
CONTINUOUS
 10
-1.546531
 20
3.360744
  0
VERTEX
  8
PLAN_1
 62
     2
  6
CONTINUOUS
 10
-1.543866
 20
3.361634
  0
VERTEX
  8
PLAN_1
 62
     2
  6
CONTINUOUS
 10
-1.541650
 20
3.362520
  0
VERTEX
  8
PLAN_1
 62
     2
  6
CONTINUOUS
 10
-1.539870
 20
3.364295
  0
VERTEX
  8
PLAN_1
 62
     2
  6
CONTINUOUS
 10
-1.538094
 20
3.365630
  0
VERTEX
  8
PLAN_1
 62
     2
  6
CONTINUOUS
 10
-1.537209
 20
3.367846
  0
VERTEX
  8
PLAN_1
 62
     2
  6
CONTINUOUS
 10
-1.536319
 20
3.370067
  0
VERTEX
  8
PLAN_1
 62
     2
  6
CONTINUOUS
 10
-1.536319
 20
3.372287
  0
SEQEND
  8
0
  0
POLYLINE
  8
PLAN_1
 62
     2
  6
CONTINUOUS
 66
     1
 40
0.003992
 41
0.003992
  0
VERTEX
  8
PLAN_1
 62
     2
  6
CONTINUOUS
 10
-1.442193
 20
3.168492
  0
VERTEX
  8
PLAN_1
 62
     2
  6
CONTINUOUS
 10
-1.442193
 20
3.318563
  0
SEQEND
  8
0
  0
POLYLINE
  8
PLAN_1
 62
     2
  6
CONTINUOUS
 66
     1
 40
0.003992
 41
0.003992
  0
VERTEX
  8
PLAN_1
 62
     2
  6
CONTINUOUS
 10
-1.167354
 20
3.168492
  0
VERTEX
  8
PLAN_1
 62
     2
  6
CONTINUOUS
 10
-1.167354
 20
3.318563
  0
SEQEND
  8
0
  0
POLYLINE
  8
PLAN_1
 62
     2
  6
CONTINUOUS
 66
     1
 40
0.003992
 41
0.003992
  0
VERTEX
  8
PLAN_1
 62
     2
  6
CONTINUOUS
 10
-1.312098
 20
3.171598
  0
VERTEX
  8
PLAN_1
 62
     2
  6
CONTINUOUS
 10
-1.312098
 20
3.270169
  0
SEQEND
  8
0
  0
POLYLINE
  8
PLAN_1
 62
     2
  6
CONTINUOUS
 66
     1
 40
0.003992
 41
0.003992
  0
VERTEX
  8
PLAN_1
 62
     2
  6
CONTINUOUS
 10
-1.312098
 20
3.320783
  0
VERTEX
  8
PLAN_1
 62
     2
  6
CONTINUOUS
 10
-1.312098
 20
3.475740
  0
SEQEND
  8
0
  0
POLYLINE
  8
PLAN_1
 62
     2
  6
CONTINUOUS
 66
     1
 40
0.003992
 41
0.003992
  0
VERTEX
  8
PLAN_1
 62
     2
  6
CONTINUOUS
 10
-0.761539
 20
1.763232
  0
VERTEX
  8
PLAN_1
 62
     2
  6
CONTINUOUS
 10
-0.761539
 20
3.475740
  0
SEQEND
  8
0
  0
ENDSEC
  0
EOF
