  0
SECTION
  2
HEADER
  9
$ACADVER
  1
AC1018
  9
$ACADMAINTVER
 70
    77
  9
$DWGCODEPAGE
  3
ANSI_1252
  9
$INSBASE
 10
0.0
 20
0.0
 30
0.0
  9
$EXTMIN
 10
115.5159610931397
 20
162.2550684842996
 30
-0.0000000000000279
  9
$EXTMAX
 10
158.1659627680302
 20
178.2550692442588
 30
0.0000000000000279
  9
$LIMMIN
 10
0.0
 20
0.0
  9
$LIMMAX
 10
420.0
 20
297.0
  9
$ORTHOMODE
 70
     0
  9
$REGENMODE
 70
     1
  9
$FILLMODE
 70
     1
  9
$QTEXTMODE
 70
     0
  9
$MIRRTEXT
 70
     1
  9
$LTSCALE
 40
1.0
  9
$ATTMODE
 70
     1
  9
$TEXTSIZE
 40
2.5
  9
$TRACEWID
 40
1.0
  9
$TEXTSTYLE
  7
Standard
  9
$CLAYER
  8
0
  9
$CELTYPE
  6
ByLayer
  9
$CECOLOR
 62
   256
  9
$CELTSCALE
 40
1.0
  9
$DISPSILH
 70
     0
  9
$DIMSCALE
 40
1.0
  9
$DIMASZ
 40
6.0
  9
$DIMEXO
 40
1.0
  9
$DIMDLI
 40
3.75
  9
$DIMRND
 40
0.0
  9
$DIMDLE
 40
0.0
  9
$DIMEXE
 40
1.0
  9
$DIMTP
 40
0.0
  9
$DIMTM
 40
0.0
  9
$DIMTXT
 40
3.5
  9
$DIMCEN
 40
2.5
  9
$DIMTSZ
 40
0.0
  9
$DIMTOL
 70
     0
  9
$DIMLIM
 70
     0
  9
$DIMTIH
 70
     1
  9
$DIMTOH
 70
     1
  9
$DIMSE1
 70
     0
  9
$DIMSE2
 70
     0
  9
$DIMTAD
 70
     1
  9
$DIMZIN
 70
     0
  9
$DIMBLK
  1

  9
$DIMASO
 70
     1
  9
$DIMSHO
 70
     1
  9
$DIMPOST
  1

  9
$DIMAPOST
  1

  9
$DIMALT
 70
     0
  9
$DIMALTD
 70
     3
  9
$DIMALTF
 40
0.0394
  9
$DIMLFAC
 40
1.0
  9
$DIMTOFL
 70
     1
  9
$DIMTVP
 40
0.0
  9
$DIMTIX
 70
     0
  9
$DIMSOXD
 70
     0
  9
$DIMSAH
 70
     0
  9
$DIMBLK1
  1

  9
$DIMBLK2
  1

  9
$DIMSTYLE
  2
ISO-25
  9
$DIMCLRD
 70
     0
  9
$DIMCLRE
 70
     0
  9
$DIMCLRT
 70
     0
  9
$DIMTFAC
 40
1.0
  9
$DIMGAP
 40
1.524
  9
$DIMJUST
 70
     0
  9
$DIMSD1
 70
     0
  9
$DIMSD2
 70
     0
  9
$DIMTOLJ
 70
     0
  9
$DIMTZIN
 70
     0
  9
$DIMALTZ
 70
     0
  9
$DIMALTTZ
 70
     0
  9
$DIMUPT
 70
     0
  9
$DIMDEC
 70
     2
  9
$DIMTDEC
 70
     2
  9
$DIMALTU
 70
     2
  9
$DIMALTTD
 70
     3
  9
$DIMTXSTY
  7
Standard
  9
$DIMAUNIT
 70
     0
  9
$DIMADEC
 70
     0
  9
$DIMALTRND
 40
0.0
  9
$DIMAZIN
 70
     0
  9
$DIMDSEP
 70
    44
  9
$DIMATFIT
 70
     3
  9
$DIMFRAC
 70
     0
  9
$DIMLDRBLK
  1

  9
$DIMLUNIT
 70
     2
  9
$DIMLWD
 70
    -2
  9
$DIMLWE
 70
    -2
  9
$DIMTMOVE
 70
     0
  9
$LUNITS
 70
     2
  9
$LUPREC
 70
     2
  9
$SKETCHINC
 40
1.0
  9
$FILLETRAD
 40
10.0
  9
$AUNITS
 70
     0
  9
$AUPREC
 70
     0
  9
$MENU
  1
.
  9
$ELEVATION
 40
0.0
  9
$PELEVATION
 40
0.0
  9
$THICKNESS
 40
0.0
  9
$LIMCHECK
 70
     0
  9
$CHAMFERA
 40
10.0
  9
$CHAMFERB
 40
10.0
  9
$CHAMFERC
 40
20.0
  9
$CHAMFERD
 40
0.0
  9
$SKPOLY
 70
     0
  9
$TDCREATE
 40
2454502.631635370
  9
$TDUCREATE
 40
2454502.589968704
  9
$TDUPDATE
 40
2454515.407974711
  9
$TDUUPDATE
 40
2454515.366308045
  9
$TDINDWG
 40
0.0013536458
  9
$TDUSRTIMER
 40
0.0013536458
  9
$USRTIMER
 70
     1
  9
$ANGBASE
 50
0.0
  9
$ANGDIR
 70
     0
  9
$PDMODE
 70
     0
  9
$PDSIZE
 40
-1.0
  9
$PLINEWID
 40
0.0
  9
$SPLFRAME
 70
     0
  9
$SPLINETYPE
 70
     6
  9
$SPLINESEGS
 70
     8
  9
$HANDSEED
  5
66B
  9
$SURFTAB1
 70
     6
  9
$SURFTAB2
 70
     6
  9
$SURFTYPE
 70
     6
  9
$SURFU
 70
     6
  9
$SURFV
 70
     6
  9
$UCSBASE
  2

  9
$UCSNAME
  2

  9
$UCSORG
 10
0.0
 20
0.0
 30
0.0
  9
$UCSXDIR
 10
1.0
 20
0.0
 30
0.0
  9
$UCSYDIR
 10
0.0
 20
1.0
 30
0.0
  9
$UCSORTHOREF
  2

  9
$UCSORTHOVIEW
 70
     0
  9
$UCSORGTOP
 10
0.0
 20
0.0
 30
0.0
  9
$UCSORGBOTTOM
 10
0.0
 20
0.0
 30
0.0
  9
$UCSORGLEFT
 10
0.0
 20
0.0
 30
0.0
  9
$UCSORGRIGHT
 10
0.0
 20
0.0
 30
0.0
  9
$UCSORGFRONT
 10
0.0
 20
0.0
 30
0.0
  9
$UCSORGBACK
 10
0.0
 20
0.0
 30
0.0
  9
$PUCSBASE
  2

  9
$PUCSNAME
  2

  9
$PUCSORG
 10
0.0
 20
0.0
 30
0.0
  9
$PUCSXDIR
 10
1.0
 20
0.0
 30
0.0
  9
$PUCSYDIR
 10
0.0
 20
1.0
 30
0.0
  9
$PUCSORTHOREF
  2

  9
$PUCSORTHOVIEW
 70
     0
  9
$PUCSORGTOP
 10
0.0
 20
0.0
 30
0.0
  9
$PUCSORGBOTTOM
 10
0.0
 20
0.0
 30
0.0
  9
$PUCSORGLEFT
 10
0.0
 20
0.0
 30
0.0
  9
$PUCSORGRIGHT
 10
0.0
 20
0.0
 30
0.0
  9
$PUCSORGFRONT
 10
0.0
 20
0.0
 30
0.0
  9
$PUCSORGBACK
 10
0.0
 20
0.0
 30
0.0
  9
$USERI1
 70
     0
  9
$USERI2
 70
     0
  9
$USERI3
 70
     0
  9
$USERI4
 70
     0
  9
$USERI5
 70
     0
  9
$USERR1
 40
0.0
  9
$USERR2
 40
0.0
  9
$USERR3
 40
0.0
  9
$USERR4
 40
0.0
  9
$USERR5
 40
0.0
  9
$WORLDVIEW
 70
     1
  9
$SHADEDGE
 70
     3
  9
$SHADEDIF
 70
    70
  9
$TILEMODE
 70
     1
  9
$MAXACTVP
 70
    64
  9
$PINSBASE
 10
0.0
 20
0.0
 30
0.0
  9
$PLIMCHECK
 70
     0
  9
$PEXTMIN
 10
1.000000000000000E+20
 20
1.000000000000000E+20
 30
1.000000000000000E+20
  9
$PEXTMAX
 10
-1.000000000000000E+20
 20
-1.000000000000000E+20
 30
-1.000000000000000E+20
  9
$PLIMMIN
 10
0.0
 20
0.0
  9
$PLIMMAX
 10
420.0
 20
297.0
  9
$UNITMODE
 70
     0
  9
$VISRETAIN
 70
     1
  9
$PLINEGEN
 70
     0
  9
$PSLTSCALE
 70
     1
  9
$TREEDEPTH
 70
  3020
  9
$CMLSTYLE
  2
Standard
  9
$CMLJUST
 70
     0
  9
$CMLSCALE
 40
20.0
  9
$PROXYGRAPHICS
 70
     1
  9
$MEASUREMENT
 70
     1
  9
$CELWEIGHT
370
    -1
  9
$ENDCAPS
280
     0
  9
$JOINSTYLE
280
     0
  9
$LWDISPLAY
290
     1
  9
$INSUNITS
 70
     4
  9
$HYPERLINKBASE
  1

  9
$STYLESHEET
  1

  9
$XEDIT
290
     1
  9
$CEPSNTYPE
380
     0
  9
$PSTYLEMODE
290
     1
  9
$FINGERPRINTGUID
  2
{FB285621-A601-4E69-83A2-9B3AB370AB16}
  9
$VERSIONGUID
  2
{A4FFC58E-EA35-484C-9B5F-DB68B3786ED8}
  9
$EXTNAMES
290
     1
  9
$PSVPSCALE
 40
0.0
  9
$OLESTARTUP
290
     0
  9
$SORTENTS
280
   127
  9
$INDEXCTL
280
     0
  9
$HIDETEXT
280
     0
  9
$XCLIPFRAME
290
     0
  9
$HALOGAP
280
     0
  9
$OBSCOLOR
 70
   257
  9
$OBSLTYPE
280
     0
  9
$INTERSECTIONDISPLAY
280
     0
  9
$INTERSECTIONCOLOR
 70
   257
  9
$DIMASSOC
280
     1
  9
$PROJECTNAME
  1

  0
ENDSEC
  0
SECTION
  2
CLASSES
  0
CLASS
  1
ACDBDICTIONARYWDFLT
  2
AcDbDictionaryWithDefault
  3
ObjectDBX Classes
 90
        0
 91
        1
280
     0
281
     0
  0
CLASS
  1
TABLESTYLE
  2
AcDbTableStyle
  3
ObjectDBX Classes
 90
     2047
 91
        1
280
     0
281
     0
  0
CLASS
  1
DICTIONARYVAR
  2
AcDbDictionaryVar
  3
ObjectDBX Classes
 90
        0
 91
        1
280
     0
281
     0
  0
ENDSEC
  0
SECTION
  2
TABLES
  0
TABLE
  2
VPORT
  5
8
330
0
100
AcDbSymbolTable
 70
     2
  0
VPORT
  5
66A
330
8
100
AcDbSymbolTableRecord
100
AcDbViewportTableRecord
  2
*Active
 70
     0
 10
0.0
 20
0.0
 11
1.0
 21
1.0
 12
-4.762964715857517
 22
61.30468729472724
 13
0.0
 23
0.0
 14
10.0
 24
10.0
 15
10.0
 25
10.0
 16
0.0
 26
0.0
 36
1.0
 17
142.9456957125343
 27
108.9595727604956
 37
0.0
 40
27.91479254435673
 41
1.632538569424965
 42
50.0
 43
0.0
 44
0.0
 50
0.0
 51
0.0
 71
     0
 72
  2000
 73
     1
 74
     3
 75
     0
 76
     0
 77
     0
 78
     0
281
     0
 65
     1
110
0.0
120
0.0
130
0.0
111
1.0
121
0.0
131
0.0
112
0.0
122
1.0
132
0.0
 79
     0
146
0.0
  0
ENDTAB
  0
TABLE
  2
LTYPE
  5
5
330
0
100
AcDbSymbolTable
 70
     6
  0
LTYPE
  5
14
330
5
100
AcDbSymbolTableRecord
100
AcDbLinetypeTableRecord
  2
ByBlock
 70
     0
  3

 72
    65
 73
     0
 40
0.0
  0
LTYPE
  5
15
330
5
100
AcDbSymbolTableRecord
100
AcDbLinetypeTableRecord
  2
ByLayer
 70
     0
  3

 72
    65
 73
     0
 40
0.0
  0
LTYPE
  5
16
330
5
100
AcDbSymbolTableRecord
100
AcDbLinetypeTableRecord
  2
Continuous
 70
     0
  3
Solid line
 72
    65
 73
     0
 40
0.0
  0
LTYPE
  5
2A
330
5
100
AcDbSymbolTableRecord
100
AcDbLinetypeTableRecord
  2
HIDDEN
 70
     0
  3
Hidden __ __ __ __ __ __ __ __ __ __ __ __ __ __
 72
    65
 73
     2
 40
1.905
 49
1.27
 74
     0
 49
-0.635
 74
     0
  0
LTYPE
  5
2B
330
5
100
AcDbSymbolTableRecord
100
AcDbLinetypeTableRecord
  2
PHANTOM
 70
     0
  3
Phantom ______  __  __  ______  __  __  ______
 72
    65
 73
     6
 40
12.7
 49
6.349999999999999
 74
     0
 49
-1.27
 74
     0
 49
1.27
 74
     0
 49
-1.27
 74
     0
 49
1.27
 74
     0
 49
-1.27
 74
     0
  0
LTYPE
  5
2C
330
5
100
AcDbSymbolTableRecord
100
AcDbLinetypeTableRecord
  2
CENTER
 70
     0
  3
Center ____ _ ____ _ ____ _ ____ _ ____ _ ____
 72
    65
 73
     4
 40
10.16
 49
6.349999999999999
 74
     0
 49
-1.27
 74
     0
 49
1.27
 74
     0
 49
-1.27
 74
     0
  0
LTYPE
  5
2D
330
5
100
AcDbSymbolTableRecord
100
AcDbLinetypeTableRecord
  2
CENTERX2
 70
     0
  3
Center (2x) ________  __  ________  __  _____
 72
    65
 73
     4
 40
20.32
 49
12.7
 74
     0
 49
-2.54
 74
     0
 49
2.54
 74
     0
 49
-2.54
 74
     0
  0
LTYPE
  5
2E
330
5
100
AcDbSymbolTableRecord
100
AcDbLinetypeTableRecord
  2
DOT2
 70
     0
  3
Dot (.5x) ........................................
 72
    65
 73
     2
 40
0.635
 49
0.0
 74
     0
 49
-0.635
 74
     0
  0
ENDTAB
  0
TABLE
  2
LAYER
  5
2
330
0
100
AcDbSymbolTable
 70
     2
  0
LAYER
  5
10
330
2
100
AcDbSymbolTableRecord
100
AcDbLayerTableRecord
  2
0
 70
     0
 62
     7
  6
Continuous
370
    -3
390
F
  0
LAYER
  5
2F
330
2
100
AcDbSymbolTableRecord
100
AcDbLayerTableRecord
  2
FORMAT
 70
     0
 62
     7
  6
Continuous
370
     0
390
F
  0
ENDTAB
  0
TABLE
  2
STYLE
  5
3
330
0
100
AcDbSymbolTable
 70
     1
  0
STYLE
  5
11
330
3
100
AcDbSymbolTableRecord
100
AcDbTextStyleTableRecord
  2
Standard
 70
     0
 40
0.0
 41
1.0
 50
0.0
 71
     0
 42
2.5
  3
txt
  4

  0
ENDTAB
  0
TABLE
  2
VIEW
  5
6
330
0
100
AcDbSymbolTable
 70
     0
  0
ENDTAB
  0
TABLE
  2
UCS
  5
7
330
0
100
AcDbSymbolTable
 70
     0
  0
ENDTAB
  0
TABLE
  2
APPID
  5
9
330
0
100
AcDbSymbolTable
 70
     1
  0
APPID
  5
12
330
9
100
AcDbSymbolTableRecord
100
AcDbRegAppTableRecord
  2
ACAD
 70
     0
  0
ENDTAB
  0
TABLE
  2
DIMSTYLE
  5
A
330
0
100
AcDbSymbolTable
 70
     1
100
AcDbDimStyleTable
 71
     0
  0
DIMSTYLE
105
27
330
A
100
AcDbSymbolTableRecord
100
AcDbDimStyleTableRecord
  2
ISO-25
 70
     0
 41
2.5
 42
0.625
 43
3.75
 44
1.25
 73
     0
 74
     0
 77
     1
 78
     8
140
2.5
141
2.5
143
0.03937007874016
147
0.625
171
     3
172
     1
271
     2
272
     2
274
     3
278
    44
283
     0
284
     8
340
11
  0
ENDTAB
  0
TABLE
  2
BLOCK_RECORD
  5
1
330
0
100
AcDbSymbolTable
 70
     1
  0
BLOCK_RECORD
  5
1F
330
1
100
AcDbSymbolTableRecord
100
AcDbBlockTableRecord
  2
*Model_Space
340
22
  0
BLOCK_RECORD
  5
1B
330
1
100
AcDbSymbolTableRecord
100
AcDbBlockTableRecord
  2
*Paper_Space
340
1E
  0
BLOCK_RECORD
  5
23
330
1
100
AcDbSymbolTableRecord
100
AcDbBlockTableRecord
  2
*Paper_Space0
340
26
  0
ENDTAB
  0
ENDSEC
  0
SECTION
  2
BLOCKS
  0
BLOCK
  5
20
330
1F
100
AcDbEntity
  8
0
100
AcDbBlockBegin
  2
*Model_Space
 70
     0
 10
0.0
 20
0.0
 30
0.0
  3
*Model_Space
  1

  0
ENDBLK
  5
21
330
1F
100
AcDbEntity
  8
0
100
AcDbBlockEnd
  0
BLOCK
  5
1C
330
1B
100
AcDbEntity
 67
     1
  8
0
100
AcDbBlockBegin
  2
*Paper_Space
 70
     0
 10
0.0
 20
0.0
 30
0.0
  3
*Paper_Space
  1

  0
ENDBLK
  5
1D
330
1B
100
AcDbEntity
 67
     1
  8
0
100
AcDbBlockEnd
  0
BLOCK
  5
24
330
23
100
AcDbEntity
 67
     1
  8
0
100
AcDbBlockBegin
  2
*Paper_Space0
 70
     0
 10
0.0
 20
0.0
 30
0.0
  3
*Paper_Space0
  1

  0
ENDBLK
  5
25
330
23
100
AcDbEntity
 67
     1
  8
0
100
AcDbBlockEnd
  0
ENDSEC
  0
SECTION
  2
ENTITIES
  0
CIRCLE
  5
346
330
1F
100
AcDbEntity
  8
0
  6
Continuous
 62
     7
370
    15
100
AcDbCircle
 10
123.5159610931397
 20
170.2550688642793
 30
0.0
 40
6.5
  0
LINE
  5
347
330
1F
100
AcDbEntity
  8
0
  6
Continuous
 62
     7
370
    15
100
AcDbLine
 10
158.1659627680302
 20
168.7800688087724
 30
0.0
 11
158.1659627680302
 21
171.7300689197861
 31
0.0
  0
LINE
  5
348
330
1F
100
AcDbEntity
  8
0
  6
Continuous
 62
     7
370
    15
100
AcDbLine
 10
158.1659627680302
 20
171.7300689197861
 30
0.0
 11
157.9659593824864
 21
171.9300688128702
 31
0.0
  0
LINE
  5
349
330
1F
100
AcDbEntity
  8
0
  6
Continuous
 62
     7
370
    15
100
AcDbLine
 10
157.9659593824864
 20
168.5800689156882
 30
0.0
 11
158.1659627680302
 21
168.7800688087724
 31
0.0
  0
LINE
  5
34A
330
1F
100
AcDbEntity
  8
0
  6
Continuous
 62
     7
370
    15
100
AcDbLine
 10
150.9659619603873
 20
172.0050689182959
 30
0.0
 11
150.9659619603873
 21
171.9300688128702
 31
0.0
  0
LINE
  5
34B
330
1F
100
AcDbEntity
  8
0
  6
Continuous
 62
     7
370
    15
100
AcDbLine
 10
150.9659619603873
 20
168.5800689156882
 30
0.0
 11
150.9659619603873
 21
168.5050688102625
 31
0.0
  0
LINE
  5
34C
330
1F
100
AcDbEntity
  8
0
  6
Continuous
 62
     7
370
    15
100
AcDbLine
 10
152.9659604255677
 20
175.7550688344769
 30
0.0
 11
147.5659602854968
 21
175.7550688344769
 31
0.0
  0
LINE
  5
34D
330
1F
100
AcDbEntity
  8
0
  6
Continuous
 62
     7
370
    15
100
AcDbLine
 10
147.5659602854968
 20
164.7550688940816
 30
0.0
 11
152.9659604255677
 21
164.7550688940816
 31
0.0
  0
LINE
  5
34E
330
1F
100
AcDbEntity
  8
0
  6
Continuous
 62
     7
370
    15
100
AcDbLine
 10
152.9659604255677
 20
164.7550688940816
 30
0.0
 11
153.9659605894805
 21
165.7550690579943
 31
0.0
  0
LINE
  5
34F
330
1F
100
AcDbEntity
  8
0
  6
Continuous
 62
     7
370
    15
100
AcDbLine
 10
153.9659605894805
 20
174.7550686705641
 30
0.0
 11
152.9659604255677
 21
175.7550688344769
 31
0.0
  0
LINE
  5
350
330
1F
100
AcDbEntity
  8
0
  6
Continuous
 62
     7
370
    15
100
AcDbLine
 10
146.1659608010769
 20
162.2550684842996
 30
0.0
 11
146.4159613077164
 21
162.355069245749
 31
0.0
  0
LINE
  5
351
330
1F
100
AcDbEntity
  8
0
  6
Continuous
 62
     7
370
    15
100
AcDbLine
 10
146.4159613077164
 20
178.1550684828095
 30
0.0
 11
146.1659608010769
 21
178.2550692442588
 31
0.0
  0
LINE
  5
352
330
1F
100
AcDbEntity
  8
0
  6
Continuous
 62
     7
370
    15
100
AcDbLine
 10
146.4159613077164
 20
162.355069245749
 30
0.0
 11
146.8659614746094
 21
162.355069245749
 31
0.0
  0
LINE
  5
353
330
1F
100
AcDbEntity
  8
0
  6
Continuous
 62
     7
370
    15
100
AcDbLine
 10
146.8659614746094
 20
178.1550684828095
 30
0.0
 11
146.4159613077164
 21
178.1550684828095
 31
0.0
  0
LINE
  5
354
330
1F
100
AcDbEntity
  8
0
  6
Continuous
 62
     7
370
    15
100
AcDbLine
 10
154.6809611443997
 20
166.2550686742894
 30
0.0
 11
155.3659600739003
 21
166.2550686742894
 31
0.0
  0
LINE
  5
355
330
1F
100
AcDbEntity
  8
0
  6
Continuous
 62
     7
370
    15
100
AcDbLine
 10
155.3659600739003
 20
174.255069054269
 30
0.0
 11
154.6809611443997
 21
174.255069054269
 31
0.0
  0
LINE
  5
356
330
1F
100
AcDbEntity
  8
0
  6
Continuous
 62
     7
370
    15
100
AcDbLine
 10
155.3659600739003
 20
166.2550686742894
 30
0.0
 11
155.8659610871792
 21
166.7550687562458
 31
0.0
  0
LINE
  5
357
330
1F
100
AcDbEntity
  8
0
  6
Continuous
 62
     7
370
    15
100
AcDbLine
 10
155.8659610871792
 20
173.7550689723127
 30
0.0
 11
155.3659600739003
 21
174.255069054269
 31
0.0
  0
ARC
  5
358
330
1F
100
AcDbEntity
  8
0
  6
Continuous
 62
     7
370
    15
100
AcDbCircle
 10
123.5159610931397
 20
170.2550688642793
 30
0.0
 40
4.45000000000001
100
AcDbArc
 50
97.74887419236499
 51
130.8197842754214
  0
LINE
  5
359
330
1F
100
AcDbEntity
  8
0
  6
Continuous
 62
     7
370
    15
100
AcDbLine
 10
122.9159610646412
 20
174.6644337545865
 30
0.0
 11
122.9159610646412
 21
174.955068796479
 31
0.0
  0
LINE
  5
35A
330
1F
100
AcDbEntity
  8
0
  6
Continuous
 62
     7
370
    15
100
AcDbLine
 10
124.1159611216382
 20
174.955068796479
 30
0.0
 11
122.9159610646412
 21
174.955068796479
 31
0.0
  0
LINE
  5
35B
330
1F
100
AcDbEntity
  8
0
  6
Continuous
 62
     7
370
    15
100
AcDbLine
 10
124.1159611216382
 20
174.6644337545865
 30
0.0
 11
124.1159611216382
 21
174.955068796479
 31
0.0
  0
ARC
  5
35C
330
1F
100
AcDbEntity
  8
0
  6
Continuous
 62
     7
370
    15
100
AcDbCircle
 10
123.5159610931397
 20
170.2550688642793
 30
0.0
 40
4.45000000000001
100
AcDbArc
 50
49.18021572457863
 51
82.25112580763484
  0
ARC
  5
35D
330
1F
100
AcDbEntity
  8
0
  6
Continuous
 62
     7
370
    15
100
AcDbCircle
 10
123.5162271753001
 20
170.2544236460989
 30
0.0
 40
4.188536943661543
100
AcDbArc
 50
49.18874099090064
 51
130.8167702216929
  0
LINE
  5
35E
330
1F
100
AcDbEntity
  8
0
  6
Continuous
 62
     7
370
    15
100
AcDbLine
 10
126.2537265264064
 20
173.4245875268959
 30
0.0
 11
126.4248458736211
 21
173.622692644202
 31
0.0
  0
LINE
  5
35F
330
1F
100
AcDbEntity
  8
0
  6
Continuous
 62
     7
370
    15
100
AcDbLine
 10
120.6070763126583
 20
173.622692644202
 30
0.0
 11
120.7784229025812
 21
173.4243241954379
 31
0.0
  0
LINE
  5
360
330
1F
100
AcDbEntity
  8
0
  6
Continuous
 62
     7
370
    15
100
AcDbLine
 10
127.2576184545279
 20
172.7550688083999
 30
0.0
 11
127.1973330129505
 21
172.7550688083999
 31
0.0
  0
LINE
  5
361
330
1F
100
AcDbEntity
  8
0
  6
Continuous
 62
     7
370
    15
100
AcDbLine
 10
127.1973330129505
 20
167.7550689201586
 30
0.0
 11
127.2576184545279
 21
167.7550689201586
 31
0.0
  0
ARC
  5
362
330
1F
100
AcDbEntity
  8
0
  6
Continuous
 62
     7
370
    15
100
AcDbCircle
 10
123.5150450167124
 20
170.2553820415991
 30
0.0
 40
4.18880919892839
100
AcDbArc
 50
325.8232800518582
 51
34.1696326485641
  0
LINE
  5
363
330
1F
100
AcDbEntity
  8
0
  6
Continuous
 62
     7
370
    15
100
AcDbLine
 10
127.1973330129505
 20
172.7550688083999
 30
0.0
 11
126.9805006284833
 21
172.607819025942
 31
0.0
  0
LINE
  5
364
330
1F
100
AcDbEntity
  8
0
  6
Continuous
 62
     7
370
    15
100
AcDbLine
 10
126.9804840975076
 20
167.9023298784875
 30
0.0
 11
127.1973330129505
 21
167.7550689201586
 31
0.0
  0
LINE
  5
365
330
1F
100
AcDbEntity
  8
0
  6
Continuous
 62
     7
370
    15
100
AcDbLine
 10
119.7743037317515
 20
167.7550689201586
 30
0.0
 11
119.8345891733289
 21
167.7550689201586
 31
0.0
  0
LINE
  5
366
330
1F
100
AcDbEntity
  8
0
  6
Continuous
 62
     7
370
    15
100
AcDbLine
 10
119.8345891733289
 20
172.7550688083999
 30
0.0
 11
119.7743037317515
 21
172.7550688083999
 31
0.0
  0
ARC
  5
367
330
1F
100
AcDbEntity
  8
0
  6
Continuous
 62
     7
370
    15
100
AcDbCircle
 10
123.5158455551001
 20
170.2551004751093
 30
0.0
 40
4.187778981491041
100
AcDbArc
 50
145.8192533971097
 51
214.1814610328422
  0
LINE
  5
368
330
1F
100
AcDbEntity
  8
0
  6
Continuous
 62
     7
370
    15
100
AcDbLine
 10
119.8345891733289
 20
167.7550689201586
 30
0.0
 11
120.0514215577961
 21
167.9023187026166
 31
0.0
  0
LINE
  5
369
330
1F
100
AcDbEntity
  8
0
  6
Continuous
 62
     7
370
    15
100
AcDbLine
 10
120.0514241189331
 20
172.6078173961275
 30
0.0
 11
119.8345891733289
 21
172.7550688083999
 31
0.0
  0
ARC
  5
36A
330
1F
100
AcDbEntity
  8
0
  6
Continuous
 62
     7
370
    15
100
AcDbCircle
 10
123.5159610931397
 20
170.2551594500837
 30
0.0
 40
4.187976723319946
100
AcDbArc
 50
244.1807545955005
 51
295.8192454045009
  0
ARC
  5
36B
330
1F
100
AcDbEntity
  8
0
  6
Continuous
 62
     7
370
    15
100
AcDbCircle
 10
123.5159610931397
 20
170.2550688642793
 30
0.0
 40
4.449999999999993
100
AcDbArc
 50
244.1802157245795
 51
295.8197842754225
  0
LINE
  5
36C
330
1F
100
AcDbEntity
  8
0
  6
Continuous
 62
     7
370
    15
100
AcDbLine
 10
125.454122766164
 20
166.2493191543751
 30
0.0
 11
125.3399652030886
 21
166.4852578542911
 31
0.0
  0
LINE
  5
36D
330
1F
100
AcDbEntity
  8
0
  6
Continuous
 62
     7
370
    15
100
AcDbLine
 10
121.6919569831908
 20
166.4852578542911
 30
0.0
 11
121.5777994201154
 21
166.2493191543751
 31
0.0
  0
ARC
  5
36E
330
1F
100
AcDbEntity
  8
0
  6
Continuous
 62
     7
370
    15
100
AcDbCircle
 10
123.5159610931397
 20
170.2550688642793
 30
0.0
 40
3.947754202906815
100
AcDbArc
 50
49.18021572464208
 51
130.819784275329
  0
LWPOLYLINE
  5
36F
330
1F
100
AcDbEntity
  8
0
  6
Continuous
 62
     7
370
    15
100
AcDbPolyline
 90
        5
 70
   128
 43
0.0
 10
126.0965367381096
 20
173.2426084927999
 10
126.120426791963
 20
173.2702657464676
 10
126.1593211509854
 20
173.315294028797
 10
126.2088349156648
 20
173.3726162347727
 10
126.253619657141
 20
173.4244636609935
  0
LWPOLYLINE
  5
370
330
1F
100
AcDbEntity
  8
0
  6
Continuous
 62
     7
370
    15
100
AcDbPolyline
 90
        5
 70
   128
 43
0.0
 10
120.7784161504925
 20
173.4243321116798
 10
120.8325089954407
 20
173.3617088176094
 10
120.880502376017
 20
173.3061465784692
 10
120.9169855408937
 20
173.2639099355571
 10
120.9353854481698
 20
173.2426084927999
  0
ARC
  5
371
330
1F
100
AcDbEntity
  8
0
  6
Continuous
 62
     7
370
    15
100
AcDbCircle
 10
123.5159610931397
 20
170.2550688642793
 30
0.0
 40
3.947754202906303
100
AcDbArc
 50
325.8197842754217
 51
34.18021572457841
  0
LWPOLYLINE
  5
372
330
1F
100
AcDbEntity
  8
0
  6
Continuous
 62
     7
370
    15
100
AcDbPolyline
 90
        5
 70
   128
 43
0.0
 10
126.9806377657324
 20
172.6079121581994
 10
126.9121720523209
 20
172.5614175084763
 10
126.8514095407546
 20
172.5201540976547
 10
126.8052012727231
 20
172.4887743476562
 10
126.7818378817857
 20
172.4729083362751
  0
LWPOLYLINE
  5
373
330
1F
100
AcDbEntity
  8
0
  6
Continuous
 62
     7
370
    15
100
AcDbPolyline
 90
        5
 70
   128
 43
0.0
 10
126.7818378817857
 20
168.0372293922834
 10
126.8120721050173
 20
168.0166974548035
 10
126.8612952970535
 20
167.9832704249554
 10
126.9239579395026
 20
167.940716433876
 10
126.9804922465802
 20
167.902324290552
  0
ARC
  5
374
330
1F
100
AcDbEntity
  8
0
  6
Continuous
 62
     7
370
    15
100
AcDbCircle
 10
123.5159610931397
 20
170.2550688642793
 30
0.0
 40
3.947754202908247
100
AcDbArc
 50
145.8197842754193
 51
214.1802157248289
  0
LWPOLYLINE
  5
375
330
1F
100
AcDbEntity
  8
0
  6
Continuous
 62
     7
370
    15
100
AcDbPolyline
 90
        5
 70
   128
 43
0.0
 10
120.0514376231105
 20
167.9023294128262
 10
120.1198947217882
 20
167.9488184746139
 10
120.180632087645
 20
167.9900648887985
 10
120.2268021714509
 20
168.0214185617648
 10
120.2500843044937
 20
168.0372293922834
  0
LWPOLYLINE
  5
376
330
1F
100
AcDbEntity
  8
0
  6
Continuous
 62
     7
370
    15
100
AcDbPolyline
 90
        5
 70
   128
 43
0.0
 10
120.2500843044937
 20
172.4729083362751
 10
120.2198500812621
 20
172.4934402737551
 10
120.1706268892259
 20
172.5268673036032
 10
120.1079642467768
 20
172.5694212946825
 10
120.0514227219493
 20
172.60781832745
  0
ARC
  5
377
330
1F
100
AcDbEntity
  8
0
  6
Continuous
 62
     7
370
    15
100
AcDbCircle
 10
123.5159610931397
 20
170.2550688642793
 30
0.0
 40
3.947754202903754
100
AcDbArc
 50
244.1802157245691
 51
295.8197842754318
  0
LWPOLYLINE
  5
378
330
1F
100
AcDbEntity
  8
0
  6
Continuous
 62
     7
370
    15
100
AcDbPolyline
 90
        5
 70
   128
 43
0.0
 10
125.3399652030886
 20
166.4852578542911
 10
125.3039234851122
 20
166.5597478277766
 10
125.2719452439443
 20
166.6258398327761
 10
125.247635629271
 20
166.6760823573701
 10
125.2353737198383
 20
166.7014250416093
  0
LWPOLYLINE
  5
379
330
1F
100
AcDbEntity
  8
0
  6
Continuous
 62
     7
370
    15
100
AcDbPolyline
 90
        5
 70
   128
 43
0.0
 10
121.7965484664411
 20
166.7014250416093
 10
121.7806308830724
 20
166.6685270029836
 10
121.7547159011111
 20
166.6149664088868
 10
121.7217254287199
 20
166.546782420554
 10
121.6919569831908
 20
166.4852578542911
  0
LINE
  5
37A
330
1F
100
AcDbEntity
  8
0
  6
Continuous
 62
     7
370
    15
100
AcDbLine
 10
121.9881257109911
 20
167.0973726432555
 30
0.0
 11
121.9897271201581
 21
167.1028735000424
 31
0.0
  0
ARC
  5
37B
330
1F
100
AcDbEntity
  8
0
  6
Continuous
 62
     7
370
    15
100
AcDbCircle
 10
123.5159610931397
 20
170.2550688642793
 30
0.0
 40
3.502245797092457
100
AcDbArc
 50
244.16460334479
 51
295.8353966552119
  0
LINE
  5
37C
330
1F
100
AcDbEntity
  8
0
  6
Continuous
 62
     7
370
    15
100
AcDbLine
 10
125.0421950661213
 20
167.1028735000424
 30
0.0
 11
125.0437964752883
 21
167.0973726432555
 31
0.0
  0
LINE
  5
37D
330
1F
100
AcDbEntity
  8
0
  6
Continuous
 62
     7
370
    15
100
AcDbLine
 10
125.0437964752883
 20
167.0973726432555
 30
0.0
 11
125.2353737198383
 21
166.7014250416093
 31
0.0
  0
LINE
  5
37E
330
1F
100
AcDbEntity
  8
0
  6
Continuous
 62
     7
370
    15
100
AcDbLine
 10
121.7965484664411
 20
166.7014250416093
 30
0.0
 11
121.9881257109911
 21
167.0973726432555
 31
0.0
  0
LINE
  5
37F
330
1F
100
AcDbEntity
  8
0
  6
Continuous
 62
     7
370
    15
100
AcDbLine
 10
125.8184696615309
 20
172.9206893943034
 30
0.0
 11
125.8127678718985
 21
172.8990061092906
 31
0.0
  0
ARC
  5
380
330
1F
100
AcDbEntity
  8
0
  6
Continuous
 62
     7
370
    15
100
AcDbCircle
 10
123.5159610931397
 20
170.2550688642793
 30
0.0
 40
3.502245797092425
100
AcDbArc
 50
49.01892606030589
 51
130.9810739396938
  0
LINE
  5
381
330
1F
100
AcDbEntity
  8
0
  6
Continuous
 62
     7
370
    15
100
AcDbLine
 10
121.2191543143809
 20
172.8990061092906
 30
0.0
 11
121.2134525247485
 21
172.9206893943034
 31
0.0
  0
LINE
  5
382
330
1F
100
AcDbEntity
  8
0
  6
Continuous
 62
     7
370
    15
100
AcDbLine
 10
126.0965367381096
 20
173.2426084927999
 30
0.0
 11
125.8184696615309
 21
172.9206893943034
 31
0.0
  0
LINE
  5
383
330
1F
100
AcDbEntity
  8
0
  6
Continuous
 62
     7
370
    15
100
AcDbLine
 10
121.2134525247485
 20
172.9206893943034
 30
0.0
 11
120.9353854481698
 21
173.2426084927999
 31
0.0
  0
LINE
  5
384
330
1F
100
AcDbEntity
  8
0
  6
Continuous
 62
     7
370
    15
100
AcDbLine
 10
126.4179533880771
 20
168.2843414019577
 30
0.0
 11
126.4127438024253
 21
168.2867255877488
 31
0.0
  0
ARC
  5
385
330
1F
100
AcDbEntity
  8
0
  6
Continuous
 62
     7
370
    15
100
AcDbCircle
 10
123.5159610931397
 20
170.2550688642793
 30
0.0
 40
3.50224579709243
100
AcDbArc
 50
325.8041718956325
 51
34.34150538885113
  0
LINE
  5
386
330
1F
100
AcDbEntity
  8
0
  6
Continuous
 62
     7
370
    15
100
AcDbLine
 10
126.4077300273449
 20
172.2307709861331
 30
0.0
 11
126.4299271695882
 21
172.2339274711691
 31
0.0
  0
LINE
  5
387
330
1F
100
AcDbEntity
  8
0
  6
Continuous
 62
     7
370
    15
100
AcDbLine
 10
126.7818378817857
 20
172.4729083362751
 30
0.0
 11
126.4299271695882
 21
172.2339274711691
 31
0.0
  0
LINE
  5
388
330
1F
100
AcDbEntity
  8
0
  6
Continuous
 62
     7
370
    15
100
AcDbLine
 10
126.4179533880771
 20
168.2843414019577
 30
0.0
 11
126.7818378817857
 21
168.0372293922834
 31
0.0
  0
ARC
  5
389
330
1F
100
AcDbEntity
  8
0
  6
Continuous
 62
     7
370
    15
100
AcDbCircle
 10
123.5159610931397
 20
170.2550688642793
 30
0.0
 40
3.502245797092426
100
AcDbArc
 50
145.6584946111489
 51
214.1958281043695
  0
LINE
  5
38A
330
1F
100
AcDbEntity
  8
0
  6
Continuous
 62
     7
370
    15
100
AcDbLine
 10
120.6191783838541
 20
168.2867255877488
 30
0.0
 11
120.6139687982023
 21
168.2843414019577
 31
0.0
  0
LINE
  5
38B
330
1F
100
AcDbEntity
  8
0
  6
Continuous
 62
     7
370
    15
100
AcDbLine
 10
120.6019950166911
 20
172.2339274711691
 30
0.0
 11
120.6241921589345
 21
172.2307709861331
 31
0.0
  0
LINE
  5
38C
330
1F
100
AcDbEntity
  8
0
  6
Continuous
 62
     7
370
    15
100
AcDbLine
 10
120.6139687982023
 20
168.2843414019577
 30
0.0
 11
120.2500843044937
 21
168.0372293922834
 31
0.0
  0
LINE
  5
38D
330
1F
100
AcDbEntity
  8
0
  6
Continuous
 62
     7
370
    15
100
AcDbLine
 10
120.2500843044937
 20
172.4729083362751
 30
0.0
 11
120.6019950166911
 21
172.2339274711691
 31
0.0
  0
ARC
  5
38E
330
1F
100
AcDbEntity
  8
0
  6
Continuous
 62
     7
370
    15
100
AcDbCircle
 10
124.6525402512954
 20
162.9900407802624
 30
0.0
 40
9.405944178424586
100
AcDbArc
 50
79.24531811698736
 51
81.35582557875647
  0
LINE
  5
38F
330
1F
100
AcDbEntity
  8
0
  6
Continuous
 62
     7
370
    15
100
AcDbLine
 10
126.066231268701
 20
172.2891409300052
 30
0.0
 11
127.051069501099
 21
172.9579392704897
 31
0.0
  0
ARC
  5
390
330
1F
100
AcDbEntity
  8
0
  6
Continuous
 62
     7
370
    15
100
AcDbCircle
 10
123.5162474332788
 20
170.2552776636437
 30
0.0
 40
4.449645695138928
100
AcDbArc
 50
34.18006307047423
 51
37.40088040524431
  0
ARC
  5
391
330
1F
100
AcDbEntity
  8
0
  6
Continuous
 62
     7
370
    15
100
AcDbCircle
 10
136.1882678682014
 20
171.9253532633977
 30
0.0
 40
15.00074532986563
100
AcDbArc
 50
176.2784886744257
 51
177.6017974072595
  0
LINE
  5
392
330
1F
100
AcDbEntity
  8
0
  6
Continuous
 62
     7
370
    15
100
AcDbLine
 10
121.2006610420168
 20
172.553049109482
 30
0.0
 11
120.4224781666518
 21
173.4539535246574
 31
0.0
  0
ARC
  5
393
330
1F
100
AcDbEntity
  8
0
  6
Continuous
 62
     7
370
    15
100
AcDbCircle
 10
123.5163869489031
 20
170.2546056580409
 30
0.0
 40
4.450628980775094
100
AcDbArc
 50
130.8200356811566
 51
134.0401393598235
  0
LINE
  5
394
330
1F
100
AcDbEntity
  8
0
  6
Continuous
 62
     7
370
    15
100
AcDbLine
 10
119.9808526851804
 20
172.9579392704897
 30
0.0
 11
120.9656909175784
 21
172.2891409300052
 31
0.0
  0
ARC
  5
395
330
1F
100
AcDbEntity
  8
0
  6
Continuous
 62
     7
370
    15
100
AcDbCircle
 10
122.3795444659567
 20
162.9890898777648
 30
0.0
 40
9.406908707462848
100
AcDbArc
 50
98.64428263298243
 51
100.7545736712736
  0
ARC
  5
396
330
1F
100
AcDbEntity
  8
0
  6
Continuous
 62
     7
370
    15
100
AcDbCircle
 10
123.515622327872
 20
170.2553154605874
 30
0.0
 40
4.449581090928086
100
AcDbArc
 50
142.5990962068039
 51
145.8199603174772
  0
LINE
  5
397
330
1F
100
AcDbEntity
  8
0
  6
Continuous
 62
     7
370
    15
100
AcDbLine
 10
126.6094440196276
 20
173.4539535246574
 30
0.0
 11
125.8312611442626
 21
172.553049109482
 31
0.0
  0
ARC
  5
398
330
1F
100
AcDbEntity
  8
0
  6
Continuous
 62
     7
370
    15
100
AcDbCircle
 10
110.9049753349629
 20
171.9286312033368
 30
0.0
 40
14.93934087509942
100
AcDbArc
 50
2.395482904955042
 51
3.7242310133597
  0
ARC
  5
399
330
1F
100
AcDbEntity
  8
0
  6
Continuous
 62
     7
370
    15
100
AcDbCircle
 10
123.5157826021499
 20
170.2548762715104
 30
0.0
 40
4.450262490864193
100
AcDbArc
 50
45.9597280135864
 51
49.18009694543341
  0
LINE
  5
39A
330
1F
100
AcDbEntity
  8
0
  6
Continuous
 62
     7
370
    15
100
AcDbLine
 10
125.1141053924904
 20
167.411257687562
 30
0.0
 11
125.6321979288578
 21
166.3404756109946
 31
0.0
  0
ARC
  5
39B
330
1F
100
AcDbEntity
  8
0
  6
Continuous
 62
     7
370
    15
100
AcDbCircle
 10
127.4934407006208
 20
166.6938579680629
 30
0.0
 40
2.485135583032409
100
AcDbArc
 50
163.2212759937923
 51
170.526884742471
  0
ARC
  5
39C
330
1F
100
AcDbEntity
  8
0
  6
Continuous
 62
     7
370
    15
100
AcDbCircle
 10
123.5159713693898
 20
170.2550338390298
 30
0.0
 40
4.449964153976482
100
AcDbArc
 50
295.8198602727557
 51
298.3958413465002
  0
ARC
  5
39D
330
1F
100
AcDbEntity
  8
0
  6
Continuous
 62
     7
370
    15
100
AcDbCircle
 10
120.684274401982
 20
167.1617793995058
 30
0.0
 40
1.126828033915753
100
AcDbArc
 50
77.15726472276277
 51
93.31177840763741
  0
LINE
  5
39E
330
1F
100
AcDbEntity
  8
0
  6
Continuous
 62
     7
370
    15
100
AcDbLine
 10
120.9347409729481
 20
168.2604185189836
 30
0.0
 11
119.9506685205371
 21
167.5921400893264
 31
0.0
  0
ARC
  5
39F
330
1F
100
AcDbEntity
  8
0
  6
Continuous
 62
     7
370
    15
100
AcDbCircle
 10
123.5150915874567
 20
170.2544436850025
 30
0.0
 40
4.448929335867075
100
AcDbArc
 50
214.1798461782647
 51
216.7564250954292
  0
LINE
  5
3A0
330
1F
100
AcDbEntity
  8
0
  6
Continuous
 62
     7
370
    15
100
AcDbLine
 10
127.0812536657423
 20
167.5921400893264
 30
0.0
 11
126.0971812133313
 21
168.2604185189836
 31
0.0
  0
ARC
  5
3A1
330
1F
100
AcDbEntity
  8
0
  6
Continuous
 62
     7
370
    15
100
AcDbCircle
 10
126.3475592258061
 20
167.162841689913
 30
0.0
 40
1.125772643495822
100
AcDbArc
 50
86.68059868038087
 51
102.8503581892198
  0
ARC
  5
3A2
330
1F
100
AcDbEntity
  8
0
  6
Continuous
 62
     7
370
    15
100
AcDbCircle
 10
123.5157633189584
 20
170.2552040731383
 30
0.0
 40
4.450239453657003
100
AcDbArc
 50
323.2439542314204
 51
325.8197744948885
  0
LINE
  5
3A3
330
1F
100
AcDbEntity
  8
0
  6
Continuous
 62
     7
370
    15
100
AcDbLine
 10
121.3997242574216
 20
166.3404756109946
 30
0.0
 11
121.917816793789
 21
167.411257687562
 31
0.0
  0
ARC
  5
3A4
330
1F
100
AcDbEntity
  8
0
  6
Continuous
 62
     7
370
    15
100
AcDbCircle
 10
120.8682783688743
 20
167.0039456176464
 30
0.0
 40
1.125803725198793
100
AcDbArc
 50
5.041260821848815
 51
21.21057844188813
  0
ARC
  5
3A5
330
1F
100
AcDbEntity
  8
0
  6
Continuous
 62
     7
370
    15
100
AcDbCircle
 10
123.5157644044967
 20
170.2546696803249
 30
0.0
 40
4.449555159385518
100
AcDbArc
 50
241.6040402439282
 51
244.180258136819
  0
ARC
  5
3A6
330
1F
100
AcDbEntity
  8
0
  6
Continuous
 62
     7
370
    15
100
AcDbCircle
 10
123.5159610931397
 20
170.2550536556139
 30
0.0
 40
3.262115484272225
100
AcDbArc
 50
44.78508297642671
 51
135.2149170235729
  0
ARC
  5
3A7
330
1F
100
AcDbEntity
  8
0
  6
Continuous
 62
     7
370
    15
100
AcDbCircle
 10
123.5159661430998
 20
170.2550688041439
 30
0.0
 40
3.262108695171598
100
AcDbArc
 50
141.4245136004987
 51
217.6951744106433
  0
ARC
  5
3A8
330
1F
100
AcDbEntity
  8
0
  6
Continuous
 62
     7
370
    15
100
AcDbCircle
 10
123.5159610931397
 20
170.2551634540839
 30
0.0
 40
3.262187181999755
100
AcDbArc
 50
240.6660151207971
 51
299.3339848792043
  0
ARC
  5
3A9
330
1F
100
AcDbEntity
  8
0
  6
Continuous
 62
     7
370
    15
100
AcDbCircle
 10
123.5159560427216
 20
170.2550688041403
 30
0.0
 40
3.262108695531894
100
AcDbArc
 50
322.3048255943267
 51
38.57548639453298
  0
CIRCLE
  5
3AA
330
1F
100
AcDbEntity
  8
0
  6
Continuous
 62
     7
370
    15
100
AcDbCircle
 10
-123.5159610931397
 20
170.2550688642793
 30
-0.0000000000005944
 40
1.824999999999988
210
0.0
220
-0.0000000000000035
230
-1.0
  0
ARC
  5
3AB
330
1F
100
AcDbEntity
  8
0
  6
Continuous
 62
     7
370
    15
100
AcDbCircle
 10
123.5159610931397
 20
170.2550688642793
 30
0.0
 40
4.44999999999999
100
AcDbArc
 50
134.0403439145109
 51
142.5992246363319
  0
ARC
  5
3AC
330
1F
100
AcDbEntity
  8
0
  6
Continuous
 62
     7
370
    15
100
AcDbCircle
 10
123.5159610931397
 20
170.2550688642793
 30
0.0
 40
4.450000000000002
100
AcDbArc
 50
216.7561746522318
 51
241.6042567969272
  0
ARC
  5
3AD
330
1F
100
AcDbEntity
  8
0
  6
Continuous
 62
     7
370
    15
100
AcDbCircle
 10
123.5159610931397
 20
170.2550688642793
 30
0.0
 40
4.450000000000012
100
AcDbArc
 50
298.3957432030745
 51
323.2438253477699
  0
ARC
  5
3AE
330
1F
100
AcDbEntity
  8
0
  6
Continuous
 62
     7
370
    15
100
AcDbCircle
 10
123.5159610931397
 20
170.2550688642793
 30
0.0
 40
4.449999999999995
100
AcDbArc
 50
37.40077536366813
 51
45.95965608548893
  0
LINE
  5
3AF
330
1F
100
AcDbEntity
  8
0
  6
Continuous
 62
     7
370
    15
100
AcDbLine
 10
158.1659627680302
 20
168.7800688087724
 30
0.0
 11
147.5434930597067
 21
168.7800688087724
 31
0.0
  0
LINE
  5
3B0
330
1F
100
AcDbEntity
  8
0
  6
Continuous
 62
     7
370
    15
100
AcDbLine
 10
158.1659627680302
 20
171.7300689197861
 30
0.0
 11
147.545230907631
 21
171.7300689197861
 31
0.0
  0
LINE
  5
3B1
330
1F
100
AcDbEntity
  8
0
  6
Continuous
 62
     7
370
    15
100
AcDbLine
 10
152.3659614448071
 20
171.9300688128702
 30
0.0
 11
147.5471848223925
 21
171.9300688128702
 31
0.0
  0
LINE
  5
3B2
330
1F
100
AcDbEntity
  8
0
  6
Continuous
 62
     7
370
    15
100
AcDbLine
 10
157.9659593824864
 20
171.9300688128702
 30
0.0
 11
152.3659614448071
 21
171.9300688128702
 31
0.0
  0
LINE
  5
3B3
330
1F
100
AcDbEntity
  8
0
  6
Continuous
 62
     7
370
    15
100
AcDbLine
 10
147.546616715622
 20
168.5800689156882
 30
0.0
 11
157.9659593824864
 21
168.5800689156882
 31
0.0
  0
LINE
  5
3B4
330
1F
100
AcDbEntity
  8
0
  6
Continuous
 62
     7
370
    15
100
AcDbLine
 10
153.5783962879897
 20
168.5050688102625
 30
0.0
 11
153.5783962879897
 21
168.5800689156882
 31
0.0
  0
LINE
  5
3B5
330
1F
100
AcDbEntity
  8
0
  6
Continuous
 62
     7
370
    15
100
AcDbLine
 10
153.5783962879897
 20
171.9300688128702
 30
0.0
 11
153.5783962879897
 21
172.0050689182959
 31
0.0
  0
LINE
  5
3B6
330
1F
100
AcDbEntity
  8
0
  6
Continuous
 62
     7
370
    15
100
AcDbLine
 10
152.9659604255677
 20
172.0550688333593
 30
0.0
 11
152.9659604255677
 21
175.7550688344769
 31
0.0
  0
LINE
  5
3B7
330
1F
100
AcDbEntity
  8
0
  6
Continuous
 62
     7
370
    15
100
AcDbLine
 10
147.5659602854968
 20
172.0550688333593
 30
0.0
 11
152.9659604255677
 21
172.0550688333593
 31
0.0
  0
LINE
  5
3B8
330
1F
100
AcDbEntity
  8
0
  6
Continuous
 62
     7
370
    15
100
AcDbLine
 10
147.5659602854968
 20
168.4550688951992
 30
0.0
 11
152.9659604255677
 21
168.4550688951992
 31
0.0
  0
LINE
  5
3B9
330
1F
100
AcDbEntity
  8
0
  6
Continuous
 62
     7
370
    15
100
AcDbLine
 10
152.9659604255677
 20
168.4550688951992
 30
0.0
 11
152.9659604255677
 21
164.7550688940816
 31
0.0
  0
LINE
  5
3BA
330
1F
100
AcDbEntity
  8
0
  6
Continuous
 62
     7
370
    15
100
AcDbLine
 10
153.9659605894805
 20
165.7550690579943
 30
0.0
 11
153.9659605894805
 21
168.4550688951992
 31
0.0
  0
LINE
  5
3BB
330
1F
100
AcDbEntity
  8
0
  6
Continuous
 62
     7
370
    15
100
AcDbLine
 10
152.9659604255677
 20
168.4550688951992
 30
0.0
 11
153.9659605894805
 21
168.4550688951992
 31
0.0
  0
LINE
  5
3BC
330
1F
100
AcDbEntity
  8
0
  6
Continuous
 62
     7
370
    15
100
AcDbLine
 10
153.9659605894805
 20
172.0550688333593
 30
0.0
 11
153.9659605894805
 21
174.7550686705641
 31
0.0
  0
LINE
  5
3BD
330
1F
100
AcDbEntity
  8
0
  6
Continuous
 62
     7
370
    15
100
AcDbLine
 10
152.9659604255677
 20
172.0550688333593
 30
0.0
 11
153.9659605894805
 21
172.0550688333593
 31
0.0
  0
ARC
  5
3BE
330
1F
100
AcDbEntity
  8
0
  6
Continuous
 62
     7
370
    15
100
AcDbCircle
 10
123.5159610931397
 20
170.2550688642792
 30
0.0
 40
5.499999970197677
100
AcDbArc
 50
180.0000000000004
 51
0.0
  0
ARC
  5
3BF
330
1F
100
AcDbEntity
  8
0
  6
Continuous
 62
     7
370
    15
100
AcDbCircle
 10
123.5159610931397
 20
170.2550688642794
 30
0.0
 40
5.499999970197677
100
AcDbArc
 50
360.0000000000008
 51
180.0000000000004
  0
CIRCLE
  5
3C0
330
1F
100
AcDbEntity
  8
0
  6
Continuous
 62
     7
370
    15
100
AcDbCircle
 10
-123.5159610931397
 20
170.2550688642793
 30
-0.0000000000005944
 40
5.24999999998954
210
0.0
220
-0.0000000000000035
230
-1.0
  0
ARC
  5
3C1
330
1F
100
AcDbEntity
  8
0
  6
Continuous
 62
     7
370
    15
100
AcDbCircle
 10
123.5159610931397
 20
170.2550688642793
 30
0.0
 40
5.750000000000005
100
AcDbArc
 50
280.7012654404281
 51
79.29873455957602
  0
ARC
  5
3C2
330
1F
100
AcDbEntity
  8
0
  6
Continuous
 62
     7
370
    15
100
AcDbCircle
 10
123.5159610931397
 20
170.2550688642793
 30
0.0
 40
5.750000000000005
100
AcDbArc
 50
100.7012654404271
 51
259.2987345595768
  0
LINE
  5
3C3
330
1F
100
AcDbEntity
  8
0
  6
Continuous
 62
     7
370
    15
100
AcDbLine
 10
124.5836688738883
 20
175.9050690453284
 30
0.0
 11
122.4482533123911
 21
175.9050690453284
 31
0.0
  0
LINE
  5
3C4
330
1F
100
AcDbEntity
  8
0
  6
Continuous
 62
     7
370
    15
100
AcDbLine
 10
122.4482533123911
 20
164.6050686832302
 30
0.0
 11
124.5836688738883
 21
164.6050686832302
 31
0.0
  0
LINE
  5
3C5
330
1F
100
AcDbEntity
  8
0
  6
Continuous
 62
     7
370
    15
100
AcDbLine
 10
120.0159609851063
 20
166.9550688821607
 30
0.0
 11
120.0159609851063
 21
167.4266417395108
 31
0.0
  0
ARC
  5
3C6
330
1F
100
AcDbEntity
  8
0
  6
Continuous
 62
     7
370
    15
100
AcDbCircle
 10
120.2159612183596
 20
166.9550689894991
 30
0.0
 40
0.2000002332532919
100
AcDbArc
 50
180.0000000000004
 51
269.9999692498356
  0
LINE
  5
3C7
330
1F
100
AcDbEntity
  8
0
  6
Continuous
 62
     7
370
    15
100
AcDbLine
 10
120.2159611110211
 20
166.7550687562459
 30
0.0
 11
120.6875339683712
 21
166.7550687562459
 31
0.0
  0
ARC
  5
3C8
330
1F
100
AcDbEntity
  8
0
  6
Continuous
 62
     7
370
    15
100
AcDbCircle
 10
123.5159610931397
 20
170.2550688642793
 30
0.0
 40
4.500000000000012
100
AcDbArc
 50
231.0575587312357
 51
81.6948904719492
  0
LINE
  5
3C9
330
1F
100
AcDbEntity
  8
0
  6
Continuous
 62
     7
370
    15
100
AcDbLine
 10
124.1659610949092
 20
174.7078771587245
 30
0.0
 11
124.1659610949092
 21
175.2550687525206
 31
0.0
  0
LINE
  5
3CA
330
1F
100
AcDbEntity
  8
0
  6
Continuous
 62
     7
370
    15
100
AcDbLine
 10
122.8659610913702
 20
175.2550687525206
 30
0.0
 11
124.1659610367016
 21
175.2550687525206
 31
0.0
  0
LINE
  5
3CB
330
1F
100
AcDbEntity
  8
0
  6
Continuous
 62
     7
370
    15
100
AcDbLine
 10
122.8659610913702
 20
175.2550687525206
 30
0.0
 11
122.8659610913702
 21
174.7078771587245
 31
0.0
  0
ARC
  5
3CC
330
1F
100
AcDbEntity
  8
0
  6
Continuous
 62
     7
370
    15
100
AcDbCircle
 10
123.5159610931397
 20
170.2550688642793
 30
0.0
 40
4.499999999991698
100
AcDbArc
 50
98.30510952806607
 51
128.9424412688506
  0
LINE
  5
3CD
330
1F
100
AcDbEntity
  8
0
  6
Continuous
 62
     7
370
    15
100
AcDbLine
 10
120.6875339683712
 20
173.7550689723127
 30
0.0
 11
120.2159611110211
 21
173.7550689723127
 31
0.0
  0
ARC
  5
3CE
330
1F
100
AcDbEntity
  8
0
  6
Continuous
 62
     7
370
    15
100
AcDbCircle
 10
120.2159612183554
 20
173.5550687390636
 30
0.0
 40
0.2000002332491139
100
AcDbArc
 50
90.00003074896836
 51
180.0000000000004
  0
LINE
  5
3CF
330
1F
100
AcDbEntity
  8
0
  6
Continuous
 62
     7
370
    15
100
AcDbLine
 10
120.0159609851063
 20
173.0834959890478
 30
0.0
 11
120.0159609851063
 21
173.5550688463979
 31
0.0
  0
ARC
  5
3D0
330
1F
100
AcDbEntity
  8
0
  6
Continuous
 62
     7
370
    15
100
AcDbCircle
 10
123.5159610931397
 20
170.2550688642793
 30
0.0
 40
4.499999999989438
100
AcDbArc
 50
141.057558731185
 51
218.9424412688158
  0
CIRCLE
  5
3D1
330
1F
100
AcDbEntity
  8
0
  6
Continuous
 62
     7
370
    15
100
AcDbCircle
 10
-123.5159610931397
 20
170.2550688642793
 30
-0.0000000000005944
 40
6.349999999999994
210
0.0
220
-0.0000000000000035
230
-1.0
  0
ARC
  5
3D2
330
1F
100
AcDbEntity
  8
0
  6
Continuous
 62
     7
370
    15
100
AcDbCircle
 10
120.0750294656237
 20
164.960041464388
 30
0.0
 40
1.92754001182206
100
AcDbArc
 50
66.75028298947444
 51
68.63097441898372
  0
LWPOLYLINE
  5
3D3
330
1F
100
AcDbEntity
  8
0
  6
Continuous
 62
     7
370
    15
100
AcDbPolyline
 90
        5
 70
   128
 43
0.0
 10
121.4200201046289
 20
166.3251800346904
 10
121.4181409285039
 20
166.3216563757293
 10
121.4072689015985
 20
166.3012715872161
 10
121.4005740892709
 20
166.2887187558942
 10
121.3983135365517
 20
166.2844798411958
  0
LWPOLYLINE
  5
3D4
330
1F
100
AcDbEntity
  8
0
  6
Continuous
 62
     7
370
    15
100
AcDbPolyline
 90
        5
 70
   128
 43
0.0
 10
121.4218434013993
 20
174.181539274358
 10
121.4181411613346
 20
174.1884813528292
 10
121.4072693672598
 20
174.2088656756811
 10
121.4005745549322
 20
174.2214185070031
 10
121.3983140022129
 20
174.2256569560401
  0
ARC
  5
3D5
330
1F
100
AcDbEntity
  8
0
  6
Continuous
 62
     7
370
    15
100
AcDbCircle
 10
120.350124453566
 20
174.8781918389457
 30
0.0
 40
1.20161454794202
100
AcDbArc
 50
290.8237895501287
 51
293.6694800884231
  0
ARC
  5
3D6
330
1F
100
AcDbEntity
  8
0
  6
Continuous
 62
     7
370
    15
100
AcDbCircle
 10
123.765836989417
 20
168.6051164866935
 30
0.0
 40
3.96202135260849
100
AcDbArc
 50
194.618732731628
 51
196.2062482181167
  0
LINE
  5
3D7
330
1F
100
AcDbEntity
  8
0
  6
Continuous
 62
     7
370
    15
100
AcDbLine
 10
120.0159609851063
 20
167.4266417395108
 30
0.0
 11
120.0159609851063
 21
167.5217891461931
 31
0.0
  0
LINE
  5
3D8
330
1F
100
AcDbEntity
  8
0
  6
Continuous
 62
     7
370
    15
100
AcDbLine
 10
122.8659610913702
 20
174.7078771587245
 30
0.0
 11
122.8659610913702
 21
174.6541226167016
 31
0.0
  0
ARC
  5
3D9
330
1F
100
AcDbEntity
  8
0
  6
Continuous
 62
     7
370
    15
100
AcDbCircle
 10
126.6828693626995
 20
171.098784201106
 30
0.0
 40
6.988274810891099
100
AcDbArc
 50
164.128424620807
 51
165.1859808529601
  0
LINE
  5
3DA
330
1F
100
AcDbEntity
  8
0
  6
Continuous
 62
     7
370
    15
100
AcDbLine
 10
120.0159609851063
 20
172.9635958909773
 30
0.0
 11
120.0159609851063
 21
173.0834959890478
 31
0.0
  0
LINE
  5
3DB
330
1F
100
AcDbEntity
  8
0
  6
Continuous
 62
     7
370
    15
100
AcDbLine
 10
124.1659610949092
 20
174.7078771587245
 30
0.0
 11
124.1659610949092
 21
174.6519074659579
 31
0.0
  0
LINE
  5
3DC
330
1F
100
AcDbEntity
  8
0
  6
Continuous
 62
     7
370
    15
100
AcDbLine
 10
122.8659610913702
 20
175.0050687115424
 30
0.0
 11
124.1659610949092
 21
175.0050687115424
 31
0.0
  0
CIRCLE
  5
3DD
330
1F
100
AcDbEntity
  8
0
  6
Continuous
 62
     7
370
    15
100
AcDbCircle
 10
-123.5159610931397
 20
170.2550688642793
 30
-0.0000000000005944
 40
6.699999999999988
210
0.0
220
-0.0000000000000035
230
-1.0
  0
LINE
  5
3DE
330
1F
100
AcDbEntity
  8
0
  6
Continuous
 62
     7
370
    15
100
AcDbLine
 10
125.968196994868
 20
177.0245993394189
 30
0.0
 11
126.5687494140685
 21
176.7758426140778
 31
0.0
  0
LINE
  5
3DF
330
1F
100
AcDbEntity
  8
0
  6
Continuous
 62
     7
370
    15
100
AcDbLine
 10
125.9681965292067
 20
177.0245993394189
 30
0.0
 11
125.5479423396856
 21
176.6395072337024
 31
0.0
  0
LINE
  5
3E0
330
1F
100
AcDbEntity
  8
0
  6
Continuous
 62
     7
370
    15
100
AcDbLine
 10
126.5687494140685
 20
176.7758426140778
 30
0.0
 11
126.593612932843
 21
176.2063761126034
 31
0.0
  0
LINE
  5
3E1
330
1F
100
AcDbEntity
  8
0
  6
Continuous
 62
     7
370
    15
100
AcDbLine
 10
124.1325556018957
 20
177.4286187138192
 30
0.0
 11
124.7770278549389
 21
177.3437724333041
 31
0.0
  0
LINE
  5
3E2
330
1F
100
AcDbEntity
  8
0
  6
Continuous
 62
     7
370
    15
100
AcDbLine
 10
124.132555369065
 20
177.428618248158
 30
0.0
 11
123.8262900859219
 21
176.9478779170446
 31
0.0
  0
LINE
  5
3E3
330
1F
100
AcDbEntity
  8
0
  6
Continuous
 62
     7
370
    15
100
AcDbLine
 10
124.7770278549389
 20
177.3437724333041
 30
0.0
 11
124.948432768938
 21
176.8001450110011
 31
0.0
  0
LINE
  5
3E4
330
1F
100
AcDbEntity
  8
0
  6
Continuous
 62
     7
370
    15
100
AcDbLine
 10
122.2548943313406
 20
177.3437724333041
 30
0.0
 11
122.8993665843838
 21
177.4286187138192
 31
0.0
  0
LINE
  5
3E5
330
1F
100
AcDbEntity
  8
0
  6
Continuous
 62
     7
370
    15
100
AcDbLine
 10
122.2548942149252
 20
177.3437719676428
 30
0.0
 11
122.0834894173414
 21
176.8001450110011
 31
0.0
  0
LINE
  5
3E6
330
1F
100
AcDbEntity
  8
0
  6
Continuous
 62
     7
370
    15
100
AcDbLine
 10
122.8993665843838
 20
177.4286187138192
 30
0.0
 11
123.2056321003575
 21
176.9478779170446
 31
0.0
  0
LINE
  5
3E7
330
1F
100
AcDbEntity
  8
0
  6
Continuous
 62
     7
370
    15
100
AcDbLine
 10
120.4631727722109
 20
176.7758426140778
 30
0.0
 11
121.0637251914114
 21
177.0245993394189
 31
0.0
  0
LINE
  5
3E8
330
1F
100
AcDbEntity
  8
0
  6
Continuous
 62
     7
370
    15
100
AcDbLine
 10
120.4631727722109
 20
176.7758421484165
 30
0.0
 11
120.4383092534364
 21
176.2063761126034
 31
0.0
  0
LINE
  5
3E9
330
1F
100
AcDbEntity
  8
0
  6
Continuous
 62
     7
370
    15
100
AcDbLine
 10
121.0637251914114
 20
177.0245993394189
 30
0.0
 11
121.4839798465938
 21
176.6395072337024
 31
0.0
  0
LINE
  5
3EA
330
1F
100
AcDbEntity
  8
0
  6
Continuous
 62
     7
370
    15
100
AcDbLine
 10
116.9951873433412
 20
167.2022805433504
 30
0.0
 11
116.7464306180001
 21
167.802832962551
 31
0.0
  0
LINE
  5
3EB
330
1F
100
AcDbEntity
  8
0
  6
Continuous
 62
     7
370
    15
100
AcDbLine
 10
116.9951878090025
 20
167.2022805433504
 30
0.0
 11
117.5646538448156
 21
167.1774170245759
 31
0.0
  0
LINE
  5
3EC
330
1F
100
AcDbEntity
  8
0
  6
Continuous
 62
     7
370
    15
100
AcDbLine
 10
116.7464306180001
 20
167.802832962551
 30
0.0
 11
117.1315227237166
 21
168.2230876177333
 31
0.0
  0
LINE
  5
3ED
330
1F
100
AcDbEntity
  8
0
  6
Continuous
 62
     7
370
    15
100
AcDbLine
 10
116.3424112435997
 20
170.8716633730352
 30
0.0
 11
116.4272575241149
 21
171.5161356260784
 31
0.0
  0
LINE
  5
3EE
330
1F
100
AcDbEntity
  8
0
  6
Continuous
 62
     7
370
    15
100
AcDbLine
 10
116.342411709261
 20
170.8716631402046
 30
0.0
 11
116.8231520403743
 21
170.5653978570614
 31
0.0
  0
LINE
  5
3EF
330
1F
100
AcDbEntity
  8
0
  6
Continuous
 62
     7
370
    15
100
AcDbLine
 10
116.4272575241149
 20
171.5161356260784
 30
0.0
 11
116.9708849464179
 21
171.6875405400775
 31
0.0
  0
LINE
  5
3F0
330
1F
100
AcDbEntity
  8
0
  6
Continuous
 62
     7
370
    15
100
AcDbLine
 10
116.4272575241149
 20
168.9940021024801
 30
0.0
 11
116.3424112435997
 21
169.6384743555233
 31
0.0
  0
LINE
  5
3F1
330
1F
100
AcDbEntity
  8
0
  6
Continuous
 62
     7
370
    15
100
AcDbLine
 10
116.9708849464179
 20
168.822597188481
 30
0.0
 11
116.4272575241149
 21
168.9940021024801
 31
0.0
  0
LINE
  5
3F2
330
1F
100
AcDbEntity
  8
0
  6
Continuous
 62
     7
370
    15
100
AcDbLine
 10
116.3424112435997
 20
169.6384743555233
 30
0.0
 11
116.8231520403743
 21
169.9447398714971
 31
0.0
  0
LINE
  5
3F3
330
1F
100
AcDbEntity
  8
0
  6
Continuous
 62
     7
370
    15
100
AcDbLine
 10
116.7464306180001
 20
172.7073047660075
 30
0.0
 11
116.9951873433412
 21
173.3078571852081
 31
0.0
  0
LINE
  5
3F4
330
1F
100
AcDbEntity
  8
0
  6
Continuous
 62
     7
370
    15
100
AcDbLine
 10
117.1315227237166
 20
172.2870501108252
 30
0.0
 11
116.7464306180001
 21
172.7073047660075
 31
0.0
  0
LINE
  5
3F5
330
1F
100
AcDbEntity
  8
0
  6
Continuous
 62
     7
370
    15
100
AcDbLine
 10
116.9951873433412
 20
173.3078571852081
 30
0.0
 11
117.5646538448156
 21
173.3327207039826
 31
0.0
  0
LINE
  5
3F6
330
1F
100
AcDbEntity
  8
0
  6
Continuous
 62
     7
370
    15
100
AcDbLine
 10
125.9681967620373
 20
163.4855383891396
 30
0.0
 11
126.5687496468991
 21
163.7342960458033
 31
0.0
  0
LINE
  5
3F7
330
1F
100
AcDbEntity
  8
0
  6
Continuous
 62
     7
370
    15
100
AcDbLine
 10
125.5479423396856
 20
163.8706304948561
 30
0.0
 11
125.9681967620373
 21
163.4855383891396
 31
0.0
  0
LINE
  5
3F8
330
1F
100
AcDbEntity
  8
0
  6
Continuous
 62
     7
370
    15
100
AcDbLine
 10
126.593612932843
 20
164.3037616159551
 30
0.0
 11
126.5687494140685
 21
163.734295580142
 31
0.0
  0
LINE
  5
3F9
330
1F
100
AcDbEntity
  8
0
  6
Continuous
 62
     7
370
    15
100
AcDbLine
 10
124.1325554272727
 20
163.0815194804005
 30
0.0
 11
124.7770280877695
 21
163.166366226577
 31
0.0
  0
LINE
  5
3FA
330
1F
100
AcDbEntity
  8
0
  6
Continuous
 62
     7
370
    15
100
AcDbLine
 10
123.8262900859219
 20
163.5622598115139
 30
0.0
 11
124.1325554272727
 21
163.0815194804005
 31
0.0
  0
LINE
  5
3FB
330
1F
100
AcDbEntity
  8
0
  6
Continuous
 62
     7
370
    15
100
AcDbLine
 10
124.948432768938
 20
163.7099927175574
 30
0.0
 11
124.7770279713542
 21
163.1663657609157
 31
0.0
  0
LINE
  5
3FC
330
1F
100
AcDbEntity
  8
0
  6
Continuous
 62
     7
370
    15
100
AcDbLine
 10
122.2548942149252
 20
163.1663657609157
 30
0.0
 11
122.8993671082527
 21
163.0815199460618
 31
0.0
  0
LINE
  5
3FD
330
1F
100
AcDbEntity
  8
0
  6
Continuous
 62
     7
370
    15
100
AcDbLine
 10
122.0834894173414
 20
163.7099927175574
 30
0.0
 11
122.2548942149252
 21
163.1663657609157
 31
0.0
  0
LINE
  5
3FE
330
1F
100
AcDbEntity
  8
0
  6
Continuous
 62
     7
370
    15
100
AcDbLine
 10
123.2056321003575
 20
163.5622598115139
 30
0.0
 11
122.8993668172144
 21
163.0815194804005
 31
0.0
  0
LINE
  5
3FF
330
1F
100
AcDbEntity
  8
0
  6
Continuous
 62
     7
370
    15
100
AcDbLine
 10
120.4631727722109
 20
163.734295580142
 30
0.0
 11
121.0637258899034
 21
163.4855388548009
 31
0.0
  0
LINE
  5
400
330
1F
100
AcDbEntity
  8
0
  6
Continuous
 62
     7
370
    15
100
AcDbLine
 10
120.4383092534364
 20
164.3037616159551
 30
0.0
 11
120.4631727722109
 21
163.734295580142
 31
0.0
  0
LINE
  5
401
330
1F
100
AcDbEntity
  8
0
  6
Continuous
 62
     7
370
    15
100
AcDbLine
 10
121.4839798465938
 20
163.8706304948561
 30
0.0
 11
121.0637256570727
 21
163.4855383891396
 31
0.0
  0
LINE
  5
402
330
1F
100
AcDbEntity
  8
0
  6
Continuous
 62
     7
370
    15
100
AcDbLine
 10
130.6895104770184
 20
170.8716631984122
 30
0.0
 11
130.6046637308419
 21
171.5161359753244
 31
0.0
  0
LINE
  5
403
330
1F
100
AcDbEntity
  8
0
  6
Continuous
 62
     7
370
    15
100
AcDbLine
 10
130.2087701459051
 20
170.5653978570614
 30
0.0
 11
130.6895104770184
 21
170.8716631984122
 31
0.0
  0
LINE
  5
404
330
1F
100
AcDbEntity
  8
0
  6
Continuous
 62
     7
370
    15
100
AcDbLine
 10
130.0610372398615
 20
171.6875405400775
 30
0.0
 11
130.6046641965032
 21
171.5161357424937
 31
0.0
  0
LINE
  5
405
330
1F
100
AcDbEntity
  8
0
  6
Continuous
 62
     7
370
    15
100
AcDbLine
 10
130.2854915682793
 20
172.7073045331769
 30
0.0
 11
130.0367339116157
 21
173.3078574180387
 31
0.0
  0
LINE
  5
406
330
1F
100
AcDbEntity
  8
0
  6
Continuous
 62
     7
370
    15
100
AcDbLine
 10
129.9003994625629
 20
172.2870501108252
 30
0.0
 11
130.2854915682793
 21
172.7073045331769
 31
0.0
  0
LINE
  5
407
330
1F
100
AcDbEntity
  8
0
  6
Continuous
 62
     7
370
    15
100
AcDbLine
 10
129.4672683414639
 20
173.3327207039826
 30
0.0
 11
130.036734377277
 21
173.3078571852081
 31
0.0
  0
LINE
  5
408
330
1F
100
AcDbEntity
  8
0
  6
Continuous
 62
     7
370
    15
100
AcDbLine
 10
130.036734377277
 20
167.2022805433504
 30
0.0
 11
130.285491102618
 21
167.8028336610429
 31
0.0
  0
LINE
  5
409
330
1F
100
AcDbEntity
  8
0
  6
Continuous
 62
     7
370
    15
100
AcDbLine
 10
129.4672683414639
 20
167.1774170245759
 30
0.0
 11
130.036734377277
 21
167.2022805433504
 31
0.0
  0
LINE
  5
40A
330
1F
100
AcDbEntity
  8
0
  6
Continuous
 62
     7
370
    15
100
AcDbLine
 10
129.9003994625629
 20
168.2230876177333
 30
0.0
 11
130.2854915682793
 21
167.8028334282123
 31
0.0
  0
LINE
  5
40B
330
1F
100
AcDbEntity
  8
0
  6
Continuous
 62
     7
370
    15
100
AcDbLine
 10
130.6046641965032
 20
168.9940019860648
 30
0.0
 11
130.6895100113571
 21
169.6384748793922
 31
0.0
  0
LINE
  5
40C
330
1F
100
AcDbEntity
  8
0
  6
Continuous
 62
     7
370
    15
100
AcDbLine
 10
130.0610372398615
 20
168.822597188481
 30
0.0
 11
130.6046641965032
 21
168.9940019860648
 31
0.0
  0
LINE
  5
40D
330
1F
100
AcDbEntity
  8
0
  6
Continuous
 62
     7
370
    15
100
AcDbLine
 10
130.2087701459051
 20
169.9447398714971
 30
0.0
 11
130.6895104770184
 21
169.6384745883539
 31
0.0
  0
ARC
  5
40E
330
1F
100
AcDbEntity
  8
0
  6
Continuous
 62
     7
370
    15
100
AcDbCircle
 10
123.5159610931397
 20
170.2550688642793
 30
0.0
 40
7.399999999999994
100
AcDbArc
 50
65.71889838548564
 51
69.28110161451434
  0
LWPOLYLINE
  5
40F
330
1F
100
AcDbEntity
  8
0
  6
Continuous
 62
     7
370
    15
100
AcDbPolyline
 90
        6
 70
   128
 43
0.0
 10
126.1339579776496
 20
177.1764915320806
 10
126.1261097223133
 20
177.1692998591595
 10
126.1039817307711
 20
177.1490231040649
 10
126.0692266349316
 20
177.1171760629647
 10
126.0220095117212
 20
177.0739096101157
 10
125.9681967620373
 20
177.0245993394189
  0
LWPOLYLINE
  5
410
330
1F
100
AcDbEntity
  8
0
  6
Continuous
 62
     7
370
    15
100
AcDbPolyline
 90
        6
 70
   128
 43
0.0
 10
126.5687494140685
 20
176.7758421484165
 10
126.5651677802772
 20
176.8578753690951
 10
126.5619982567251
 20
176.9304691698186
 10
126.5598741427631
 20
176.9791228581004
 10
126.5589921802849
 20
176.9993246417277
 10
126.5589425873578
 20
177.0004571299784
  0
ARC
  5
411
330
1F
100
AcDbEntity
  8
0
  6
Continuous
 62
     7
370
    15
100
AcDbCircle
 10
123.5159610931397
 20
170.2550688642793
 30
0.0
 40
7.400000000000014
100
AcDbArc
 50
80.71889838548575
 51
84.28110161451428
  0
LWPOLYLINE
  5
412
330
1F
100
AcDbEntity
  8
0
  6
Continuous
 62
     7
370
    15
100
AcDbPolyline
 90
        6
 70
   128
 43
0.0
 10
124.2533559396499
 20
177.6182373869948
 10
124.2476363384732
 20
177.6092594373755
 10
124.2315103716784
 20
177.5839465554588
 10
124.2061821229391
 20
177.544189326071
 10
124.1717720239059
 20
177.4901763420336
 10
124.1325554272727
 20
177.428618248158
  0
LWPOLYLINE
  5
413
330
1F
100
AcDbEntity
  8
0
  6
Continuous
 62
     7
370
    15
100
AcDbPolyline
 90
        6
 70
   128
 43
0.0
 10
124.7770279713542
 20
177.3437719676428
 10
124.7523366308407
 20
177.4220831576519
 10
124.7304864062563
 20
177.491382870429
 10
124.7158420572624
 20
177.5378288585477
 10
124.7097615685881
 20
177.5571137551002
 10
124.7094205881104
 20
177.5581950206094
  0
ARC
  5
414
330
1F
100
AcDbEntity
  8
0
  6
Continuous
 62
     7
370
    15
100
AcDbCircle
 10
123.5159610931397
 20
170.2550688642793
 30
0.0
 40
7.400000000000014
100
AcDbArc
 50
95.71889838548571
 51
99.28110161451428
  0
LWPOLYLINE
  5
415
330
1F
100
AcDbEntity
  8
0
  6
Continuous
 62
     7
370
    15
100
AcDbPolyline
 90
        6
 70
   128
 43
0.0
 10
122.322501598169
 20
177.5581950206094
 10
122.3193005260647
 20
177.5480426732235
 10
122.3102754282401
 20
177.519418939554
 10
122.2961002329931
 20
177.4744607392483
 10
122.2768422283799
 20
177.4133822764985
 10
122.2548942149252
 20
177.3437719676428
  0
LWPOLYLINE
  5
416
330
1F
100
AcDbEntity
  8
0
  6
Continuous
 62
     7
370
    15
100
AcDbPolyline
 90
        6
 70
   128
 43
0.0
 10
122.8993667590067
 20
177.428618248158
 10
122.8552483788327
 20
177.4978704634838
 10
122.8162065215976
 20
177.5591538171999
 10
122.7900401989565
 20
177.6002270053856
 10
122.7791754480087
 20
177.6172809187107
 10
122.7785662466296
 20
177.6182373869948
  0
ARC
  5
417
330
1F
100
AcDbEntity
  8
0
  6
Continuous
 62
     7
370
    15
100
AcDbCircle
 10
123.5159610931397
 20
170.2550688642793
 30
0.0
 40
7.399999999999997
100
AcDbArc
 50
110.7188983854857
 51
114.2811016145143
  0
LWPOLYLINE
  5
418
330
1F
100
AcDbEntity
  8
0
  6
Continuous
 62
     7
370
    15
100
AcDbPolyline
 90
        6
 70
   128
 43
0.0
 10
120.4729795989216
 20
177.0004571299784
 10
120.4725153346182
 20
176.9898223574989
 10
120.4712061279089
 20
176.9598379615478
 10
120.4691497676641
 20
176.9127428415947
 10
120.4663562656016
 20
176.8487609807186
 10
120.4631727722109
 20
176.7758421484165
  0
LWPOLYLINE
  5
419
330
1F
100
AcDbEntity
  8
0
  6
Continuous
 62
     7
370
    15
100
AcDbPolyline
 90
        6
 70
   128
 43
0.0
 10
121.0637254242421
 20
177.0245993394189
 10
121.0031866629244
 20
177.0800731029146
 10
120.9496137288035
 20
177.1291635814838
 10
120.9137086824149
 20
177.1620644140773
 10
120.8988000706405
 20
177.175725519263
 10
120.8979642086298
 20
177.1764915320806
  0
ARC
  5
41A
330
1F
100
AcDbEntity
  8
0
  6
Continuous
 62
     7
370
    15
100
AcDbCircle
 10
123.5159610931397
 20
170.2550688642793
 30
0.0
 40
7.399999999999997
100
AcDbArc
 50
200.7188983854866
 51
204.2811016145152
  0
LWPOLYLINE
  5
41B
330
1F
100
AcDbEntity
  8
0
  6
Continuous
 62
     7
370
    15
100
AcDbPolyline
 90
        6
 70
   128
 43
0.0
 10
116.7705728274406
 20
167.2120873700611
 10
116.7812075999201
 20
167.2116231057577
 10
116.8111919958711
 20
167.2103138990484
 10
116.8582871158243
 20
167.2082575388037
 10
116.9222689767004
 20
167.2054640367411
 10
116.9951878090025
 20
167.2022805433504
  0
LWPOLYLINE
  5
41C
330
1F
100
AcDbEntity
  8
0
  6
Continuous
 62
     7
370
    15
100
AcDbPolyline
 90
        6
 70
   128
 43
0.0
 10
116.7464306180001
 20
167.8028331953816
 10
116.6909568545044
 20
167.7422944340639
 10
116.6418663759351
 20
167.688721499943
 10
116.6089655433417
 20
167.6528164535545
 10
116.5953044381559
 20
167.63790784178
 10
116.5945384253383
 20
167.6370719797693
  0
ARC
  5
41D
330
1F
100
AcDbEntity
  8
0
  6
Continuous
 62
     7
370
    15
100
AcDbCircle
 10
123.5159610931397
 20
170.2550688642793
 30
0.0
 40
7.4
100
AcDbArc
 50
170.7188983854857
 51
174.2811016145142
  0
LWPOLYLINE
  5
41E
330
1F
100
AcDbEntity
  8
0
  6
Continuous
 62
     7
370
    15
100
AcDbPolyline
 90
        6
 70
   128
 43
0.0
 10
116.1527925704241
 20
170.9924637107894
 10
116.1617705200434
 20
170.9867441096127
 10
116.1870834019602
 20
170.9706181428179
 10
116.226840631348
 20
170.9452898940787
 10
116.2808536153854
 20
170.9108797950454
 10
116.342411709261
 20
170.8716631984122
  0
LWPOLYLINE
  5
41F
330
1F
100
AcDbEntity
  8
0
  6
Continuous
 62
     7
370
    15
100
AcDbPolyline
 90
        6
 70
   128
 43
0.0
 10
116.4272579897762
 20
171.5161357424937
 10
116.3489467997671
 20
171.4914444019802
 10
116.2796470869899
 20
171.4695941773959
 10
116.2332010988713
 20
171.454949828402
 10
116.2139162023187
 20
171.4488693397276
 10
116.2128349368096
 20
171.44852835925
  0
ARC
  5
420
330
1F
100
AcDbEntity
  8
0
  6
Continuous
 62
     7
370
    15
100
AcDbCircle
 10
123.5159610931397
 20
170.2550688642793
 30
0.0
 40
7.4
100
AcDbArc
 50
185.7188983854865
 51
189.2811016145151
  0
LWPOLYLINE
  5
421
330
1F
100
AcDbEntity
  8
0
  6
Continuous
 62
     7
370
    15
100
AcDbPolyline
 90
        6
 70
   128
 43
0.0
 10
116.2128349368096
 20
169.0616093693085
 10
116.2229872841955
 20
169.0584082972042
 10
116.251611017865
 20
169.0493831993796
 10
116.2965692181707
 20
169.0352080041327
 10
116.3576476809204
 20
169.0159499995194
 10
116.4272579897762
 20
168.9940019860648
  0
LWPOLYLINE
  5
422
330
1F
100
AcDbEntity
  8
0
  6
Continuous
 62
     7
370
    15
100
AcDbPolyline
 90
        6
 70
   128
 43
0.0
 10
116.342411709261
 20
169.6384745301463
 10
116.2731594939352
 20
169.5943561499722
 10
116.211876140219
 20
169.5553142927371
 10
116.1708029520333
 20
169.529147970096
 10
116.1537490387083
 20
169.5182832191482
 10
116.1527925704241
 20
169.5176740177691
  0
ARC
  5
423
330
1F
100
AcDbEntity
  8
0
  6
Continuous
 62
     7
370
    15
100
AcDbCircle
 10
123.5159610931397
 20
170.2550688642793
 30
0.0
 40
7.399999999999999
100
AcDbArc
 50
155.7188983854856
 51
159.2811016145141
  0
LWPOLYLINE
  5
424
330
1F
100
AcDbEntity
  8
0
  6
Continuous
 62
     7
370
    15
100
AcDbPolyline
 90
        6
 70
   128
 43
0.0
 10
116.5945384253383
 20
172.8730657487892
 10
116.6017300982595
 20
172.8652174934529
 10
116.622006853354
 20
172.8430895019107
 10
116.6538538944543
 20
172.8083344060712
 10
116.6971203473032
 20
172.7611172828607
 10
116.7464306180001
 20
172.7073045331769
  0
LWPOLYLINE
  5
425
330
1F
100
AcDbEntity
  8
0
  6
Continuous
 62
     7
370
    15
100
AcDbPolyline
 90
        6
 70
   128
 43
0.0
 10
116.9951878090025
 20
173.3078571852081
 10
116.9131545883239
 20
173.3042755514167
 10
116.8405607876003
 20
173.3011060278647
 10
116.7919070993186
 20
173.2989819139026
 10
116.7717053156913
 20
173.2980999514245
 10
116.7705728274406
 20
173.2980503584974
  0
ARC
  5
426
330
1F
100
AcDbEntity
  8
0
  6
Continuous
 62
     7
370
    15
100
AcDbCircle
 10
123.5159610931397
 20
170.2550688642793
 30
0.0
 40
7.399999999999994
100
AcDbArc
 50
290.7188983854865
 51
294.2811016145152
  0
LWPOLYLINE
  5
427
330
1F
100
AcDbEntity
  8
0
  6
Continuous
 62
     7
370
    15
100
AcDbPolyline
 90
        6
 70
   128
 43
0.0
 10
126.1339579776496
 20
163.3336461964779
 10
126.1261097223133
 20
163.3408378693991
 10
126.1039817307711
 20
163.3611146244936
 10
126.0692266349316
 20
163.3929616655938
 10
126.0220095117212
 20
163.4362281184428
 10
125.9681967620373
 20
163.4855383891396
  0
LWPOLYLINE
  5
428
330
1F
100
AcDbEntity
  8
0
  6
Continuous
 62
     7
370
    15
100
AcDbPolyline
 90
        6
 70
   128
 43
0.0
 10
126.5687496468991
 20
163.734295580142
 10
126.5651677802772
 20
163.6522628251247
 10
126.5619982567251
 20
163.5796685587399
 10
126.5598741427631
 20
163.5310153361194
 10
126.5589921802849
 20
163.5108135524921
 10
126.5589425873578
 20
163.5096805985801
  0
ARC
  5
429
330
1F
100
AcDbEntity
  8
0
  6
Continuous
 62
     7
370
    15
100
AcDbCircle
 10
123.5159610931397
 20
170.2550688642793
 30
0.0
 40
7.399999999999987
100
AcDbArc
 50
275.7188983854866
 51
279.2811016145151
  0
LWPOLYLINE
  5
42A
330
1F
100
AcDbEntity
  8
0
  6
Continuous
 62
     7
370
    15
100
AcDbPolyline
 90
        6
 70
   128
 43
0.0
 10
124.2533559396499
 20
162.8919003415637
 10
124.2476363384732
 20
162.900878291183
 10
124.2315103716784
 20
162.9261911730997
 10
124.2061821229391
 20
162.9659484024875
 10
124.1717720239059
 20
163.0199613865249
 10
124.132555369065
 20
163.0815194804005
  0
LWPOLYLINE
  5
42B
330
1F
100
AcDbEntity
  8
0
  6
Continuous
 62
     7
370
    15
100
AcDbPolyline
 90
        6
 70
   128
 43
0.0
 10
124.7770279713542
 20
163.1663657609157
 10
124.7523366308407
 20
163.0880550365679
 10
124.7304864062563
 20
163.0187548581295
 10
124.7158421736777
 20
162.9723088700108
 10
124.7097615685881
 20
162.9530239734583
 10
124.7094205881104
 20
162.9519427079491
  0
ARC
  5
42C
330
1F
100
AcDbEntity
  8
0
  6
Continuous
 62
     7
370
    15
100
AcDbCircle
 10
123.5159610931397
 20
170.2550688642793
 30
0.0
 40
7.399999999999987
100
AcDbArc
 50
260.7188983854865
 51
264.2811016145151
  0
LWPOLYLINE
  5
42D
330
1F
100
AcDbEntity
  8
0
  6
Continuous
 62
     7
370
    15
100
AcDbPolyline
 90
        6
 70
   128
 43
0.0
 10
122.322501598169
 20
162.9519427079491
 10
122.3193005260647
 20
162.962095055335
 10
122.3102754282401
 20
162.9907187890045
 10
122.2961002329931
 20
163.0356769893102
 10
122.2768422283799
 20
163.09675545206
 10
122.2548942149252
 20
163.1663657609157
  0
LWPOLYLINE
  5
42E
330
1F
100
AcDbEntity
  8
0
  6
Continuous
 62
     7
370
    15
100
AcDbPolyline
 90
        6
 70
   128
 43
0.0
 10
122.8993668754221
 20
163.0815194804005
 10
122.855248495248
 20
163.012267730736
 10
122.8162065798052
 20
162.9509839113586
 10
122.7900402571642
 20
162.9099111888342
 10
122.7791754480087
 20
162.8928568098478
 10
122.7785662466296
 20
162.8919003415637
  0
ARC
  5
42F
330
1F
100
AcDbEntity
  8
0
  6
Continuous
 62
     7
370
    15
100
AcDbCircle
 10
123.5159610931397
 20
170.2550688642793
 30
0.0
 40
7.399999999999997
100
AcDbArc
 50
245.7188983854865
 51
249.2811016145151
  0
LWPOLYLINE
  5
430
330
1F
100
AcDbEntity
  8
0
  6
Continuous
 62
     7
370
    15
100
AcDbPolyline
 90
        6
 70
   128
 43
0.0
 10
120.4729795989216
 20
163.5096805985801
 10
120.4725153346182
 20
163.5203153710596
 10
120.4712061279089
 20
163.5502997670107
 10
120.4691497676641
 20
163.5973948869638
 10
120.4663562656016
 20
163.6613767478399
 10
120.4631727722109
 20
163.734295580142
  0
LWPOLYLINE
  5
431
330
1F
100
AcDbEntity
  8
0
  6
Continuous
 62
     7
370
    15
100
AcDbPolyline
 90
        6
 70
   128
 43
0.0
 10
121.0637256570727
 20
163.4855383891396
 10
121.003186895755
 20
163.4300650913052
 10
120.9496139616341
 20
163.380974612736
 10
120.9137086824149
 20
163.3480733144812
 10
120.8988000706405
 20
163.3344122092955
 10
120.8979642086298
 20
163.3336461964779
  0
ARC
  5
432
330
1F
100
AcDbEntity
  8
0
  6
Continuous
 62
     7
370
    15
100
AcDbCircle
 10
123.5159610931397
 20
170.2550688642793
 30
0.0
 40
7.400000000000014
100
AcDbArc
 50
5.718898385487937
 51
9.281101614514271
  0
LWPOLYLINE
  5
433
330
1F
100
AcDbEntity
  8
0
  6
Continuous
 62
     7
370
    15
100
AcDbPolyline
 90
        6
 70
   128
 43
0.0
 10
130.8791296158553
 20
170.9924637107894
 10
130.870151666236
 20
170.9867441096127
 10
130.8448387843192
 20
170.9706181428179
 10
130.8050815549315
 20
170.9452898940787
 10
130.7510685708941
 20
170.9108797950454
 10
130.6895104770184
 20
170.8716631402046
  0
LWPOLYLINE
  5
434
330
1F
100
AcDbEntity
  8
0
  6
Continuous
 62
     7
370
    15
100
AcDbPolyline
 90
        6
 70
   128
 43
0.0
 10
130.6046641965032
 20
171.5161357424937
 10
130.6829749208511
 20
171.4914444019802
 10
130.7522750992895
 20
171.4695941773959
 10
130.7987210874081
 20
171.4549499448173
 10
130.8180059839607
 20
171.4488693397276
 10
130.8190872494698
 20
171.44852835925
  0
ARC
  5
435
330
1F
100
AcDbEntity
  8
0
  6
Continuous
 62
     7
370
    15
100
AcDbCircle
 10
123.5159610931397
 20
170.2550688642793
 30
0.0
 40
7.399999999999999
100
AcDbArc
 50
20.71889838548583
 51
24.28110161451444
  0
LWPOLYLINE
  5
436
330
1F
100
AcDbEntity
  8
0
  6
Continuous
 62
     7
370
    15
100
AcDbPolyline
 90
        6
 70
   128
 43
0.0
 10
130.4373837609411
 20
172.8730657487892
 10
130.4301920880199
 20
172.8652174934529
 10
130.4099153329254
 20
172.8430895019107
 10
130.3780682918251
 20
172.8083344060712
 10
130.3348018389762
 20
172.7611172828607
 10
130.2854915682793
 20
172.7073045331769
  0
LWPOLYLINE
  5
437
330
1F
100
AcDbEntity
  8
0
  6
Continuous
 62
     7
370
    15
100
AcDbPolyline
 90
        6
 70
   128
 43
0.0
 10
130.036734377277
 20
173.3078574180387
 10
130.1187671322942
 20
173.3042755514167
 10
130.1913613986791
 20
173.3011060278647
 10
130.2400146212996
 20
173.2989819139026
 10
130.2602164049268
 20
173.2980999514245
 10
130.2613493588389
 20
173.2980503584974
  0
ARC
  5
438
330
1F
100
AcDbEntity
  8
0
  6
Continuous
 62
     7
370
    15
100
AcDbCircle
 10
123.5159610931397
 20
170.2550688642793
 30
0.0
 40
7.399999999999997
100
AcDbArc
 50
335.7188983854864
 51
339.281101614515
  0
LWPOLYLINE
  5
439
330
1F
100
AcDbEntity
  8
0
  6
Continuous
 62
     7
370
    15
100
AcDbPolyline
 90
        6
 70
   128
 43
0.0
 10
130.2613493588389
 20
167.2120873700611
 10
130.2507145863593
 20
167.2116231057577
 10
130.2207301904083
 20
167.2103138990484
 10
130.1736350704551
 20
167.2082575388037
 10
130.1096532095791
 20
167.2054640367411
 10
130.036734377277
 20
167.2022805433504
  0
LWPOLYLINE
  5
43A
330
1F
100
AcDbEntity
  8
0
  6
Continuous
 62
     7
370
    15
100
AcDbPolyline
 90
        6
 70
   128
 43
0.0
 10
130.2854915682793
 20
167.8028334282123
 10
130.3409648661137
 20
167.7422946668945
 10
130.390055344683
 20
167.6887217327736
 10
130.4229566429377
 20
167.6528164535545
 10
130.4366177481235
 20
167.63790784178
 10
130.4373837609411
 20
167.6370719797693
  0
ARC
  5
43B
330
1F
100
AcDbEntity
  8
0
  6
Continuous
 62
     7
370
    15
100
AcDbCircle
 10
123.5159610931397
 20
170.2550688642793
 30
0.0
 40
7.400000000000014
100
AcDbArc
 50
350.7188983854865
 51
354.2811016145129
  0
LWPOLYLINE
  5
43C
330
1F
100
AcDbEntity
  8
0
  6
Continuous
 62
     7
370
    15
100
AcDbPolyline
 90
        6
 70
   128
 43
0.0
 10
130.8190872494698
 20
169.0616093693085
 10
130.8089349020839
 20
169.0584082972042
 10
130.7803111684144
 20
169.0493831993796
 10
130.7353529681087
 20
169.0352080041327
 10
130.674274505359
 20
169.0159499995194
 10
130.6046641965032
 20
168.9940019860648
  0
LWPOLYLINE
  5
43D
330
1F
100
AcDbEntity
  8
0
  6
Continuous
 62
     7
370
    15
100
AcDbPolyline
 90
        6
 70
   128
 43
0.0
 10
130.6895104770184
 20
169.6384746465616
 10
130.758762226683
 20
169.5943562663876
 10
130.8200460460604
 20
169.5553143509448
 10
130.8611187685848
 20
169.5291480283037
 10
130.8781731475711
 20
169.5182832191482
 10
130.8791296158553
 20
169.5176740177691
  0
CIRCLE
  5
43E
330
1F
100
AcDbEntity
  8
0
  6
Continuous
 62
     7
370
    15
100
AcDbCircle
 10
-123.5159610931397
 20
170.2550688642793
 30
-0.0000000000005944
 40
8.0
210
0.0
220
-0.0000000000000035
230
-1.0
  0
LWPOLYLINE
  5
43F
330
1F
100
AcDbEntity
  8
0
  6
Continuous
 62
     7
370
    15
100
AcDbPolyline
 90
        3
 70
   128
 43
0.0
 10
125.7963668156982
 20
177.9693455319636
 10
125.7599390645147
 20
177.945545117908
 10
125.7272650089682
 20
177.9433853808574
  0
ARC
  5
440
330
1F
100
AcDbEntity
  8
0
  6
Continuous
 62
     7
370
    15
100
AcDbCircle
 10
123.7136771080526
 20
170.1908066343975
 30
0.0
 40
8.05254036256572
100
AcDbArc
 50
0.4572462193730596
 51
75.01075396681409
  0
LWPOLYLINE
  5
441
330
1F
100
AcDbEntity
  8
0
  6
Continuous
 62
     7
370
    15
100
AcDbPolyline
 90
        9
 70
   128
 43
0.0
 10
131.7659610484362
 20
170.2550688640596
 10
131.7171876852036
 20
170.2550688629143
 10
131.6702881429911
 20
170.2550688585001
 10
131.6270645309806
 20
170.2550688509864
 10
131.5891801912904
 20
170.2550688406622
 10
131.5580889184595
 20
170.2550688279241
 10
131.534985599351
 20
170.2550688132617
 10
131.5207596470237
 20
170.2550687972385
 10
131.5159568165064
 20
170.255068863984
  0
ARC
  5
442
330
1F
100
AcDbEntity
  8
0
  6
Continuous
 62
     7
370
    15
100
AcDbCircle
 10
123.7184658586907
 20
170.3156253857633
 30
0.0
 40
8.047723027122179
100
AcDbArc
 50
284.9631361531759
 51
359.568863660633
  0
LWPOLYLINE
  5
443
330
1F
100
AcDbEntity
  8
0
  6
Continuous
 62
     7
370
    15
100
AcDbPolyline
 90
        3
 70
   128
 43
0.0
 10
125.7963679798514
 20
162.5407828833692
 10
125.7601849336744
 20
162.5644990127318
 10
125.7272640776456
 20
162.5667570043139
  0
LINE
  5
444
330
1F
100
AcDbEntity
  8
0
  6
Continuous
 62
     7
370
    15
100
AcDbLine
 10
146.1659608010769
 20
177.969354379528
 30
0.0
 11
146.1659608010769
 21
171.8913757359393
 31
0.0
  0
LINE
  5
445
330
1F
100
AcDbEntity
  8
0
  6
Continuous
 62
     7
370
    15
100
AcDbLine
 10
141.665960994792
 20
171.8913757359393
 30
0.0
 11
146.1659608010769
 21
171.8913757359393
 31
0.0
  0
LINE
  5
446
330
1F
100
AcDbEntity
  8
0
  6
Continuous
 62
     7
370
    15
100
AcDbLine
 10
141.665960994792
 20
168.6187619926192
 30
0.0
 11
141.665960994792
 21
171.8913757359393
 31
0.0
  0
LINE
  5
447
330
1F
100
AcDbEntity
  8
0
  6
Continuous
 62
     7
370
    15
100
AcDbLine
 10
146.1659608010769
 20
168.6187619926192
 30
0.0
 11
141.665960994792
 21
168.6187619926192
 31
0.0
  0
LINE
  5
448
330
1F
100
AcDbEntity
  8
0
  6
Continuous
 62
     7
370
    15
100
AcDbLine
 10
146.1659608010769
 20
168.6187619926192
 30
0.0
 11
146.1659608010769
 21
162.5407833490305
 31
0.0
  0
LINE
  5
449
330
1F
100
AcDbEntity
  8
0
  6
Continuous
 62
     7
370
    15
100
AcDbLine
 10
146.1659608010769
 20
162.5407833490305
 30
0.0
 11
125.7963679798514
 21
162.5407833490305
 31
0.0
  0
LINE
  5
44A
330
1F
100
AcDbEntity
  8
0
  6
Continuous
 62
     7
370
    15
100
AcDbLine
 10
125.7963679798514
 20
177.969354379528
 30
0.0
 11
146.1659608010769
 21
177.969354379528
 31
0.0
  0
LINE
  5
44B
330
1F
100
AcDbEntity
  8
0
  6
Continuous
 62
     7
370
    15
100
AcDbLine
 10
146.1659608010769
 20
171.8913757359393
 30
0.0
 11
146.1659608010769
 21
168.6187619926192
 31
0.0
  0
LINE
  5
44C
330
1F
100
AcDbEntity
  8
0
  6
Continuous
 62
     7
370
    15
100
AcDbLine
 10
146.4159613077164
 20
162.355069245749
 30
0.0
 11
146.4159613077164
 21
178.1550684828095
 31
0.0
  0
LINE
  5
44D
330
1F
100
AcDbEntity
  8
0
  6
Continuous
 62
     7
370
    15
100
AcDbLine
 10
146.8659614746094
 20
174.2050686735444
 30
0.0
 11
146.8659614746094
 21
178.1550684828095
 31
0.0
  0
LINE
  5
44E
330
1F
100
AcDbEntity
  8
0
  6
Continuous
 62
     7
370
    15
100
AcDbLine
 10
146.8659614746094
 20
166.3050690550141
 30
0.0
 11
146.8659614746094
 21
174.2050686735444
 31
0.0
  0
LINE
  5
44F
330
1F
100
AcDbEntity
  8
0
  6
Continuous
 62
     7
370
    15
100
AcDbLine
 10
146.8659614746094
 20
162.355069245749
 30
0.0
 11
146.8659614746094
 21
166.3050690550141
 31
0.0
  0
LINE
  5
450
330
1F
100
AcDbEntity
  8
0
  6
Continuous
 62
     7
370
    15
100
AcDbLine
 10
146.8659614746094
 20
166.3050690550141
 30
0.0
 11
147.5066350374938
 21
166.6475682869338
 31
0.0
  0
LINE
  5
451
330
1F
100
AcDbEntity
  8
0
  6
Continuous
 62
     7
370
    15
100
AcDbLine
 10
147.5066350374938
 20
173.8625694416247
 30
0.0
 11
146.8659614746094
 21
174.2050686735444
 31
0.0
  0
LINE
  5
452
330
1F
100
AcDbEntity
  8
0
  6
Continuous
 62
     7
370
    15
100
AcDbLine
 10
147.5066350374938
 20
166.6475682869338
 30
0.0
 11
147.5066350374938
 21
173.8625694416247
 31
0.0
  0
ARC
  5
453
330
1F
100
AcDbEntity
  8
0
  6
Continuous
 62
     7
370
    15
100
AcDbCircle
 10
147.4791880811458
 20
166.7323823952288
 30
0.0
 40
0.0891446486259441
100
AcDbArc
 50
287.9322601991861
 51
346.7518295287242
  0
ARC
  5
454
330
1F
100
AcDbEntity
  8
0
  6
Continuous
 62
     7
370
    15
100
AcDbCircle
 10
147.4692429535082
 20
173.7685917367635
 30
0.0
 40
0.1011433485493418
100
AcDbArc
 50
17.01265386769265
 51
68.30325640435406
  0
LINE
  5
455
330
1F
100
AcDbEntity
  8
0
  6
Continuous
 62
     7
370
    15
100
AcDbLine
 10
147.5659602854968
 20
166.711953177654
 30
0.0
 11
147.5659602854968
 21
173.7981845509045
 31
0.0
  0
ELLIPSE
  5
456
330
1F
100
AcDbEntity
  8
0
  6
Continuous
 62
     7
370
    15
100
AcDbEllipse
 10
146.8659610931397
 20
170.2550688642792
 30
0.0
 11
20.41265261729617
 21
-6.502274014348927
 31
0.0
210
0.0
220
0.0
230
0.9999999999999996
 40
0.1625559039207332
 41
4.781582487100623
 42
4.79837682656541
  0
ELLIPSE
  5
457
330
1F
100
AcDbEntity
  8
0
  6
Continuous
 62
     7
370
    15
100
AcDbEllipse
 10
146.8659610931397
 20
170.2550688642792
 30
0.0
 11
20.41265261729618
 21
6.502274014348871
 31
0.0
210
0.0
220
0.0
230
1.0
 40
0.162555903920735
 41
1.484808480614177
 42
1.501602820080626
  0
LINE
  5
458
330
1F
100
AcDbEntity
  8
0
  6
Continuous
 62
     7
370
    15
100
AcDbLine
 10
147.5066350374938
 20
166.2512544426851
 30
0.0
 11
146.8659614746094
 21
166.3050690550141
 31
0.0
  0
LINE
  5
459
330
1F
100
AcDbEntity
  8
0
  6
Continuous
 62
     7
370
    15
100
AcDbLine
 10
147.5066350374938
 20
162.643753632509
 30
0.0
 11
147.5066350374938
 21
166.2512544426851
 31
0.0
  0
LINE
  5
45A
330
1F
100
AcDbEntity
  8
0
  6
Continuous
 62
     7
370
    15
100
AcDbLine
 10
146.8659614746094
 20
162.355069245749
 30
0.0
 11
147.5066350374938
 21
162.643753632509
 31
0.0
  0
LINE
  5
45B
330
1F
100
AcDbEntity
  8
0
  6
Continuous
 62
     7
370
    15
100
AcDbLine
 10
147.5659602854968
 20
166.278940334522
 30
0.0
 11
147.5659602854968
 21
166.3907034672581
 31
0.0
  0
LWPOLYLINE
  5
45C
330
1F
100
AcDbEntity
  8
0
  6
Continuous
 62
     7
370
    15
100
AcDbPolyline
 90
        5
 70
   128
 43
0.0
 10
147.5659602854968
 20
166.278940334522
 10
147.5607486043692
 20
166.2645807374053
 10
147.5459610645295
 20
166.2549937028222
 10
147.5227878962279
 20
166.2508833106391
 10
147.5066350374938
 20
166.2512544426851
  0
LINE
  5
45D
330
1F
100
AcDbEntity
  8
0
  6
Continuous
 62
     7
370
    15
100
AcDbLine
 10
146.8659614746094
 20
174.2050686735444
 30
0.0
 11
147.5066350374938
 21
174.2588832858734
 31
0.0
  0
LWPOLYLINE
  5
45E
330
1F
100
AcDbEntity
  8
0
  6
Continuous
 62
     7
370
    15
100
AcDbPolyline
 90
        5
 70
   128
 43
0.0
 10
147.5066350374938
 20
174.2588832858734
 10
147.5350608651162
 20
174.2579803686373
 10
147.5557231877566
 20
174.2501418921881
 10
147.5653102223397
 20
174.2367010447912
 10
147.5659602854968
 20
174.2311973940365
  0
LINE
  5
45F
330
1F
100
AcDbEntity
  8
0
  6
Continuous
 62
     7
370
    15
100
AcDbLine
 10
147.5659602854968
 20
174.2311973940365
 30
0.0
 11
147.5659602854968
 21
174.1194342613004
 31
0.0
  0
LINE
  5
460
330
1F
100
AcDbEntity
  8
0
  6
Continuous
 62
     7
370
    15
100
AcDbLine
 10
147.5066350374938
 20
177.8663840960495
 30
0.0
 11
146.8659614746094
 21
178.1550684828095
 31
0.0
  0
LINE
  5
461
330
1F
100
AcDbEntity
  8
0
  6
Continuous
 62
     7
370
    15
100
AcDbLine
 10
147.5066350374938
 20
174.2588832858734
 30
0.0
 11
147.5066350374938
 21
177.8663840960495
 31
0.0
  0
LINE
  5
462
330
1F
100
AcDbEntity
  8
0
  6
Continuous
 62
     7
370
    15
100
AcDbLine
 10
147.5659602854968
 20
162.7358246478967
 30
0.0
 11
147.5659602854968
 21
166.278940334522
 31
0.0
  0
ARC
  5
463
330
1F
100
AcDbEntity
  8
0
  6
Continuous
 62
     7
370
    15
100
AcDbCircle
 10
147.4645865926134
 20
162.7359956138478
 30
0.0
 40
0.101373837049637
100
AcDbArc
 50
294.5058384384065
 51
359.9033712000599
  0
ARC
  5
464
330
1F
100
AcDbEntity
  8
0
  6
Continuous
 62
     7
370
    15
100
AcDbCircle
 10
147.4645256963753
 20
177.7741028766898
 30
0.0
 40
0.1014348069251825
100
AcDbArc
 50
0.1187344815658321
 51
65.47205588018416
  0
LINE
  5
465
330
1F
100
AcDbEntity
  8
0
  6
Continuous
 62
     7
370
    15
100
AcDbLine
 10
147.5659602854968
 20
174.2311973940365
 30
0.0
 11
147.5659602854968
 21
177.7743130806617
 31
0.0
  0
LINE
  5
466
330
1F
100
AcDbEntity
  8
0
  6
Continuous
 62
     7
370
    15
100
AcDbLine
 10
120.2159611110211
 20
166.7550687562458
 30
0.0
 11
120.2159611110211
 21
166.9479973498516
 31
0.0
  0
LINE
  5
467
330
1F
100
AcDbEntity
  8
0
  6
Continuous
 62
     7
370
    15
100
AcDbLine
 10
120.2159611110211
 20
173.7550689723127
 30
0.0
 11
120.2159611110211
 21
173.5621403787069
 31
0.0
  0
ARC
  5
468
330
1F
100
AcDbEntity
  8
0
  6
Continuous
 62
     7
370
    15
100
AcDbCircle
 10
123.515805569868
 20
169.0105417140813
 30
0.0
 40
9.244527531485754
100
AcDbArc
 50
75.71807919477731
 51
89.9990360970799
  0
LINE
  5
469
330
1F
100
AcDbEntity
  8
0
  6
Continuous
 62
     7
370
    15
100
AcDbLine
 10
123.5159610931397
 20
162.2550684842996
 30
0.0
 11
146.1659608010769
 21
162.2550684842996
 31
0.0
  0
LINE
  5
46A
330
1F
100
AcDbEntity
  8
0
  6
Continuous
 62
     7
370
    15
100
AcDbLine
 10
146.1659608010769
 20
162.5407833490305
 30
0.0
 11
146.1659608010769
 21
162.2550684842996
 31
0.0
  0
LINE
  5
46B
330
1F
100
AcDbEntity
  8
0
  6
Continuous
 62
     7
370
    15
100
AcDbLine
 10
123.5159610931397
 20
178.2550692442588
 30
0.0
 11
146.1659608010769
 21
178.2550692442588
 31
0.0
  0
LINE
  5
46C
330
1F
100
AcDbEntity
  8
0
  6
Continuous
 62
     7
370
    15
100
AcDbLine
 10
146.1659608010769
 20
178.2550692442588
 30
0.0
 11
146.1659608010769
 21
177.969354379528
 31
0.0
  0
LINE
  5
46D
330
1F
100
AcDbEntity
  8
0
  6
Continuous
 62
     7
370
    15
100
AcDbLine
 10
147.5066350374938
 20
162.643753632509
 30
0.0
 11
146.8659614746094
 21
162.355069245749
 31
0.0
  0
LINE
  5
46E
330
1F
100
AcDbEntity
  8
0
  6
Continuous
 62
     7
370
    15
100
AcDbLine
 10
146.8659614746094
 20
178.1550684828095
 30
0.0
 11
147.5066350374938
 21
177.8663840960495
 31
0.0
  0
ARC
  5
46F
330
1F
100
AcDbEntity
  8
0
  6
Continuous
 62
     7
370
    15
100
AcDbCircle
 10
151.7294506710882
 20
182.2386127538421
 30
0.0
 40
8.511661651937281
100
AcDbArc
 50
285.2337942704387
 51
290.2893177225262
  0
LINE
  5
470
330
1F
100
AcDbEntity
  8
0
  6
Continuous
 62
     7
370
    15
100
AcDbLine
 10
155.3659600739003
 20
172.0050689182959
 30
0.0
 11
155.3659600739003
 21
174.255069054269
 31
0.0
  0
LINE
  5
471
330
1F
100
AcDbEntity
  8
0
  6
Continuous
 62
     7
370
    15
100
AcDbLine
 10
147.5659602854968
 20
172.0050689182959
 30
0.0
 11
155.3659600739003
 21
172.0050689182959
 31
0.0
  0
LINE
  5
472
330
1F
100
AcDbEntity
  8
0
  6
Continuous
 62
     7
370
    15
100
AcDbLine
 10
155.3659600739003
 20
168.5050688102625
 30
0.0
 11
147.5659602854968
 21
168.5050688102625
 31
0.0
  0
LINE
  5
473
330
1F
100
AcDbEntity
  8
0
  6
Continuous
 62
     7
370
    15
100
AcDbLine
 10
155.3659600739003
 20
166.2550686742894
 30
0.0
 11
155.3659600739003
 21
168.5050688102625
 31
0.0
  0
ARC
  5
474
330
1F
100
AcDbEntity
  8
0
  6
Continuous
 62
     7
370
    15
100
AcDbCircle
 10
151.7563384953729
 20
158.3512311497737
 30
0.0
 40
8.427577662243409
100
AcDbArc
 50
69.69423342963863
 51
74.79998288815203
  0
LINE
  5
475
330
1F
100
AcDbEntity
  8
0
  6
Continuous
 62
     7
370
    15
100
AcDbLine
 10
155.8659610871792
 20
166.7550687562458
 30
0.0
 11
155.8659610871792
 21
168.5050688102625
 31
0.0
  0
LINE
  5
476
330
1F
100
AcDbEntity
  8
0
  6
Continuous
 62
     7
370
    15
100
AcDbLine
 10
155.3659600739003
 20
168.5050688102625
 30
0.0
 11
155.8659610871792
 21
168.5050688102625
 31
0.0
  0
LINE
  5
477
330
1F
100
AcDbEntity
  8
0
  6
Continuous
 62
     7
370
    15
100
AcDbLine
 10
155.8659610871792
 20
172.0050689182959
 30
0.0
 11
155.8659610871792
 21
173.7550689723127
 31
0.0
  0
LINE
  5
478
330
1F
100
AcDbEntity
  8
0
  6
Continuous
 62
     7
370
    15
100
AcDbLine
 10
155.3659600739003
 20
172.0050689182959
 30
0.0
 11
155.8659610871792
 21
172.0050689182959
 31
0.0
  0
CIRCLE
  5
479
330
1F
100
AcDbEntity
  8
0
  6
Continuous
 62
     7
370
    15
100
AcDbCircle
 10
-123.5159610931397
 20
170.2550688642793
 30
-0.0000000000005944
 40
1.750000000000028
210
0.0
220
-0.0000000000000035
230
-1.0
  0
ARC
  5
47A
330
1F
100
AcDbEntity
  8
0
  6
Continuous
 62
     7
370
    15
100
AcDbCircle
 10
123.5159673795827
 20
170.2550688642793
 30
0.0
 40
1.215470023469492
100
AcDbArc
 50
90.00029633527972
 51
269.9997036647211
  0
ARC
  5
47B
330
1F
100
AcDbEntity
  8
0
  6
Continuous
 62
     7
370
    15
100
AcDbCircle
 10
123.5159548066975
 20
170.2550688642793
 30
0.0
 40
1.215470023469492
100
AcDbArc
 50
270.0002963352464
 51
89.99970366475444
  0
CIRCLE
  5
47C
330
1F
100
AcDbEntity
  8
0
  6
Continuous
 62
     7
370
    15
100
AcDbCircle
 10
-123.5159610931397
 20
170.2550688642793
 30
-0.0000000000005944
 40
1.042264973081046
210
0.0
220
-0.0000000000000035
230
-1.0
  0
CIRCLE
  5
47D
330
1F
100
AcDbEntity
  8
0
  6
Continuous
 62
     7
370
    15
100
AcDbCircle
 10
123.5159610931397
 20
170.2550688642793
 30
0.0
 40
0.7999999999697139
  0
LINE
  5
47E
330
1F
100
AcDbEntity
  8
0
  6
Continuous
 62
     7
370
    15
100
AcDbLine
 10
120.5659609821261
 20
166.8050689041399
 30
0.0
 11
120.7052672815145
 21
166.8050689041399
 31
0.0
  0
ARC
  5
47F
330
1F
100
AcDbEntity
  8
0
  6
Continuous
 62
     7
370
    15
100
AcDbCircle
 10
120.5659610931397
 20
167.3050688642793
 30
0.0
 40
0.5
100
AcDbArc
 50
180.0000000000004
 51
270.0000000000008
  0
LINE
  5
480
330
1F
100
AcDbEntity
  8
0
  6
Continuous
 62
     7
370
    15
100
AcDbLine
 10
120.0659611330003
 20
173.2050689752929
 30
0.0
 11
120.0659611330003
 21
173.0657626759045
 31
0.0
  0
LINE
  5
481
330
1F
100
AcDbEntity
  8
0
  6
Continuous
 62
     7
370
    15
100
AcDbLine
 10
120.0659611330003
 20
167.444375052654
 30
0.0
 11
120.0659611330003
 21
167.3050687532656
 31
0.0
  0
ARC
  5
482
330
1F
100
AcDbEntity
  8
0
  6
Continuous
 62
     7
370
    15
100
AcDbCircle
 10
120.5659610931397
 20
173.2050688642792
 30
0.0
 40
0.5
100
AcDbArc
 50
90.0
 51
180.0000000000004
  0
LINE
  5
483
330
1F
100
AcDbEntity
  8
0
  6
Continuous
 62
     7
370
    15
100
AcDbLine
 10
120.7052672815145
 20
173.7050688244186
 30
0.0
 11
120.5659609821261
 21
173.7050688244186
 31
0.0
  0
LINE
  5
484
330
1F
100
AcDbEntity
  8
0
  6
Continuous
 62
     7
370
    15
100
AcDbLine
 10
121.7307067543835
 20
170.5550688785285
 30
0.0
 11
121.7918671735198
 21
170.5550688785285
 31
0.0
  0
LINE
  5
485
330
1F
100
AcDbEntity
  8
0
  6
Continuous
 62
     7
370
    15
100
AcDbLine
 10
121.7330222551346
 20
169.95506885003
 30
0.0
 11
121.7918671735198
 21
169.95506885003
 31
0.0
  0
LWPOLYLINE
  5
486
330
1F
100
AcDbEntity
  8
0
  6
Continuous
 62
     7
370
    15
100
AcDbPolyline
 90
        4
 70
   128
 43
0.0
 10
124.6701675534815
 20
168.8559246832289
 10
124.6563140137688
 20
168.8799196272873
 10
124.6405547552378
 20
168.9072156442113
 10
124.6378157355458
 20
168.9119596849911
  0
LWPOLYLINE
  5
487
330
1F
100
AcDbEntity
  8
0
  6
Continuous
 62
     7
370
    15
100
AcDbPolyline
 90
        4
 70
   128
 43
0.0
 10
124.1521507452809
 20
168.5531560215883
 10
124.1366987649918
 20
168.5799196712457
 10
124.1209394482531
 20
168.6072155717544
 10
124.1182004285612
 20
168.6119597289495
  0
LWPOLYLINE
  5
488
330
1F
100
AcDbEntity
  8
0
  6
Continuous
 62
     7
370
    15
100
AcDbPolyline
 90
        4
 70
   128
 43
0.0
 10
124.1541459874817
 20
171.9604374957986
 10
124.1366987649918
 20
171.9302180573128
 10
124.1209394482531
 20
171.9029221568041
 10
124.1182004285612
 20
171.898177999609
  0
LWPOLYLINE
  5
489
330
1F
100
AcDbEntity
  8
0
  6
Continuous
 62
     7
370
    15
100
AcDbPolyline
 90
        4
 70
   128
 43
0.0
 10
124.6758084579006
 20
171.6639833176293
 10
124.6563140137688
 20
171.6302181012713
 10
124.6405547552378
 20
171.6029220843472
 10
124.6378157355458
 20
171.5981780435674
  0
LWPOLYLINE
  5
48A
330
1F
100
AcDbEntity
  8
0
  6
Continuous
 62
     7
370
    15
100
AcDbPolyline
 90
        3
 70
   128
 43
0.0
 10
120.8233885534675
 20
173.860479786598
 10
121.0073475793571
 20
173.9909566823177
 10
121.3983140022129
 20
174.2256569560401
  0
ARC
  5
48B
330
1F
100
AcDbEntity
  8
0
  6
Continuous
 62
     7
370
    15
100
AcDbCircle
 10
123.5683722423243
 20
171.1938635404445
 30
0.0
 40
8.93530983265157
100
AcDbArc
 50
270.7860040727953
 51
284.4388944921857
  0
ENDSEC
  0
SECTION
  2
OBJECTS
  0
DICTIONARY
  5
C
330
0
100
AcDbDictionary
281
     1
  3
ACAD_COLOR
350
658
  3
ACAD_GROUP
350
D
  3
ACAD_LAYOUT
350
1A
  3
ACAD_MATERIAL
350
657
  3
ACAD_MLINESTYLE
350
17
  3
ACAD_PLOTSETTINGS
350
19
  3
ACAD_PLOTSTYLENAME
350
E
  3
ACAD_TABLESTYLE
350
659
  3
AcDbVariableDictionary
350
65E
  0
DICTIONARY
  5
658
102
{ACAD_REACTORS
330
C
102
}
330
C
100
AcDbDictionary
281
     1
  0
DICTIONARY
  5
D
102
{ACAD_REACTORS
330
C
102
}
330
C
100
AcDbDictionary
281
     1
  0
DICTIONARY
  5
1A
102
{ACAD_REACTORS
330
C
102
}
330
C
100
AcDbDictionary
281
     1
  3
Layout1
350
1E
  3
Layout2
350
26
  3
Model
350
22
  0
DICTIONARY
  5
657
102
{ACAD_REACTORS
330
C
102
}
330
C
100
AcDbDictionary
281
     1
  0
DICTIONARY
  5
17
102
{ACAD_REACTORS
330
C
102
}
330
C
100
AcDbDictionary
281
     1
  3
Standard
350
18
  0
DICTIONARY
  5
19
102
{ACAD_REACTORS
330
C
102
}
330
C
100
AcDbDictionary
281
     1
  0
ACDBDICTIONARYWDFLT
  5
E
102
{ACAD_REACTORS
330
C
102
}
330
C
100
AcDbDictionary
281
     1
  3
Normal
350
F
100
AcDbDictionaryWithDefault
340
F
  0
DICTIONARY
  5
659
102
{ACAD_REACTORS
330
C
102
}
330
C
100
AcDbDictionary
281
     1
  3
Standard
350
65A
  0
DICTIONARY
  5
65E
102
{ACAD_REACTORS
330
C
102
}
330
C
100
AcDbDictionary
281
     1
  3
CTABLESTYLE
350
65F
  0
LAYOUT
  5
1E
102
{ACAD_REACTORS
330
1A
102
}
330
1A
100
AcDbPlotSettings
  1

  2

  4

  6

 40
0.0
 41
0.0
 42
0.0
 43
0.0
 44
0.0
 45
0.0
 46
0.0
 47
0.0
 48
0.0
 49
0.0
140
0.0
141
0.0
142
1.0
143
1.0
 70
   688
 72
     0
 73
     0
 74
     5
  7

 75
    16
147
1.0
 76
     0
 77
     2
 78
   300
148
0.0
149
0.0
100
AcDbLayout
  1
Layout1
 70
     1
 71
     1
 10
0.0
 20
0.0
 11
420.0
 21
297.0
 12
0.0
 22
0.0
 32
0.0
 14
1.000000000000000E+20
 24
1.000000000000000E+20
 34
1.000000000000000E+20
 15
-1.000000000000000E+20
 25
-1.000000000000000E+20
 35
-1.000000000000000E+20
146
0.0
 13
0.0
 23
0.0
 33
0.0
 16
1.0
 26
0.0
 36
0.0
 17
0.0
 27
1.0
 37
0.0
 76
     0
330
1B
  0
LAYOUT
  5
26
102
{ACAD_REACTORS
330
1A
102
}
330
1A
100
AcDbPlotSettings
  1

  2

  4

  6

 40
0.0
 41
0.0
 42
0.0
 43
0.0
 44
0.0
 45
0.0
 46
0.0
 47
0.0
 48
0.0
 49
0.0
140
0.0
141
0.0
142
1.0
143
1.0
 70
   688
 72
     0
 73
     0
 74
     5
  7

 75
    16
147
1.0
 76
     0
 77
     2
 78
   300
148
0.0
149
0.0
100
AcDbLayout
  1
Layout2
 70
     1
 71
     2
 10
0.0
 20
0.0
 11
0.0
 21
0.0
 12
0.0
 22
0.0
 32
0.0
 14
0.0
 24
0.0
 34
0.0
 15
0.0
 25
0.0
 35
0.0
146
0.0
 13
0.0
 23
0.0
 33
0.0
 16
1.0
 26
0.0
 36
0.0
 17
0.0
 27
1.0
 37
0.0
 76
     0
330
23
  0
LAYOUT
  5
22
102
{ACAD_REACTORS
330
1A
102
}
330
1A
100
AcDbPlotSettings
  1

  2

  4

  6

 40
0.0
 41
0.0
 42
0.0
 43
0.0
 44
0.0
 45
0.0
 46
0.0
 47
0.0
 48
0.0
 49
0.0
140
0.0
141
0.0
142
1.0
143
1.0
 70
  1712
 72
     0
 73
     0
 74
     0
  7

 75
     0
147
1.0
 76
     0
 77
     2
 78
   300
148
0.0
149
0.0
100
AcDbLayout
  1
Model
 70
     1
 71
     0
 10
0.0
 20
0.0
 11
0.0
 21
0.0
 12
0.0
 22
0.0
 32
0.0
 14
0.0
 24
0.0
 34
0.0
 15
279.4
 25
215.9
 35
0.0
146
0.0
 13
0.0
 23
0.0
 33
0.0
 16
1.0
 26
0.0
 36
0.0
 17
0.0
 27
1.0
 37
0.0
 76
     0
330
1F
  0
MLINESTYLE
  5
18
102
{ACAD_REACTORS
330
17
102
}
330
17
100
AcDbMlineStyle
  2
STANDARD
 70
     0
  3

 62
   256
 51
90.0
 52
90.0
 71
     2
 49
0.5
 62
   256
  6
BYLAYER
 49
-0.5
 62
   256
  6
BYLAYER
  0
ACDBPLACEHOLDER
  5
F
102
{ACAD_REACTORS
330
E
102
}
330
E
  0
TABLESTYLE
  5
65A
102
{ACAD_REACTORS
330
659
102
}
330
659
100
AcDbTableStyle
  3
Standard
 70
     0
 71
     8
 40
1.5
 41
1.5
280
     0
281
     0
  7
Standard
140
4.5
170
     2
 62
     0
 63
     7
283
     0
274
    -2
284
     1
 64
     0
275
    -2
285
     1
 65
     0
276
    -2
286
     1
 66
     0
277
    -2
287
     1
 67
     0
278
    -2
288
     1
 68
     0
279
    -2
289
     1
 69
     0
  7
Standard
140
6.0
170
     5
 62
     0
 63
     7
283
     0
274
    -2
284
     1
 64
     0
275
    -2
285
     1
 65
     0
276
    -2
286
     1
 66
     0
277
    -2
287
     1
 67
     0
278
    -2
288
     1
 68
     0
279
    -2
289
     1
 69
     0
  7
Standard
140
4.5
170
     5
 62
     0
 63
     7
283
     0
274
    -2
284
     1
 64
     0
275
    -2
285
     1
 65
     0
276
    -2
286
     1
 66
     0
277
    -2
287
     1
 67
     0
278
    -2
288
     1
 68
     0
279
    -2
289
     1
 69
     0
  0
DICTIONARYVAR
  5
65F
102
{ACAD_REACTORS
330
65E
102
}
330
65E
100
DictionaryVariables
280
     0
  1
STANDARD
  0
ENDSEC
  0
EOF
