  0
SECTION
  2
HEADER
  9
$ACADVER
  1
AC1006
  9
$EXTMIN
 10
-1.854780
 20
-3.525130
  9
$EXTMAX
 10
1.859000
 20
3.529000
  9
$LTSCALE
 40
0.000394
  9
$PDMODE
 70
    35
  9
$PDSIZE
 40
0.000315
  0
ENDSEC
  0
SECTION
  2
TABLES
  0
TABLE
  2
LTYPE
 70
     9
  0
LTYPE
  2
CONTINUOUS
 70
    64
  3
Solid line
 72
    65
 73
     0
 40
0.000000
  0
LTYPE
  2
DASHED
 70
    64
  3
__ __ __ __ __ __ __ __ __ __ __ __ __ __ __
 72
    65
 73
     2
 40
0.000003
 49
0.000002
 49
-0.000001
  0
LTYPE
  2
HIDDEN
 70
    64
  3
 _ _ _ _ _ _ _ _ _ _ _ _ _ _ _ _ _ _ _ _ _ _
 72
    65
 73
     2
 40
0.000001
 49
0.000001
 49
-0.000000
  0
LTYPE
  2
CENTER
 70
    64
  3
____ _ ____ _ ____ _ ____ _ ____ _ ____ _ ____
 72
    65
 73
     4
 40
0.000008
 49
0.000005
 49
-0.000001
 49
0.000001
 49
-0.000001
  0
LTYPE
  2
PHANTOM
 70
    64
  3
_____ _ _ _____ _ _ _____ _ _ _____ _ _ ____
 72
    65
 73
     6
 40
0.000010
 49
0.000005
 49
-0.000001
 49
0.000001
 49
-0.000001
 49
0.000001
 49
-0.000001
  0
LTYPE
  2
DOT
 70
    64
  3
...............................................
 72
    65
 73
     2
 40
0.000001
 49
0.000000
 49
-0.000001
  0
LTYPE
  2
DASHDOT
 70
    64
  3
__ . __ . __ . __ . __ . __ . __ . __ . __ . __
 72
    65
 73
     4
 40
0.000004
 49
0.000002
 49
-0.000001
 49
0.000000
 49
-0.000001
  0
LTYPE
  2
BORDER
 70
    64
  3
__ __ . __ __ . __ __ . __ __ . __ __ . __ __
 72
    65
 73
     6
 40
0.000007
 49
0.000002
 49
-0.000001
 49
0.000002
 49
-0.000001
 49
0.000000
 49
-0.000001
  0
LTYPE
  2
DIVIDE
 70
    64
  3
__ . . __ . . __ . . __ . . __ . . __ . . __
 72
    65
 73
     6
 40
0.000005
 49
0.000002
 49
-0.000001
 49
0.000000
 49
-0.000001
 49
0.000000
 49
-0.000001
  0
LTYPE
  2
DOTDOT
 70
    64
  3
 . .  . .  . .  . .  . .  . . 
 72
    65
 73
     5
 40
0.000002
 49
-0.000001
 49
0.000000
 49
-0.000001
 49
0.000000
 49
-0.000001
  0
ENDTAB
  0
TABLE
  2
STYLE
 70
     0
  0
ENDTAB
  0
TABLE
  2
LAYER
 70
     3
  0
LAYER
  2
FOREGROUND
 70
    64
 62
     7
  6
CONTINUOUS
  0
LAYER
  2
BACKGROUND
 70
    65
 62
    -7
  6
CONTINUOUS
  0
LAYER
  2
PLAN_1
 70
    64
 62
     7
  6
CONTINUOUS
  0
ENDTAB
  0
ENDSEC
  0
SECTION
  2
ENTITIES
  0
POLYLINE
  8
PLAN_1
  6
CONTINUOUS
 66
     1
 40
0.003000
 41
0.003000
  0
VERTEX
  8
PLAN_1
  6
CONTINUOUS
 10
-0.016516
 20
-3.490303
  0
VERTEX
  8
PLAN_1
  6
CONTINUOUS
 10
-0.173472
 20
-3.490303
  0
VERTEX
  8
PLAN_1
  6
CONTINUOUS
 10
-0.173472
 20
-3.467815
  0
VERTEX
  8
PLAN_1
  6
CONTINUOUS
 10
-0.051346
 20
-3.315272
  0
VERTEX
  8
PLAN_1
  6
CONTINUOUS
 10
-0.164213
 20
-3.315272
  0
VERTEX
  8
PLAN_1
  6
CONTINUOUS
 10
-0.164213
 20
-3.291024
  0
VERTEX
  8
PLAN_1
  6
CONTINUOUS
 10
-0.016516
 20
-3.291024
  0
VERTEX
  8
PLAN_1
  6
CONTINUOUS
 10
-0.016516
 20
-3.314390
  0
VERTEX
  8
PLAN_1
  6
CONTINUOUS
 10
-0.139083
 20
-3.466492
  0
VERTEX
  8
PLAN_1
  6
CONTINUOUS
 10
-0.016516
 20
-3.466492
  0
VERTEX
  8
PLAN_1
  6
CONTINUOUS
 10
-0.016516
 20
-3.490303
  0
SEQEND
  8
0
  0
POLYLINE
  8
PLAN_1
  6
CONTINUOUS
 66
     1
 40
0.003000
 41
0.003000
  0
VERTEX
  8
PLAN_1
  6
CONTINUOUS
 10
0.151020
 20
-3.350980
  0
VERTEX
  8
PLAN_1
  6
CONTINUOUS
 10
0.149256
 20
-3.344811
  0
VERTEX
  8
PLAN_1
  6
CONTINUOUS
 10
0.147051
 20
-3.339520
  0
VERTEX
  8
PLAN_1
  6
CONTINUOUS
 10
0.144406
 20
-3.334228
  0
VERTEX
  8
PLAN_1
  6
CONTINUOUS
 10
0.141760
 20
-3.329819
  0
VERTEX
  8
PLAN_1
  6
CONTINUOUS
 10
0.138673
 20
-3.325850
  0
VERTEX
  8
PLAN_1
  6
CONTINUOUS
 10
0.135146
 20
-3.322764
  0
VERTEX
  8
PLAN_1
  6
CONTINUOUS
 10
0.131177
 20
-3.319681
  0
VERTEX
  8
PLAN_1
  6
CONTINUOUS
 10
0.127213
 20
-3.317476
  0
VERTEX
  8
PLAN_1
  6
CONTINUOUS
 10
0.123244
 20
-3.315272
  0
VERTEX
  8
PLAN_1
  6
CONTINUOUS
 10
0.119276
 20
-3.313508
  0
VERTEX
  8
PLAN_1
  6
CONTINUOUS
 10
0.114866
 20
-3.312185
  0
VERTEX
  8
PLAN_1
  6
CONTINUOUS
 10
0.110898
 20
-3.311303
  0
VERTEX
  8
PLAN_1
  6
CONTINUOUS
 10
0.102520
 20
-3.309980
  0
VERTEX
  8
PLAN_1
  6
CONTINUOUS
 10
0.095028
 20
-3.309980
  0
VERTEX
  8
PLAN_1
  6
CONTINUOUS
 10
0.088413
 20
-3.309980
  0
VERTEX
  8
PLAN_1
  6
CONTINUOUS
 10
0.081799
 20
-3.310862
  0
VERTEX
  8
PLAN_1
  6
CONTINUOUS
 10
0.075626
 20
-3.312626
  0
VERTEX
  8
PLAN_1
  6
CONTINUOUS
 10
0.069898
 20
-3.314831
  0
VERTEX
  8
PLAN_1
  6
CONTINUOUS
 10
0.064165
 20
-3.317476
  0
VERTEX
  8
PLAN_1
  6
CONTINUOUS
 10
0.058433
 20
-3.321004
  0
VERTEX
  8
PLAN_1
  6
CONTINUOUS
 10
0.053583
 20
-3.324969
  0
VERTEX
  8
PLAN_1
  6
CONTINUOUS
 10
0.049173
 20
-3.329819
  0
VERTEX
  8
PLAN_1
  6
CONTINUOUS
 10
0.044764
 20
-3.335110
  0
VERTEX
  8
PLAN_1
  6
CONTINUOUS
 10
0.040799
 20
-3.340843
  0
VERTEX
  8
PLAN_1
  6
CONTINUOUS
 10
0.037713
 20
-3.347457
  0
VERTEX
  8
PLAN_1
  6
CONTINUOUS
 10
0.035067
 20
-3.354508
  0
VERTEX
  8
PLAN_1
  6
CONTINUOUS
 10
0.032862
 20
-3.362004
  0
VERTEX
  8
PLAN_1
  6
CONTINUOUS
 10
0.031098
 20
-3.370382
  0
VERTEX
  8
PLAN_1
  6
CONTINUOUS
 10
0.030217
 20
-3.379197
  0
VERTEX
  8
PLAN_1
  6
CONTINUOUS
 10
0.029776
 20
-3.388898
  0
VERTEX
  8
PLAN_1
  6
CONTINUOUS
 10
0.030217
 20
-3.397717
  0
VERTEX
  8
PLAN_1
  6
CONTINUOUS
 10
0.030657
 20
-3.406094
  0
VERTEX
  8
PLAN_1
  6
CONTINUOUS
 10
0.031539
 20
-3.414028
  0
VERTEX
  8
PLAN_1
  6
CONTINUOUS
 10
0.033303
 20
-3.421524
  0
VERTEX
  8
PLAN_1
  6
CONTINUOUS
 10
0.035067
 20
-3.429020
  0
VERTEX
  8
PLAN_1
  6
CONTINUOUS
 10
0.037713
 20
-3.435630
  0
VERTEX
  8
PLAN_1
  6
CONTINUOUS
 10
0.040799
 20
-3.442244
  0
VERTEX
  8
PLAN_1
  6
CONTINUOUS
 10
0.044323
 20
-3.447976
  0
VERTEX
  8
PLAN_1
  6
CONTINUOUS
 10
0.048732
 20
-3.453268
  0
VERTEX
  8
PLAN_1
  6
CONTINUOUS
 10
0.053142
 20
-3.458118
  0
VERTEX
  8
PLAN_1
  6
CONTINUOUS
 10
0.055787
 20
-3.459882
  0
VERTEX
  8
PLAN_1
  6
CONTINUOUS
 10
0.058874
 20
-3.462087
  0
VERTEX
  8
PLAN_1
  6
CONTINUOUS
 10
0.061520
 20
-3.463846
  0
VERTEX
  8
PLAN_1
  6
CONTINUOUS
 10
0.064606
 20
-3.465610
  0
VERTEX
  8
PLAN_1
  6
CONTINUOUS
 10
0.068134
 20
-3.466933
  0
VERTEX
  8
PLAN_1
  6
CONTINUOUS
 10
0.071661
 20
-3.468256
  0
VERTEX
  8
PLAN_1
  6
CONTINUOUS
 10
0.075185
 20
-3.469138
  0
VERTEX
  8
PLAN_1
  6
CONTINUOUS
 10
0.078713
 20
-3.470020
  0
VERTEX
  8
PLAN_1
  6
CONTINUOUS
 10
0.087091
 20
-3.471343
  0
VERTEX
  8
PLAN_1
  6
CONTINUOUS
 10
0.095909
 20
-3.471783
  0
VERTEX
  8
PLAN_1
  6
CONTINUOUS
 10
0.099437
 20
-3.471783
  0
VERTEX
  8
PLAN_1
  6
CONTINUOUS
 10
0.102961
 20
-3.471343
  0
VERTEX
  8
PLAN_1
  6
CONTINUOUS
 10
0.106929
 20
-3.470902
  0
VERTEX
  8
PLAN_1
  6
CONTINUOUS
 10
0.110898
 20
-3.470020
  0
VERTEX
  8
PLAN_1
  6
CONTINUOUS
 10
0.114866
 20
-3.468697
  0
VERTEX
  8
PLAN_1
  6
CONTINUOUS
 10
0.119276
 20
-3.466933
  0
VERTEX
  8
PLAN_1
  6
CONTINUOUS
 10
0.123244
 20
-3.464728
  0
VERTEX
  8
PLAN_1
  6
CONTINUOUS
 10
0.127654
 20
-3.462087
  0
VERTEX
  8
PLAN_1
  6
CONTINUOUS
 10
0.131618
 20
-3.458559
  0
VERTEX
  8
PLAN_1
  6
CONTINUOUS
 10
0.135587
 20
-3.455031
  0
VERTEX
  8
PLAN_1
  6
CONTINUOUS
 10
0.139114
 20
-3.450622
  0
VERTEX
  8
PLAN_1
  6
CONTINUOUS
 10
0.142642
 20
-3.445331
  0
VERTEX
  8
PLAN_1
  6
CONTINUOUS
 10
0.145728
 20
-3.439598
  0
VERTEX
  8
PLAN_1
  6
CONTINUOUS
 10
0.148374
 20
-3.432988
  0
VERTEX
  8
PLAN_1
  6
CONTINUOUS
 10
0.151020
 20
-3.425492
  0
VERTEX
  8
PLAN_1
  6
CONTINUOUS
 10
0.152783
 20
-3.417114
  0
VERTEX
  8
PLAN_1
  6
CONTINUOUS
 10
0.178795
 20
-3.417114
  0
VERTEX
  8
PLAN_1
  6
CONTINUOUS
 10
0.177913
 20
-3.424169
  0
VERTEX
  8
PLAN_1
  6
CONTINUOUS
 10
0.176150
 20
-3.430343
  0
VERTEX
  8
PLAN_1
  6
CONTINUOUS
 10
0.174386
 20
-3.436512
  0
VERTEX
  8
PLAN_1
  6
CONTINUOUS
 10
0.172622
 20
-3.442244
  0
VERTEX
  8
PLAN_1
  6
CONTINUOUS
 10
0.170417
 20
-3.447535
  0
VERTEX
  8
PLAN_1
  6
CONTINUOUS
 10
0.168213
 20
-3.452386
  0
VERTEX
  8
PLAN_1
  6
CONTINUOUS
 10
0.165567
 20
-3.456795
  0
VERTEX
  8
PLAN_1
  6
CONTINUOUS
 10
0.162921
 20
-3.461205
  0
VERTEX
  8
PLAN_1
  6
CONTINUOUS
 10
0.159835
 20
-3.465169
  0
VERTEX
  8
PLAN_1
  6
CONTINUOUS
 10
0.156752
 20
-3.468697
  0
VERTEX
  8
PLAN_1
  6
CONTINUOUS
 10
0.153665
 20
-3.472224
  0
VERTEX
  8
PLAN_1
  6
CONTINUOUS
 10
0.150579
 20
-3.474870
  0
VERTEX
  8
PLAN_1
  6
CONTINUOUS
 10
0.147051
 20
-3.477957
  0
VERTEX
  8
PLAN_1
  6
CONTINUOUS
 10
0.143524
 20
-3.480161
  0
VERTEX
  8
PLAN_1
  6
CONTINUOUS
 10
0.140437
 20
-3.482807
  0
VERTEX
  8
PLAN_1
  6
CONTINUOUS
 10
0.136909
 20
-3.484571
  0
VERTEX
  8
PLAN_1
  6
CONTINUOUS
 10
0.129854
 20
-3.488098
  0
VERTEX
  8
PLAN_1
  6
CONTINUOUS
 10
0.122803
 20
-3.490744
  0
VERTEX
  8
PLAN_1
  6
CONTINUOUS
 10
0.116189
 20
-3.492504
  0
VERTEX
  8
PLAN_1
  6
CONTINUOUS
 10
0.110016
 20
-3.493827
  0
VERTEX
  8
PLAN_1
  6
CONTINUOUS
 10
0.099437
 20
-3.495591
  0
VERTEX
  8
PLAN_1
  6
CONTINUOUS
 10
0.091941
 20
-3.495591
  0
VERTEX
  8
PLAN_1
  6
CONTINUOUS
 10
0.083122
 20
-3.495591
  0
VERTEX
  8
PLAN_1
  6
CONTINUOUS
 10
0.074744
 20
-3.494268
  0
VERTEX
  8
PLAN_1
  6
CONTINUOUS
 10
0.066811
 20
-3.492504
  0
VERTEX
  8
PLAN_1
  6
CONTINUOUS
 10
0.058874
 20
-3.489862
  0
VERTEX
  8
PLAN_1
  6
CONTINUOUS
 10
0.054906
 20
-3.488539
  0
VERTEX
  8
PLAN_1
  6
CONTINUOUS
 10
0.050937
 20
-3.486776
  0
VERTEX
  8
PLAN_1
  6
CONTINUOUS
 10
0.046969
 20
-3.484571
  0
VERTEX
  8
PLAN_1
  6
CONTINUOUS
 10
0.043445
 20
-3.482366
  0
VERTEX
  8
PLAN_1
  6
CONTINUOUS
 10
0.039917
 20
-3.480161
  0
VERTEX
  8
PLAN_1
  6
CONTINUOUS
 10
0.036390
 20
-3.477516
  0
VERTEX
  8
PLAN_1
  6
CONTINUOUS
 10
0.033303
 20
-3.474429
  0
VERTEX
  8
PLAN_1
  6
CONTINUOUS
 10
0.029776
 20
-3.471343
  0
VERTEX
  8
PLAN_1
  6
CONTINUOUS
 10
0.026689
 20
-3.468256
  0
VERTEX
  8
PLAN_1
  6
CONTINUOUS
 10
0.024043
 20
-3.464728
  0
VERTEX
  8
PLAN_1
  6
CONTINUOUS
 10
0.021398
 20
-3.460764
  0
VERTEX
  8
PLAN_1
  6
CONTINUOUS
 10
0.018752
 20
-3.456795
  0
VERTEX
  8
PLAN_1
  6
CONTINUOUS
 10
0.016106
 20
-3.452827
  0
VERTEX
  8
PLAN_1
  6
CONTINUOUS
 10
0.013906
 20
-3.448417
  0
VERTEX
  8
PLAN_1
  6
CONTINUOUS
 10
0.011701
 20
-3.443567
  0
VERTEX
  8
PLAN_1
  6
CONTINUOUS
 10
0.009937
 20
-3.438717
  0
VERTEX
  8
PLAN_1
  6
CONTINUOUS
 10
0.008173
 20
-3.433429
  0
VERTEX
  8
PLAN_1
  6
CONTINUOUS
 10
0.006409
 20
-3.428138
  0
VERTEX
  8
PLAN_1
  6
CONTINUOUS
 10
0.005087
 20
-3.422406
  0
VERTEX
  8
PLAN_1
  6
CONTINUOUS
 10
0.004205
 20
-3.416232
  0
VERTEX
  8
PLAN_1
  6
CONTINUOUS
 10
0.003323
 20
-3.410059
  0
VERTEX
  8
PLAN_1
  6
CONTINUOUS
 10
0.002441
 20
-3.403449
  0
VERTEX
  8
PLAN_1
  6
CONTINUOUS
 10
0.002441
 20
-3.396835
  0
VERTEX
  8
PLAN_1
  6
CONTINUOUS
 10
0.002000
 20
-3.389780
  0
VERTEX
  8
PLAN_1
  6
CONTINUOUS
 10
0.002441
 20
-3.378319
  0
VERTEX
  8
PLAN_1
  6
CONTINUOUS
 10
0.003764
 20
-3.367736
  0
VERTEX
  8
PLAN_1
  6
CONTINUOUS
 10
0.005528
 20
-3.357154
  0
VERTEX
  8
PLAN_1
  6
CONTINUOUS
 10
0.008614
 20
-3.347457
  0
VERTEX
  8
PLAN_1
  6
CONTINUOUS
 10
0.010378
 20
-3.343047
  0
VERTEX
  8
PLAN_1
  6
CONTINUOUS
 10
0.012142
 20
-3.338638
  0
VERTEX
  8
PLAN_1
  6
CONTINUOUS
 10
0.013906
 20
-3.334228
  0
VERTEX
  8
PLAN_1
  6
CONTINUOUS
 10
0.016106
 20
-3.329819
  0
VERTEX
  8
PLAN_1
  6
CONTINUOUS
 10
0.018752
 20
-3.325850
  0
VERTEX
  8
PLAN_1
  6
CONTINUOUS
 10
0.021398
 20
-3.321886
  0
VERTEX
  8
PLAN_1
  6
CONTINUOUS
 10
0.024043
 20
-3.318358
  0
VERTEX
  8
PLAN_1
  6
CONTINUOUS
 10
0.026689
 20
-3.314831
  0
VERTEX
  8
PLAN_1
  6
CONTINUOUS
 10
0.029776
 20
-3.311303
  0
VERTEX
  8
PLAN_1
  6
CONTINUOUS
 10
0.033303
 20
-3.308217
  0
VERTEX
  8
PLAN_1
  6
CONTINUOUS
 10
0.036831
 20
-3.305571
  0
VERTEX
  8
PLAN_1
  6
CONTINUOUS
 10
0.040358
 20
-3.302484
  0
VERTEX
  8
PLAN_1
  6
CONTINUOUS
 10
0.043886
 20
-3.299839
  0
VERTEX
  8
PLAN_1
  6
CONTINUOUS
 10
0.047850
 20
-3.297634
  0
VERTEX
  8
PLAN_1
  6
CONTINUOUS
 10
0.051819
 20
-3.295429
  0
VERTEX
  8
PLAN_1
  6
CONTINUOUS
 10
0.056228
 20
-3.293669
  0
VERTEX
  8
PLAN_1
  6
CONTINUOUS
 10
0.060638
 20
-3.291906
  0
VERTEX
  8
PLAN_1
  6
CONTINUOUS
 10
0.065047
 20
-3.290142
  0
VERTEX
  8
PLAN_1
  6
CONTINUOUS
 10
0.069457
 20
-3.288819
  0
VERTEX
  8
PLAN_1
  6
CONTINUOUS
 10
0.074303
 20
-3.287937
  0
VERTEX
  8
PLAN_1
  6
CONTINUOUS
 10
0.079594
 20
-3.287055
  0
VERTEX
  8
PLAN_1
  6
CONTINUOUS
 10
0.084445
 20
-3.286614
  0
VERTEX
  8
PLAN_1
  6
CONTINUOUS
 10
0.089736
 20
-3.286173
  0
VERTEX
  8
PLAN_1
  6
CONTINUOUS
 10
0.095028
 20
-3.285732
  0
VERTEX
  8
PLAN_1
  6
CONTINUOUS
 10
0.104283
 20
-3.286173
  0
VERTEX
  8
PLAN_1
  6
CONTINUOUS
 10
0.113102
 20
-3.287496
  0
VERTEX
  8
PLAN_1
  6
CONTINUOUS
 10
0.121480
 20
-3.289260
  0
VERTEX
  8
PLAN_1
  6
CONTINUOUS
 10
0.128972
 20
-3.291465
  0
VERTEX
  8
PLAN_1
  6
CONTINUOUS
 10
0.136028
 20
-3.294547
  0
VERTEX
  8
PLAN_1
  6
CONTINUOUS
 10
0.142642
 20
-3.297634
  0
VERTEX
  8
PLAN_1
  6
CONTINUOUS
 10
0.148374
 20
-3.301602
  0
VERTEX
  8
PLAN_1
  6
CONTINUOUS
 10
0.153665
 20
-3.306012
  0
VERTEX
  8
PLAN_1
  6
CONTINUOUS
 10
0.158512
 20
-3.310862
  0
VERTEX
  8
PLAN_1
  6
CONTINUOUS
 10
0.162921
 20
-3.315713
  0
VERTEX
  8
PLAN_1
  6
CONTINUOUS
 10
0.166449
 20
-3.321445
  0
VERTEX
  8
PLAN_1
  6
CONTINUOUS
 10
0.169535
 20
-3.326732
  0
VERTEX
  8
PLAN_1
  6
CONTINUOUS
 10
0.172181
 20
-3.332906
  0
VERTEX
  8
PLAN_1
  6
CONTINUOUS
 10
0.174386
 20
-3.338638
  0
VERTEX
  8
PLAN_1
  6
CONTINUOUS
 10
0.176150
 20
-3.344811
  0
VERTEX
  8
PLAN_1
  6
CONTINUOUS
 10
0.177031
 20
-3.350980
  0
VERTEX
  8
PLAN_1
  6
CONTINUOUS
 10
0.151020
 20
-3.350980
  0
SEQEND
  8
0
  0
POLYLINE
  8
PLAN_1
  6
CONTINUOUS
 66
     1
 40
0.003000
 41
0.003000
  0
VERTEX
  8
PLAN_1
  6
CONTINUOUS
 10
0.238315
 20
-3.490303
  0
VERTEX
  8
PLAN_1
  6
CONTINUOUS
 10
0.211421
 20
-3.490303
  0
VERTEX
  8
PLAN_1
  6
CONTINUOUS
 10
0.211421
 20
-3.291024
  0
VERTEX
  8
PLAN_1
  6
CONTINUOUS
 10
0.238315
 20
-3.291024
  0
VERTEX
  8
PLAN_1
  6
CONTINUOUS
 10
0.238315
 20
-3.387575
  0
VERTEX
  8
PLAN_1
  6
CONTINUOUS
 10
0.334866
 20
-3.291024
  0
VERTEX
  8
PLAN_1
  6
CONTINUOUS
 10
0.372343
 20
-3.291024
  0
VERTEX
  8
PLAN_1
  6
CONTINUOUS
 10
0.289016
 20
-3.371705
  0
VERTEX
  8
PLAN_1
  6
CONTINUOUS
 10
0.374547
 20
-3.490303
  0
VERTEX
  8
PLAN_1
  6
CONTINUOUS
 10
0.339276
 20
-3.490303
  0
VERTEX
  8
PLAN_1
  6
CONTINUOUS
 10
0.269614
 20
-3.390661
  0
VERTEX
  8
PLAN_1
  6
CONTINUOUS
 10
0.238315
 20
-3.420642
  0
VERTEX
  8
PLAN_1
  6
CONTINUOUS
 10
0.238315
 20
-3.490303
  0
SEQEND
  8
0
  0
POLYLINE
  8
PLAN_1
  6
CONTINUOUS
 66
     1
 40
0.003000
 41
0.003000
  0
VERTEX
  8
PLAN_1
  6
CONTINUOUS
 10
0.397913
 20
-3.291024
  0
VERTEX
  8
PLAN_1
  6
CONTINUOUS
 10
0.478594
 20
-3.291024
  0
VERTEX
  8
PLAN_1
  6
CONTINUOUS
 10
0.483445
 20
-3.291465
  0
VERTEX
  8
PLAN_1
  6
CONTINUOUS
 10
0.488295
 20
-3.291465
  0
VERTEX
  8
PLAN_1
  6
CONTINUOUS
 10
0.492705
 20
-3.292346
  0
VERTEX
  8
PLAN_1
  6
CONTINUOUS
 10
0.497110
 20
-3.293228
  0
VERTEX
  8
PLAN_1
  6
CONTINUOUS
 10
0.501520
 20
-3.294106
  0
VERTEX
  8
PLAN_1
  6
CONTINUOUS
 10
0.505929
 20
-3.295429
  0
VERTEX
  8
PLAN_1
  6
CONTINUOUS
 10
0.509898
 20
-3.296752
  0
VERTEX
  8
PLAN_1
  6
CONTINUOUS
 10
0.513866
 20
-3.298075
  0
VERTEX
  8
PLAN_1
  6
CONTINUOUS
 10
0.517394
 20
-3.300280
  0
VERTEX
  8
PLAN_1
  6
CONTINUOUS
 10
0.521362
 20
-3.302043
  0
VERTEX
  8
PLAN_1
  6
CONTINUOUS
 10
0.524886
 20
-3.304248
  0
VERTEX
  8
PLAN_1
  6
CONTINUOUS
 10
0.527972
 20
-3.306894
  0
VERTEX
  8
PLAN_1
  6
CONTINUOUS
 10
0.531500
 20
-3.309098
  0
VERTEX
  8
PLAN_1
  6
CONTINUOUS
 10
0.534587
 20
-3.312185
  0
VERTEX
  8
PLAN_1
  6
CONTINUOUS
 10
0.537232
 20
-3.314831
  0
VERTEX
  8
PLAN_1
  6
CONTINUOUS
 10
0.540319
 20
-3.317917
  0
VERTEX
  8
PLAN_1
  6
CONTINUOUS
 10
0.545169
 20
-3.324969
  0
VERTEX
  8
PLAN_1
  6
CONTINUOUS
 10
0.549579
 20
-3.332024
  0
VERTEX
  8
PLAN_1
  6
CONTINUOUS
 10
0.553543
 20
-3.339961
  0
VERTEX
  8
PLAN_1
  6
CONTINUOUS
 10
0.556630
 20
-3.348780
  0
VERTEX
  8
PLAN_1
  6
CONTINUOUS
 10
0.559276
 20
-3.357594
  0
VERTEX
  8
PLAN_1
  6
CONTINUOUS
 10
0.561039
 20
-3.367295
  0
VERTEX
  8
PLAN_1
  6
CONTINUOUS
 10
0.562362
 20
-3.377437
  0
VERTEX
  8
PLAN_1
  6
CONTINUOUS
 10
0.562362
 20
-3.388016
  0
VERTEX
  8
PLAN_1
  6
CONTINUOUS
 10
0.562362
 20
-3.396394
  0
VERTEX
  8
PLAN_1
  6
CONTINUOUS
 10
0.561480
 20
-3.405213
  0
VERTEX
  8
PLAN_1
  6
CONTINUOUS
 10
0.560157
 20
-3.414028
  0
VERTEX
  8
PLAN_1
  6
CONTINUOUS
 10
0.558394
 20
-3.422846
  0
VERTEX
  8
PLAN_1
  6
CONTINUOUS
 10
0.556189
 20
-3.431665
  0
VERTEX
  8
PLAN_1
  6
CONTINUOUS
 10
0.553102
 20
-3.440039
  0
VERTEX
  8
PLAN_1
  6
CONTINUOUS
 10
0.549138
 20
-3.448417
  0
VERTEX
  8
PLAN_1
  6
CONTINUOUS
 10
0.544728
 20
-3.455913
  0
VERTEX
  8
PLAN_1
  6
CONTINUOUS
 10
0.542083
 20
-3.459882
  0
VERTEX
  8
PLAN_1
  6
CONTINUOUS
 10
0.539437
 20
-3.463406
  0
VERTEX
  8
PLAN_1
  6
CONTINUOUS
 10
0.536350
 20
-3.466492
  0
VERTEX
  8
PLAN_1
  6
CONTINUOUS
 10
0.533264
 20
-3.470020
  0
VERTEX
  8
PLAN_1
  6
CONTINUOUS
 10
0.529736
 20
-3.472665
  0
VERTEX
  8
PLAN_1
  6
CONTINUOUS
 10
0.526209
 20
-3.475752
  0
VERTEX
  8
PLAN_1
  6
CONTINUOUS
 10
0.522681
 20
-3.478398
  0
VERTEX
  8
PLAN_1
  6
CONTINUOUS
 10
0.518717
 20
-3.480602
  0
VERTEX
  8
PLAN_1
  6
CONTINUOUS
 10
0.514307
 20
-3.482807
  0
VERTEX
  8
PLAN_1
  6
CONTINUOUS
 10
0.509898
 20
-3.485012
  0
VERTEX
  8
PLAN_1
  6
CONTINUOUS
 10
0.505047
 20
-3.486335
  0
VERTEX
  8
PLAN_1
  6
CONTINUOUS
 10
0.500197
 20
-3.488098
  0
VERTEX
  8
PLAN_1
  6
CONTINUOUS
 10
0.494906
 20
-3.488980
  0
VERTEX
  8
PLAN_1
  6
CONTINUOUS
 10
0.489618
 20
-3.489862
  0
VERTEX
  8
PLAN_1
  6
CONTINUOUS
 10
0.483886
 20
-3.490303
  0
VERTEX
  8
PLAN_1
  6
CONTINUOUS
 10
0.477713
 20
-3.490303
  0
VERTEX
  8
PLAN_1
  6
CONTINUOUS
 10
0.397913
 20
-3.490303
  0
VERTEX
  8
PLAN_1
  6
CONTINUOUS
 10
0.397913
 20
-3.291024
  0
SEQEND
  8
0
  0
POLYLINE
  8
PLAN_1
  6
CONTINUOUS
 66
     1
 40
0.003000
 41
0.003000
  0
VERTEX
  8
PLAN_1
  6
CONTINUOUS
 10
0.424807
 20
-3.467374
  0
VERTEX
  8
PLAN_1
  6
CONTINUOUS
 10
0.477272
 20
-3.467374
  0
VERTEX
  8
PLAN_1
  6
CONTINUOUS
 10
0.483445
 20
-3.466933
  0
VERTEX
  8
PLAN_1
  6
CONTINUOUS
 10
0.489618
 20
-3.466051
  0
VERTEX
  8
PLAN_1
  6
CONTINUOUS
 10
0.495346
 20
-3.464728
  0
VERTEX
  8
PLAN_1
  6
CONTINUOUS
 10
0.501079
 20
-3.462528
  0
VERTEX
  8
PLAN_1
  6
CONTINUOUS
 10
0.505929
 20
-3.459441
  0
VERTEX
  8
PLAN_1
  6
CONTINUOUS
 10
0.510780
 20
-3.455913
  0
VERTEX
  8
PLAN_1
  6
CONTINUOUS
 10
0.515189
 20
-3.451945
  0
VERTEX
  8
PLAN_1
  6
CONTINUOUS
 10
0.519157
 20
-3.447535
  0
VERTEX
  8
PLAN_1
  6
CONTINUOUS
 10
0.522681
 20
-3.442244
  0
VERTEX
  8
PLAN_1
  6
CONTINUOUS
 10
0.525768
 20
-3.436512
  0
VERTEX
  8
PLAN_1
  6
CONTINUOUS
 10
0.528413
 20
-3.429902
  0
VERTEX
  8
PLAN_1
  6
CONTINUOUS
 10
0.530618
 20
-3.422846
  0
VERTEX
  8
PLAN_1
  6
CONTINUOUS
 10
0.532382
 20
-3.415350
  0
VERTEX
  8
PLAN_1
  6
CONTINUOUS
 10
0.533705
 20
-3.407413
  0
VERTEX
  8
PLAN_1
  6
CONTINUOUS
 10
0.534587
 20
-3.399039
  0
VERTEX
  8
PLAN_1
  6
CONTINUOUS
 10
0.535028
 20
-3.389780
  0
VERTEX
  8
PLAN_1
  6
CONTINUOUS
 10
0.534587
 20
-3.380520
  0
VERTEX
  8
PLAN_1
  6
CONTINUOUS
 10
0.533705
 20
-3.372146
  0
VERTEX
  8
PLAN_1
  6
CONTINUOUS
 10
0.532382
 20
-3.364209
  0
VERTEX
  8
PLAN_1
  6
CONTINUOUS
 10
0.530618
 20
-3.356713
  0
VERTEX
  8
PLAN_1
  6
CONTINUOUS
 10
0.528413
 20
-3.350102
  0
VERTEX
  8
PLAN_1
  6
CONTINUOUS
 10
0.525768
 20
-3.343929
  0
VERTEX
  8
PLAN_1
  6
CONTINUOUS
 10
0.522244
 20
-3.338197
  0
VERTEX
  8
PLAN_1
  6
CONTINUOUS
 10
0.518717
 20
-3.333346
  0
VERTEX
  8
PLAN_1
  6
CONTINUOUS
 10
0.514748
 20
-3.328937
  0
VERTEX
  8
PLAN_1
  6
CONTINUOUS
 10
0.510339
 20
-3.324969
  0
VERTEX
  8
PLAN_1
  6
CONTINUOUS
 10
0.505047
 20
-3.321445
  0
VERTEX
  8
PLAN_1
  6
CONTINUOUS
 10
0.499756
 20
-3.318799
  0
VERTEX
  8
PLAN_1
  6
CONTINUOUS
 10
0.494465
 20
-3.317035
  0
VERTEX
  8
PLAN_1
  6
CONTINUOUS
 10
0.488295
 20
-3.315272
  0
VERTEX
  8
PLAN_1
  6
CONTINUOUS
 10
0.481681
 20
-3.314390
  0
VERTEX
  8
PLAN_1
  6
CONTINUOUS
 10
0.475067
 20
-3.314390
  0
VERTEX
  8
PLAN_1
  6
CONTINUOUS
 10
0.424807
 20
-3.314390
  0
VERTEX
  8
PLAN_1
  6
CONTINUOUS
 10
0.424807
 20
-3.467374
  0
SEQEND
  8
0
  0
POLYLINE
  8
PLAN_1
  6
CONTINUOUS
 66
     1
 40
0.003000
 41
0.003000
  0
VERTEX
  8
PLAN_1
  6
CONTINUOUS
 10
0.653185
 20
-3.495591
  0
VERTEX
  8
PLAN_1
  6
CONTINUOUS
 10
0.647894
 20
-3.495591
  0
VERTEX
  8
PLAN_1
  6
CONTINUOUS
 10
0.643043
 20
-3.495150
  0
VERTEX
  8
PLAN_1
  6
CONTINUOUS
 10
0.638634
 20
-3.494268
  0
VERTEX
  8
PLAN_1
  6
CONTINUOUS
 10
0.634228
 20
-3.492945
  0
VERTEX
  8
PLAN_1
  6
CONTINUOUS
 10
0.629819
 20
-3.491622
  0
VERTEX
  8
PLAN_1
  6
CONTINUOUS
 10
0.626291
 20
-3.489862
  0
VERTEX
  8
PLAN_1
  6
CONTINUOUS
 10
0.622323
 20
-3.488098
  0
VERTEX
  8
PLAN_1
  6
CONTINUOUS
 10
0.619236
 20
-3.485894
  0
VERTEX
  8
PLAN_1
  6
CONTINUOUS
 10
0.615709
 20
-3.483248
  0
VERTEX
  8
PLAN_1
  6
CONTINUOUS
 10
0.612622
 20
-3.480602
  0
VERTEX
  8
PLAN_1
  6
CONTINUOUS
 10
0.609976
 20
-3.477957
  0
VERTEX
  8
PLAN_1
  6
CONTINUOUS
 10
0.607331
 20
-3.474870
  0
VERTEX
  8
PLAN_1
  6
CONTINUOUS
 10
0.604689
 20
-3.471343
  0
VERTEX
  8
PLAN_1
  6
CONTINUOUS
 10
0.602484
 20
-3.468256
  0
VERTEX
  8
PLAN_1
  6
CONTINUOUS
 10
0.600720
 20
-3.464728
  0
VERTEX
  8
PLAN_1
  6
CONTINUOUS
 10
0.598516
 20
-3.460764
  0
VERTEX
  8
PLAN_1
  6
CONTINUOUS
 10
0.595429
 20
-3.453268
  0
VERTEX
  8
PLAN_1
  6
CONTINUOUS
 10
0.592783
 20
-3.444890
  0
VERTEX
  8
PLAN_1
  6
CONTINUOUS
 10
0.590579
 20
-3.436953
  0
VERTEX
  8
PLAN_1
  6
CONTINUOUS
 10
0.588815
 20
-3.428138
  0
VERTEX
  8
PLAN_1
  6
CONTINUOUS
 10
0.587492
 20
-3.419760
  0
VERTEX
  8
PLAN_1
  6
CONTINUOUS
 10
0.586610
 20
-3.411382
  0
VERTEX
  8
PLAN_1
  6
CONTINUOUS
 10
0.586169
 20
-3.403449
  0
VERTEX
  8
PLAN_1
  6
CONTINUOUS
 10
0.586169
 20
-3.395512
  0
VERTEX
  8
PLAN_1
  6
CONTINUOUS
 10
0.586169
 20
-3.387575
  0
VERTEX
  8
PLAN_1
  6
CONTINUOUS
 10
0.586610
 20
-3.379638
  0
VERTEX
  8
PLAN_1
  6
CONTINUOUS
 10
0.587492
 20
-3.371264
  0
VERTEX
  8
PLAN_1
  6
CONTINUOUS
 10
0.588815
 20
-3.362886
  0
VERTEX
  8
PLAN_1
  6
CONTINUOUS
 10
0.590579
 20
-3.354508
  0
VERTEX
  8
PLAN_1
  6
CONTINUOUS
 10
0.592783
 20
-3.346134
  0
VERTEX
  8
PLAN_1
  6
CONTINUOUS
 10
0.595429
 20
-3.338197
  0
VERTEX
  8
PLAN_1
  6
CONTINUOUS
 10
0.598516
 20
-3.330260
  0
VERTEX
  8
PLAN_1
  6
CONTINUOUS
 10
0.600720
 20
-3.326732
  0
VERTEX
  8
PLAN_1
  6
CONTINUOUS
 10
0.602484
 20
-3.323205
  0
VERTEX
  8
PLAN_1
  6
CONTINUOUS
 10
0.604689
 20
-3.319681
  0
VERTEX
  8
PLAN_1
  6
CONTINUOUS
 10
0.607331
 20
-3.316594
  0
VERTEX
  8
PLAN_1
  6
CONTINUOUS
 10
0.609976
 20
-3.313508
  0
VERTEX
  8
PLAN_1
  6
CONTINUOUS
 10
0.612622
 20
-3.310421
  0
VERTEX
  8
PLAN_1
  6
CONTINUOUS
 10
0.615709
 20
-3.307776
  0
VERTEX
  8
PLAN_1
  6
CONTINUOUS
 10
0.619236
 20
-3.305130
  0
VERTEX
  8
PLAN_1
  6
CONTINUOUS
 10
0.622323
 20
-3.302925
  0
VERTEX
  8
PLAN_1
  6
CONTINUOUS
 10
0.626291
 20
-3.301161
  0
VERTEX
  8
PLAN_1
  6
CONTINUOUS
 10
0.629819
 20
-3.299398
  0
VERTEX
  8
PLAN_1
  6
CONTINUOUS
 10
0.634228
 20
-3.298075
  0
VERTEX
  8
PLAN_1
  6
CONTINUOUS
 10
0.638634
 20
-3.296752
  0
VERTEX
  8
PLAN_1
  6
CONTINUOUS
 10
0.643043
 20
-3.295870
  0
VERTEX
  8
PLAN_1
  6
CONTINUOUS
 10
0.647894
 20
-3.295429
  0
VERTEX
  8
PLAN_1
  6
CONTINUOUS
 10
0.653185
 20
-3.295429
  0
VERTEX
  8
PLAN_1
  6
CONTINUOUS
 10
0.658035
 20
-3.295429
  0
VERTEX
  8
PLAN_1
  6
CONTINUOUS
 10
0.663323
 20
-3.295870
  0
VERTEX
  8
PLAN_1
  6
CONTINUOUS
 10
0.667732
 20
-3.296752
  0
VERTEX
  8
PLAN_1
  6
CONTINUOUS
 10
0.672142
 20
-3.298075
  0
VERTEX
  8
PLAN_1
  6
CONTINUOUS
 10
0.676110
 20
-3.299398
  0
VERTEX
  8
PLAN_1
  6
CONTINUOUS
 10
0.680079
 20
-3.301161
  0
VERTEX
  8
PLAN_1
  6
CONTINUOUS
 10
0.683606
 20
-3.302925
  0
VERTEX
  8
PLAN_1
  6
CONTINUOUS
 10
0.687134
 20
-3.305130
  0
VERTEX
  8
PLAN_1
  6
CONTINUOUS
 10
0.690661
 20
-3.307776
  0
VERTEX
  8
PLAN_1
  6
CONTINUOUS
 10
0.693303
 20
-3.310421
  0
VERTEX
  8
PLAN_1
  6
CONTINUOUS
 10
0.696390
 20
-3.313508
  0
VERTEX
  8
PLAN_1
  6
CONTINUOUS
 10
0.699035
 20
-3.316594
  0
VERTEX
  8
PLAN_1
  6
CONTINUOUS
 10
0.701240
 20
-3.319681
  0
VERTEX
  8
PLAN_1
  6
CONTINUOUS
 10
0.703445
 20
-3.323205
  0
VERTEX
  8
PLAN_1
  6
CONTINUOUS
 10
0.705650
 20
-3.326732
  0
VERTEX
  8
PLAN_1
  6
CONTINUOUS
 10
0.707413
 20
-3.330260
  0
VERTEX
  8
PLAN_1
  6
CONTINUOUS
 10
0.710941
 20
-3.338197
  0
VERTEX
  8
PLAN_1
  6
CONTINUOUS
 10
0.713587
 20
-3.346134
  0
VERTEX
  8
PLAN_1
  6
CONTINUOUS
 10
0.715791
 20
-3.354508
  0
VERTEX
  8
PLAN_1
  6
CONTINUOUS
 10
0.717555
 20
-3.362886
  0
VERTEX
  8
PLAN_1
  6
CONTINUOUS
 10
0.718437
 20
-3.371264
  0
VERTEX
  8
PLAN_1
  6
CONTINUOUS
 10
0.719319
 20
-3.379638
  0
VERTEX
  8
PLAN_1
  6
CONTINUOUS
 10
0.719756
 20
-3.387575
  0
VERTEX
  8
PLAN_1
  6
CONTINUOUS
 10
0.720197
 20
-3.395512
  0
VERTEX
  8
PLAN_1
  6
CONTINUOUS
 10
0.719756
 20
-3.403449
  0
VERTEX
  8
PLAN_1
  6
CONTINUOUS
 10
0.719319
 20
-3.411382
  0
VERTEX
  8
PLAN_1
  6
CONTINUOUS
 10
0.718437
 20
-3.419760
  0
VERTEX
  8
PLAN_1
  6
CONTINUOUS
 10
0.717555
 20
-3.428138
  0
VERTEX
  8
PLAN_1
  6
CONTINUOUS
 10
0.715791
 20
-3.436953
  0
VERTEX
  8
PLAN_1
  6
CONTINUOUS
 10
0.713587
 20
-3.444890
  0
VERTEX
  8
PLAN_1
  6
CONTINUOUS
 10
0.710941
 20
-3.453268
  0
VERTEX
  8
PLAN_1
  6
CONTINUOUS
 10
0.707413
 20
-3.460764
  0
VERTEX
  8
PLAN_1
  6
CONTINUOUS
 10
0.705650
 20
-3.464728
  0
VERTEX
  8
PLAN_1
  6
CONTINUOUS
 10
0.703445
 20
-3.468256
  0
VERTEX
  8
PLAN_1
  6
CONTINUOUS
 10
0.701240
 20
-3.471343
  0
VERTEX
  8
PLAN_1
  6
CONTINUOUS
 10
0.699035
 20
-3.474870
  0
VERTEX
  8
PLAN_1
  6
CONTINUOUS
 10
0.696390
 20
-3.477957
  0
VERTEX
  8
PLAN_1
  6
CONTINUOUS
 10
0.693303
 20
-3.480602
  0
VERTEX
  8
PLAN_1
  6
CONTINUOUS
 10
0.690661
 20
-3.483248
  0
VERTEX
  8
PLAN_1
  6
CONTINUOUS
 10
0.687134
 20
-3.485894
  0
VERTEX
  8
PLAN_1
  6
CONTINUOUS
 10
0.683606
 20
-3.488098
  0
VERTEX
  8
PLAN_1
  6
CONTINUOUS
 10
0.680079
 20
-3.489862
  0
VERTEX
  8
PLAN_1
  6
CONTINUOUS
 10
0.676110
 20
-3.491622
  0
VERTEX
  8
PLAN_1
  6
CONTINUOUS
 10
0.672142
 20
-3.492945
  0
VERTEX
  8
PLAN_1
  6
CONTINUOUS
 10
0.667732
 20
-3.494268
  0
VERTEX
  8
PLAN_1
  6
CONTINUOUS
 10
0.663323
 20
-3.495150
  0
VERTEX
  8
PLAN_1
  6
CONTINUOUS
 10
0.658035
 20
-3.495591
  0
VERTEX
  8
PLAN_1
  6
CONTINUOUS
 10
0.653185
 20
-3.495591
  0
SEQEND
  8
0
  0
POLYLINE
  8
PLAN_1
  6
CONTINUOUS
 66
     1
 40
0.003000
 41
0.003000
  0
VERTEX
  8
PLAN_1
  6
CONTINUOUS
 10
0.653185
 20
-3.317476
  0
VERTEX
  8
PLAN_1
  6
CONTINUOUS
 10
0.647894
 20
-3.317476
  0
VERTEX
  8
PLAN_1
  6
CONTINUOUS
 10
0.643484
 20
-3.318799
  0
VERTEX
  8
PLAN_1
  6
CONTINUOUS
 10
0.639075
 20
-3.320122
  0
VERTEX
  8
PLAN_1
  6
CONTINUOUS
 10
0.635106
 20
-3.322764
  0
VERTEX
  8
PLAN_1
  6
CONTINUOUS
 10
0.631142
 20
-3.325409
  0
VERTEX
  8
PLAN_1
  6
CONTINUOUS
 10
0.628055
 20
-3.329378
  0
VERTEX
  8
PLAN_1
  6
CONTINUOUS
 10
0.624969
 20
-3.333346
  0
VERTEX
  8
PLAN_1
  6
CONTINUOUS
 10
0.622323
 20
-3.338197
  0
VERTEX
  8
PLAN_1
  6
CONTINUOUS
 10
0.619677
 20
-3.343488
  0
VERTEX
  8
PLAN_1
  6
CONTINUOUS
 10
0.617913
 20
-3.349220
  0
VERTEX
  8
PLAN_1
  6
CONTINUOUS
 10
0.616150
 20
-3.355831
  0
VERTEX
  8
PLAN_1
  6
CONTINUOUS
 10
0.614827
 20
-3.362886
  0
VERTEX
  8
PLAN_1
  6
CONTINUOUS
 10
0.613504
 20
-3.370382
  0
VERTEX
  8
PLAN_1
  6
CONTINUOUS
 10
0.613063
 20
-3.378319
  0
VERTEX
  8
PLAN_1
  6
CONTINUOUS
 10
0.612622
 20
-3.386693
  0
VERTEX
  8
PLAN_1
  6
CONTINUOUS
 10
0.612181
 20
-3.395512
  0
VERTEX
  8
PLAN_1
  6
CONTINUOUS
 10
0.612622
 20
-3.404331
  0
VERTEX
  8
PLAN_1
  6
CONTINUOUS
 10
0.613063
 20
-3.413146
  0
VERTEX
  8
PLAN_1
  6
CONTINUOUS
 10
0.613504
 20
-3.421083
  0
VERTEX
  8
PLAN_1
  6
CONTINUOUS
 10
0.614827
 20
-3.428579
  0
VERTEX
  8
PLAN_1
  6
CONTINUOUS
 10
0.616150
 20
-3.435189
  0
VERTEX
  8
PLAN_1
  6
CONTINUOUS
 10
0.617913
 20
-3.441803
  0
VERTEX
  8
PLAN_1
  6
CONTINUOUS
 10
0.619677
 20
-3.447535
  0
VERTEX
  8
PLAN_1
  6
CONTINUOUS
 10
0.622323
 20
-3.452827
  0
VERTEX
  8
PLAN_1
  6
CONTINUOUS
 10
0.624969
 20
-3.457677
  0
VERTEX
  8
PLAN_1
  6
CONTINUOUS
 10
0.628055
 20
-3.462087
  0
VERTEX
  8
PLAN_1
  6
CONTINUOUS
 10
0.631142
 20
-3.465610
  0
VERTEX
  8
PLAN_1
  6
CONTINUOUS
 10
0.635106
 20
-3.468256
  0
VERTEX
  8
PLAN_1
  6
CONTINUOUS
 10
0.639075
 20
-3.470902
  0
VERTEX
  8
PLAN_1
  6
CONTINUOUS
 10
0.643484
 20
-3.472224
  0
VERTEX
  8
PLAN_1
  6
CONTINUOUS
 10
0.647894
 20
-3.473547
  0
VERTEX
  8
PLAN_1
  6
CONTINUOUS
 10
0.653185
 20
-3.473988
  0
VERTEX
  8
PLAN_1
  6
CONTINUOUS
 10
0.658035
 20
-3.473547
  0
VERTEX
  8
PLAN_1
  6
CONTINUOUS
 10
0.662886
 20
-3.472224
  0
VERTEX
  8
PLAN_1
  6
CONTINUOUS
 10
0.667291
 20
-3.470902
  0
VERTEX
  8
PLAN_1
  6
CONTINUOUS
 10
0.671260
 20
-3.468256
  0
VERTEX
  8
PLAN_1
  6
CONTINUOUS
 10
0.674787
 20
-3.465610
  0
VERTEX
  8
PLAN_1
  6
CONTINUOUS
 10
0.678315
 20
-3.462087
  0
VERTEX
  8
PLAN_1
  6
CONTINUOUS
 10
0.681402
 20
-3.457677
  0
VERTEX
  8
PLAN_1
  6
CONTINUOUS
 10
0.684047
 20
-3.452827
  0
VERTEX
  8
PLAN_1
  6
CONTINUOUS
 10
0.686252
 20
-3.447535
  0
VERTEX
  8
PLAN_1
  6
CONTINUOUS
 10
0.688457
 20
-3.441803
  0
VERTEX
  8
PLAN_1
  6
CONTINUOUS
 10
0.690220
 20
-3.435189
  0
VERTEX
  8
PLAN_1
  6
CONTINUOUS
 10
0.691539
 20
-3.428579
  0
VERTEX
  8
PLAN_1
  6
CONTINUOUS
 10
0.692421
 20
-3.421083
  0
VERTEX
  8
PLAN_1
  6
CONTINUOUS
 10
0.693303
 20
-3.413146
  0
VERTEX
  8
PLAN_1
  6
CONTINUOUS
 10
0.693744
 20
-3.404331
  0
VERTEX
  8
PLAN_1
  6
CONTINUOUS
 10
0.693744
 20
-3.395512
  0
VERTEX
  8
PLAN_1
  6
CONTINUOUS
 10
0.693744
 20
-3.386693
  0
VERTEX
  8
PLAN_1
  6
CONTINUOUS
 10
0.693303
 20
-3.378319
  0
VERTEX
  8
PLAN_1
  6
CONTINUOUS
 10
0.692421
 20
-3.370382
  0
VERTEX
  8
PLAN_1
  6
CONTINUOUS
 10
0.691539
 20
-3.362886
  0
VERTEX
  8
PLAN_1
  6
CONTINUOUS
 10
0.690220
 20
-3.355831
  0
VERTEX
  8
PLAN_1
  6
CONTINUOUS
 10
0.688457
 20
-3.349220
  0
VERTEX
  8
PLAN_1
  6
CONTINUOUS
 10
0.686252
 20
-3.343488
  0
VERTEX
  8
PLAN_1
  6
CONTINUOUS
 10
0.684047
 20
-3.338197
  0
VERTEX
  8
PLAN_1
  6
CONTINUOUS
 10
0.681402
 20
-3.333346
  0
VERTEX
  8
PLAN_1
  6
CONTINUOUS
 10
0.678315
 20
-3.329378
  0
VERTEX
  8
PLAN_1
  6
CONTINUOUS
 10
0.674787
 20
-3.325409
  0
VERTEX
  8
PLAN_1
  6
CONTINUOUS
 10
0.671260
 20
-3.322764
  0
VERTEX
  8
PLAN_1
  6
CONTINUOUS
 10
0.667291
 20
-3.320122
  0
VERTEX
  8
PLAN_1
  6
CONTINUOUS
 10
0.662886
 20
-3.318799
  0
VERTEX
  8
PLAN_1
  6
CONTINUOUS
 10
0.658035
 20
-3.317476
  0
VERTEX
  8
PLAN_1
  6
CONTINUOUS
 10
0.653185
 20
-3.317476
  0
SEQEND
  8
0
  0
POLYLINE
  8
PLAN_1
  6
CONTINUOUS
 66
     1
 40
0.003000
 41
0.003000
  0
VERTEX
  8
PLAN_1
  6
CONTINUOUS
 10
0.742685
 20
-3.365091
  0
VERTEX
  8
PLAN_1
  6
CONTINUOUS
 10
0.742685
 20
-3.359358
  0
VERTEX
  8
PLAN_1
  6
CONTINUOUS
 10
0.743126
 20
-3.354067
  0
VERTEX
  8
PLAN_1
  6
CONTINUOUS
 10
0.743567
 20
-3.348780
  0
VERTEX
  8
PLAN_1
  6
CONTINUOUS
 10
0.744449
 20
-3.343929
  0
VERTEX
  8
PLAN_1
  6
CONTINUOUS
 10
0.745772
 20
-3.339520
  0
VERTEX
  8
PLAN_1
  6
CONTINUOUS
 10
0.747094
 20
-3.335110
  0
VERTEX
  8
PLAN_1
  6
CONTINUOUS
 10
0.748413
 20
-3.331142
  0
VERTEX
  8
PLAN_1
  6
CONTINUOUS
 10
0.750177
 20
-3.327614
  0
VERTEX
  8
PLAN_1
  6
CONTINUOUS
 10
0.751941
 20
-3.324087
  0
VERTEX
  8
PLAN_1
  6
CONTINUOUS
 10
0.754146
 20
-3.321004
  0
VERTEX
  8
PLAN_1
  6
CONTINUOUS
 10
0.755909
 20
-3.317917
  0
VERTEX
  8
PLAN_1
  6
CONTINUOUS
 10
0.758114
 20
-3.315272
  0
VERTEX
  8
PLAN_1
  6
CONTINUOUS
 10
0.762965
 20
-3.310421
  0
VERTEX
  8
PLAN_1
  6
CONTINUOUS
 10
0.768256
 20
-3.306453
  0
VERTEX
  8
PLAN_1
  6
CONTINUOUS
 10
0.773988
 20
-3.303366
  0
VERTEX
  8
PLAN_1
  6
CONTINUOUS
 10
0.779276
 20
-3.300720
  0
VERTEX
  8
PLAN_1
  6
CONTINUOUS
 10
0.785008
 20
-3.298957
  0
VERTEX
  8
PLAN_1
  6
CONTINUOUS
 10
0.790740
 20
-3.297193
  0
VERTEX
  8
PLAN_1
  6
CONTINUOUS
 10
0.796031
 20
-3.296311
  0
VERTEX
  8
PLAN_1
  6
CONTINUOUS
 10
0.800882
 20
-3.295870
  0
VERTEX
  8
PLAN_1
  6
CONTINUOUS
 10
0.805728
 20
-3.295429
  0
VERTEX
  8
PLAN_1
  6
CONTINUOUS
 10
0.810138
 20
-3.295429
  0
VERTEX
  8
PLAN_1
  6
CONTINUOUS
 10
0.816311
 20
-3.295429
  0
VERTEX
  8
PLAN_1
  6
CONTINUOUS
 10
0.822484
 20
-3.296311
  0
VERTEX
  8
PLAN_1
  6
CONTINUOUS
 10
0.828217
 20
-3.297634
  0
VERTEX
  8
PLAN_1
  6
CONTINUOUS
 10
0.833945
 20
-3.299398
  0
VERTEX
  8
PLAN_1
  6
CONTINUOUS
 10
0.839236
 20
-3.301602
  0
VERTEX
  8
PLAN_1
  6
CONTINUOUS
 10
0.844087
 20
-3.304248
  0
VERTEX
  8
PLAN_1
  6
CONTINUOUS
 10
0.848937
 20
-3.307335
  0
VERTEX
  8
PLAN_1
  6
CONTINUOUS
 10
0.853346
 20
-3.310862
  0
VERTEX
  8
PLAN_1
  6
CONTINUOUS
 10
0.857315
 20
-3.314831
  0
VERTEX
  8
PLAN_1
  6
CONTINUOUS
 10
0.860398
 20
-3.319240
  0
VERTEX
  8
PLAN_1
  6
CONTINUOUS
 10
0.863484
 20
-3.324087
  0
VERTEX
  8
PLAN_1
  6
CONTINUOUS
 10
0.866130
 20
-3.329378
  0
VERTEX
  8
PLAN_1
  6
CONTINUOUS
 10
0.868335
 20
-3.334669
  0
VERTEX
  8
PLAN_1
  6
CONTINUOUS
 10
0.869657
 20
-3.340843
  0
VERTEX
  8
PLAN_1
  6
CONTINUOUS
 10
0.870539
 20
-3.347016
  0
VERTEX
  8
PLAN_1
  6
CONTINUOUS
 10
0.870980
 20
-3.353626
  0
VERTEX
  8
PLAN_1
  6
CONTINUOUS
 10
0.870539
 20
-3.359799
  0
VERTEX
  8
PLAN_1
  6
CONTINUOUS
 10
0.870098
 20
-3.365972
  0
VERTEX
  8
PLAN_1
  6
CONTINUOUS
 10
0.868776
 20
-3.371264
  0
VERTEX
  8
PLAN_1
  6
CONTINUOUS
 10
0.867012
 20
-3.376555
  0
VERTEX
  8
PLAN_1
  6
CONTINUOUS
 10
0.864807
 20
-3.380961
  0
VERTEX
  8
PLAN_1
  6
CONTINUOUS
 10
0.862161
 20
-3.385370
  0
VERTEX
  8
PLAN_1
  6
CONTINUOUS
 10
0.859079
 20
-3.389780
  0
VERTEX
  8
PLAN_1
  6
CONTINUOUS
 10
0.855992
 20
-3.393748
  0
VERTEX
  8
PLAN_1
  6
CONTINUOUS
 10
0.852024
 20
-3.397276
  0
VERTEX
  8
PLAN_1
  6
CONTINUOUS
 10
0.848055
 20
-3.400803
  0
VERTEX
  8
PLAN_1
  6
CONTINUOUS
 10
0.843646
 20
-3.403890
  0
VERTEX
  8
PLAN_1
  6
CONTINUOUS
 10
0.839236
 20
-3.406972
  0
VERTEX
  8
PLAN_1
  6
CONTINUOUS
 10
0.829539
 20
-3.413146
  0
VERTEX
  8
PLAN_1
  6
CONTINUOUS
 10
0.818957
 20
-3.418878
  0
VERTEX
  8
PLAN_1
  6
CONTINUOUS
 10
0.798677
 20
-3.429902
  0
VERTEX
  8
PLAN_1
  6
CONTINUOUS
 10
0.793827
 20
-3.432547
  0
VERTEX
  8
PLAN_1
  6
CONTINUOUS
 10
0.789417
 20
-3.435630
  0
VERTEX
  8
PLAN_1
  6
CONTINUOUS
 10
0.785890
 20
-3.438276
  0
VERTEX
  8
PLAN_1
  6
CONTINUOUS
 10
0.782362
 20
-3.440921
  0
VERTEX
  8
PLAN_1
  6
CONTINUOUS
 10
0.776630
 20
-3.446213
  0
VERTEX
  8
PLAN_1
  6
CONTINUOUS
 10
0.772224
 20
-3.451504
  0
VERTEX
  8
PLAN_1
  6
CONTINUOUS
 10
0.769138
 20
-3.456354
  0
VERTEX
  8
PLAN_1
  6
CONTINUOUS
 10
0.766933
 20
-3.460323
  0
VERTEX
  8
PLAN_1
  6
CONTINUOUS
 10
0.765610
 20
-3.464287
  0
VERTEX
  8
PLAN_1
  6
CONTINUOUS
 10
0.765169
 20
-3.467374
  0
VERTEX
  8
PLAN_1
  6
CONTINUOUS
 10
0.870980
 20
-3.467374
  0
VERTEX
  8
PLAN_1
  6
CONTINUOUS
 10
0.870980
 20
-3.490303
  0
VERTEX
  8
PLAN_1
  6
CONTINUOUS
 10
0.737394
 20
-3.490303
  0
VERTEX
  8
PLAN_1
  6
CONTINUOUS
 10
0.737835
 20
-3.483248
  0
VERTEX
  8
PLAN_1
  6
CONTINUOUS
 10
0.738717
 20
-3.476193
  0
VERTEX
  8
PLAN_1
  6
CONTINUOUS
 10
0.740039
 20
-3.469579
  0
VERTEX
  8
PLAN_1
  6
CONTINUOUS
 10
0.741803
 20
-3.463406
  0
VERTEX
  8
PLAN_1
  6
CONTINUOUS
 10
0.743567
 20
-3.457677
  0
VERTEX
  8
PLAN_1
  6
CONTINUOUS
 10
0.745772
 20
-3.452386
  0
VERTEX
  8
PLAN_1
  6
CONTINUOUS
 10
0.748413
 20
-3.447094
  0
VERTEX
  8
PLAN_1
  6
CONTINUOUS
 10
0.751059
 20
-3.442244
  0
VERTEX
  8
PLAN_1
  6
CONTINUOUS
 10
0.754146
 20
-3.437835
  0
VERTEX
  8
PLAN_1
  6
CONTINUOUS
 10
0.757673
 20
-3.433429
  0
VERTEX
  8
PLAN_1
  6
CONTINUOUS
 10
0.761642
 20
-3.429461
  0
VERTEX
  8
PLAN_1
  6
CONTINUOUS
 10
0.765169
 20
-3.425933
  0
VERTEX
  8
PLAN_1
  6
CONTINUOUS
 10
0.769579
 20
-3.422406
  0
VERTEX
  8
PLAN_1
  6
CONTINUOUS
 10
0.773988
 20
-3.418878
  0
VERTEX
  8
PLAN_1
  6
CONTINUOUS
 10
0.778394
 20
-3.415791
  0
VERTEX
  8
PLAN_1
  6
CONTINUOUS
 10
0.783244
 20
-3.413146
  0
VERTEX
  8
PLAN_1
  6
CONTINUOUS
 10
0.809256
 20
-3.398157
  0
VERTEX
  8
PLAN_1
  6
CONTINUOUS
 10
0.816752
 20
-3.393748
  0
VERTEX
  8
PLAN_1
  6
CONTINUOUS
 10
0.823366
 20
-3.389339
  0
VERTEX
  8
PLAN_1
  6
CONTINUOUS
 10
0.829539
 20
-3.384929
  0
VERTEX
  8
PLAN_1
  6
CONTINUOUS
 10
0.834827
 20
-3.380520
  0
VERTEX
  8
PLAN_1
  6
CONTINUOUS
 10
0.837031
 20
-3.377878
  0
VERTEX
  8
PLAN_1
  6
CONTINUOUS
 10
0.839236
 20
-3.374791
  0
VERTEX
  8
PLAN_1
  6
CONTINUOUS
 10
0.841000
 20
-3.372146
  0
VERTEX
  8
PLAN_1
  6
CONTINUOUS
 10
0.842323
 20
-3.368618
  0
VERTEX
  8
PLAN_1
  6
CONTINUOUS
 10
0.843205
 20
-3.365091
  0
VERTEX
  8
PLAN_1
  6
CONTINUOUS
 10
0.844087
 20
-3.361122
  0
VERTEX
  8
PLAN_1
  6
CONTINUOUS
 10
0.844969
 20
-3.357154
  0
VERTEX
  8
PLAN_1
  6
CONTINUOUS
 10
0.844969
 20
-3.352744
  0
VERTEX
  8
PLAN_1
  6
CONTINUOUS
 10
0.844969
 20
-3.349661
  0
VERTEX
  8
PLAN_1
  6
CONTINUOUS
 10
0.844528
 20
-3.346575
  0
VERTEX
  8
PLAN_1
  6
CONTINUOUS
 10
0.843646
 20
-3.343488
  0
VERTEX
  8
PLAN_1
  6
CONTINUOUS
 10
0.842764
 20
-3.340402
  0
VERTEX
  8
PLAN_1
  6
CONTINUOUS
 10
0.841882
 20
-3.337315
  0
VERTEX
  8
PLAN_1
  6
CONTINUOUS
 10
0.840118
 20
-3.334669
  0
VERTEX
  8
PLAN_1
  6
CONTINUOUS
 10
0.838354
 20
-3.331583
  0
VERTEX
  8
PLAN_1
  6
CONTINUOUS
 10
0.836150
 20
-3.328937
  0
VERTEX
  8
PLAN_1
  6
CONTINUOUS
 10
0.833945
 20
-3.326732
  0
VERTEX
  8
PLAN_1
  6
CONTINUOUS
 10
0.831303
 20
-3.324528
  0
VERTEX
  8
PLAN_1
  6
CONTINUOUS
 10
0.827776
 20
-3.322323
  0
VERTEX
  8
PLAN_1
  6
CONTINUOUS
 10
0.824248
 20
-3.320563
  0
VERTEX
  8
PLAN_1
  6
CONTINUOUS
 10
0.820720
 20
-3.319240
  0
VERTEX
  8
PLAN_1
  6
CONTINUOUS
 10
0.816311
 20
-3.318358
  0
VERTEX
  8
PLAN_1
  6
CONTINUOUS
 10
0.811461
 20
-3.317476
  0
VERTEX
  8
PLAN_1
  6
CONTINUOUS
 10
0.806169
 20
-3.317476
  0
VERTEX
  8
PLAN_1
  6
CONTINUOUS
 10
0.800000
 20
-3.317476
  0
VERTEX
  8
PLAN_1
  6
CONTINUOUS
 10
0.794268
 20
-3.318799
  0
VERTEX
  8
PLAN_1
  6
CONTINUOUS
 10
0.788976
 20
-3.320563
  0
VERTEX
  8
PLAN_1
  6
CONTINUOUS
 10
0.784567
 20
-3.322764
  0
VERTEX
  8
PLAN_1
  6
CONTINUOUS
 10
0.781039
 20
-3.325850
  0
VERTEX
  8
PLAN_1
  6
CONTINUOUS
 10
0.777953
 20
-3.328937
  0
VERTEX
  8
PLAN_1
  6
CONTINUOUS
 10
0.775311
 20
-3.332465
  0
VERTEX
  8
PLAN_1
  6
CONTINUOUS
 10
0.773106
 20
-3.335992
  0
VERTEX
  8
PLAN_1
  6
CONTINUOUS
 10
0.771343
 20
-3.339961
  0
VERTEX
  8
PLAN_1
  6
CONTINUOUS
 10
0.770020
 20
-3.343929
  0
VERTEX
  8
PLAN_1
  6
CONTINUOUS
 10
0.769138
 20
-3.348339
  0
VERTEX
  8
PLAN_1
  6
CONTINUOUS
 10
0.768256
 20
-3.351862
  0
VERTEX
  8
PLAN_1
  6
CONTINUOUS
 10
0.767374
 20
-3.359358
  0
VERTEX
  8
PLAN_1
  6
CONTINUOUS
 10
0.766933
 20
-3.365091
  0
VERTEX
  8
PLAN_1
  6
CONTINUOUS
 10
0.742685
 20
-3.365091
  0
SEQEND
  8
0
  0
SOLID
  8
PLAN_1
 10
0.884650
 20
-3.525130
 11
0.884650
 21
-3.511465
 12
1.038957
 22
-3.525130
 13
1.038957
 23
-3.511465
  0
POLYLINE
  8
PLAN_1
  6
CONTINUOUS
 66
     1
 40
0.003000
 41
0.003000
  0
VERTEX
  8
PLAN_1
  6
CONTINUOUS
 10
0.884650
 20
-3.525130
  0
VERTEX
  8
PLAN_1
  6
CONTINUOUS
 10
0.884650
 20
-3.511465
  0
VERTEX
  8
PLAN_1
  6
CONTINUOUS
 10
1.038957
 20
-3.511465
  0
VERTEX
  8
PLAN_1
  6
CONTINUOUS
 10
1.038957
 20
-3.525130
  0
VERTEX
  8
PLAN_1
  6
CONTINUOUS
 10
0.884650
 20
-3.525130
  0
SEQEND
  8
0
  0
POLYLINE
  8
PLAN_1
  6
CONTINUOUS
 66
     1
 40
0.003000
 41
0.003000
  0
VERTEX
  8
PLAN_1
  6
CONTINUOUS
 10
1.090539
 20
-3.490303
  0
VERTEX
  8
PLAN_1
  6
CONTINUOUS
 10
1.063646
 20
-3.490303
  0
VERTEX
  8
PLAN_1
  6
CONTINUOUS
 10
1.063646
 20
-3.291024
  0
VERTEX
  8
PLAN_1
  6
CONTINUOUS
 10
1.155350
 20
-3.291024
  0
VERTEX
  8
PLAN_1
  6
CONTINUOUS
 10
1.161524
 20
-3.291465
  0
VERTEX
  8
PLAN_1
  6
CONTINUOUS
 10
1.167697
 20
-3.291906
  0
VERTEX
  8
PLAN_1
  6
CONTINUOUS
 10
1.173866
 20
-3.292346
  0
VERTEX
  8
PLAN_1
  6
CONTINUOUS
 10
1.179598
 20
-3.293669
  0
VERTEX
  8
PLAN_1
  6
CONTINUOUS
 10
1.185331
 20
-3.294988
  0
VERTEX
  8
PLAN_1
  6
CONTINUOUS
 10
1.190622
 20
-3.297193
  0
VERTEX
  8
PLAN_1
  6
CONTINUOUS
 10
1.195913
 20
-3.299398
  0
VERTEX
  8
PLAN_1
  6
CONTINUOUS
 10
1.200760
 20
-3.302043
  0
VERTEX
  8
PLAN_1
  6
CONTINUOUS
 10
1.205169
 20
-3.305571
  0
VERTEX
  8
PLAN_1
  6
CONTINUOUS
 10
1.209138
 20
-3.309098
  0
VERTEX
  8
PLAN_1
  6
CONTINUOUS
 10
1.212224
 20
-3.313508
  0
VERTEX
  8
PLAN_1
  6
CONTINUOUS
 10
1.215311
 20
-3.318799
  0
VERTEX
  8
PLAN_1
  6
CONTINUOUS
 10
1.217957
 20
-3.324087
  0
VERTEX
  8
PLAN_1
  6
CONTINUOUS
 10
1.219720
 20
-3.330260
  0
VERTEX
  8
PLAN_1
  6
CONTINUOUS
 10
1.220602
 20
-3.337315
  0
VERTEX
  8
PLAN_1
  6
CONTINUOUS
 10
1.221043
 20
-3.344811
  0
VERTEX
  8
PLAN_1
  6
CONTINUOUS
 10
1.221043
 20
-3.350102
  0
VERTEX
  8
PLAN_1
  6
CONTINUOUS
 10
1.220161
 20
-3.354949
  0
VERTEX
  8
PLAN_1
  6
CONTINUOUS
 10
1.219720
 20
-3.359358
  0
VERTEX
  8
PLAN_1
  6
CONTINUOUS
 10
1.218398
 20
-3.363768
  0
VERTEX
  8
PLAN_1
  6
CONTINUOUS
 10
1.217075
 20
-3.367295
  0
VERTEX
  8
PLAN_1
  6
CONTINUOUS
 10
1.215752
 20
-3.370823
  0
VERTEX
  8
PLAN_1
  6
CONTINUOUS
 10
1.213988
 20
-3.373909
  0
VERTEX
  8
PLAN_1
  6
CONTINUOUS
 10
1.211783
 20
-3.376996
  0
VERTEX
  8
PLAN_1
  6
CONTINUOUS
 10
1.207815
 20
-3.381843
  0
VERTEX
  8
PLAN_1
  6
CONTINUOUS
 10
1.202965
 20
-3.385811
  0
VERTEX
  8
PLAN_1
  6
CONTINUOUS
 10
1.198114
 20
-3.389339
  0
VERTEX
  8
PLAN_1
  6
CONTINUOUS
 10
1.193268
 20
-3.392425
  0
VERTEX
  8
PLAN_1
  6
CONTINUOUS
 10
1.197677
 20
-3.394189
  0
VERTEX
  8
PLAN_1
  6
CONTINUOUS
 10
1.201642
 20
-3.396394
  0
VERTEX
  8
PLAN_1
  6
CONTINUOUS
 10
1.205610
 20
-3.399039
  0
VERTEX
  8
PLAN_1
  6
CONTINUOUS
 10
1.209138
 20
-3.402567
  0
VERTEX
  8
PLAN_1
  6
CONTINUOUS
 10
1.210461
 20
-3.404772
  0
VERTEX
  8
PLAN_1
  6
CONTINUOUS
 10
1.212224
 20
-3.406972
  0
VERTEX
  8
PLAN_1
  6
CONTINUOUS
 10
1.213547
 20
-3.410059
  0
VERTEX
  8
PLAN_1
  6
CONTINUOUS
 10
1.214429
 20
-3.413146
  0
VERTEX
  8
PLAN_1
  6
CONTINUOUS
 10
1.215311
 20
-3.416673
  0
VERTEX
  8
PLAN_1
  6
CONTINUOUS
 10
1.216193
 20
-3.420642
  0
VERTEX
  8
PLAN_1
  6
CONTINUOUS
 10
1.216634
 20
-3.425051
  0
VERTEX
  8
PLAN_1
  6
CONTINUOUS
 10
1.217075
 20
-3.429902
  0
VERTEX
  8
PLAN_1
  6
CONTINUOUS
 10
1.218839
 20
-3.466051
  0
VERTEX
  8
PLAN_1
  6
CONTINUOUS
 10
1.218839
 20
-3.470020
  0
VERTEX
  8
PLAN_1
  6
CONTINUOUS
 10
1.219280
 20
-3.473106
  0
VERTEX
  8
PLAN_1
  6
CONTINUOUS
 10
1.219720
 20
-3.476193
  0
VERTEX
  8
PLAN_1
  6
CONTINUOUS
 10
1.220602
 20
-3.478398
  0
VERTEX
  8
PLAN_1
  6
CONTINUOUS
 10
1.221925
 20
-3.480602
  0
VERTEX
  8
PLAN_1
  6
CONTINUOUS
 10
1.223689
 20
-3.482366
  0
VERTEX
  8
PLAN_1
  6
CONTINUOUS
 10
1.225894
 20
-3.484130
  0
VERTEX
  8
PLAN_1
  6
CONTINUOUS
 10
1.228976
 20
-3.485894
  0
VERTEX
  8
PLAN_1
  6
CONTINUOUS
 10
1.228976
 20
-3.490303
  0
VERTEX
  8
PLAN_1
  6
CONTINUOUS
 10
1.195913
 20
-3.490303
  0
VERTEX
  8
PLAN_1
  6
CONTINUOUS
 10
1.194591
 20
-3.485012
  0
VERTEX
  8
PLAN_1
  6
CONTINUOUS
 10
1.193268
 20
-3.478398
  0
VERTEX
  8
PLAN_1
  6
CONTINUOUS
 10
1.192386
 20
-3.471343
  0
VERTEX
  8
PLAN_1
  6
CONTINUOUS
 10
1.191945
 20
-3.463846
  0
VERTEX
  8
PLAN_1
  6
CONTINUOUS
 10
1.191504
 20
-3.456354
  0
VERTEX
  8
PLAN_1
  6
CONTINUOUS
 10
1.191063
 20
-3.449740
  0
VERTEX
  8
PLAN_1
  6
CONTINUOUS
 10
1.191063
 20
-3.444449
  0
VERTEX
  8
PLAN_1
  6
CONTINUOUS
 10
1.191063
 20
-3.440480
  0
VERTEX
  8
PLAN_1
  6
CONTINUOUS
 10
1.191063
 20
-3.434311
  0
VERTEX
  8
PLAN_1
  6
CONTINUOUS
 10
1.190181
 20
-3.428138
  0
VERTEX
  8
PLAN_1
  6
CONTINUOUS
 10
1.189299
 20
-3.425051
  0
VERTEX
  8
PLAN_1
  6
CONTINUOUS
 10
1.188417
 20
-3.421965
  0
VERTEX
  8
PLAN_1
  6
CONTINUOUS
 10
1.187094
 20
-3.419319
  0
VERTEX
  8
PLAN_1
  6
CONTINUOUS
 10
1.185331
 20
-3.416673
  0
VERTEX
  8
PLAN_1
  6
CONTINUOUS
 10
1.183567
 20
-3.414028
  0
VERTEX
  8
PLAN_1
  6
CONTINUOUS
 10
1.180921
 20
-3.411823
  0
VERTEX
  8
PLAN_1
  6
CONTINUOUS
 10
1.177835
 20
-3.410059
  0
VERTEX
  8
PLAN_1
  6
CONTINUOUS
 10
1.174748
 20
-3.408295
  0
VERTEX
  8
PLAN_1
  6
CONTINUOUS
 10
1.170780
 20
-3.406972
  0
VERTEX
  8
PLAN_1
  6
CONTINUOUS
 10
1.166374
 20
-3.405654
  0
VERTEX
  8
PLAN_1
  6
CONTINUOUS
 10
1.161083
 20
-3.405213
  0
VERTEX
  8
PLAN_1
  6
CONTINUOUS
 10
1.155350
 20
-3.404772
  0
VERTEX
  8
PLAN_1
  6
CONTINUOUS
 10
1.090539
 20
-3.404772
  0
VERTEX
  8
PLAN_1
  6
CONTINUOUS
 10
1.090539
 20
-3.490303
  0
SEQEND
  8
0
  0
POLYLINE
  8
PLAN_1
  6
CONTINUOUS
 66
     1
 40
0.003000
 41
0.003000
  0
VERTEX
  8
PLAN_1
  6
CONTINUOUS
 10
1.090539
 20
-3.381843
  0
VERTEX
  8
PLAN_1
  6
CONTINUOUS
 10
1.152705
 20
-3.381843
  0
VERTEX
  8
PLAN_1
  6
CONTINUOUS
 10
1.160201
 20
-3.381843
  0
VERTEX
  8
PLAN_1
  6
CONTINUOUS
 10
1.167256
 20
-3.380520
  0
VERTEX
  8
PLAN_1
  6
CONTINUOUS
 10
1.170780
 20
-3.380079
  0
VERTEX
  8
PLAN_1
  6
CONTINUOUS
 10
1.174307
 20
-3.378756
  0
VERTEX
  8
PLAN_1
  6
CONTINUOUS
 10
1.177394
 20
-3.377437
  0
VERTEX
  8
PLAN_1
  6
CONTINUOUS
 10
1.180480
 20
-3.375673
  0
VERTEX
  8
PLAN_1
  6
CONTINUOUS
 10
1.183126
 20
-3.373909
  0
VERTEX
  8
PLAN_1
  6
CONTINUOUS
 10
1.185772
 20
-3.371264
  0
VERTEX
  8
PLAN_1
  6
CONTINUOUS
 10
1.187976
 20
-3.368618
  0
VERTEX
  8
PLAN_1
  6
CONTINUOUS
 10
1.189740
 20
-3.365531
  0
VERTEX
  8
PLAN_1
  6
CONTINUOUS
 10
1.191063
 20
-3.361563
  0
VERTEX
  8
PLAN_1
  6
CONTINUOUS
 10
1.192386
 20
-3.357594
  0
VERTEX
  8
PLAN_1
  6
CONTINUOUS
 10
1.193268
 20
-3.352744
  0
VERTEX
  8
PLAN_1
  6
CONTINUOUS
 10
1.193268
 20
-3.347457
  0
VERTEX
  8
PLAN_1
  6
CONTINUOUS
 10
1.192827
 20
-3.342165
  0
VERTEX
  8
PLAN_1
  6
CONTINUOUS
 10
1.192386
 20
-3.337315
  0
VERTEX
  8
PLAN_1
  6
CONTINUOUS
 10
1.191063
 20
-3.332906
  0
VERTEX
  8
PLAN_1
  6
CONTINUOUS
 10
1.189740
 20
-3.329378
  0
VERTEX
  8
PLAN_1
  6
CONTINUOUS
 10
1.187535
 20
-3.326291
  0
VERTEX
  8
PLAN_1
  6
CONTINUOUS
 10
1.185331
 20
-3.323646
  0
VERTEX
  8
PLAN_1
  6
CONTINUOUS
 10
1.183126
 20
-3.321004
  0
VERTEX
  8
PLAN_1
  6
CONTINUOUS
 10
1.180480
 20
-3.319240
  0
VERTEX
  8
PLAN_1
  6
CONTINUOUS
 10
1.177394
 20
-3.317917
  0
VERTEX
  8
PLAN_1
  6
CONTINUOUS
 10
1.174748
 20
-3.316594
  0
VERTEX
  8
PLAN_1
  6
CONTINUOUS
 10
1.171661
 20
-3.315713
  0
VERTEX
  8
PLAN_1
  6
CONTINUOUS
 10
1.168579
 20
-3.315272
  0
VERTEX
  8
PLAN_1
  6
CONTINUOUS
 10
1.162846
 20
-3.314390
  0
VERTEX
  8
PLAN_1
  6
CONTINUOUS
 10
1.157555
 20
-3.314390
  0
VERTEX
  8
PLAN_1
  6
CONTINUOUS
 10
1.090539
 20
-3.314390
  0
VERTEX
  8
PLAN_1
  6
CONTINUOUS
 10
1.090539
 20
-3.381843
  0
SEQEND
  8
0
  0
SOLID
  8
PLAN_1
 10
1.292465
 20
-3.490303
 11
1.263807
 21
-3.490303
 12
1.292465
 22
-3.461205
 13
1.263807
 23
-3.461205
  0
POLYLINE
  8
PLAN_1
  6
CONTINUOUS
 66
     1
 40
0.003000
 41
0.003000
  0
VERTEX
  8
PLAN_1
  6
CONTINUOUS
 10
1.292465
 20
-3.490303
  0
VERTEX
  8
PLAN_1
  6
CONTINUOUS
 10
1.263807
 20
-3.490303
  0
VERTEX
  8
PLAN_1
  6
CONTINUOUS
 10
1.263807
 20
-3.461205
  0
VERTEX
  8
PLAN_1
  6
CONTINUOUS
 10
1.292465
 20
-3.461205
  0
VERTEX
  8
PLAN_1
  6
CONTINUOUS
 10
1.292465
 20
-3.490303
  0
SEQEND
  8
0
  0
POLYLINE
  8
PLAN_1
  6
CONTINUOUS
 66
     1
 40
0.003000
 41
0.003000
  0
VERTEX
  8
PLAN_1
  6
CONTINUOUS
 10
1.487335
 20
-3.490303
  0
VERTEX
  8
PLAN_1
  6
CONTINUOUS
 10
1.340520
 20
-3.490303
  0
VERTEX
  8
PLAN_1
  6
CONTINUOUS
 10
1.340520
 20
-3.291024
  0
VERTEX
  8
PLAN_1
  6
CONTINUOUS
 10
1.485571
 20
-3.291024
  0
VERTEX
  8
PLAN_1
  6
CONTINUOUS
 10
1.485571
 20
-3.315272
  0
VERTEX
  8
PLAN_1
  6
CONTINUOUS
 10
1.367413
 20
-3.315272
  0
VERTEX
  8
PLAN_1
  6
CONTINUOUS
 10
1.367413
 20
-3.376114
  0
VERTEX
  8
PLAN_1
  6
CONTINUOUS
 10
1.476315
 20
-3.376114
  0
VERTEX
  8
PLAN_1
  6
CONTINUOUS
 10
1.476315
 20
-3.399921
  0
VERTEX
  8
PLAN_1
  6
CONTINUOUS
 10
1.367413
 20
-3.399921
  0
VERTEX
  8
PLAN_1
  6
CONTINUOUS
 10
1.367413
 20
-3.466492
  0
VERTEX
  8
PLAN_1
  6
CONTINUOUS
 10
1.487335
 20
-3.466492
  0
VERTEX
  8
PLAN_1
  6
CONTINUOUS
 10
1.487335
 20
-3.490303
  0
SEQEND
  8
0
  0
POLYLINE
  8
PLAN_1
  6
CONTINUOUS
 66
     1
 40
0.003000
 41
0.003000
  0
VERTEX
  8
PLAN_1
  6
CONTINUOUS
 10
1.552587
 20
-3.490303
  0
VERTEX
  8
PLAN_1
  6
CONTINUOUS
 10
1.525693
 20
-3.490303
  0
VERTEX
  8
PLAN_1
  6
CONTINUOUS
 10
1.525693
 20
-3.291024
  0
VERTEX
  8
PLAN_1
  6
CONTINUOUS
 10
1.615193
 20
-3.291024
  0
VERTEX
  8
PLAN_1
  6
CONTINUOUS
 10
1.621803
 20
-3.291465
  0
VERTEX
  8
PLAN_1
  6
CONTINUOUS
 10
1.628417
 20
-3.292346
  0
VERTEX
  8
PLAN_1
  6
CONTINUOUS
 10
1.634591
 20
-3.293669
  0
VERTEX
  8
PLAN_1
  6
CONTINUOUS
 10
1.639882
 20
-3.295429
  0
VERTEX
  8
PLAN_1
  6
CONTINUOUS
 10
1.645173
 20
-3.297634
  0
VERTEX
  8
PLAN_1
  6
CONTINUOUS
 10
1.650020
 20
-3.300280
  0
VERTEX
  8
PLAN_1
  6
CONTINUOUS
 10
1.654429
 20
-3.303807
  0
VERTEX
  8
PLAN_1
  6
CONTINUOUS
 10
1.658839
 20
-3.307335
  0
VERTEX
  8
PLAN_1
  6
CONTINUOUS
 10
1.662366
 20
-3.311303
  0
VERTEX
  8
PLAN_1
  6
CONTINUOUS
 10
1.665453
 20
-3.315272
  0
VERTEX
  8
PLAN_1
  6
CONTINUOUS
 10
1.668098
 20
-3.320122
  0
VERTEX
  8
PLAN_1
  6
CONTINUOUS
 10
1.670303
 20
-3.324969
  0
VERTEX
  8
PLAN_1
  6
CONTINUOUS
 10
1.672067
 20
-3.330260
  0
VERTEX
  8
PLAN_1
  6
CONTINUOUS
 10
1.673390
 20
-3.335551
  0
VERTEX
  8
PLAN_1
  6
CONTINUOUS
 10
1.674272
 20
-3.341283
  0
VERTEX
  8
PLAN_1
  6
CONTINUOUS
 10
1.674272
 20
-3.347457
  0
VERTEX
  8
PLAN_1
  6
CONTINUOUS
 10
1.674272
 20
-3.352303
  0
VERTEX
  8
PLAN_1
  6
CONTINUOUS
 10
1.673390
 20
-3.357594
  0
VERTEX
  8
PLAN_1
  6
CONTINUOUS
 10
1.672508
 20
-3.362886
  0
VERTEX
  8
PLAN_1
  6
CONTINUOUS
 10
1.671185
 20
-3.368177
  0
VERTEX
  8
PLAN_1
  6
CONTINUOUS
 10
1.669421
 20
-3.373469
  0
VERTEX
  8
PLAN_1
  6
CONTINUOUS
 10
1.667217
 20
-3.378319
  0
VERTEX
  8
PLAN_1
  6
CONTINUOUS
 10
1.664130
 20
-3.382724
  0
VERTEX
  8
PLAN_1
  6
CONTINUOUS
 10
1.661043
 20
-3.387134
  0
VERTEX
  8
PLAN_1
  6
CONTINUOUS
 10
1.657075
 20
-3.391102
  0
VERTEX
  8
PLAN_1
  6
CONTINUOUS
 10
1.653106
 20
-3.395071
  0
VERTEX
  8
PLAN_1
  6
CONTINUOUS
 10
1.648256
 20
-3.398157
  0
VERTEX
  8
PLAN_1
  6
CONTINUOUS
 10
1.642969
 20
-3.401244
  0
VERTEX
  8
PLAN_1
  6
CONTINUOUS
 10
1.636795
 20
-3.403449
  0
VERTEX
  8
PLAN_1
  6
CONTINUOUS
 10
1.630181
 20
-3.404772
  0
VERTEX
  8
PLAN_1
  6
CONTINUOUS
 10
1.623126
 20
-3.406094
  0
VERTEX
  8
PLAN_1
  6
CONTINUOUS
 10
1.615193
 20
-3.406535
  0
VERTEX
  8
PLAN_1
  6
CONTINUOUS
 10
1.552587
 20
-3.406535
  0
VERTEX
  8
PLAN_1
  6
CONTINUOUS
 10
1.552587
 20
-3.490303
  0
SEQEND
  8
0
  0
POLYLINE
  8
PLAN_1
  6
CONTINUOUS
 66
     1
 40
0.003000
 41
0.003000
  0
VERTEX
  8
PLAN_1
  6
CONTINUOUS
 10
1.552587
 20
-3.383165
  0
VERTEX
  8
PLAN_1
  6
CONTINUOUS
 10
1.605933
 20
-3.383165
  0
VERTEX
  8
PLAN_1
  6
CONTINUOUS
 10
1.610343
 20
-3.383165
  0
VERTEX
  8
PLAN_1
  6
CONTINUOUS
 10
1.614752
 20
-3.382724
  0
VERTEX
  8
PLAN_1
  6
CONTINUOUS
 10
1.618720
 20
-3.382283
  0
VERTEX
  8
PLAN_1
  6
CONTINUOUS
 10
1.622685
 20
-3.381402
  0
VERTEX
  8
PLAN_1
  6
CONTINUOUS
 10
1.626213
 20
-3.380520
  0
VERTEX
  8
PLAN_1
  6
CONTINUOUS
 10
1.629740
 20
-3.379197
  0
VERTEX
  8
PLAN_1
  6
CONTINUOUS
 10
1.632827
 20
-3.377437
  0
VERTEX
  8
PLAN_1
  6
CONTINUOUS
 10
1.635472
 20
-3.375673
  0
VERTEX
  8
PLAN_1
  6
CONTINUOUS
 10
1.638118
 20
-3.373469
  0
VERTEX
  8
PLAN_1
  6
CONTINUOUS
 10
1.640323
 20
-3.370823
  0
VERTEX
  8
PLAN_1
  6
CONTINUOUS
 10
1.642087
 20
-3.367736
  0
VERTEX
  8
PLAN_1
  6
CONTINUOUS
 10
1.643850
 20
-3.364650
  0
VERTEX
  8
PLAN_1
  6
CONTINUOUS
 10
1.644732
 20
-3.360681
  0
VERTEX
  8
PLAN_1
  6
CONTINUOUS
 10
1.646055
 20
-3.356713
  0
VERTEX
  8
PLAN_1
  6
CONTINUOUS
 10
1.646496
 20
-3.352303
  0
VERTEX
  8
PLAN_1
  6
CONTINUOUS
 10
1.646496
 20
-3.347457
  0
VERTEX
  8
PLAN_1
  6
CONTINUOUS
 10
1.646496
 20
-3.343047
  0
VERTEX
  8
PLAN_1
  6
CONTINUOUS
 10
1.646055
 20
-3.338638
  0
VERTEX
  8
PLAN_1
  6
CONTINUOUS
 10
1.644732
 20
-3.335110
  0
VERTEX
  8
PLAN_1
  6
CONTINUOUS
 10
1.643409
 20
-3.331583
  0
VERTEX
  8
PLAN_1
  6
CONTINUOUS
 10
1.642087
 20
-3.328496
  0
VERTEX
  8
PLAN_1
  6
CONTINUOUS
 10
1.639882
 20
-3.325850
  0
VERTEX
  8
PLAN_1
  6
CONTINUOUS
 10
1.637677
 20
-3.323646
  0
VERTEX
  8
PLAN_1
  6
CONTINUOUS
 10
1.635031
 20
-3.321445
  0
VERTEX
  8
PLAN_1
  6
CONTINUOUS
 10
1.632386
 20
-3.319681
  0
VERTEX
  8
PLAN_1
  6
CONTINUOUS
 10
1.629299
 20
-3.317917
  0
VERTEX
  8
PLAN_1
  6
CONTINUOUS
 10
1.626213
 20
-3.317035
  0
VERTEX
  8
PLAN_1
  6
CONTINUOUS
 10
1.622685
 20
-3.315713
  0
VERTEX
  8
PLAN_1
  6
CONTINUOUS
 10
1.619161
 20
-3.315272
  0
VERTEX
  8
PLAN_1
  6
CONTINUOUS
 10
1.615193
 20
-3.314831
  0
VERTEX
  8
PLAN_1
  6
CONTINUOUS
 10
1.611224
 20
-3.314390
  0
VERTEX
  8
PLAN_1
  6
CONTINUOUS
 10
1.607256
 20
-3.314390
  0
VERTEX
  8
PLAN_1
  6
CONTINUOUS
 10
1.552587
 20
-3.314390
  0
VERTEX
  8
PLAN_1
  6
CONTINUOUS
 10
1.552587
 20
-3.383165
  0
SEQEND
  8
0
  0
POLYLINE
  8
PLAN_1
  6
CONTINUOUS
 66
     1
 40
0.003000
 41
0.003000
  0
VERTEX
  8
PLAN_1
  6
CONTINUOUS
 10
1.828138
 20
-3.349661
  0
VERTEX
  8
PLAN_1
  6
CONTINUOUS
 10
1.827697
 20
-3.343929
  0
VERTEX
  8
PLAN_1
  6
CONTINUOUS
 10
1.826374
 20
-3.339079
  0
VERTEX
  8
PLAN_1
  6
CONTINUOUS
 10
1.825051
 20
-3.334228
  0
VERTEX
  8
PLAN_1
  6
CONTINUOUS
 10
1.822846
 20
-3.330260
  0
VERTEX
  8
PLAN_1
  6
CONTINUOUS
 10
1.820642
 20
-3.326291
  0
VERTEX
  8
PLAN_1
  6
CONTINUOUS
 10
1.817996
 20
-3.323205
  0
VERTEX
  8
PLAN_1
  6
CONTINUOUS
 10
1.814913
 20
-3.320122
  0
VERTEX
  8
PLAN_1
  6
CONTINUOUS
 10
1.811386
 20
-3.317476
  0
VERTEX
  8
PLAN_1
  6
CONTINUOUS
 10
1.807858
 20
-3.315713
  0
VERTEX
  8
PLAN_1
  6
CONTINUOUS
 10
1.803890
 20
-3.313508
  0
VERTEX
  8
PLAN_1
  6
CONTINUOUS
 10
1.799921
 20
-3.312185
  0
VERTEX
  8
PLAN_1
  6
CONTINUOUS
 10
1.795953
 20
-3.310862
  0
VERTEX
  8
PLAN_1
  6
CONTINUOUS
 10
1.791543
 20
-3.309980
  0
VERTEX
  8
PLAN_1
  6
CONTINUOUS
 10
1.787138
 20
-3.309539
  0
VERTEX
  8
PLAN_1
  6
CONTINUOUS
 10
1.783169
 20
-3.309098
  0
VERTEX
  8
PLAN_1
  6
CONTINUOUS
 10
1.778760
 20
-3.309098
  0
VERTEX
  8
PLAN_1
  6
CONTINUOUS
 10
1.772146
 20
-3.309098
  0
VERTEX
  8
PLAN_1
  6
CONTINUOUS
 10
1.764650
 20
-3.309980
  0
VERTEX
  8
PLAN_1
  6
CONTINUOUS
 10
1.760681
 20
-3.310862
  0
VERTEX
  8
PLAN_1
  6
CONTINUOUS
 10
1.757157
 20
-3.312185
  0
VERTEX
  8
PLAN_1
  6
CONTINUOUS
 10
1.753189
 20
-3.313508
  0
VERTEX
  8
PLAN_1
  6
CONTINUOUS
 10
1.749661
 20
-3.315272
  0
VERTEX
  8
PLAN_1
  6
CONTINUOUS
 10
1.746134
 20
-3.317035
  0
VERTEX
  8
PLAN_1
  6
CONTINUOUS
 10
1.743047
 20
-3.319681
  0
VERTEX
  8
PLAN_1
  6
CONTINUOUS
 10
1.740402
 20
-3.322323
  0
VERTEX
  8
PLAN_1
  6
CONTINUOUS
 10
1.738197
 20
-3.325850
  0
VERTEX
  8
PLAN_1
  6
CONTINUOUS
 10
1.735992
 20
-3.329378
  0
VERTEX
  8
PLAN_1
  6
CONTINUOUS
 10
1.734669
 20
-3.333787
  0
VERTEX
  8
PLAN_1
  6
CONTINUOUS
 10
1.733787
 20
-3.338638
  0
VERTEX
  8
PLAN_1
  6
CONTINUOUS
 10
1.733346
 20
-3.343929
  0
VERTEX
  8
PLAN_1
  6
CONTINUOUS
 10
1.733346
 20
-3.347016
  0
VERTEX
  8
PLAN_1
  6
CONTINUOUS
 10
1.733787
 20
-3.349661
  0
VERTEX
  8
PLAN_1
  6
CONTINUOUS
 10
1.734669
 20
-3.352303
  0
VERTEX
  8
PLAN_1
  6
CONTINUOUS
 10
1.735551
 20
-3.354508
  0
VERTEX
  8
PLAN_1
  6
CONTINUOUS
 10
1.736433
 20
-3.356713
  0
VERTEX
  8
PLAN_1
  6
CONTINUOUS
 10
1.737756
 20
-3.358476
  0
VERTEX
  8
PLAN_1
  6
CONTINUOUS
 10
1.739079
 20
-3.360240
  0
VERTEX
  8
PLAN_1
  6
CONTINUOUS
 10
1.740843
 20
-3.362004
  0
VERTEX
  8
PLAN_1
  6
CONTINUOUS
 10
1.744370
 20
-3.364650
  0
VERTEX
  8
PLAN_1
  6
CONTINUOUS
 10
1.748339
 20
-3.366413
  0
VERTEX
  8
PLAN_1
  6
CONTINUOUS
 10
1.752307
 20
-3.368177
  0
VERTEX
  8
PLAN_1
  6
CONTINUOUS
 10
1.756717
 20
-3.369059
  0
VERTEX
  8
PLAN_1
  6
CONTINUOUS
 10
1.813591
 20
-3.382283
  0
VERTEX
  8
PLAN_1
  6
CONTINUOUS
 10
1.818437
 20
-3.383606
  0
VERTEX
  8
PLAN_1
  6
CONTINUOUS
 10
1.823287
 20
-3.384929
  0
VERTEX
  8
PLAN_1
  6
CONTINUOUS
 10
1.827697
 20
-3.386693
  0
VERTEX
  8
PLAN_1
  6
CONTINUOUS
 10
1.831665
 20
-3.388457
  0
VERTEX
  8
PLAN_1
  6
CONTINUOUS
 10
1.835634
 20
-3.391102
  0
VERTEX
  8
PLAN_1
  6
CONTINUOUS
 10
1.839602
 20
-3.393307
  0
VERTEX
  8
PLAN_1
  6
CONTINUOUS
 10
1.842689
 20
-3.396394
  0
VERTEX
  8
PLAN_1
  6
CONTINUOUS
 10
1.846213
 20
-3.399480
  0
VERTEX
  8
PLAN_1
  6
CONTINUOUS
 10
1.848858
 20
-3.402567
  0
VERTEX
  8
PLAN_1
  6
CONTINUOUS
 10
1.851504
 20
-3.406535
  0
VERTEX
  8
PLAN_1
  6
CONTINUOUS
 10
1.853709
 20
-3.410500
  0
VERTEX
  8
PLAN_1
  6
CONTINUOUS
 10
1.855472
 20
-3.414909
  0
VERTEX
  8
PLAN_1
  6
CONTINUOUS
 10
1.857236
 20
-3.419319
  0
VERTEX
  8
PLAN_1
  6
CONTINUOUS
 10
1.858118
 20
-3.424169
  0
VERTEX
  8
PLAN_1
  6
CONTINUOUS
 10
1.858559
 20
-3.429902
  0
VERTEX
  8
PLAN_1
  6
CONTINUOUS
 10
1.859000
 20
-3.435630
  0
VERTEX
  8
PLAN_1
  6
CONTINUOUS
 10
1.859000
 20
-3.440039
  0
VERTEX
  8
PLAN_1
  6
CONTINUOUS
 10
1.858559
 20
-3.444008
  0
VERTEX
  8
PLAN_1
  6
CONTINUOUS
 10
1.857677
 20
-3.447976
  0
VERTEX
  8
PLAN_1
  6
CONTINUOUS
 10
1.857236
 20
-3.451504
  0
VERTEX
  8
PLAN_1
  6
CONTINUOUS
 10
1.855913
 20
-3.455031
  0
VERTEX
  8
PLAN_1
  6
CONTINUOUS
 10
1.854591
 20
-3.458559
  0
VERTEX
  8
PLAN_1
  6
CONTINUOUS
 10
1.853268
 20
-3.461646
  0
VERTEX
  8
PLAN_1
  6
CONTINUOUS
 10
1.851504
 20
-3.464728
  0
VERTEX
  8
PLAN_1
  6
CONTINUOUS
 10
1.849740
 20
-3.467815
  0
VERTEX
  8
PLAN_1
  6
CONTINUOUS
 10
1.847976
 20
-3.470461
  0
VERTEX
  8
PLAN_1
  6
CONTINUOUS
 10
1.845772
 20
-3.473106
  0
VERTEX
  8
PLAN_1
  6
CONTINUOUS
 10
1.843130
 20
-3.475311
  0
VERTEX
  8
PLAN_1
  6
CONTINUOUS
 10
1.838280
 20
-3.479720
  0
VERTEX
  8
PLAN_1
  6
CONTINUOUS
 10
1.832988
 20
-3.483248
  0
VERTEX
  8
PLAN_1
  6
CONTINUOUS
 10
1.826815
 20
-3.486335
  0
VERTEX
  8
PLAN_1
  6
CONTINUOUS
 10
1.820642
 20
-3.488980
  0
VERTEX
  8
PLAN_1
  6
CONTINUOUS
 10
1.814031
 20
-3.491181
  0
VERTEX
  8
PLAN_1
  6
CONTINUOUS
 10
1.807417
 20
-3.492945
  0
VERTEX
  8
PLAN_1
  6
CONTINUOUS
 10
1.800803
 20
-3.494268
  0
VERTEX
  8
PLAN_1
  6
CONTINUOUS
 10
1.794189
 20
-3.495150
  0
VERTEX
  8
PLAN_1
  6
CONTINUOUS
 10
1.787579
 20
-3.495591
  0
VERTEX
  8
PLAN_1
  6
CONTINUOUS
 10
1.780965
 20
-3.495591
  0
VERTEX
  8
PLAN_1
  6
CONTINUOUS
 10
1.774350
 20
-3.495591
  0
VERTEX
  8
PLAN_1
  6
CONTINUOUS
 10
1.768177
 20
-3.495150
  0
VERTEX
  8
PLAN_1
  6
CONTINUOUS
 10
1.762445
 20
-3.494709
  0
VERTEX
  8
PLAN_1
  6
CONTINUOUS
 10
1.757157
 20
-3.493827
  0
VERTEX
  8
PLAN_1
  6
CONTINUOUS
 10
1.752307
 20
-3.492945
  0
VERTEX
  8
PLAN_1
  6
CONTINUOUS
 10
1.747898
 20
-3.491622
  0
VERTEX
  8
PLAN_1
  6
CONTINUOUS
 10
1.743929
 20
-3.490744
  0
VERTEX
  8
PLAN_1
  6
CONTINUOUS
 10
1.740402
 20
-3.488980
  0
VERTEX
  8
PLAN_1
  6
CONTINUOUS
 10
1.734228
 20
-3.486335
  0
VERTEX
  8
PLAN_1
  6
CONTINUOUS
 10
1.728941
 20
-3.482807
  0
VERTEX
  8
PLAN_1
  6
CONTINUOUS
 10
1.724531
 20
-3.479720
  0
VERTEX
  8
PLAN_1
  6
CONTINUOUS
 10
1.721004
 20
-3.476634
  0
VERTEX
  8
PLAN_1
  6
CONTINUOUS
 10
1.717917
 20
-3.473547
  0
VERTEX
  8
PLAN_1
  6
CONTINUOUS
 10
1.715272
 20
-3.470902
  0
VERTEX
  8
PLAN_1
  6
CONTINUOUS
 10
1.712626
 20
-3.467815
  0
VERTEX
  8
PLAN_1
  6
CONTINUOUS
 10
1.710421
 20
-3.464728
  0
VERTEX
  8
PLAN_1
  6
CONTINUOUS
 10
1.708657
 20
-3.461646
  0
VERTEX
  8
PLAN_1
  6
CONTINUOUS
 10
1.706894
 20
-3.459000
  0
VERTEX
  8
PLAN_1
  6
CONTINUOUS
 10
1.705571
 20
-3.455913
  0
VERTEX
  8
PLAN_1
  6
CONTINUOUS
 10
1.704252
 20
-3.452386
  0
VERTEX
  8
PLAN_1
  6
CONTINUOUS
 10
1.702488
 20
-3.446213
  0
VERTEX
  8
PLAN_1
  6
CONTINUOUS
 10
1.701165
 20
-3.439598
  0
VERTEX
  8
PLAN_1
  6
CONTINUOUS
 10
1.700724
 20
-3.432988
  0
VERTEX
  8
PLAN_1
  6
CONTINUOUS
 10
1.700724
 20
-3.425933
  0
VERTEX
  8
PLAN_1
  6
CONTINUOUS
 10
1.725854
 20
-3.425933
  0
VERTEX
  8
PLAN_1
  6
CONTINUOUS
 10
1.726295
 20
-3.432547
  0
VERTEX
  8
PLAN_1
  6
CONTINUOUS
 10
1.727177
 20
-3.438276
  0
VERTEX
  8
PLAN_1
  6
CONTINUOUS
 10
1.728500
 20
-3.443567
  0
VERTEX
  8
PLAN_1
  6
CONTINUOUS
 10
1.730705
 20
-3.448417
  0
VERTEX
  8
PLAN_1
  6
CONTINUOUS
 10
1.733346
 20
-3.452827
  0
VERTEX
  8
PLAN_1
  6
CONTINUOUS
 10
1.736433
 20
-3.456795
  0
VERTEX
  8
PLAN_1
  6
CONTINUOUS
 10
1.739961
 20
-3.459882
  0
VERTEX
  8
PLAN_1
  6
CONTINUOUS
 10
1.743488
 20
-3.462965
  0
VERTEX
  8
PLAN_1
  6
CONTINUOUS
 10
1.747898
 20
-3.465169
  0
VERTEX
  8
PLAN_1
  6
CONTINUOUS
 10
1.752307
 20
-3.467374
  0
VERTEX
  8
PLAN_1
  6
CONTINUOUS
 10
1.756717
 20
-3.469138
  0
VERTEX
  8
PLAN_1
  6
CONTINUOUS
 10
1.761563
 20
-3.470461
  0
VERTEX
  8
PLAN_1
  6
CONTINUOUS
 10
1.766413
 20
-3.471343
  0
VERTEX
  8
PLAN_1
  6
CONTINUOUS
 10
1.771264
 20
-3.472224
  0
VERTEX
  8
PLAN_1
  6
CONTINUOUS
 10
1.776114
 20
-3.472665
  0
VERTEX
  8
PLAN_1
  6
CONTINUOUS
 10
1.780965
 20
-3.472665
  0
VERTEX
  8
PLAN_1
  6
CONTINUOUS
 10
1.788461
 20
-3.472224
  0
VERTEX
  8
PLAN_1
  6
CONTINUOUS
 10
1.797276
 20
-3.471343
  0
VERTEX
  8
PLAN_1
  6
CONTINUOUS
 10
1.801244
 20
-3.470461
  0
VERTEX
  8
PLAN_1
  6
CONTINUOUS
 10
1.805654
 20
-3.469579
  0
VERTEX
  8
PLAN_1
  6
CONTINUOUS
 10
1.810063
 20
-3.468256
  0
VERTEX
  8
PLAN_1
  6
CONTINUOUS
 10
1.814031
 20
-3.466492
  0
VERTEX
  8
PLAN_1
  6
CONTINUOUS
 10
1.817996
 20
-3.464728
  0
VERTEX
  8
PLAN_1
  6
CONTINUOUS
 10
1.821524
 20
-3.462087
  0
VERTEX
  8
PLAN_1
  6
CONTINUOUS
 10
1.824610
 20
-3.459441
  0
VERTEX
  8
PLAN_1
  6
CONTINUOUS
 10
1.827697
 20
-3.456354
  0
VERTEX
  8
PLAN_1
  6
CONTINUOUS
 10
1.829902
 20
-3.452827
  0
VERTEX
  8
PLAN_1
  6
CONTINUOUS
 10
1.831665
 20
-3.448858
  0
VERTEX
  8
PLAN_1
  6
CONTINUOUS
 10
1.832547
 20
-3.444008
  0
VERTEX
  8
PLAN_1
  6
CONTINUOUS
 10
1.832988
 20
-3.439157
  0
VERTEX
  8
PLAN_1
  6
CONTINUOUS
 10
1.832988
 20
-3.435189
  0
VERTEX
  8
PLAN_1
  6
CONTINUOUS
 10
1.832547
 20
-3.432106
  0
VERTEX
  8
PLAN_1
  6
CONTINUOUS
 10
1.831665
 20
-3.428579
  0
VERTEX
  8
PLAN_1
  6
CONTINUOUS
 10
1.830783
 20
-3.425933
  0
VERTEX
  8
PLAN_1
  6
CONTINUOUS
 10
1.829461
 20
-3.423287
  0
VERTEX
  8
PLAN_1
  6
CONTINUOUS
 10
1.828138
 20
-3.421083
  0
VERTEX
  8
PLAN_1
  6
CONTINUOUS
 10
1.826374
 20
-3.418437
  0
VERTEX
  8
PLAN_1
  6
CONTINUOUS
 10
1.824169
 20
-3.416673
  0
VERTEX
  8
PLAN_1
  6
CONTINUOUS
 10
1.821524
 20
-3.414909
  0
VERTEX
  8
PLAN_1
  6
CONTINUOUS
 10
1.818437
 20
-3.413146
  0
VERTEX
  8
PLAN_1
  6
CONTINUOUS
 10
1.814913
 20
-3.411382
  0
VERTEX
  8
PLAN_1
  6
CONTINUOUS
 10
1.810945
 20
-3.409618
  0
VERTEX
  8
PLAN_1
  6
CONTINUOUS
 10
1.801685
 20
-3.406972
  0
VERTEX
  8
PLAN_1
  6
CONTINUOUS
 10
1.790661
 20
-3.403890
  0
VERTEX
  8
PLAN_1
  6
CONTINUOUS
 10
1.749661
 20
-3.394630
  0
VERTEX
  8
PLAN_1
  6
CONTINUOUS
 10
1.743929
 20
-3.392866
  0
VERTEX
  8
PLAN_1
  6
CONTINUOUS
 10
1.737315
 20
-3.390661
  0
VERTEX
  8
PLAN_1
  6
CONTINUOUS
 10
1.734228
 20
-3.389339
  0
VERTEX
  8
PLAN_1
  6
CONTINUOUS
 10
1.730705
 20
-3.387575
  0
VERTEX
  8
PLAN_1
  6
CONTINUOUS
 10
1.727177
 20
-3.385370
  0
VERTEX
  8
PLAN_1
  6
CONTINUOUS
 10
1.723650
 20
-3.382724
  0
VERTEX
  8
PLAN_1
  6
CONTINUOUS
 10
1.720122
 20
-3.380079
  0
VERTEX
  8
PLAN_1
  6
CONTINUOUS
 10
1.717035
 20
-3.376996
  0
VERTEX
  8
PLAN_1
  6
CONTINUOUS
 10
1.714390
 20
-3.373028
  0
VERTEX
  8
PLAN_1
  6
CONTINUOUS
 10
1.712185
 20
-3.369059
  0
VERTEX
  8
PLAN_1
  6
CONTINUOUS
 10
1.709980
 20
-3.364650
  0
VERTEX
  8
PLAN_1
  6
CONTINUOUS
 10
1.708657
 20
-3.359358
  0
VERTEX
  8
PLAN_1
  6
CONTINUOUS
 10
1.707335
 20
-3.353626
  0
VERTEX
  8
PLAN_1
  6
CONTINUOUS
 10
1.707335
 20
-3.347457
  0
VERTEX
  8
PLAN_1
  6
CONTINUOUS
 10
1.707335
 20
-3.341724
  0
VERTEX
  8
PLAN_1
  6
CONTINUOUS
 10
1.708217
 20
-3.335992
  0
VERTEX
  8
PLAN_1
  6
CONTINUOUS
 10
1.709539
 20
-3.330260
  0
VERTEX
  8
PLAN_1
  6
CONTINUOUS
 10
1.711303
 20
-3.324969
  0
VERTEX
  8
PLAN_1
  6
CONTINUOUS
 10
1.713508
 20
-3.319681
  0
VERTEX
  8
PLAN_1
  6
CONTINUOUS
 10
1.716154
 20
-3.314390
  0
VERTEX
  8
PLAN_1
  6
CONTINUOUS
 10
1.719681
 20
-3.309539
  0
VERTEX
  8
PLAN_1
  6
CONTINUOUS
 10
1.723209
 20
-3.305130
  0
VERTEX
  8
PLAN_1
  6
CONTINUOUS
 10
1.727618
 20
-3.301161
  0
VERTEX
  8
PLAN_1
  6
CONTINUOUS
 10
1.732906
 20
-3.297193
  0
VERTEX
  8
PLAN_1
  6
CONTINUOUS
 10
1.738638
 20
-3.294106
  0
VERTEX
  8
PLAN_1
  6
CONTINUOUS
 10
1.744811
 20
-3.291024
  0
VERTEX
  8
PLAN_1
  6
CONTINUOUS
 10
1.751425
 20
-3.288819
  0
VERTEX
  8
PLAN_1
  6
CONTINUOUS
 10
1.758921
 20
-3.287496
  0
VERTEX
  8
PLAN_1
  6
CONTINUOUS
 10
1.766854
 20
-3.286173
  0
VERTEX
  8
PLAN_1
  6
CONTINUOUS
 10
1.775673
 20
-3.285732
  0
VERTEX
  8
PLAN_1
  6
CONTINUOUS
 10
1.782287
 20
-3.286173
  0
VERTEX
  8
PLAN_1
  6
CONTINUOUS
 10
1.788020
 20
-3.286614
  0
VERTEX
  8
PLAN_1
  6
CONTINUOUS
 10
1.793748
 20
-3.287055
  0
VERTEX
  8
PLAN_1
  6
CONTINUOUS
 10
1.799039
 20
-3.287937
  0
VERTEX
  8
PLAN_1
  6
CONTINUOUS
 10
1.803890
 20
-3.288819
  0
VERTEX
  8
PLAN_1
  6
CONTINUOUS
 10
1.808740
 20
-3.290142
  0
VERTEX
  8
PLAN_1
  6
CONTINUOUS
 10
1.813150
 20
-3.291465
  0
VERTEX
  8
PLAN_1
  6
CONTINUOUS
 10
1.817114
 20
-3.292787
  0
VERTEX
  8
PLAN_1
  6
CONTINUOUS
 10
1.821083
 20
-3.294547
  0
VERTEX
  8
PLAN_1
  6
CONTINUOUS
 10
1.824610
 20
-3.296311
  0
VERTEX
  8
PLAN_1
  6
CONTINUOUS
 10
1.827697
 20
-3.298075
  0
VERTEX
  8
PLAN_1
  6
CONTINUOUS
 10
1.830783
 20
-3.300280
  0
VERTEX
  8
PLAN_1
  6
CONTINUOUS
 10
1.836075
 20
-3.304689
  0
VERTEX
  8
PLAN_1
  6
CONTINUOUS
 10
1.840484
 20
-3.309539
  0
VERTEX
  8
PLAN_1
  6
CONTINUOUS
 10
1.844012
 20
-3.314390
  0
VERTEX
  8
PLAN_1
  6
CONTINUOUS
 10
1.846654
 20
-3.319681
  0
VERTEX
  8
PLAN_1
  6
CONTINUOUS
 10
1.848858
 20
-3.324969
  0
VERTEX
  8
PLAN_1
  6
CONTINUOUS
 10
1.850622
 20
-3.330260
  0
VERTEX
  8
PLAN_1
  6
CONTINUOUS
 10
1.851945
 20
-3.335551
  0
VERTEX
  8
PLAN_1
  6
CONTINUOUS
 10
1.852827
 20
-3.340402
  0
VERTEX
  8
PLAN_1
  6
CONTINUOUS
 10
1.853268
 20
-3.345252
  0
VERTEX
  8
PLAN_1
  6
CONTINUOUS
 10
1.853268
 20
-3.349661
  0
VERTEX
  8
PLAN_1
  6
CONTINUOUS
 10
1.828138
 20
-3.349661
  0
SEQEND
  8
0
  0
POLYLINE
  8
PLAN_1
  6
CONTINUOUS
 66
     1
 40
0.008374
 41
0.008374
  0
VERTEX
  8
PLAN_1
  6
CONTINUOUS
 10
-0.743972
 20
1.298571
  0
VERTEX
  8
PLAN_1
  6
CONTINUOUS
 10
-0.743972
 20
1.585146
  0
VERTEX
  8
PLAN_1
  6
CONTINUOUS
 10
-1.846622
 20
1.585146
  0
VERTEX
  8
PLAN_1
  6
CONTINUOUS
 10
-1.846622
 20
1.298571
  0
VERTEX
  8
PLAN_1
  6
CONTINUOUS
 10
-0.743972
 20
1.298571
  0
SEQEND
  8
0
  0
POLYLINE
  8
PLAN_1
  6
CONTINUOUS
 66
     1
 40
0.008374
 41
0.008374
  0
VERTEX
  8
PLAN_1
  6
CONTINUOUS
 10
-1.780051
 20
1.729756
  0
VERTEX
  8
PLAN_1
  6
CONTINUOUS
 10
-1.780051
 20
1.933004
  0
SEQEND
  8
0
  0
POLYLINE
  8
PLAN_1
  6
CONTINUOUS
 66
     1
 40
0.008374
 41
0.008374
  0
VERTEX
  8
PLAN_1
  6
CONTINUOUS
 10
-1.780051
 20
1.933004
  0
VERTEX
  8
PLAN_1
  6
CONTINUOUS
 10
-1.777406
 20
1.947110
  0
VERTEX
  8
PLAN_1
  6
CONTINUOUS
 10
-1.770791
 20
1.984587
  0
VERTEX
  8
PLAN_1
  6
CONTINUOUS
 10
-1.765500
 20
2.009717
  0
VERTEX
  8
PLAN_1
  6
CONTINUOUS
 10
-1.758886
 20
2.037492
  0
VERTEX
  8
PLAN_1
  6
CONTINUOUS
 10
-1.755362
 20
2.052039
  0
VERTEX
  8
PLAN_1
  6
CONTINUOUS
 10
-1.751394
 20
2.067031
  0
VERTEX
  8
PLAN_1
  6
CONTINUOUS
 10
-1.746984
 20
2.082461
  0
VERTEX
  8
PLAN_1
  6
CONTINUOUS
 10
-1.742575
 20
2.097894
  0
VERTEX
  8
PLAN_1
  6
CONTINUOUS
 10
-1.737724
 20
2.113323
  0
VERTEX
  8
PLAN_1
  6
CONTINUOUS
 10
-1.732433
 20
2.128756
  0
VERTEX
  8
PLAN_1
  6
CONTINUOUS
 10
-1.727146
 20
2.143744
  0
VERTEX
  8
PLAN_1
  6
CONTINUOUS
 10
-1.720972
 20
2.158295
  0
VERTEX
  8
PLAN_1
  6
CONTINUOUS
 10
-1.715240
 20
2.172843
  0
VERTEX
  8
PLAN_1
  6
CONTINUOUS
 10
-1.708626
 20
2.186512
  0
VERTEX
  8
PLAN_1
  6
CONTINUOUS
 10
-1.702012
 20
2.199295
  0
VERTEX
  8
PLAN_1
  6
CONTINUOUS
 10
-1.694961
 20
2.211201
  0
VERTEX
  8
PLAN_1
  6
CONTINUOUS
 10
-1.687465
 20
2.222220
  0
VERTEX
  8
PLAN_1
  6
CONTINUOUS
 10
-1.679528
 20
2.232362
  0
VERTEX
  8
PLAN_1
  6
CONTINUOUS
 10
-1.671594
 20
2.241181
  0
VERTEX
  8
PLAN_1
  6
CONTINUOUS
 10
-1.663217
 20
2.248677
  0
VERTEX
  8
PLAN_1
  6
CONTINUOUS
 10
-1.654839
 20
2.254406
  0
VERTEX
  8
PLAN_1
  6
CONTINUOUS
 10
-1.645579
 20
2.258815
  0
VERTEX
  8
PLAN_1
  6
CONTINUOUS
 10
-1.636323
 20
2.261902
  0
VERTEX
  8
PLAN_1
  6
CONTINUOUS
 10
-1.626622
 20
2.262783
  0
SEQEND
  8
0
  0
POLYLINE
  8
PLAN_1
  6
CONTINUOUS
 66
     1
 40
0.008374
 41
0.008374
  0
VERTEX
  8
PLAN_1
  6
CONTINUOUS
 10
-1.626622
 20
2.262783
  0
VERTEX
  8
PLAN_1
  6
CONTINUOUS
 10
-0.974996
 20
2.262783
  0
SEQEND
  8
0
  0
POLYLINE
  8
PLAN_1
  6
CONTINUOUS
 66
     1
 40
0.008374
 41
0.008374
  0
VERTEX
  8
PLAN_1
  6
CONTINUOUS
 10
-0.974996
 20
2.262783
  0
VERTEX
  8
PLAN_1
  6
CONTINUOUS
 10
-0.973673
 20
2.263224
  0
VERTEX
  8
PLAN_1
  6
CONTINUOUS
 10
-0.971028
 20
2.263224
  0
VERTEX
  8
PLAN_1
  6
CONTINUOUS
 10
-0.968823
 20
2.263665
  0
VERTEX
  8
PLAN_1
  6
CONTINUOUS
 10
-0.966181
 20
2.263224
  0
VERTEX
  8
PLAN_1
  6
CONTINUOUS
 10
-0.963094
 20
2.262783
  0
VERTEX
  8
PLAN_1
  6
CONTINUOUS
 10
-0.960008
 20
2.262343
  0
VERTEX
  8
PLAN_1
  6
CONTINUOUS
 10
-0.956039
 20
2.261020
  0
VERTEX
  8
PLAN_1
  6
CONTINUOUS
 10
-0.952071
 20
2.259256
  0
VERTEX
  8
PLAN_1
  6
CONTINUOUS
 10
-0.947661
 20
2.257051
  0
VERTEX
  8
PLAN_1
  6
CONTINUOUS
 10
-0.943252
 20
2.253965
  0
VERTEX
  8
PLAN_1
  6
CONTINUOUS
 10
-0.938406
 20
2.250437
  0
VERTEX
  8
PLAN_1
  6
CONTINUOUS
 10
-0.933114
 20
2.245591
  0
VERTEX
  8
PLAN_1
  6
CONTINUOUS
 10
-0.927823
 20
2.240299
  0
VERTEX
  8
PLAN_1
  6
CONTINUOUS
 10
-0.922091
 20
2.234126
  0
VERTEX
  8
PLAN_1
  6
CONTINUOUS
 10
-0.916358
 20
2.226630
  0
VERTEX
  8
PLAN_1
  6
CONTINUOUS
 10
-0.910189
 20
2.217815
  0
VERTEX
  8
PLAN_1
  6
CONTINUOUS
 10
-0.904016
 20
2.208114
  0
VERTEX
  8
PLAN_1
  6
CONTINUOUS
 10
-0.897843
 20
2.197091
  0
VERTEX
  8
PLAN_1
  6
CONTINUOUS
 10
-0.891669
 20
2.184307
  0
VERTEX
  8
PLAN_1
  6
CONTINUOUS
 10
-0.885496
 20
2.170638
  0
VERTEX
  8
PLAN_1
  6
CONTINUOUS
 10
-0.878886
 20
2.155209
  0
VERTEX
  8
PLAN_1
  6
CONTINUOUS
 10
-0.872272
 20
2.138012
  0
VERTEX
  8
PLAN_1
  6
CONTINUOUS
 10
-0.865657
 20
2.119496
  0
VERTEX
  8
PLAN_1
  6
CONTINUOUS
 10
-0.859484
 20
2.098776
  0
VERTEX
  8
PLAN_1
  6
CONTINUOUS
 10
-0.852874
 20
2.076732
  0
VERTEX
  8
PLAN_1
  6
CONTINUOUS
 10
-0.846701
 20
2.052480
  0
VERTEX
  8
PLAN_1
  6
CONTINUOUS
 10
-0.840087
 20
2.026028
  0
VERTEX
  8
PLAN_1
  6
CONTINUOUS
 10
-0.833913
 20
1.997811
  0
VERTEX
  8
PLAN_1
  6
CONTINUOUS
 10
-0.827744
 20
1.967394
  0
VERTEX
  8
PLAN_1
  6
CONTINUOUS
 10
-0.822012
 20
1.934768
  0
SEQEND
  8
0
  0
POLYLINE
  8
PLAN_1
  6
CONTINUOUS
 66
     1
 40
0.008374
 41
0.008374
  0
VERTEX
  8
PLAN_1
  6
CONTINUOUS
 10
-0.822012
 20
1.934768
  0
VERTEX
  8
PLAN_1
  6
CONTINUOUS
 10
-0.822012
 20
1.729756
  0
SEQEND
  8
0
  0
POLYLINE
  8
PLAN_1
  6
CONTINUOUS
 66
     1
 40
0.008374
 41
0.008374
  0
VERTEX
  8
PLAN_1
  6
CONTINUOUS
 10
-1.538445
 20
1.729315
  0
VERTEX
  8
PLAN_1
  6
CONTINUOUS
 10
-1.538445
 20
1.933445
  0
SEQEND
  8
0
  0
POLYLINE
  8
PLAN_1
  6
CONTINUOUS
 66
     1
 40
0.008374
 41
0.008374
  0
VERTEX
  8
PLAN_1
  6
CONTINUOUS
 10
-1.681291
 20
1.933445
  0
VERTEX
  8
PLAN_1
  6
CONTINUOUS
 10
-1.681291
 20
1.729315
  0
SEQEND
  8
0
  0
POLYLINE
  8
PLAN_1
  6
CONTINUOUS
 66
     1
 40
0.008374
 41
0.008374
  0
VERTEX
  8
PLAN_1
  6
CONTINUOUS
 10
-1.538445
 20
1.933004
  0
VERTEX
  8
PLAN_1
  6
CONTINUOUS
 10
-1.539327
 20
2.108035
  0
SEQEND
  8
0
  0
POLYLINE
  8
PLAN_1
  6
CONTINUOUS
 66
     1
 40
0.008374
 41
0.008374
  0
VERTEX
  8
PLAN_1
  6
CONTINUOUS
 10
-1.539327
 20
2.108035
  0
VERTEX
  8
PLAN_1
  6
CONTINUOUS
 10
-1.540209
 20
2.112882
  0
VERTEX
  8
PLAN_1
  6
CONTINUOUS
 10
-1.541972
 20
2.125669
  0
VERTEX
  8
PLAN_1
  6
CONTINUOUS
 10
-1.543295
 20
2.134488
  0
VERTEX
  8
PLAN_1
  6
CONTINUOUS
 10
-1.545500
 20
2.144185
  0
VERTEX
  8
PLAN_1
  6
CONTINUOUS
 10
-1.548146
 20
2.154327
  0
VERTEX
  8
PLAN_1
  6
CONTINUOUS
 10
-1.551232
 20
2.164906
  0
VERTEX
  8
PLAN_1
  6
CONTINUOUS
 10
-1.554760
 20
2.175488
  0
VERTEX
  8
PLAN_1
  6
CONTINUOUS
 10
-1.559606
 20
2.185630
  0
VERTEX
  8
PLAN_1
  6
CONTINUOUS
 10
-1.561811
 20
2.190039
  0
VERTEX
  8
PLAN_1
  6
CONTINUOUS
 10
-1.564457
 20
2.194886
  0
VERTEX
  8
PLAN_1
  6
CONTINUOUS
 10
-1.567543
 20
2.198854
  0
VERTEX
  8
PLAN_1
  6
CONTINUOUS
 10
-1.570630
 20
2.202823
  0
VERTEX
  8
PLAN_1
  6
CONTINUOUS
 10
-1.573717
 20
2.206350
  0
VERTEX
  8
PLAN_1
  6
CONTINUOUS
 10
-1.577244
 20
2.209437
  0
VERTEX
  8
PLAN_1
  6
CONTINUOUS
 10
-1.581213
 20
2.212083
  0
VERTEX
  8
PLAN_1
  6
CONTINUOUS
 10
-1.585181
 20
2.214287
  0
VERTEX
  8
PLAN_1
  6
CONTINUOUS
 10
-1.589146
 20
2.215610
  0
VERTEX
  8
PLAN_1
  6
CONTINUOUS
 10
-1.593555
 20
2.216933
  0
VERTEX
  8
PLAN_1
  6
CONTINUOUS
 10
-1.598406
 20
2.216933
  0
VERTEX
  8
PLAN_1
  6
CONTINUOUS
 10
-1.603256
 20
2.216933
  0
VERTEX
  8
PLAN_1
  6
CONTINUOUS
 10
-1.608547
 20
2.215610
  0
VERTEX
  8
PLAN_1
  6
CONTINUOUS
 10
-1.613398
 20
2.212524
  0
VERTEX
  8
PLAN_1
  6
CONTINUOUS
 10
-1.617803
 20
2.208555
  0
VERTEX
  8
PLAN_1
  6
CONTINUOUS
 10
-1.622213
 20
2.202823
  0
VERTEX
  8
PLAN_1
  6
CONTINUOUS
 10
-1.626622
 20
2.196650
  0
VERTEX
  8
PLAN_1
  6
CONTINUOUS
 10
-1.630591
 20
2.188717
  0
VERTEX
  8
PLAN_1
  6
CONTINUOUS
 10
-1.634559
 20
2.180339
  0
VERTEX
  8
PLAN_1
  6
CONTINUOUS
 10
-1.638528
 20
2.171079
  0
VERTEX
  8
PLAN_1
  6
CONTINUOUS
 10
-1.642055
 20
2.160941
  0
VERTEX
  8
PLAN_1
  6
CONTINUOUS
 10
-1.645579
 20
2.149917
  0
VERTEX
  8
PLAN_1
  6
CONTINUOUS
 10
-1.649106
 20
2.138894
  0
VERTEX
  8
PLAN_1
  6
CONTINUOUS
 10
-1.652193
 20
2.126992
  0
VERTEX
  8
PLAN_1
  6
CONTINUOUS
 10
-1.657925
 20
2.101862
  0
VERTEX
  8
PLAN_1
  6
CONTINUOUS
 10
-1.663217
 20
2.076291
  0
VERTEX
  8
PLAN_1
  6
CONTINUOUS
 10
-1.667626
 20
2.050720
  0
VERTEX
  8
PLAN_1
  6
CONTINUOUS
 10
-1.671594
 20
2.026028
  0
VERTEX
  8
PLAN_1
  6
CONTINUOUS
 10
-1.674677
 20
2.002661
  0
VERTEX
  8
PLAN_1
  6
CONTINUOUS
 10
-1.676882
 20
1.981500
  0
VERTEX
  8
PLAN_1
  6
CONTINUOUS
 10
-1.679087
 20
1.963425
  0
VERTEX
  8
PLAN_1
  6
CONTINUOUS
 10
-1.680409
 20
1.948874
  0
VERTEX
  8
PLAN_1
  6
CONTINUOUS
 10
-1.680850
 20
1.938736
  0
VERTEX
  8
PLAN_1
  6
CONTINUOUS
 10
-1.680850
 20
1.934327
  0
SEQEND
  8
0
  0
POLYLINE
  8
PLAN_1
  6
CONTINUOUS
 66
     1
 40
0.008374
 41
0.008374
  0
VERTEX
  8
PLAN_1
  6
CONTINUOUS
 10
-1.680850
 20
1.934327
  0
VERTEX
  8
PLAN_1
  6
CONTINUOUS
 10
-1.780051
 20
1.934327
  0
SEQEND
  8
0
  0
POLYLINE
  8
PLAN_1
  6
CONTINUOUS
 66
     1
 40
0.008374
 41
0.008374
  0
VERTEX
  8
PLAN_1
  6
CONTINUOUS
 10
-1.049067
 20
1.729315
  0
VERTEX
  8
PLAN_1
  6
CONTINUOUS
 10
-1.049067
 20
1.933445
  0
SEQEND
  8
0
  0
POLYLINE
  8
PLAN_1
  6
CONTINUOUS
 66
     1
 40
0.008374
 41
0.008374
  0
VERTEX
  8
PLAN_1
  6
CONTINUOUS
 10
-0.906220
 20
1.933445
  0
VERTEX
  8
PLAN_1
  6
CONTINUOUS
 10
-0.906220
 20
1.729315
  0
SEQEND
  8
0
  0
POLYLINE
  8
PLAN_1
  6
CONTINUOUS
 66
     1
 40
0.008374
 41
0.008374
  0
VERTEX
  8
PLAN_1
  6
CONTINUOUS
 10
-1.048626
 20
1.933004
  0
VERTEX
  8
PLAN_1
  6
CONTINUOUS
 10
-1.047744
 20
2.108035
  0
SEQEND
  8
0
  0
POLYLINE
  8
PLAN_1
  6
CONTINUOUS
 66
     1
 40
0.008374
 41
0.008374
  0
VERTEX
  8
PLAN_1
  6
CONTINUOUS
 10
-1.047744
 20
2.108035
  0
VERTEX
  8
PLAN_1
  6
CONTINUOUS
 10
-1.047303
 20
2.112882
  0
VERTEX
  8
PLAN_1
  6
CONTINUOUS
 10
-1.045539
 20
2.125669
  0
VERTEX
  8
PLAN_1
  6
CONTINUOUS
 10
-1.043776
 20
2.134488
  0
VERTEX
  8
PLAN_1
  6
CONTINUOUS
 10
-1.042012
 20
2.144185
  0
VERTEX
  8
PLAN_1
  6
CONTINUOUS
 10
-1.039366
 20
2.154327
  0
VERTEX
  8
PLAN_1
  6
CONTINUOUS
 10
-1.036280
 20
2.164906
  0
VERTEX
  8
PLAN_1
  6
CONTINUOUS
 10
-1.032311
 20
2.175488
  0
VERTEX
  8
PLAN_1
  6
CONTINUOUS
 10
-1.027902
 20
2.185630
  0
VERTEX
  8
PLAN_1
  6
CONTINUOUS
 10
-1.025256
 20
2.190039
  0
VERTEX
  8
PLAN_1
  6
CONTINUOUS
 10
-1.022614
 20
2.194886
  0
VERTEX
  8
PLAN_1
  6
CONTINUOUS
 10
-1.019969
 20
2.198854
  0
VERTEX
  8
PLAN_1
  6
CONTINUOUS
 10
-1.016882
 20
2.202823
  0
VERTEX
  8
PLAN_1
  6
CONTINUOUS
 10
-1.013354
 20
2.206350
  0
VERTEX
  8
PLAN_1
  6
CONTINUOUS
 10
-1.009827
 20
2.209437
  0
VERTEX
  8
PLAN_1
  6
CONTINUOUS
 10
-1.006299
 20
2.212083
  0
VERTEX
  8
PLAN_1
  6
CONTINUOUS
 10
-1.002331
 20
2.214287
  0
VERTEX
  8
PLAN_1
  6
CONTINUOUS
 10
-0.997921
 20
2.215610
  0
VERTEX
  8
PLAN_1
  6
CONTINUOUS
 10
-0.993516
 20
2.216933
  0
VERTEX
  8
PLAN_1
  6
CONTINUOUS
 10
-0.988665
 20
2.216933
  0
VERTEX
  8
PLAN_1
  6
CONTINUOUS
 10
-0.983815
 20
2.216933
  0
VERTEX
  8
PLAN_1
  6
CONTINUOUS
 10
-0.978965
 20
2.215610
  0
VERTEX
  8
PLAN_1
  6
CONTINUOUS
 10
-0.974114
 20
2.212524
  0
VERTEX
  8
PLAN_1
  6
CONTINUOUS
 10
-0.969705
 20
2.208555
  0
VERTEX
  8
PLAN_1
  6
CONTINUOUS
 10
-0.964858
 20
2.202823
  0
VERTEX
  8
PLAN_1
  6
CONTINUOUS
 10
-0.960890
 20
2.196209
  0
VERTEX
  8
PLAN_1
  6
CONTINUOUS
 10
-0.956480
 20
2.188717
  0
VERTEX
  8
PLAN_1
  6
CONTINUOUS
 10
-0.952512
 20
2.180339
  0
VERTEX
  8
PLAN_1
  6
CONTINUOUS
 10
-0.948984
 20
2.170638
  0
VERTEX
  8
PLAN_1
  6
CONTINUOUS
 10
-0.945016
 20
2.160500
  0
VERTEX
  8
PLAN_1
  6
CONTINUOUS
 10
-0.941488
 20
2.149917
  0
VERTEX
  8
PLAN_1
  6
CONTINUOUS
 10
-0.938406
 20
2.138453
  0
VERTEX
  8
PLAN_1
  6
CONTINUOUS
 10
-0.935319
 20
2.126551
  0
VERTEX
  8
PLAN_1
  6
CONTINUOUS
 10
-0.929587
 20
2.101421
  0
VERTEX
  8
PLAN_1
  6
CONTINUOUS
 10
-0.924295
 20
2.075850
  0
VERTEX
  8
PLAN_1
  6
CONTINUOUS
 10
-0.919886
 20
2.050280
  0
VERTEX
  8
PLAN_1
  6
CONTINUOUS
 10
-0.915917
 20
2.025146
  0
VERTEX
  8
PLAN_1
  6
CONTINUOUS
 10
-0.912831
 20
2.001780
  0
VERTEX
  8
PLAN_1
  6
CONTINUOUS
 10
-0.910189
 20
1.980618
  0
VERTEX
  8
PLAN_1
  6
CONTINUOUS
 10
-0.908425
 20
1.962543
  0
VERTEX
  8
PLAN_1
  6
CONTINUOUS
 10
-0.907102
 20
1.947992
  0
VERTEX
  8
PLAN_1
  6
CONTINUOUS
 10
-0.906661
 20
1.937854
  0
VERTEX
  8
PLAN_1
  6
CONTINUOUS
 10
-0.906661
 20
1.933004
  0
SEQEND
  8
0
  0
POLYLINE
  8
PLAN_1
  6
CONTINUOUS
 66
     1
 40
0.008374
 41
0.008374
  0
VERTEX
  8
PLAN_1
  6
CONTINUOUS
 10
-0.906661
 20
1.933004
  0
VERTEX
  8
PLAN_1
  6
CONTINUOUS
 10
-0.822012
 20
1.933004
  0
SEQEND
  8
0
  0
POLYLINE
  8
PLAN_1
  6
CONTINUOUS
 66
     1
 40
0.008374
 41
0.008374
  0
VERTEX
  8
PLAN_1
  6
CONTINUOUS
 10
-1.537563
 20
1.933004
  0
VERTEX
  8
PLAN_1
  6
CONTINUOUS
 10
-1.048626
 20
1.933004
  0
SEQEND
  8
0
  0
POLYLINE
  8
PLAN_1
  6
CONTINUOUS
 66
     1
 40
0.008374
 41
0.008374
  0
VERTEX
  8
PLAN_1
  6
CONTINUOUS
 10
-1.538445
 20
1.669354
  0
VERTEX
  8
PLAN_1
  6
CONTINUOUS
 10
-1.846622
 20
1.669354
  0
VERTEX
  8
PLAN_1
  6
CONTINUOUS
 10
-1.846622
 20
1.585146
  0
VERTEX
  8
PLAN_1
  6
CONTINUOUS
 10
-0.743972
 20
1.585146
  0
VERTEX
  8
PLAN_1
  6
CONTINUOUS
 10
-0.743972
 20
1.669354
  0
VERTEX
  8
PLAN_1
  6
CONTINUOUS
 10
-1.048626
 20
1.669354
  0
VERTEX
  8
PLAN_1
  6
CONTINUOUS
 10
-1.048626
 20
1.729756
  0
VERTEX
  8
PLAN_1
  6
CONTINUOUS
 10
-1.538445
 20
1.729756
  0
VERTEX
  8
PLAN_1
  6
CONTINUOUS
 10
-1.538445
 20
1.669354
  0
SEQEND
  8
0
  0
POLYLINE
  8
PLAN_1
  6
CONTINUOUS
 66
     1
 40
0.003965
 41
0.003965
  0
VERTEX
  8
PLAN_1
  6
CONTINUOUS
 10
-0.736921
 20
0.620051
  0
VERTEX
  8
PLAN_1
  6
CONTINUOUS
 10
-0.736921
 20
1.299012
  0
VERTEX
  8
PLAN_1
  6
CONTINUOUS
 10
-1.852795
 20
1.298571
  0
VERTEX
  8
PLAN_1
  6
CONTINUOUS
 10
-1.852795
 20
0.618287
  0
SEQEND
  8
0
  0
POLYLINE
  8
PLAN_1
  6
CONTINUOUS
 66
     1
 40
0.008374
 41
0.008374
  0
VERTEX
  8
PLAN_1
  6
CONTINUOUS
 10
-0.820248
 20
1.252280
  0
VERTEX
  8
PLAN_1
  6
CONTINUOUS
 10
-0.820248
 20
1.299012
  0
VERTEX
  8
PLAN_1
  6
CONTINUOUS
 10
-1.781815
 20
1.299012
  0
VERTEX
  8
PLAN_1
  6
CONTINUOUS
 10
-1.781815
 20
1.252280
  0
VERTEX
  8
PLAN_1
  6
CONTINUOUS
 10
-0.820248
 20
1.252280
  0
SEQEND
  8
0
  0
POLYLINE
  8
PLAN_1
  6
CONTINUOUS
 66
     1
 40
0.008374
 41
0.008374
  0
VERTEX
  8
PLAN_1
  6
CONTINUOUS
 10
-0.874476
 20
0.985543
  0
VERTEX
  8
PLAN_1
  6
CONTINUOUS
 10
-0.912831
 20
0.946748
  0
VERTEX
  8
PLAN_1
  6
CONTINUOUS
 10
-1.685701
 20
0.946748
  0
VERTEX
  8
PLAN_1
  6
CONTINUOUS
 10
-1.724500
 20
0.985543
  0
VERTEX
  8
PLAN_1
  6
CONTINUOUS
 10
-1.724500
 20
1.252280
  0
VERTEX
  8
PLAN_1
  6
CONTINUOUS
 10
-0.874476
 20
1.252280
  0
VERTEX
  8
PLAN_1
  6
CONTINUOUS
 10
-0.874476
 20
0.985543
  0
SEQEND
  8
0
  0
POLYLINE
  8
PLAN_1
  6
CONTINUOUS
 66
     1
 40
0.008374
 41
0.008374
  0
VERTEX
  8
PLAN_1
  6
CONTINUOUS
 10
-1.634118
 20
0.946748
  0
VERTEX
  8
PLAN_1
  6
CONTINUOUS
 10
-1.583858
 20
0.754965
  0
VERTEX
  8
PLAN_1
  6
CONTINUOUS
 10
-1.022173
 20
0.754965
  0
VERTEX
  8
PLAN_1
  6
CONTINUOUS
 10
-0.959126
 20
0.946748
  0
VERTEX
  8
PLAN_1
  6
CONTINUOUS
 10
-1.634118
 20
0.946748
  0
SEQEND
  8
0
  0
POLYLINE
  8
PLAN_1
  6
CONTINUOUS
 66
     1
 40
0.007051
 41
0.007051
  0
VERTEX
  8
PLAN_1
  6
CONTINUOUS
 10
-1.589146
 20
0.944102
  0
VERTEX
  8
PLAN_1
  6
CONTINUOUS
 10
-1.540650
 20
0.754965
  0
SEQEND
  8
0
  0
POLYLINE
  8
PLAN_1
  6
CONTINUOUS
 66
     1
 40
0.007051
 41
0.007051
  0
VERTEX
  8
PLAN_1
  6
CONTINUOUS
 10
-1.556965
 20
0.944102
  0
VERTEX
  8
PLAN_1
  6
CONTINUOUS
 10
-1.508024
 20
0.754965
  0
SEQEND
  8
0
  0
POLYLINE
  8
PLAN_1
  6
CONTINUOUS
 66
     1
 40
0.007051
 41
0.007051
  0
VERTEX
  8
PLAN_1
  6
CONTINUOUS
 10
-1.022173
 20
0.945866
  0
VERTEX
  8
PLAN_1
  6
CONTINUOUS
 10
-1.070669
 20
0.756728
  0
SEQEND
  8
0
  0
POLYLINE
  8
PLAN_1
  6
CONTINUOUS
 66
     1
 40
0.007051
 41
0.007051
  0
VERTEX
  8
PLAN_1
  6
CONTINUOUS
 10
-1.054354
 20
0.945866
  0
VERTEX
  8
PLAN_1
  6
CONTINUOUS
 10
-1.102854
 20
0.756728
  0
SEQEND
  8
0
  0
POLYLINE
  8
PLAN_1
  6
CONTINUOUS
 66
     1
 40
0.008374
 41
0.008374
  0
VERTEX
  8
PLAN_1
  6
CONTINUOUS
 10
-1.724500
 20
0.985543
  0
VERTEX
  8
PLAN_1
  6
CONTINUOUS
 10
-0.874476
 20
0.985543
  0
SEQEND
  8
0
  0
POLYLINE
  8
PLAN_1
  6
CONTINUOUS
 66
     1
 40
0.008374
 41
0.008374
  0
VERTEX
  8
PLAN_1
  6
CONTINUOUS
 10
-1.215280
 20
3.019780
  0
VERTEX
  8
PLAN_1
  6
CONTINUOUS
 10
-1.203815
 20
3.014929
  0
VERTEX
  8
PLAN_1
  6
CONTINUOUS
 10
-1.191913
 20
3.009638
  0
VERTEX
  8
PLAN_1
  6
CONTINUOUS
 10
-1.180449
 20
3.003469
  0
VERTEX
  8
PLAN_1
  6
CONTINUOUS
 10
-1.168543
 20
2.996854
  0
VERTEX
  8
PLAN_1
  6
CONTINUOUS
 10
-1.162374
 20
2.992886
  0
VERTEX
  8
PLAN_1
  6
CONTINUOUS
 10
-1.156642
 20
2.988476
  0
VERTEX
  8
PLAN_1
  6
CONTINUOUS
 10
-1.150909
 20
2.984067
  0
VERTEX
  8
PLAN_1
  6
CONTINUOUS
 10
-1.144736
 20
2.979661
  0
VERTEX
  8
PLAN_1
  6
CONTINUOUS
 10
-1.139004
 20
2.974370
  0
VERTEX
  8
PLAN_1
  6
CONTINUOUS
 10
-1.132835
 20
2.969079
  0
VERTEX
  8
PLAN_1
  6
CONTINUOUS
 10
-1.127102
 20
2.963346
  0
VERTEX
  8
PLAN_1
  6
CONTINUOUS
 10
-1.121370
 20
2.957173
  0
SEQEND
  8
0
  0
POLYLINE
  8
PLAN_1
  6
CONTINUOUS
 66
     1
 40
0.008374
 41
0.008374
  0
VERTEX
  8
PLAN_1
  6
CONTINUOUS
 10
-1.121370
 20
2.957173
  0
VERTEX
  8
PLAN_1
  6
CONTINUOUS
 10
-1.120488
 20
2.934248
  0
SEQEND
  8
0
  0
POLYLINE
  8
PLAN_1
  6
CONTINUOUS
 66
     1
 40
0.008374
 41
0.008374
  0
VERTEX
  8
PLAN_1
  6
CONTINUOUS
 10
-1.120488
 20
2.934248
  0
VERTEX
  8
PLAN_1
  6
CONTINUOUS
 10
-1.122252
 20
2.932043
  0
VERTEX
  8
PLAN_1
  6
CONTINUOUS
 10
-1.125780
 20
2.926311
  0
VERTEX
  8
PLAN_1
  6
CONTINUOUS
 10
-1.130630
 20
2.917937
  0
VERTEX
  8
PLAN_1
  6
CONTINUOUS
 10
-1.136803
 20
2.906913
  0
VERTEX
  8
PLAN_1
  6
CONTINUOUS
 10
-1.139445
 20
2.900740
  0
VERTEX
  8
PLAN_1
  6
CONTINUOUS
 10
-1.142531
 20
2.894130
  0
VERTEX
  8
PLAN_1
  6
CONTINUOUS
 10
-1.145177
 20
2.887075
  0
VERTEX
  8
PLAN_1
  6
CONTINUOUS
 10
-1.147823
 20
2.880020
  0
VERTEX
  8
PLAN_1
  6
CONTINUOUS
 10
-1.149587
 20
2.872965
  0
VERTEX
  8
PLAN_1
  6
CONTINUOUS
 10
-1.151350
 20
2.865472
  0
VERTEX
  8
PLAN_1
  6
CONTINUOUS
 10
-1.152232
 20
2.858417
  0
VERTEX
  8
PLAN_1
  6
CONTINUOUS
 10
-1.152673
 20
2.851362
  0
VERTEX
  8
PLAN_1
  6
CONTINUOUS
 10
-1.152232
 20
2.844307
  0
VERTEX
  8
PLAN_1
  6
CONTINUOUS
 10
-1.151350
 20
2.836815
  0
VERTEX
  8
PLAN_1
  6
CONTINUOUS
 10
-1.149587
 20
2.829760
  0
VERTEX
  8
PLAN_1
  6
CONTINUOUS
 10
-1.147823
 20
2.822264
  0
VERTEX
  8
PLAN_1
  6
CONTINUOUS
 10
-1.145177
 20
2.815209
  0
VERTEX
  8
PLAN_1
  6
CONTINUOUS
 10
-1.142531
 20
2.808598
  0
VERTEX
  8
PLAN_1
  6
CONTINUOUS
 10
-1.139445
 20
2.801984
  0
VERTEX
  8
PLAN_1
  6
CONTINUOUS
 10
-1.136803
 20
2.795811
  0
VERTEX
  8
PLAN_1
  6
CONTINUOUS
 10
-1.130630
 20
2.784787
  0
VERTEX
  8
PLAN_1
  6
CONTINUOUS
 10
-1.125780
 20
2.775972
  0
VERTEX
  8
PLAN_1
  6
CONTINUOUS
 10
-1.122252
 20
2.770681
  0
VERTEX
  8
PLAN_1
  6
CONTINUOUS
 10
-1.120488
 20
2.768476
  0
SEQEND
  8
0
  0
POLYLINE
  8
PLAN_1
  6
CONTINUOUS
 66
     1
 40
0.008374
 41
0.008374
  0
VERTEX
  8
PLAN_1
  6
CONTINUOUS
 10
-1.120488
 20
2.768476
  0
VERTEX
  8
PLAN_1
  6
CONTINUOUS
 10
-1.120488
 20
2.752606
  0
VERTEX
  8
PLAN_1
  6
CONTINUOUS
 10
-1.215280
 20
2.752606
  0
SEQEND
  8
0
  0
POLYLINE
  8
PLAN_1
  6
CONTINUOUS
 66
     1
 40
0.008374
 41
0.008374
  0
VERTEX
  8
PLAN_1
  6
CONTINUOUS
 10
-1.376642
 20
2.752606
  0
VERTEX
  8
PLAN_1
  6
CONTINUOUS
 10
-1.467906
 20
2.752606
  0
VERTEX
  8
PLAN_1
  6
CONTINUOUS
 10
-1.467906
 20
2.771122
  0
SEQEND
  8
0
  0
POLYLINE
  8
PLAN_1
  6
CONTINUOUS
 66
     1
 40
0.008374
 41
0.008374
  0
VERTEX
  8
PLAN_1
  6
CONTINUOUS
 10
-1.467906
 20
2.771122
  0
VERTEX
  8
PLAN_1
  6
CONTINUOUS
 10
-1.466583
 20
2.773327
  0
VERTEX
  8
PLAN_1
  6
CONTINUOUS
 10
-1.462614
 20
2.779059
  0
VERTEX
  8
PLAN_1
  6
CONTINUOUS
 10
-1.457764
 20
2.787874
  0
VERTEX
  8
PLAN_1
  6
CONTINUOUS
 10
-1.451591
 20
2.798898
  0
VERTEX
  8
PLAN_1
  6
CONTINUOUS
 10
-1.448504
 20
2.805071
  0
VERTEX
  8
PLAN_1
  6
CONTINUOUS
 10
-1.445862
 20
2.811681
  0
VERTEX
  8
PLAN_1
  6
CONTINUOUS
 10
-1.443217
 20
2.818736
  0
VERTEX
  8
PLAN_1
  6
CONTINUOUS
 10
-1.440571
 20
2.825791
  0
VERTEX
  8
PLAN_1
  6
CONTINUOUS
 10
-1.438366
 20
2.833287
  0
VERTEX
  8
PLAN_1
  6
CONTINUOUS
 10
-1.437043
 20
2.840339
  0
VERTEX
  8
PLAN_1
  6
CONTINUOUS
 10
-1.435720
 20
2.847835
  0
VERTEX
  8
PLAN_1
  6
CONTINUOUS
 10
-1.435720
 20
2.854890
  0
VERTEX
  8
PLAN_1
  6
CONTINUOUS
 10
-1.435720
 20
2.861945
  0
VERTEX
  8
PLAN_1
  6
CONTINUOUS
 10
-1.437043
 20
2.869437
  0
VERTEX
  8
PLAN_1
  6
CONTINUOUS
 10
-1.438366
 20
2.876492
  0
VERTEX
  8
PLAN_1
  6
CONTINUOUS
 10
-1.440571
 20
2.883988
  0
VERTEX
  8
PLAN_1
  6
CONTINUOUS
 10
-1.443217
 20
2.891043
  0
VERTEX
  8
PLAN_1
  6
CONTINUOUS
 10
-1.445862
 20
2.897654
  0
VERTEX
  8
PLAN_1
  6
CONTINUOUS
 10
-1.448504
 20
2.904709
  0
VERTEX
  8
PLAN_1
  6
CONTINUOUS
 10
-1.451591
 20
2.910882
  0
VERTEX
  8
PLAN_1
  6
CONTINUOUS
 10
-1.457764
 20
2.921906
  0
VERTEX
  8
PLAN_1
  6
CONTINUOUS
 10
-1.462614
 20
2.930720
  0
VERTEX
  8
PLAN_1
  6
CONTINUOUS
 10
-1.466583
 20
2.936453
  0
VERTEX
  8
PLAN_1
  6
CONTINUOUS
 10
-1.467906
 20
2.938657
  0
SEQEND
  8
0
  0
POLYLINE
  8
PLAN_1
  6
CONTINUOUS
 66
     1
 40
0.008374
 41
0.008374
  0
VERTEX
  8
PLAN_1
  6
CONTINUOUS
 10
-1.467906
 20
2.938657
  0
VERTEX
  8
PLAN_1
  6
CONTINUOUS
 10
-1.467024
 20
2.957173
  0
SEQEND
  8
0
  0
POLYLINE
  8
PLAN_1
  6
CONTINUOUS
 66
     1
 40
0.008374
 41
0.008374
  0
VERTEX
  8
PLAN_1
  6
CONTINUOUS
 10
-1.467024
 20
2.957173
  0
VERTEX
  8
PLAN_1
  6
CONTINUOUS
 10
-1.465260
 20
2.958937
  0
VERTEX
  8
PLAN_1
  6
CONTINUOUS
 10
-1.460850
 20
2.963787
  0
VERTEX
  8
PLAN_1
  6
CONTINUOUS
 10
-1.452913
 20
2.970843
  0
VERTEX
  8
PLAN_1
  6
CONTINUOUS
 10
-1.442335
 20
2.979661
  0
VERTEX
  8
PLAN_1
  6
CONTINUOUS
 10
-1.436161
 20
2.984508
  0
VERTEX
  8
PLAN_1
  6
CONTINUOUS
 10
-1.429547
 20
2.989799
  0
VERTEX
  8
PLAN_1
  6
CONTINUOUS
 10
-1.422051
 20
2.995091
  0
VERTEX
  8
PLAN_1
  6
CONTINUOUS
 10
-1.414118
 20
3.000382
  0
VERTEX
  8
PLAN_1
  6
CONTINUOUS
 10
-1.405299
 20
3.005232
  0
VERTEX
  8
PLAN_1
  6
CONTINUOUS
 10
-1.396480
 20
3.010520
  0
VERTEX
  8
PLAN_1
  6
CONTINUOUS
 10
-1.386783
 20
3.015370
  0
VERTEX
  8
PLAN_1
  6
CONTINUOUS
 10
-1.377083
 20
3.019780
  0
SEQEND
  8
0
  0
POLYLINE
  8
PLAN_1
  6
CONTINUOUS
 66
     1
 40
0.008374
 41
0.008374
  0
VERTEX
  8
PLAN_1
  6
CONTINUOUS
 10
-1.376642
 20
2.631362
  0
VERTEX
  8
PLAN_1
  6
CONTINUOUS
 10
-1.376642
 20
3.117657
  0
VERTEX
  8
PLAN_1
  6
CONTINUOUS
 10
-1.215280
 20
3.117657
  0
VERTEX
  8
PLAN_1
  6
CONTINUOUS
 10
-1.215280
 20
2.631362
  0
VERTEX
  8
PLAN_1
  6
CONTINUOUS
 10
-1.376642
 20
2.631362
  0
SEQEND
  8
0
  0
POLYLINE
  8
PLAN_1
  6
CONTINUOUS
 66
     1
 40
0.008374
 41
0.008374
  0
VERTEX
  8
PLAN_1
  6
CONTINUOUS
 10
-1.215280
 20
2.300260
  0
VERTEX
  8
PLAN_1
  6
CONTINUOUS
 10
-1.376642
 20
2.300260
  0
VERTEX
  8
PLAN_1
  6
CONTINUOUS
 10
-1.376201
 20
2.484547
  0
VERTEX
  8
PLAN_1
  6
CONTINUOUS
 10
-1.215280
 20
2.484547
  0
VERTEX
  8
PLAN_1
  6
CONTINUOUS
 10
-1.215280
 20
2.300260
  0
SEQEND
  8
0
  0
POLYLINE
  8
PLAN_1
  6
CONTINUOUS
 66
     1
 40
0.008374
 41
0.008374
  0
VERTEX
  8
PLAN_1
  6
CONTINUOUS
 10
-1.215280
 20
2.752606
  0
VERTEX
  8
PLAN_1
  6
CONTINUOUS
 10
-0.968823
 20
2.752606
  0
VERTEX
  8
PLAN_1
  6
CONTINUOUS
 10
-0.968823
 20
2.262783
  0
VERTEX
  8
PLAN_1
  6
CONTINUOUS
 10
-1.622213
 20
2.262783
  0
VERTEX
  8
PLAN_1
  6
CONTINUOUS
 10
-1.622213
 20
2.752606
  0
VERTEX
  8
PLAN_1
  6
CONTINUOUS
 10
-1.377083
 20
2.752606
  0
VERTEX
  8
PLAN_1
  6
CONTINUOUS
 10
-1.377083
 20
2.299819
  0
VERTEX
  8
PLAN_1
  6
CONTINUOUS
 10
-1.215280
 20
2.299819
  0
VERTEX
  8
PLAN_1
  6
CONTINUOUS
 10
-1.215280
 20
2.752606
  0
SEQEND
  8
0
  0
POLYLINE
  8
PLAN_1
  6
CONTINUOUS
 66
     1
 40
0.008374
 41
0.008374
  0
VERTEX
  8
PLAN_1
  6
CONTINUOUS
 10
-1.120488
 20
2.956732
  0
VERTEX
  8
PLAN_1
  6
CONTINUOUS
 10
-1.202492
 20
2.956732
  0
SEQEND
  8
0
  0
POLYLINE
  8
PLAN_1
  6
CONTINUOUS
 66
     1
 40
0.008374
 41
0.008374
  0
VERTEX
  8
PLAN_1
  6
CONTINUOUS
 10
-1.467906
 20
2.956732
  0
VERTEX
  8
PLAN_1
  6
CONTINUOUS
 10
-1.376642
 20
2.956732
  0
SEQEND
  8
0
  0
POLYLINE
  8
PLAN_1
  6
CONTINUOUS
 66
     1
 40
0.008374
 41
0.008374
  0
VERTEX
  8
PLAN_1
  6
CONTINUOUS
 10
-1.569307
 20
1.728874
  0
VERTEX
  8
PLAN_1
  6
CONTINUOUS
 10
-1.569307
 20
1.669354
  0
VERTEX
  8
PLAN_1
  6
CONTINUOUS
 10
-1.846622
 20
1.669354
  0
VERTEX
  8
PLAN_1
  6
CONTINUOUS
 10
-1.846622
 20
1.728874
  0
VERTEX
  8
PLAN_1
  6
CONTINUOUS
 10
-1.569307
 20
1.728874
  0
SEQEND
  8
0
  0
POLYLINE
  8
PLAN_1
  6
CONTINUOUS
 66
     1
 40
0.008374
 41
0.008374
  0
VERTEX
  8
PLAN_1
  6
CONTINUOUS
 10
-0.742213
 20
1.728874
  0
VERTEX
  8
PLAN_1
  6
CONTINUOUS
 10
-0.742213
 20
1.669354
  0
VERTEX
  8
PLAN_1
  6
CONTINUOUS
 10
-1.022614
 20
1.669354
  0
VERTEX
  8
PLAN_1
  6
CONTINUOUS
 10
-1.022614
 20
1.728874
  0
VERTEX
  8
PLAN_1
  6
CONTINUOUS
 10
-0.742213
 20
1.728874
  0
SEQEND
  8
0
  0
POLYLINE
  8
PLAN_1
  6
CONTINUOUS
 66
     1
 40
0.005728
 41
0.005728
  0
VERTEX
  8
PLAN_1
  6
CONTINUOUS
 10
-1.684378
 20
1.705508
  0
VERTEX
  8
PLAN_1
  6
CONTINUOUS
 10
-1.684378
 20
1.728874
  0
VERTEX
  8
PLAN_1
  6
CONTINUOUS
 10
-1.732874
 20
1.728874
  0
VERTEX
  8
PLAN_1
  6
CONTINUOUS
 10
-1.732874
 20
1.705508
  0
VERTEX
  8
PLAN_1
  6
CONTINUOUS
 10
-1.684378
 20
1.705508
  0
SEQEND
  8
0
  0
POLYLINE
  8
PLAN_1
  6
CONTINUOUS
 66
     1
 40
0.005728
 41
0.005728
  0
VERTEX
  8
PLAN_1
  6
CONTINUOUS
 10
-0.860366
 20
1.705508
  0
VERTEX
  8
PLAN_1
  6
CONTINUOUS
 10
-0.860366
 20
1.728874
  0
VERTEX
  8
PLAN_1
  6
CONTINUOUS
 10
-0.909307
 20
1.728874
  0
VERTEX
  8
PLAN_1
  6
CONTINUOUS
 10
-0.909307
 20
1.705508
  0
VERTEX
  8
PLAN_1
  6
CONTINUOUS
 10
-0.860366
 20
1.705508
  0
SEQEND
  8
0
  0
POLYLINE
  8
PLAN_1
 62
     2
  6
CONTINUOUS
 66
     1
 40
0.003965
 41
0.003965
  0
VERTEX
  8
PLAN_1
 62
     2
  6
CONTINUOUS
 10
-1.266862
 20
3.432445
  0
VERTEX
  8
PLAN_1
 62
     2
  6
CONTINUOUS
 10
-0.771752
 20
3.432445
  0
SEQEND
  8
0
  0
SOLID
  8
PLAN_1
 62
     2
 10
-0.742213
 20
3.432445
 11
-0.801287
 21
3.447878
 12
-0.742213
 22
3.432445
 13
-0.801287
 23
3.416575
  0
POLYLINE
  8
PLAN_1
 62
     2
  6
CONTINUOUS
 66
     1
 40
0.003000
 41
0.003000
  0
VERTEX
  8
PLAN_1
 62
     2
  6
CONTINUOUS
 10
-0.742213
 20
3.432445
  0
VERTEX
  8
PLAN_1
 62
     2
  6
CONTINUOUS
 10
-0.801287
 20
3.447878
  0
VERTEX
  8
PLAN_1
 62
     2
  6
CONTINUOUS
 10
-0.801287
 20
3.416575
  0
VERTEX
  8
PLAN_1
 62
     2
  6
CONTINUOUS
 10
-0.742213
 20
3.432445
  0
SEQEND
  8
0
  0
SOLID
  8
PLAN_1
 62
     2
 10
-1.296402
 20
3.432445
 11
-1.237323
 21
3.447878
 12
-1.296402
 22
3.432445
 13
-1.237323
 23
3.416575
  0
POLYLINE
  8
PLAN_1
 62
     2
  6
CONTINUOUS
 66
     1
 40
0.003000
 41
0.003000
  0
VERTEX
  8
PLAN_1
 62
     2
  6
CONTINUOUS
 10
-1.296402
 20
3.432445
  0
VERTEX
  8
PLAN_1
 62
     2
  6
CONTINUOUS
 10
-1.237323
 20
3.447878
  0
VERTEX
  8
PLAN_1
 62
     2
  6
CONTINUOUS
 10
-1.237323
 20
3.416575
  0
VERTEX
  8
PLAN_1
 62
     2
  6
CONTINUOUS
 10
-1.296402
 20
3.432445
  0
SEQEND
  8
0
  0
POLYLINE
  8
PLAN_1
 62
     2
  6
CONTINUOUS
 66
     1
 40
0.003000
 41
0.003000
  0
VERTEX
  8
PLAN_1
 62
     2
  6
CONTINUOUS
 10
-1.041130
 20
3.455815
  0
VERTEX
  8
PLAN_1
 62
     2
  6
CONTINUOUS
 10
-1.050831
 20
3.455815
  0
VERTEX
  8
PLAN_1
 62
     2
  6
CONTINUOUS
 10
-1.050831
 20
3.507839
  0
VERTEX
  8
PLAN_1
 62
     2
  6
CONTINUOUS
 10
-1.068024
 20
3.507839
  0
VERTEX
  8
PLAN_1
 62
     2
  6
CONTINUOUS
 10
-1.068024
 20
3.514894
  0
VERTEX
  8
PLAN_1
 62
     2
  6
CONTINUOUS
 10
-1.063614
 20
3.515331
  0
VERTEX
  8
PLAN_1
 62
     2
  6
CONTINUOUS
 10
-1.060087
 20
3.515772
  0
VERTEX
  8
PLAN_1
 62
     2
  6
CONTINUOUS
 10
-1.057441
 20
3.516654
  0
VERTEX
  8
PLAN_1
 62
     2
  6
CONTINUOUS
 10
-1.054795
 20
3.517976
  0
VERTEX
  8
PLAN_1
 62
     2
  6
CONTINUOUS
 10
-1.052594
 20
3.519740
  0
VERTEX
  8
PLAN_1
 62
     2
  6
CONTINUOUS
 10
-1.050831
 20
3.521945
  0
VERTEX
  8
PLAN_1
 62
     2
  6
CONTINUOUS
 10
-1.049508
 20
3.525031
  0
VERTEX
  8
PLAN_1
 62
     2
  6
CONTINUOUS
 10
-1.048185
 20
3.529000
  0
VERTEX
  8
PLAN_1
 62
     2
  6
CONTINUOUS
 10
-1.041130
 20
3.529000
  0
VERTEX
  8
PLAN_1
 62
     2
  6
CONTINUOUS
 10
-1.041130
 20
3.455815
  0
SEQEND
  8
0
  0
POLYLINE
  8
PLAN_1
 62
     2
  6
CONTINUOUS
 66
     1
 40
0.003000
 41
0.003000
  0
VERTEX
  8
PLAN_1
 62
     2
  6
CONTINUOUS
 10
-0.976760
 20
3.473449
  0
VERTEX
  8
PLAN_1
 62
     2
  6
CONTINUOUS
 10
-0.976760
 20
3.455815
  0
VERTEX
  8
PLAN_1
 62
     2
  6
CONTINUOUS
 10
-0.986020
 20
3.455815
  0
VERTEX
  8
PLAN_1
 62
     2
  6
CONTINUOUS
 10
-0.986020
 20
3.473449
  0
VERTEX
  8
PLAN_1
 62
     2
  6
CONTINUOUS
 10
-1.017764
 20
3.473449
  0
VERTEX
  8
PLAN_1
 62
     2
  6
CONTINUOUS
 10
-1.017764
 20
3.482709
  0
VERTEX
  8
PLAN_1
 62
     2
  6
CONTINUOUS
 10
-0.984256
 20
3.529000
  0
VERTEX
  8
PLAN_1
 62
     2
  6
CONTINUOUS
 10
-0.976760
 20
3.529000
  0
VERTEX
  8
PLAN_1
 62
     2
  6
CONTINUOUS
 10
-0.976760
 20
3.481386
  0
VERTEX
  8
PLAN_1
 62
     2
  6
CONTINUOUS
 10
-0.966181
 20
3.481386
  0
VERTEX
  8
PLAN_1
 62
     2
  6
CONTINUOUS
 10
-0.966181
 20
3.473449
  0
VERTEX
  8
PLAN_1
 62
     2
  6
CONTINUOUS
 10
-0.976760
 20
3.473449
  0
SEQEND
  8
0
  0
SOLID
  8
PLAN_1
 62
     2
 10
-1.009386
 20
3.481386
 11
-0.986020
 21
3.481386
 12
-1.009386
 22
3.481386
 13
-0.986020
 23
3.514894
  0
POLYLINE
  8
PLAN_1
 62
     2
  6
CONTINUOUS
 66
     1
 40
0.003000
 41
0.003000
  0
VERTEX
  8
PLAN_1
 62
     2
  6
CONTINUOUS
 10
-1.009386
 20
3.481386
  0
VERTEX
  8
PLAN_1
 62
     2
  6
CONTINUOUS
 10
-0.986020
 20
3.481386
  0
VERTEX
  8
PLAN_1
 62
     2
  6
CONTINUOUS
 10
-0.986020
 20
3.514894
  0
VERTEX
  8
PLAN_1
 62
     2
  6
CONTINUOUS
 10
-1.009386
 20
3.481386
  0
SEQEND
  8
0
  0
POLYLINE
  8
PLAN_1
 62
     2
  6
CONTINUOUS
 66
     1
 40
0.003965
 41
0.003965
  0
VERTEX
  8
PLAN_1
 62
     2
  6
CONTINUOUS
 10
-1.516402
 20
3.275051
  0
VERTEX
  8
PLAN_1
 62
     2
  6
CONTINUOUS
 10
-1.184858
 20
3.275051
  0
SEQEND
  8
0
  0
SOLID
  8
PLAN_1
 62
     2
 10
-1.374878
 20
3.275051
 11
-1.433516
 21
3.290480
 12
-1.374878
 22
3.275051
 13
-1.433516
 23
3.259181
  0
POLYLINE
  8
PLAN_1
 62
     2
  6
CONTINUOUS
 66
     1
 40
0.003000
 41
0.003000
  0
VERTEX
  8
PLAN_1
 62
     2
  6
CONTINUOUS
 10
-1.374878
 20
3.275051
  0
VERTEX
  8
PLAN_1
 62
     2
  6
CONTINUOUS
 10
-1.433516
 20
3.290480
  0
VERTEX
  8
PLAN_1
 62
     2
  6
CONTINUOUS
 10
-1.433516
 20
3.259181
  0
VERTEX
  8
PLAN_1
 62
     2
  6
CONTINUOUS
 10
-1.374878
 20
3.275051
  0
SEQEND
  8
0
  0
SOLID
  8
PLAN_1
 62
     2
 10
-1.214398
 20
3.275051
 11
-1.155319
 21
3.290480
 12
-1.214398
 22
3.275051
 13
-1.155319
 23
3.259181
  0
POLYLINE
  8
PLAN_1
 62
     2
  6
CONTINUOUS
 66
     1
 40
0.003000
 41
0.003000
  0
VERTEX
  8
PLAN_1
 62
     2
  6
CONTINUOUS
 10
-1.214398
 20
3.275051
  0
VERTEX
  8
PLAN_1
 62
     2
  6
CONTINUOUS
 10
-1.155319
 20
3.290480
  0
VERTEX
  8
PLAN_1
 62
     2
  6
CONTINUOUS
 10
-1.155319
 20
3.259181
  0
VERTEX
  8
PLAN_1
 62
     2
  6
CONTINUOUS
 10
-1.214398
 20
3.275051
  0
SEQEND
  8
0
  0
POLYLINE
  8
PLAN_1
 62
     2
  6
CONTINUOUS
 66
     1
 40
0.003000
 41
0.003000
  0
VERTEX
  8
PLAN_1
 62
     2
  6
CONTINUOUS
 10
-1.456882
 20
3.316055
  0
VERTEX
  8
PLAN_1
 62
     2
  6
CONTINUOUS
 10
-1.456882
 20
3.298417
  0
VERTEX
  8
PLAN_1
 62
     2
  6
CONTINUOUS
 10
-1.466142
 20
3.298417
  0
VERTEX
  8
PLAN_1
 62
     2
  6
CONTINUOUS
 10
-1.466142
 20
3.316055
  0
VERTEX
  8
PLAN_1
 62
     2
  6
CONTINUOUS
 10
-1.497886
 20
3.316055
  0
VERTEX
  8
PLAN_1
 62
     2
  6
CONTINUOUS
 10
-1.497886
 20
3.325311
  0
VERTEX
  8
PLAN_1
 62
     2
  6
CONTINUOUS
 10
-1.464378
 20
3.371606
  0
VERTEX
  8
PLAN_1
 62
     2
  6
CONTINUOUS
 10
-1.456882
 20
3.371606
  0
VERTEX
  8
PLAN_1
 62
     2
  6
CONTINUOUS
 10
-1.456882
 20
3.323988
  0
VERTEX
  8
PLAN_1
 62
     2
  6
CONTINUOUS
 10
-1.446303
 20
3.323988
  0
VERTEX
  8
PLAN_1
 62
     2
  6
CONTINUOUS
 10
-1.446303
 20
3.316055
  0
VERTEX
  8
PLAN_1
 62
     2
  6
CONTINUOUS
 10
-1.456882
 20
3.316055
  0
SEQEND
  8
0
  0
SOLID
  8
PLAN_1
 62
     2
 10
-1.489508
 20
3.323988
 11
-1.466142
 21
3.323988
 12
-1.489508
 22
3.323988
 13
-1.466142
 23
3.357496
  0
POLYLINE
  8
PLAN_1
 62
     2
  6
CONTINUOUS
 66
     1
 40
0.003000
 41
0.003000
  0
VERTEX
  8
PLAN_1
 62
     2
  6
CONTINUOUS
 10
-1.489508
 20
3.323988
  0
VERTEX
  8
PLAN_1
 62
     2
  6
CONTINUOUS
 10
-1.466142
 20
3.323988
  0
VERTEX
  8
PLAN_1
 62
     2
  6
CONTINUOUS
 10
-1.466142
 20
3.357496
  0
VERTEX
  8
PLAN_1
 62
     2
  6
CONTINUOUS
 10
-1.489508
 20
3.323988
  0
SEQEND
  8
0
  0
POLYLINE
  8
PLAN_1
 62
     2
  6
CONTINUOUS
 66
     1
 40
0.003965
 41
0.003965
  0
VERTEX
  8
PLAN_1
 62
     2
  6
CONTINUOUS
 10
-1.374878
 20
3.141024
  0
VERTEX
  8
PLAN_1
 62
     2
  6
CONTINUOUS
 10
-1.374878
 20
3.298417
  0
SEQEND
  8
0
  0
POLYLINE
  8
PLAN_1
 62
     2
  6
CONTINUOUS
 66
     1
 40
0.003965
 41
0.003965
  0
VERTEX
  8
PLAN_1
 62
     2
  6
CONTINUOUS
 10
-1.214398
 20
3.141024
  0
VERTEX
  8
PLAN_1
 62
     2
  6
CONTINUOUS
 10
-1.214398
 20
3.298417
  0
SEQEND
  8
0
  0
POLYLINE
  8
PLAN_1
 62
     2
  6
CONTINUOUS
 66
     1
 40
0.003965
 41
0.003965
  0
VERTEX
  8
PLAN_1
 62
     2
  6
CONTINUOUS
 10
-1.296402
 20
3.141906
  0
VERTEX
  8
PLAN_1
 62
     2
  6
CONTINUOUS
 10
-1.296402
 20
3.249921
  0
SEQEND
  8
0
  0
POLYLINE
  8
PLAN_1
 62
     2
  6
CONTINUOUS
 66
     1
 40
0.003965
 41
0.003965
  0
VERTEX
  8
PLAN_1
 62
     2
  6
CONTINUOUS
 10
-1.296402
 20
3.298417
  0
VERTEX
  8
PLAN_1
 62
     2
  6
CONTINUOUS
 10
-1.296402
 20
3.455815
  0
SEQEND
  8
0
  0
POLYLINE
  8
PLAN_1
 62
     2
  6
CONTINUOUS
 66
     1
 40
0.003965
 41
0.003965
  0
VERTEX
  8
PLAN_1
 62
     2
  6
CONTINUOUS
 10
-0.742213
 20
1.752240
  0
VERTEX
  8
PLAN_1
 62
     2
  6
CONTINUOUS
 10
-0.742213
 20
3.453610
  0
SEQEND
  8
0
  0
ENDSEC
  0
EOF
