  0
SECTION
  2
HEADER
  9
$ACADVER
  1
AC1006
  9
$EXTMIN
 10
-1.859000
 20
-3.490008
  9
$EXTMAX
 10
1.853000
 20
3.494000
  9
$LTSCALE
 40
0.000394
  9
$PDMODE
 70
    35
  9
$PDSIZE
 40
0.000315
  0
ENDSEC
  0
SECTION
  2
TABLES
  0
TABLE
  2
LTYPE
 70
     9
  0
LTYPE
  2
CONTINUOUS
 70
    64
  3
Solid line
 72
    65
 73
     0
 40
0.000000
  0
LTYPE
  2
DASHED
 70
    64
  3
__ __ __ __ __ __ __ __ __ __ __ __ __ __ __
 72
    65
 73
     2
 40
0.000003
 49
0.000002
 49
-0.000001
  0
LTYPE
  2
HIDDEN
 70
    64
  3
 _ _ _ _ _ _ _ _ _ _ _ _ _ _ _ _ _ _ _ _ _ _
 72
    65
 73
     2
 40
0.000001
 49
0.000001
 49
-0.000000
  0
LTYPE
  2
CENTER
 70
    64
  3
____ _ ____ _ ____ _ ____ _ ____ _ ____ _ ____
 72
    65
 73
     4
 40
0.000008
 49
0.000005
 49
-0.000001
 49
0.000001
 49
-0.000001
  0
LTYPE
  2
PHANTOM
 70
    64
  3
_____ _ _ _____ _ _ _____ _ _ _____ _ _ ____
 72
    65
 73
     6
 40
0.000010
 49
0.000005
 49
-0.000001
 49
0.000001
 49
-0.000001
 49
0.000001
 49
-0.000001
  0
LTYPE
  2
DOT
 70
    64
  3
...............................................
 72
    65
 73
     2
 40
0.000001
 49
0.000000
 49
-0.000001
  0
LTYPE
  2
DASHDOT
 70
    64
  3
__ . __ . __ . __ . __ . __ . __ . __ . __ . __
 72
    65
 73
     4
 40
0.000004
 49
0.000002
 49
-0.000001
 49
0.000000
 49
-0.000001
  0
LTYPE
  2
BORDER
 70
    64
  3
__ __ . __ __ . __ __ . __ __ . __ __ . __ __
 72
    65
 73
     6
 40
0.000007
 49
0.000002
 49
-0.000001
 49
0.000002
 49
-0.000001
 49
0.000000
 49
-0.000001
  0
LTYPE
  2
DIVIDE
 70
    64
  3
__ . . __ . . __ . . __ . . __ . . __ . . __
 72
    65
 73
     6
 40
0.000005
 49
0.000002
 49
-0.000001
 49
0.000000
 49
-0.000001
 49
0.000000
 49
-0.000001
  0
LTYPE
  2
DOTDOT
 70
    64
  3
 . .  . .  . .  . .  . .  . . 
 72
    65
 73
     5
 40
0.000002
 49
-0.000001
 49
0.000000
 49
-0.000001
 49
0.000000
 49
-0.000001
  0
ENDTAB
  0
TABLE
  2
STYLE
 70
     0
  0
ENDTAB
  0
TABLE
  2
LAYER
 70
     3
  0
LAYER
  2
FOREGROUND
 70
    64
 62
     7
  6
CONTINUOUS
  0
LAYER
  2
BACKGROUND
 70
    65
 62
    -7
  6
CONTINUOUS
  0
LAYER
  2
PLAN_1
 70
    64
 62
     7
  6
CONTINUOUS
  0
ENDTAB
  0
ENDSEC
  0
SECTION
  2
ENTITIES
  0
POLYLINE
  8
PLAN_1
  6
CONTINUOUS
 66
     1
 40
0.003000
 41
0.003000
  0
VERTEX
  8
PLAN_1
  6
CONTINUOUS
 10
-0.023079
 20
-3.484768
  0
VERTEX
  8
PLAN_1
  6
CONTINUOUS
 10
-0.179783
 20
-3.484768
  0
VERTEX
  8
PLAN_1
  6
CONTINUOUS
 10
-0.179783
 20
-3.462071
  0
VERTEX
  8
PLAN_1
  6
CONTINUOUS
 10
-0.057563
 20
-3.309295
  0
VERTEX
  8
PLAN_1
  6
CONTINUOUS
 10
-0.170618
 20
-3.309295
  0
VERTEX
  8
PLAN_1
  6
CONTINUOUS
 10
-0.170618
 20
-3.285287
  0
VERTEX
  8
PLAN_1
  6
CONTINUOUS
 10
-0.023079
 20
-3.285287
  0
VERTEX
  8
PLAN_1
  6
CONTINUOUS
 10
-0.023079
 20
-3.308858
  0
VERTEX
  8
PLAN_1
  6
CONTINUOUS
 10
-0.145736
 20
-3.460764
  0
VERTEX
  8
PLAN_1
  6
CONTINUOUS
 10
-0.023079
 20
-3.460764
  0
VERTEX
  8
PLAN_1
  6
CONTINUOUS
 10
-0.023079
 20
-3.484768
  0
SEQEND
  8
0
  0
POLYLINE
  8
PLAN_1
  6
CONTINUOUS
 66
     1
 40
0.003000
 41
0.003000
  0
VERTEX
  8
PLAN_1
  6
CONTINUOUS
 10
0.144535
 20
-3.345528
  0
VERTEX
  8
PLAN_1
  6
CONTINUOUS
 10
0.142791
 20
-3.338980
  0
VERTEX
  8
PLAN_1
  6
CONTINUOUS
 10
0.140610
 20
-3.333740
  0
VERTEX
  8
PLAN_1
  6
CONTINUOUS
 10
0.137988
 20
-3.328504
  0
VERTEX
  8
PLAN_1
  6
CONTINUOUS
 10
0.135370
 20
-3.324138
  0
VERTEX
  8
PLAN_1
  6
CONTINUOUS
 10
0.131878
 20
-3.320209
  0
VERTEX
  8
PLAN_1
  6
CONTINUOUS
 10
0.128386
 20
-3.317154
  0
VERTEX
  8
PLAN_1
  6
CONTINUOUS
 10
0.124894
 20
-3.314098
  0
VERTEX
  8
PLAN_1
  6
CONTINUOUS
 10
0.120965
 20
-3.311480
  0
VERTEX
  8
PLAN_1
  6
CONTINUOUS
 10
0.117039
 20
-3.309732
  0
VERTEX
  8
PLAN_1
  6
CONTINUOUS
 10
0.112673
 20
-3.307988
  0
VERTEX
  8
PLAN_1
  6
CONTINUOUS
 10
0.108307
 20
-3.306677
  0
VERTEX
  8
PLAN_1
  6
CONTINUOUS
 10
0.104378
 20
-3.305803
  0
VERTEX
  8
PLAN_1
  6
CONTINUOUS
 10
0.096087
 20
-3.304496
  0
VERTEX
  8
PLAN_1
  6
CONTINUOUS
 10
0.088665
 20
-3.304059
  0
VERTEX
  8
PLAN_1
  6
CONTINUOUS
 10
0.082118
 20
-3.304496
  0
VERTEX
  8
PLAN_1
  6
CONTINUOUS
 10
0.075571
 20
-3.305366
  0
VERTEX
  8
PLAN_1
  6
CONTINUOUS
 10
0.069024
 20
-3.306677
  0
VERTEX
  8
PLAN_1
  6
CONTINUOUS
 10
0.063346
 20
-3.308858
  0
VERTEX
  8
PLAN_1
  6
CONTINUOUS
 10
0.057673
 20
-3.311913
  0
VERTEX
  8
PLAN_1
  6
CONTINUOUS
 10
0.052000
 20
-3.315406
  0
VERTEX
  8
PLAN_1
  6
CONTINUOUS
 10
0.047197
 20
-3.319335
  0
VERTEX
  8
PLAN_1
  6
CONTINUOUS
 10
0.042398
 20
-3.324138
  0
VERTEX
  8
PLAN_1
  6
CONTINUOUS
 10
0.038031
 20
-3.329374
  0
VERTEX
  8
PLAN_1
  6
CONTINUOUS
 10
0.034539
 20
-3.335051
  0
VERTEX
  8
PLAN_1
  6
CONTINUOUS
 10
0.031047
 20
-3.341598
  0
VERTEX
  8
PLAN_1
  6
CONTINUOUS
 10
0.028429
 20
-3.348583
  0
VERTEX
  8
PLAN_1
  6
CONTINUOUS
 10
0.026244
 20
-3.356437
  0
VERTEX
  8
PLAN_1
  6
CONTINUOUS
 10
0.024500
 20
-3.364732
  0
VERTEX
  8
PLAN_1
  6
CONTINUOUS
 10
0.023626
 20
-3.373461
  0
VERTEX
  8
PLAN_1
  6
CONTINUOUS
 10
0.023189
 20
-3.383063
  0
VERTEX
  8
PLAN_1
  6
CONTINUOUS
 10
0.023626
 20
-3.391795
  0
VERTEX
  8
PLAN_1
  6
CONTINUOUS
 10
0.024063
 20
-3.400087
  0
VERTEX
  8
PLAN_1
  6
CONTINUOUS
 10
0.025374
 20
-3.408382
  0
VERTEX
  8
PLAN_1
  6
CONTINUOUS
 10
0.026681
 20
-3.415803
  0
VERTEX
  8
PLAN_1
  6
CONTINUOUS
 10
0.028866
 20
-3.423224
  0
VERTEX
  8
PLAN_1
  6
CONTINUOUS
 10
0.031047
 20
-3.430209
  0
VERTEX
  8
PLAN_1
  6
CONTINUOUS
 10
0.034102
 20
-3.436319
  0
VERTEX
  8
PLAN_1
  6
CONTINUOUS
 10
0.038031
 20
-3.442429
  0
VERTEX
  8
PLAN_1
  6
CONTINUOUS
 10
0.041961
 20
-3.447665
  0
VERTEX
  8
PLAN_1
  6
CONTINUOUS
 10
0.046760
 20
-3.452031
  0
VERTEX
  8
PLAN_1
  6
CONTINUOUS
 10
0.049382
 20
-3.454213
  0
VERTEX
  8
PLAN_1
  6
CONTINUOUS
 10
0.052000
 20
-3.456398
  0
VERTEX
  8
PLAN_1
  6
CONTINUOUS
 10
0.055055
 20
-3.458142
  0
VERTEX
  8
PLAN_1
  6
CONTINUOUS
 10
0.058110
 20
-3.459890
  0
VERTEX
  8
PLAN_1
  6
CONTINUOUS
 10
0.061602
 20
-3.461197
  0
VERTEX
  8
PLAN_1
  6
CONTINUOUS
 10
0.065094
 20
-3.462508
  0
VERTEX
  8
PLAN_1
  6
CONTINUOUS
 10
0.068587
 20
-3.463819
  0
VERTEX
  8
PLAN_1
  6
CONTINUOUS
 10
0.072516
 20
-3.464689
  0
VERTEX
  8
PLAN_1
  6
CONTINUOUS
 10
0.076445
 20
-3.465126
  0
VERTEX
  8
PLAN_1
  6
CONTINUOUS
 10
0.080370
 20
-3.465563
  0
VERTEX
  8
PLAN_1
  6
CONTINUOUS
 10
0.084736
 20
-3.466000
  0
VERTEX
  8
PLAN_1
  6
CONTINUOUS
 10
0.089539
 20
-3.466000
  0
VERTEX
  8
PLAN_1
  6
CONTINUOUS
 10
0.093031
 20
-3.466000
  0
VERTEX
  8
PLAN_1
  6
CONTINUOUS
 10
0.096524
 20
-3.465563
  0
VERTEX
  8
PLAN_1
  6
CONTINUOUS
 10
0.100449
 20
-3.465126
  0
VERTEX
  8
PLAN_1
  6
CONTINUOUS
 10
0.104378
 20
-3.464256
  0
VERTEX
  8
PLAN_1
  6
CONTINUOUS
 10
0.108744
 20
-3.462945
  0
VERTEX
  8
PLAN_1
  6
CONTINUOUS
 10
0.112673
 20
-3.461197
  0
VERTEX
  8
PLAN_1
  6
CONTINUOUS
 10
0.117039
 20
-3.459016
  0
VERTEX
  8
PLAN_1
  6
CONTINUOUS
 10
0.120965
 20
-3.455961
  0
VERTEX
  8
PLAN_1
  6
CONTINUOUS
 10
0.124894
 20
-3.452906
  0
VERTEX
  8
PLAN_1
  6
CONTINUOUS
 10
0.128823
 20
-3.448976
  0
VERTEX
  8
PLAN_1
  6
CONTINUOUS
 10
0.132752
 20
-3.444610
  0
VERTEX
  8
PLAN_1
  6
CONTINUOUS
 10
0.136244
 20
-3.439374
  0
VERTEX
  8
PLAN_1
  6
CONTINUOUS
 10
0.139299
 20
-3.433701
  0
VERTEX
  8
PLAN_1
  6
CONTINUOUS
 10
0.141917
 20
-3.427150
  0
VERTEX
  8
PLAN_1
  6
CONTINUOUS
 10
0.144535
 20
-3.419732
  0
VERTEX
  8
PLAN_1
  6
CONTINUOUS
 10
0.146283
 20
-3.411437
  0
VERTEX
  8
PLAN_1
  6
CONTINUOUS
 10
0.172472
 20
-3.411437
  0
VERTEX
  8
PLAN_1
  6
CONTINUOUS
 10
0.171165
 20
-3.418421
  0
VERTEX
  8
PLAN_1
  6
CONTINUOUS
 10
0.169854
 20
-3.424531
  0
VERTEX
  8
PLAN_1
  6
CONTINUOUS
 10
0.168106
 20
-3.430642
  0
VERTEX
  8
PLAN_1
  6
CONTINUOUS
 10
0.165925
 20
-3.436319
  0
VERTEX
  8
PLAN_1
  6
CONTINUOUS
 10
0.163744
 20
-3.441555
  0
VERTEX
  8
PLAN_1
  6
CONTINUOUS
 10
0.161559
 20
-3.446795
  0
VERTEX
  8
PLAN_1
  6
CONTINUOUS
 10
0.158941
 20
-3.451157
  0
VERTEX
  8
PLAN_1
  6
CONTINUOUS
 10
0.156323
 20
-3.455524
  0
VERTEX
  8
PLAN_1
  6
CONTINUOUS
 10
0.153268
 20
-3.459453
  0
VERTEX
  8
PLAN_1
  6
CONTINUOUS
 10
0.150213
 20
-3.462945
  0
VERTEX
  8
PLAN_1
  6
CONTINUOUS
 10
0.147157
 20
-3.466437
  0
VERTEX
  8
PLAN_1
  6
CONTINUOUS
 10
0.144102
 20
-3.469492
  0
VERTEX
  8
PLAN_1
  6
CONTINUOUS
 10
0.140610
 20
-3.472110
  0
VERTEX
  8
PLAN_1
  6
CONTINUOUS
 10
0.137118
 20
-3.474728
  0
VERTEX
  8
PLAN_1
  6
CONTINUOUS
 10
0.133626
 20
-3.476913
  0
VERTEX
  8
PLAN_1
  6
CONTINUOUS
 10
0.130134
 20
-3.479094
  0
VERTEX
  8
PLAN_1
  6
CONTINUOUS
 10
0.123150
 20
-3.482150
  0
VERTEX
  8
PLAN_1
  6
CONTINUOUS
 10
0.116602
 20
-3.485205
  0
VERTEX
  8
PLAN_1
  6
CONTINUOUS
 10
0.110055
 20
-3.486953
  0
VERTEX
  8
PLAN_1
  6
CONTINUOUS
 10
0.103508
 20
-3.488260
  0
VERTEX
  8
PLAN_1
  6
CONTINUOUS
 10
0.093031
 20
-3.489571
  0
VERTEX
  8
PLAN_1
  6
CONTINUOUS
 10
0.085173
 20
-3.490008
  0
VERTEX
  8
PLAN_1
  6
CONTINUOUS
 10
0.076878
 20
-3.489571
  0
VERTEX
  8
PLAN_1
  6
CONTINUOUS
 10
0.068587
 20
-3.488697
  0
VERTEX
  8
PLAN_1
  6
CONTINUOUS
 10
0.060291
 20
-3.486953
  0
VERTEX
  8
PLAN_1
  6
CONTINUOUS
 10
0.052000
 20
-3.484335
  0
VERTEX
  8
PLAN_1
  6
CONTINUOUS
 10
0.048071
 20
-3.482587
  0
VERTEX
  8
PLAN_1
  6
CONTINUOUS
 10
0.044579
 20
-3.480843
  0
VERTEX
  8
PLAN_1
  6
CONTINUOUS
 10
0.040650
 20
-3.478657
  0
VERTEX
  8
PLAN_1
  6
CONTINUOUS
 10
0.037157
 20
-3.476476
  0
VERTEX
  8
PLAN_1
  6
CONTINUOUS
 10
0.033665
 20
-3.474295
  0
VERTEX
  8
PLAN_1
  6
CONTINUOUS
 10
0.030173
 20
-3.471673
  0
VERTEX
  8
PLAN_1
  6
CONTINUOUS
 10
0.026681
 20
-3.468618
  0
VERTEX
  8
PLAN_1
  6
CONTINUOUS
 10
0.023626
 20
-3.465563
  0
VERTEX
  8
PLAN_1
  6
CONTINUOUS
 10
0.020571
 20
-3.462508
  0
VERTEX
  8
PLAN_1
  6
CONTINUOUS
 10
0.017516
 20
-3.459016
  0
VERTEX
  8
PLAN_1
  6
CONTINUOUS
 10
0.014461
 20
-3.455087
  0
VERTEX
  8
PLAN_1
  6
CONTINUOUS
 10
0.011843
 20
-3.451157
  0
VERTEX
  8
PLAN_1
  6
CONTINUOUS
 10
0.009657
 20
-3.446795
  0
VERTEX
  8
PLAN_1
  6
CONTINUOUS
 10
0.007476
 20
-3.442429
  0
VERTEX
  8
PLAN_1
  6
CONTINUOUS
 10
0.005295
 20
-3.437626
  0
VERTEX
  8
PLAN_1
  6
CONTINUOUS
 10
0.003110
 20
-3.432827
  0
VERTEX
  8
PLAN_1
  6
CONTINUOUS
 10
0.001366
 20
-3.427587
  0
VERTEX
  8
PLAN_1
  6
CONTINUOUS
 10
0.000055
 20
-3.422350
  0
VERTEX
  8
PLAN_1
  6
CONTINUOUS
 10
-0.001256
 20
-3.416677
  0
VERTEX
  8
PLAN_1
  6
CONTINUOUS
 10
-0.002563
 20
-3.410563
  0
VERTEX
  8
PLAN_1
  6
CONTINUOUS
 10
-0.003437
 20
-3.404453
  0
VERTEX
  8
PLAN_1
  6
CONTINUOUS
 10
-0.003874
 20
-3.397906
  0
VERTEX
  8
PLAN_1
  6
CONTINUOUS
 10
-0.004311
 20
-3.390921
  0
VERTEX
  8
PLAN_1
  6
CONTINUOUS
 10
-0.004311
 20
-3.383937
  0
VERTEX
  8
PLAN_1
  6
CONTINUOUS
 10
-0.003874
 20
-3.372591
  0
VERTEX
  8
PLAN_1
  6
CONTINUOUS
 10
-0.002563
 20
-3.362114
  0
VERTEX
  8
PLAN_1
  6
CONTINUOUS
 10
-0.001689
 20
-3.356874
  0
VERTEX
  8
PLAN_1
  6
CONTINUOUS
 10
-0.000819
 20
-3.351638
  0
VERTEX
  8
PLAN_1
  6
CONTINUOUS
 10
0.000492
 20
-3.346835
  0
VERTEX
  8
PLAN_1
  6
CONTINUOUS
 10
0.001803
 20
-3.342035
  0
VERTEX
  8
PLAN_1
  6
CONTINUOUS
 10
0.003547
 20
-3.337232
  0
VERTEX
  8
PLAN_1
  6
CONTINUOUS
 10
0.005295
 20
-3.332866
  0
VERTEX
  8
PLAN_1
  6
CONTINUOUS
 10
0.007476
 20
-3.328504
  0
VERTEX
  8
PLAN_1
  6
CONTINUOUS
 10
0.009657
 20
-3.324138
  0
VERTEX
  8
PLAN_1
  6
CONTINUOUS
 10
0.012276
 20
-3.320209
  0
VERTEX
  8
PLAN_1
  6
CONTINUOUS
 10
0.014898
 20
-3.316280
  0
VERTEX
  8
PLAN_1
  6
CONTINUOUS
 10
0.017516
 20
-3.312787
  0
VERTEX
  8
PLAN_1
  6
CONTINUOUS
 10
0.020571
 20
-3.309295
  0
VERTEX
  8
PLAN_1
  6
CONTINUOUS
 10
0.023626
 20
-3.305803
  0
VERTEX
  8
PLAN_1
  6
CONTINUOUS
 10
0.026681
 20
-3.302748
  0
VERTEX
  8
PLAN_1
  6
CONTINUOUS
 10
0.030173
 20
-3.299693
  0
VERTEX
  8
PLAN_1
  6
CONTINUOUS
 10
0.033665
 20
-3.296638
  0
VERTEX
  8
PLAN_1
  6
CONTINUOUS
 10
0.037594
 20
-3.294457
  0
VERTEX
  8
PLAN_1
  6
CONTINUOUS
 10
0.041524
 20
-3.291835
  0
VERTEX
  8
PLAN_1
  6
CONTINUOUS
 10
0.045453
 20
-3.289654
  0
VERTEX
  8
PLAN_1
  6
CONTINUOUS
 10
0.049382
 20
-3.287909
  0
VERTEX
  8
PLAN_1
  6
CONTINUOUS
 10
0.053744
 20
-3.286161
  0
VERTEX
  8
PLAN_1
  6
CONTINUOUS
 10
0.058547
 20
-3.284417
  0
VERTEX
  8
PLAN_1
  6
CONTINUOUS
 10
0.063346
 20
-3.283106
  0
VERTEX
  8
PLAN_1
  6
CONTINUOUS
 10
0.068150
 20
-3.282232
  0
VERTEX
  8
PLAN_1
  6
CONTINUOUS
 10
0.072953
 20
-3.281362
  0
VERTEX
  8
PLAN_1
  6
CONTINUOUS
 10
0.078189
 20
-3.280488
  0
VERTEX
  8
PLAN_1
  6
CONTINUOUS
 10
0.083425
 20
-3.280488
  0
VERTEX
  8
PLAN_1
  6
CONTINUOUS
 10
0.088665
 20
-3.280051
  0
VERTEX
  8
PLAN_1
  6
CONTINUOUS
 10
0.097831
 20
-3.280488
  0
VERTEX
  8
PLAN_1
  6
CONTINUOUS
 10
0.106563
 20
-3.281795
  0
VERTEX
  8
PLAN_1
  6
CONTINUOUS
 10
0.114854
 20
-3.283543
  0
VERTEX
  8
PLAN_1
  6
CONTINUOUS
 10
0.122713
 20
-3.285724
  0
VERTEX
  8
PLAN_1
  6
CONTINUOUS
 10
0.129697
 20
-3.288780
  0
VERTEX
  8
PLAN_1
  6
CONTINUOUS
 10
0.136244
 20
-3.291835
  0
VERTEX
  8
PLAN_1
  6
CONTINUOUS
 10
0.141917
 20
-3.295764
  0
VERTEX
  8
PLAN_1
  6
CONTINUOUS
 10
0.147157
 20
-3.300130
  0
VERTEX
  8
PLAN_1
  6
CONTINUOUS
 10
0.151957
 20
-3.304933
  0
VERTEX
  8
PLAN_1
  6
CONTINUOUS
 10
0.156323
 20
-3.310169
  0
VERTEX
  8
PLAN_1
  6
CONTINUOUS
 10
0.160252
 20
-3.315406
  0
VERTEX
  8
PLAN_1
  6
CONTINUOUS
 10
0.163307
 20
-3.321083
  0
VERTEX
  8
PLAN_1
  6
CONTINUOUS
 10
0.165925
 20
-3.327193
  0
VERTEX
  8
PLAN_1
  6
CONTINUOUS
 10
0.168106
 20
-3.332866
  0
VERTEX
  8
PLAN_1
  6
CONTINUOUS
 10
0.169417
 20
-3.338980
  0
VERTEX
  8
PLAN_1
  6
CONTINUOUS
 10
0.170291
 20
-3.345528
  0
VERTEX
  8
PLAN_1
  6
CONTINUOUS
 10
0.144535
 20
-3.345528
  0
SEQEND
  8
0
  0
POLYLINE
  8
PLAN_1
  6
CONTINUOUS
 66
     1
 40
0.003000
 41
0.003000
  0
VERTEX
  8
PLAN_1
  6
CONTINUOUS
 10
0.231839
 20
-3.484768
  0
VERTEX
  8
PLAN_1
  6
CONTINUOUS
 10
0.205213
 20
-3.484768
  0
VERTEX
  8
PLAN_1
  6
CONTINUOUS
 10
0.205213
 20
-3.285287
  0
VERTEX
  8
PLAN_1
  6
CONTINUOUS
 10
0.231839
 20
-3.285287
  0
VERTEX
  8
PLAN_1
  6
CONTINUOUS
 10
0.231839
 20
-3.382193
  0
VERTEX
  8
PLAN_1
  6
CONTINUOUS
 10
0.328303
 20
-3.285287
  0
VERTEX
  8
PLAN_1
  6
CONTINUOUS
 10
0.365843
 20
-3.285287
  0
VERTEX
  8
PLAN_1
  6
CONTINUOUS
 10
0.282909
 20
-3.366043
  0
VERTEX
  8
PLAN_1
  6
CONTINUOUS
 10
0.368024
 20
-3.484768
  0
VERTEX
  8
PLAN_1
  6
CONTINUOUS
 10
0.333106
 20
-3.484768
  0
VERTEX
  8
PLAN_1
  6
CONTINUOUS
 10
0.263264
 20
-3.384811
  0
VERTEX
  8
PLAN_1
  6
CONTINUOUS
 10
0.231839
 20
-3.414929
  0
VERTEX
  8
PLAN_1
  6
CONTINUOUS
 10
0.231839
 20
-3.484768
  0
SEQEND
  8
0
  0
POLYLINE
  8
PLAN_1
  6
CONTINUOUS
 66
     1
 40
0.003000
 41
0.003000
  0
VERTEX
  8
PLAN_1
  6
CONTINUOUS
 10
0.391594
 20
-3.285287
  0
VERTEX
  8
PLAN_1
  6
CONTINUOUS
 10
0.472350
 20
-3.285287
  0
VERTEX
  8
PLAN_1
  6
CONTINUOUS
 10
0.477150
 20
-3.285724
  0
VERTEX
  8
PLAN_1
  6
CONTINUOUS
 10
0.481953
 20
-3.285724
  0
VERTEX
  8
PLAN_1
  6
CONTINUOUS
 10
0.486319
 20
-3.286598
  0
VERTEX
  8
PLAN_1
  6
CONTINUOUS
 10
0.490681
 20
-3.287472
  0
VERTEX
  8
PLAN_1
  6
CONTINUOUS
 10
0.495047
 20
-3.288343
  0
VERTEX
  8
PLAN_1
  6
CONTINUOUS
 10
0.499413
 20
-3.289654
  0
VERTEX
  8
PLAN_1
  6
CONTINUOUS
 10
0.503339
 20
-3.290965
  0
VERTEX
  8
PLAN_1
  6
CONTINUOUS
 10
0.507268
 20
-3.292709
  0
VERTEX
  8
PLAN_1
  6
CONTINUOUS
 10
0.511197
 20
-3.294457
  0
VERTEX
  8
PLAN_1
  6
CONTINUOUS
 10
0.514689
 20
-3.296201
  0
VERTEX
  8
PLAN_1
  6
CONTINUOUS
 10
0.518181
 20
-3.298382
  0
VERTEX
  8
PLAN_1
  6
CONTINUOUS
 10
0.521673
 20
-3.301004
  0
VERTEX
  8
PLAN_1
  6
CONTINUOUS
 10
0.524728
 20
-3.303622
  0
VERTEX
  8
PLAN_1
  6
CONTINUOUS
 10
0.528220
 20
-3.306240
  0
VERTEX
  8
PLAN_1
  6
CONTINUOUS
 10
0.530839
 20
-3.309295
  0
VERTEX
  8
PLAN_1
  6
CONTINUOUS
 10
0.533894
 20
-3.312350
  0
VERTEX
  8
PLAN_1
  6
CONTINUOUS
 10
0.538697
 20
-3.318898
  0
VERTEX
  8
PLAN_1
  6
CONTINUOUS
 10
0.543500
 20
-3.326319
  0
VERTEX
  8
PLAN_1
  6
CONTINUOUS
 10
0.547425
 20
-3.334614
  0
VERTEX
  8
PLAN_1
  6
CONTINUOUS
 10
0.550484
 20
-3.342906
  0
VERTEX
  8
PLAN_1
  6
CONTINUOUS
 10
0.553102
 20
-3.352075
  0
VERTEX
  8
PLAN_1
  6
CONTINUOUS
 10
0.554846
 20
-3.361677
  0
VERTEX
  8
PLAN_1
  6
CONTINUOUS
 10
0.555720
 20
-3.371717
  0
VERTEX
  8
PLAN_1
  6
CONTINUOUS
 10
0.556157
 20
-3.382193
  0
VERTEX
  8
PLAN_1
  6
CONTINUOUS
 10
0.556157
 20
-3.390921
  0
VERTEX
  8
PLAN_1
  6
CONTINUOUS
 10
0.555283
 20
-3.399654
  0
VERTEX
  8
PLAN_1
  6
CONTINUOUS
 10
0.553976
 20
-3.408382
  0
VERTEX
  8
PLAN_1
  6
CONTINUOUS
 10
0.552228
 20
-3.417110
  0
VERTEX
  8
PLAN_1
  6
CONTINUOUS
 10
0.549610
 20
-3.425843
  0
VERTEX
  8
PLAN_1
  6
CONTINUOUS
 10
0.546555
 20
-3.434571
  0
VERTEX
  8
PLAN_1
  6
CONTINUOUS
 10
0.542626
 20
-3.442429
  0
VERTEX
  8
PLAN_1
  6
CONTINUOUS
 10
0.538260
 20
-3.450287
  0
VERTEX
  8
PLAN_1
  6
CONTINUOUS
 10
0.535642
 20
-3.453780
  0
VERTEX
  8
PLAN_1
  6
CONTINUOUS
 10
0.533024
 20
-3.457705
  0
VERTEX
  8
PLAN_1
  6
CONTINUOUS
 10
0.529969
 20
-3.460764
  0
VERTEX
  8
PLAN_1
  6
CONTINUOUS
 10
0.526913
 20
-3.464256
  0
VERTEX
  8
PLAN_1
  6
CONTINUOUS
 10
0.523421
 20
-3.467311
  0
VERTEX
  8
PLAN_1
  6
CONTINUOUS
 10
0.519929
 20
-3.469929
  0
VERTEX
  8
PLAN_1
  6
CONTINUOUS
 10
0.516000
 20
-3.472547
  0
VERTEX
  8
PLAN_1
  6
CONTINUOUS
 10
0.512071
 20
-3.475165
  0
VERTEX
  8
PLAN_1
  6
CONTINUOUS
 10
0.508142
 20
-3.477350
  0
VERTEX
  8
PLAN_1
  6
CONTINUOUS
 10
0.503339
 20
-3.479094
  0
VERTEX
  8
PLAN_1
  6
CONTINUOUS
 10
0.498539
 20
-3.480843
  0
VERTEX
  8
PLAN_1
  6
CONTINUOUS
 10
0.493736
 20
-3.482150
  0
VERTEX
  8
PLAN_1
  6
CONTINUOUS
 10
0.488500
 20
-3.483461
  0
VERTEX
  8
PLAN_1
  6
CONTINUOUS
 10
0.482827
 20
-3.483898
  0
VERTEX
  8
PLAN_1
  6
CONTINUOUS
 10
0.477150
 20
-3.484768
  0
VERTEX
  8
PLAN_1
  6
CONTINUOUS
 10
0.471476
 20
-3.484768
  0
VERTEX
  8
PLAN_1
  6
CONTINUOUS
 10
0.391594
 20
-3.484768
  0
VERTEX
  8
PLAN_1
  6
CONTINUOUS
 10
0.391594
 20
-3.285287
  0
SEQEND
  8
0
  0
POLYLINE
  8
PLAN_1
  6
CONTINUOUS
 66
     1
 40
0.003000
 41
0.003000
  0
VERTEX
  8
PLAN_1
  6
CONTINUOUS
 10
0.418661
 20
-3.461634
  0
VERTEX
  8
PLAN_1
  6
CONTINUOUS
 10
0.470602
 20
-3.461634
  0
VERTEX
  8
PLAN_1
  6
CONTINUOUS
 10
0.477150
 20
-3.461197
  0
VERTEX
  8
PLAN_1
  6
CONTINUOUS
 10
0.483260
 20
-3.460327
  0
VERTEX
  8
PLAN_1
  6
CONTINUOUS
 10
0.488937
 20
-3.459016
  0
VERTEX
  8
PLAN_1
  6
CONTINUOUS
 10
0.494610
 20
-3.456835
  0
VERTEX
  8
PLAN_1
  6
CONTINUOUS
 10
0.499413
 20
-3.453780
  0
VERTEX
  8
PLAN_1
  6
CONTINUOUS
 10
0.504213
 20
-3.450287
  0
VERTEX
  8
PLAN_1
  6
CONTINUOUS
 10
0.508579
 20
-3.446358
  0
VERTEX
  8
PLAN_1
  6
CONTINUOUS
 10
0.512508
 20
-3.441555
  0
VERTEX
  8
PLAN_1
  6
CONTINUOUS
 10
0.516437
 20
-3.436319
  0
VERTEX
  8
PLAN_1
  6
CONTINUOUS
 10
0.519492
 20
-3.430642
  0
VERTEX
  8
PLAN_1
  6
CONTINUOUS
 10
0.522110
 20
-3.424094
  0
VERTEX
  8
PLAN_1
  6
CONTINUOUS
 10
0.524291
 20
-3.417110
  0
VERTEX
  8
PLAN_1
  6
CONTINUOUS
 10
0.526039
 20
-3.409693
  0
VERTEX
  8
PLAN_1
  6
CONTINUOUS
 10
0.527346
 20
-3.401835
  0
VERTEX
  8
PLAN_1
  6
CONTINUOUS
 10
0.528220
 20
-3.393106
  0
VERTEX
  8
PLAN_1
  6
CONTINUOUS
 10
0.528657
 20
-3.383937
  0
VERTEX
  8
PLAN_1
  6
CONTINUOUS
 10
0.528220
 20
-3.374772
  0
VERTEX
  8
PLAN_1
  6
CONTINUOUS
 10
0.527346
 20
-3.366476
  0
VERTEX
  8
PLAN_1
  6
CONTINUOUS
 10
0.526039
 20
-3.358185
  0
VERTEX
  8
PLAN_1
  6
CONTINUOUS
 10
0.524291
 20
-3.351201
  0
VERTEX
  8
PLAN_1
  6
CONTINUOUS
 10
0.522110
 20
-3.344217
  0
VERTEX
  8
PLAN_1
  6
CONTINUOUS
 10
0.519055
 20
-3.338106
  0
VERTEX
  8
PLAN_1
  6
CONTINUOUS
 10
0.516000
 20
-3.332429
  0
VERTEX
  8
PLAN_1
  6
CONTINUOUS
 10
0.512508
 20
-3.327193
  0
VERTEX
  8
PLAN_1
  6
CONTINUOUS
 10
0.508142
 20
-3.322827
  0
VERTEX
  8
PLAN_1
  6
CONTINUOUS
 10
0.503776
 20
-3.319335
  0
VERTEX
  8
PLAN_1
  6
CONTINUOUS
 10
0.498976
 20
-3.315843
  0
VERTEX
  8
PLAN_1
  6
CONTINUOUS
 10
0.493736
 20
-3.313224
  0
VERTEX
  8
PLAN_1
  6
CONTINUOUS
 10
0.488063
 20
-3.311043
  0
VERTEX
  8
PLAN_1
  6
CONTINUOUS
 10
0.481953
 20
-3.309732
  0
VERTEX
  8
PLAN_1
  6
CONTINUOUS
 10
0.475406
 20
-3.308858
  0
VERTEX
  8
PLAN_1
  6
CONTINUOUS
 10
0.468858
 20
-3.308425
  0
VERTEX
  8
PLAN_1
  6
CONTINUOUS
 10
0.418661
 20
-3.308425
  0
VERTEX
  8
PLAN_1
  6
CONTINUOUS
 10
0.418661
 20
-3.461634
  0
SEQEND
  8
0
  0
POLYLINE
  8
PLAN_1
  6
CONTINUOUS
 66
     1
 40
0.003000
 41
0.003000
  0
VERTEX
  8
PLAN_1
  6
CONTINUOUS
 10
0.646949
 20
-3.490008
  0
VERTEX
  8
PLAN_1
  6
CONTINUOUS
 10
0.641713
 20
-3.490008
  0
VERTEX
  8
PLAN_1
  6
CONTINUOUS
 10
0.636909
 20
-3.489134
  0
VERTEX
  8
PLAN_1
  6
CONTINUOUS
 10
0.632106
 20
-3.488697
  0
VERTEX
  8
PLAN_1
  6
CONTINUOUS
 10
0.627744
 20
-3.487390
  0
VERTEX
  8
PLAN_1
  6
CONTINUOUS
 10
0.623815
 20
-3.486079
  0
VERTEX
  8
PLAN_1
  6
CONTINUOUS
 10
0.619886
 20
-3.484335
  0
VERTEX
  8
PLAN_1
  6
CONTINUOUS
 10
0.615957
 20
-3.482150
  0
VERTEX
  8
PLAN_1
  6
CONTINUOUS
 10
0.612465
 20
-3.479969
  0
VERTEX
  8
PLAN_1
  6
CONTINUOUS
 10
0.609409
 20
-3.477787
  0
VERTEX
  8
PLAN_1
  6
CONTINUOUS
 10
0.606354
 20
-3.474728
  0
VERTEX
  8
PLAN_1
  6
CONTINUOUS
 10
0.603736
 20
-3.472110
  0
VERTEX
  8
PLAN_1
  6
CONTINUOUS
 10
0.601118
 20
-3.469055
  0
VERTEX
  8
PLAN_1
  6
CONTINUOUS
 10
0.598496
 20
-3.465563
  0
VERTEX
  8
PLAN_1
  6
CONTINUOUS
 10
0.596315
 20
-3.462508
  0
VERTEX
  8
PLAN_1
  6
CONTINUOUS
 10
0.594134
 20
-3.459016
  0
VERTEX
  8
PLAN_1
  6
CONTINUOUS
 10
0.592386
 20
-3.455087
  0
VERTEX
  8
PLAN_1
  6
CONTINUOUS
 10
0.588894
 20
-3.447232
  0
VERTEX
  8
PLAN_1
  6
CONTINUOUS
 10
0.586276
 20
-3.439374
  0
VERTEX
  8
PLAN_1
  6
CONTINUOUS
 10
0.584094
 20
-3.431079
  0
VERTEX
  8
PLAN_1
  6
CONTINUOUS
 10
0.582346
 20
-3.422350
  0
VERTEX
  8
PLAN_1
  6
CONTINUOUS
 10
0.581472
 20
-3.414055
  0
VERTEX
  8
PLAN_1
  6
CONTINUOUS
 10
0.580602
 20
-3.405764
  0
VERTEX
  8
PLAN_1
  6
CONTINUOUS
 10
0.580165
 20
-3.397469
  0
VERTEX
  8
PLAN_1
  6
CONTINUOUS
 10
0.579728
 20
-3.389614
  0
VERTEX
  8
PLAN_1
  6
CONTINUOUS
 10
0.580165
 20
-3.382193
  0
VERTEX
  8
PLAN_1
  6
CONTINUOUS
 10
0.580602
 20
-3.373898
  0
VERTEX
  8
PLAN_1
  6
CONTINUOUS
 10
0.581472
 20
-3.365606
  0
VERTEX
  8
PLAN_1
  6
CONTINUOUS
 10
0.582346
 20
-3.356874
  0
VERTEX
  8
PLAN_1
  6
CONTINUOUS
 10
0.584094
 20
-3.348583
  0
VERTEX
  8
PLAN_1
  6
CONTINUOUS
 10
0.586276
 20
-3.340287
  0
VERTEX
  8
PLAN_1
  6
CONTINUOUS
 10
0.588894
 20
-3.332429
  0
VERTEX
  8
PLAN_1
  6
CONTINUOUS
 10
0.592386
 20
-3.324575
  0
VERTEX
  8
PLAN_1
  6
CONTINUOUS
 10
0.594134
 20
-3.320646
  0
VERTEX
  8
PLAN_1
  6
CONTINUOUS
 10
0.596315
 20
-3.317154
  0
VERTEX
  8
PLAN_1
  6
CONTINUOUS
 10
0.598496
 20
-3.314098
  0
VERTEX
  8
PLAN_1
  6
CONTINUOUS
 10
0.601118
 20
-3.310606
  0
VERTEX
  8
PLAN_1
  6
CONTINUOUS
 10
0.603736
 20
-3.307551
  0
VERTEX
  8
PLAN_1
  6
CONTINUOUS
 10
0.606354
 20
-3.304496
  0
VERTEX
  8
PLAN_1
  6
CONTINUOUS
 10
0.609409
 20
-3.301874
  0
VERTEX
  8
PLAN_1
  6
CONTINUOUS
 10
0.612465
 20
-3.299693
  0
VERTEX
  8
PLAN_1
  6
CONTINUOUS
 10
0.615957
 20
-3.297512
  0
VERTEX
  8
PLAN_1
  6
CONTINUOUS
 10
0.619886
 20
-3.295327
  0
VERTEX
  8
PLAN_1
  6
CONTINUOUS
 10
0.623815
 20
-3.293583
  0
VERTEX
  8
PLAN_1
  6
CONTINUOUS
 10
0.627744
 20
-3.292272
  0
VERTEX
  8
PLAN_1
  6
CONTINUOUS
 10
0.632106
 20
-3.290965
  0
VERTEX
  8
PLAN_1
  6
CONTINUOUS
 10
0.636909
 20
-3.290091
  0
VERTEX
  8
PLAN_1
  6
CONTINUOUS
 10
0.641713
 20
-3.289654
  0
VERTEX
  8
PLAN_1
  6
CONTINUOUS
 10
0.646949
 20
-3.289654
  0
VERTEX
  8
PLAN_1
  6
CONTINUOUS
 10
0.651752
 20
-3.289654
  0
VERTEX
  8
PLAN_1
  6
CONTINUOUS
 10
0.656988
 20
-3.290091
  0
VERTEX
  8
PLAN_1
  6
CONTINUOUS
 10
0.661354
 20
-3.290965
  0
VERTEX
  8
PLAN_1
  6
CONTINUOUS
 10
0.665720
 20
-3.292272
  0
VERTEX
  8
PLAN_1
  6
CONTINUOUS
 10
0.670083
 20
-3.293583
  0
VERTEX
  8
PLAN_1
  6
CONTINUOUS
 10
0.673575
 20
-3.295327
  0
VERTEX
  8
PLAN_1
  6
CONTINUOUS
 10
0.677504
 20
-3.297512
  0
VERTEX
  8
PLAN_1
  6
CONTINUOUS
 10
0.680996
 20
-3.299693
  0
VERTEX
  8
PLAN_1
  6
CONTINUOUS
 10
0.684051
 20
-3.301874
  0
VERTEX
  8
PLAN_1
  6
CONTINUOUS
 10
0.687106
 20
-3.304496
  0
VERTEX
  8
PLAN_1
  6
CONTINUOUS
 10
0.690161
 20
-3.307551
  0
VERTEX
  8
PLAN_1
  6
CONTINUOUS
 10
0.692783
 20
-3.310606
  0
VERTEX
  8
PLAN_1
  6
CONTINUOUS
 10
0.694965
 20
-3.314098
  0
VERTEX
  8
PLAN_1
  6
CONTINUOUS
 10
0.697146
 20
-3.317154
  0
VERTEX
  8
PLAN_1
  6
CONTINUOUS
 10
0.699331
 20
-3.320646
  0
VERTEX
  8
PLAN_1
  6
CONTINUOUS
 10
0.701075
 20
-3.324575
  0
VERTEX
  8
PLAN_1
  6
CONTINUOUS
 10
0.704567
 20
-3.332429
  0
VERTEX
  8
PLAN_1
  6
CONTINUOUS
 10
0.707185
 20
-3.340287
  0
VERTEX
  8
PLAN_1
  6
CONTINUOUS
 10
0.709370
 20
-3.348583
  0
VERTEX
  8
PLAN_1
  6
CONTINUOUS
 10
0.711114
 20
-3.356874
  0
VERTEX
  8
PLAN_1
  6
CONTINUOUS
 10
0.712425
 20
-3.365606
  0
VERTEX
  8
PLAN_1
  6
CONTINUOUS
 10
0.713299
 20
-3.373898
  0
VERTEX
  8
PLAN_1
  6
CONTINUOUS
 10
0.713732
 20
-3.382193
  0
VERTEX
  8
PLAN_1
  6
CONTINUOUS
 10
0.713732
 20
-3.389614
  0
VERTEX
  8
PLAN_1
  6
CONTINUOUS
 10
0.713732
 20
-3.397469
  0
VERTEX
  8
PLAN_1
  6
CONTINUOUS
 10
0.713299
 20
-3.405764
  0
VERTEX
  8
PLAN_1
  6
CONTINUOUS
 10
0.712425
 20
-3.414055
  0
VERTEX
  8
PLAN_1
  6
CONTINUOUS
 10
0.711114
 20
-3.422350
  0
VERTEX
  8
PLAN_1
  6
CONTINUOUS
 10
0.709370
 20
-3.431079
  0
VERTEX
  8
PLAN_1
  6
CONTINUOUS
 10
0.707185
 20
-3.439374
  0
VERTEX
  8
PLAN_1
  6
CONTINUOUS
 10
0.704567
 20
-3.447232
  0
VERTEX
  8
PLAN_1
  6
CONTINUOUS
 10
0.701075
 20
-3.455087
  0
VERTEX
  8
PLAN_1
  6
CONTINUOUS
 10
0.699331
 20
-3.459016
  0
VERTEX
  8
PLAN_1
  6
CONTINUOUS
 10
0.697146
 20
-3.462508
  0
VERTEX
  8
PLAN_1
  6
CONTINUOUS
 10
0.694965
 20
-3.465563
  0
VERTEX
  8
PLAN_1
  6
CONTINUOUS
 10
0.692783
 20
-3.469055
  0
VERTEX
  8
PLAN_1
  6
CONTINUOUS
 10
0.690161
 20
-3.472110
  0
VERTEX
  8
PLAN_1
  6
CONTINUOUS
 10
0.687106
 20
-3.474728
  0
VERTEX
  8
PLAN_1
  6
CONTINUOUS
 10
0.684051
 20
-3.477787
  0
VERTEX
  8
PLAN_1
  6
CONTINUOUS
 10
0.680996
 20
-3.479969
  0
VERTEX
  8
PLAN_1
  6
CONTINUOUS
 10
0.677504
 20
-3.482150
  0
VERTEX
  8
PLAN_1
  6
CONTINUOUS
 10
0.673575
 20
-3.484335
  0
VERTEX
  8
PLAN_1
  6
CONTINUOUS
 10
0.670083
 20
-3.486079
  0
VERTEX
  8
PLAN_1
  6
CONTINUOUS
 10
0.665720
 20
-3.487390
  0
VERTEX
  8
PLAN_1
  6
CONTINUOUS
 10
0.661354
 20
-3.488697
  0
VERTEX
  8
PLAN_1
  6
CONTINUOUS
 10
0.656988
 20
-3.489134
  0
VERTEX
  8
PLAN_1
  6
CONTINUOUS
 10
0.651752
 20
-3.490008
  0
VERTEX
  8
PLAN_1
  6
CONTINUOUS
 10
0.646949
 20
-3.490008
  0
SEQEND
  8
0
  0
POLYLINE
  8
PLAN_1
  6
CONTINUOUS
 66
     1
 40
0.003000
 41
0.003000
  0
VERTEX
  8
PLAN_1
  6
CONTINUOUS
 10
0.646949
 20
-3.311480
  0
VERTEX
  8
PLAN_1
  6
CONTINUOUS
 10
0.641713
 20
-3.311913
  0
VERTEX
  8
PLAN_1
  6
CONTINUOUS
 10
0.636909
 20
-3.312787
  0
VERTEX
  8
PLAN_1
  6
CONTINUOUS
 10
0.632543
 20
-3.314535
  0
VERTEX
  8
PLAN_1
  6
CONTINUOUS
 10
0.628618
 20
-3.316717
  0
VERTEX
  8
PLAN_1
  6
CONTINUOUS
 10
0.624689
 20
-3.319772
  0
VERTEX
  8
PLAN_1
  6
CONTINUOUS
 10
0.621634
 20
-3.323264
  0
VERTEX
  8
PLAN_1
  6
CONTINUOUS
 10
0.618575
 20
-3.327630
  0
VERTEX
  8
PLAN_1
  6
CONTINUOUS
 10
0.615957
 20
-3.332429
  0
VERTEX
  8
PLAN_1
  6
CONTINUOUS
 10
0.613339
 20
-3.337669
  0
VERTEX
  8
PLAN_1
  6
CONTINUOUS
 10
0.611594
 20
-3.343780
  0
VERTEX
  8
PLAN_1
  6
CONTINUOUS
 10
0.609846
 20
-3.349890
  0
VERTEX
  8
PLAN_1
  6
CONTINUOUS
 10
0.608535
 20
-3.356874
  0
VERTEX
  8
PLAN_1
  6
CONTINUOUS
 10
0.607228
 20
-3.364295
  0
VERTEX
  8
PLAN_1
  6
CONTINUOUS
 10
0.606791
 20
-3.372591
  0
VERTEX
  8
PLAN_1
  6
CONTINUOUS
 10
0.605917
 20
-3.380882
  0
VERTEX
  8
PLAN_1
  6
CONTINUOUS
 10
0.605917
 20
-3.389614
  0
VERTEX
  8
PLAN_1
  6
CONTINUOUS
 10
0.605917
 20
-3.398780
  0
VERTEX
  8
PLAN_1
  6
CONTINUOUS
 10
0.606791
 20
-3.407071
  0
VERTEX
  8
PLAN_1
  6
CONTINUOUS
 10
0.607228
 20
-3.415366
  0
VERTEX
  8
PLAN_1
  6
CONTINUOUS
 10
0.608535
 20
-3.422787
  0
VERTEX
  8
PLAN_1
  6
CONTINUOUS
 10
0.609846
 20
-3.429772
  0
VERTEX
  8
PLAN_1
  6
CONTINUOUS
 10
0.611594
 20
-3.435882
  0
VERTEX
  8
PLAN_1
  6
CONTINUOUS
 10
0.613339
 20
-3.441992
  0
VERTEX
  8
PLAN_1
  6
CONTINUOUS
 10
0.615957
 20
-3.447232
  0
VERTEX
  8
PLAN_1
  6
CONTINUOUS
 10
0.618575
 20
-3.452031
  0
VERTEX
  8
PLAN_1
  6
CONTINUOUS
 10
0.621634
 20
-3.456398
  0
VERTEX
  8
PLAN_1
  6
CONTINUOUS
 10
0.624689
 20
-3.459890
  0
VERTEX
  8
PLAN_1
  6
CONTINUOUS
 10
0.628618
 20
-3.462508
  0
VERTEX
  8
PLAN_1
  6
CONTINUOUS
 10
0.632543
 20
-3.465126
  0
VERTEX
  8
PLAN_1
  6
CONTINUOUS
 10
0.636909
 20
-3.466874
  0
VERTEX
  8
PLAN_1
  6
CONTINUOUS
 10
0.641713
 20
-3.467744
  0
VERTEX
  8
PLAN_1
  6
CONTINUOUS
 10
0.646949
 20
-3.468181
  0
VERTEX
  8
PLAN_1
  6
CONTINUOUS
 10
0.651752
 20
-3.467744
  0
VERTEX
  8
PLAN_1
  6
CONTINUOUS
 10
0.656551
 20
-3.466874
  0
VERTEX
  8
PLAN_1
  6
CONTINUOUS
 10
0.660917
 20
-3.465126
  0
VERTEX
  8
PLAN_1
  6
CONTINUOUS
 10
0.664846
 20
-3.462508
  0
VERTEX
  8
PLAN_1
  6
CONTINUOUS
 10
0.668776
 20
-3.459890
  0
VERTEX
  8
PLAN_1
  6
CONTINUOUS
 10
0.671831
 20
-3.456398
  0
VERTEX
  8
PLAN_1
  6
CONTINUOUS
 10
0.674886
 20
-3.452031
  0
VERTEX
  8
PLAN_1
  6
CONTINUOUS
 10
0.677504
 20
-3.447232
  0
VERTEX
  8
PLAN_1
  6
CONTINUOUS
 10
0.680122
 20
-3.441992
  0
VERTEX
  8
PLAN_1
  6
CONTINUOUS
 10
0.681870
 20
-3.435882
  0
VERTEX
  8
PLAN_1
  6
CONTINUOUS
 10
0.683614
 20
-3.429772
  0
VERTEX
  8
PLAN_1
  6
CONTINUOUS
 10
0.685362
 20
-3.422787
  0
VERTEX
  8
PLAN_1
  6
CONTINUOUS
 10
0.686232
 20
-3.415366
  0
VERTEX
  8
PLAN_1
  6
CONTINUOUS
 10
0.687106
 20
-3.407071
  0
VERTEX
  8
PLAN_1
  6
CONTINUOUS
 10
0.687543
 20
-3.398780
  0
VERTEX
  8
PLAN_1
  6
CONTINUOUS
 10
0.687543
 20
-3.389614
  0
VERTEX
  8
PLAN_1
  6
CONTINUOUS
 10
0.687543
 20
-3.380882
  0
VERTEX
  8
PLAN_1
  6
CONTINUOUS
 10
0.687106
 20
-3.372591
  0
VERTEX
  8
PLAN_1
  6
CONTINUOUS
 10
0.686232
 20
-3.364295
  0
VERTEX
  8
PLAN_1
  6
CONTINUOUS
 10
0.685362
 20
-3.356874
  0
VERTEX
  8
PLAN_1
  6
CONTINUOUS
 10
0.683614
 20
-3.349890
  0
VERTEX
  8
PLAN_1
  6
CONTINUOUS
 10
0.681870
 20
-3.343780
  0
VERTEX
  8
PLAN_1
  6
CONTINUOUS
 10
0.680122
 20
-3.337669
  0
VERTEX
  8
PLAN_1
  6
CONTINUOUS
 10
0.677504
 20
-3.332429
  0
VERTEX
  8
PLAN_1
  6
CONTINUOUS
 10
0.674886
 20
-3.327630
  0
VERTEX
  8
PLAN_1
  6
CONTINUOUS
 10
0.671831
 20
-3.323264
  0
VERTEX
  8
PLAN_1
  6
CONTINUOUS
 10
0.668776
 20
-3.319772
  0
VERTEX
  8
PLAN_1
  6
CONTINUOUS
 10
0.664846
 20
-3.316717
  0
VERTEX
  8
PLAN_1
  6
CONTINUOUS
 10
0.660917
 20
-3.314535
  0
VERTEX
  8
PLAN_1
  6
CONTINUOUS
 10
0.656551
 20
-3.312787
  0
VERTEX
  8
PLAN_1
  6
CONTINUOUS
 10
0.651752
 20
-3.311913
  0
VERTEX
  8
PLAN_1
  6
CONTINUOUS
 10
0.646949
 20
-3.311480
  0
SEQEND
  8
0
  0
POLYLINE
  8
PLAN_1
  6
CONTINUOUS
 66
     1
 40
0.003000
 41
0.003000
  0
VERTEX
  8
PLAN_1
  6
CONTINUOUS
 10
0.736433
 20
-3.359492
  0
VERTEX
  8
PLAN_1
  6
CONTINUOUS
 10
0.736433
 20
-3.353819
  0
VERTEX
  8
PLAN_1
  6
CONTINUOUS
 10
0.736870
 20
-3.348146
  0
VERTEX
  8
PLAN_1
  6
CONTINUOUS
 10
0.737303
 20
-3.343343
  0
VERTEX
  8
PLAN_1
  6
CONTINUOUS
 10
0.738177
 20
-3.338106
  0
VERTEX
  8
PLAN_1
  6
CONTINUOUS
 10
0.739488
 20
-3.333740
  0
VERTEX
  8
PLAN_1
  6
CONTINUOUS
 10
0.740795
 20
-3.329374
  0
VERTEX
  8
PLAN_1
  6
CONTINUOUS
 10
0.742106
 20
-3.325445
  0
VERTEX
  8
PLAN_1
  6
CONTINUOUS
 10
0.743850
 20
-3.321957
  0
VERTEX
  8
PLAN_1
  6
CONTINUOUS
 10
0.745598
 20
-3.318465
  0
VERTEX
  8
PLAN_1
  6
CONTINUOUS
 10
0.747780
 20
-3.314972
  0
VERTEX
  8
PLAN_1
  6
CONTINUOUS
 10
0.749528
 20
-3.312350
  0
VERTEX
  8
PLAN_1
  6
CONTINUOUS
 10
0.752146
 20
-3.309295
  0
VERTEX
  8
PLAN_1
  6
CONTINUOUS
 10
0.756949
 20
-3.304933
  0
VERTEX
  8
PLAN_1
  6
CONTINUOUS
 10
0.762185
 20
-3.300567
  0
VERTEX
  8
PLAN_1
  6
CONTINUOUS
 10
0.767425
 20
-3.297512
  0
VERTEX
  8
PLAN_1
  6
CONTINUOUS
 10
0.773098
 20
-3.294894
  0
VERTEX
  8
PLAN_1
  6
CONTINUOUS
 10
0.778772
 20
-3.293146
  0
VERTEX
  8
PLAN_1
  6
CONTINUOUS
 10
0.784445
 20
-3.291402
  0
VERTEX
  8
PLAN_1
  6
CONTINUOUS
 10
0.789685
 20
-3.290528
  0
VERTEX
  8
PLAN_1
  6
CONTINUOUS
 10
0.794921
 20
-3.290091
  0
VERTEX
  8
PLAN_1
  6
CONTINUOUS
 10
0.799287
 20
-3.289654
  0
VERTEX
  8
PLAN_1
  6
CONTINUOUS
 10
0.803654
 20
-3.289654
  0
VERTEX
  8
PLAN_1
  6
CONTINUOUS
 10
0.809764
 20
-3.290091
  0
VERTEX
  8
PLAN_1
  6
CONTINUOUS
 10
0.815874
 20
-3.290528
  0
VERTEX
  8
PLAN_1
  6
CONTINUOUS
 10
0.821984
 20
-3.291835
  0
VERTEX
  8
PLAN_1
  6
CONTINUOUS
 10
0.827661
 20
-3.293583
  0
VERTEX
  8
PLAN_1
  6
CONTINUOUS
 10
0.832898
 20
-3.295764
  0
VERTEX
  8
PLAN_1
  6
CONTINUOUS
 10
0.837701
 20
-3.298382
  0
VERTEX
  8
PLAN_1
  6
CONTINUOUS
 10
0.842500
 20
-3.301441
  0
VERTEX
  8
PLAN_1
  6
CONTINUOUS
 10
0.846866
 20
-3.304933
  0
VERTEX
  8
PLAN_1
  6
CONTINUOUS
 10
0.850795
 20
-3.309295
  0
VERTEX
  8
PLAN_1
  6
CONTINUOUS
 10
0.854287
 20
-3.313661
  0
VERTEX
  8
PLAN_1
  6
CONTINUOUS
 10
0.857343
 20
-3.318465
  0
VERTEX
  8
PLAN_1
  6
CONTINUOUS
 10
0.859961
 20
-3.323264
  0
VERTEX
  8
PLAN_1
  6
CONTINUOUS
 10
0.862146
 20
-3.328937
  0
VERTEX
  8
PLAN_1
  6
CONTINUOUS
 10
0.863453
 20
-3.335051
  0
VERTEX
  8
PLAN_1
  6
CONTINUOUS
 10
0.864327
 20
-3.341161
  0
VERTEX
  8
PLAN_1
  6
CONTINUOUS
 10
0.864764
 20
-3.347709
  0
VERTEX
  8
PLAN_1
  6
CONTINUOUS
 10
0.864327
 20
-3.354256
  0
VERTEX
  8
PLAN_1
  6
CONTINUOUS
 10
0.863890
 20
-3.359929
  0
VERTEX
  8
PLAN_1
  6
CONTINUOUS
 10
0.862579
 20
-3.365606
  0
VERTEX
  8
PLAN_1
  6
CONTINUOUS
 10
0.860835
 20
-3.370843
  0
VERTEX
  8
PLAN_1
  6
CONTINUOUS
 10
0.858654
 20
-3.375209
  0
VERTEX
  8
PLAN_1
  6
CONTINUOUS
 10
0.856031
 20
-3.380008
  0
VERTEX
  8
PLAN_1
  6
CONTINUOUS
 10
0.852976
 20
-3.383937
  0
VERTEX
  8
PLAN_1
  6
CONTINUOUS
 10
0.849484
 20
-3.387866
  0
VERTEX
  8
PLAN_1
  6
CONTINUOUS
 10
0.845992
 20
-3.391358
  0
VERTEX
  8
PLAN_1
  6
CONTINUOUS
 10
0.842063
 20
-3.394850
  0
VERTEX
  8
PLAN_1
  6
CONTINUOUS
 10
0.837701
 20
-3.398343
  0
VERTEX
  8
PLAN_1
  6
CONTINUOUS
 10
0.832898
 20
-3.401398
  0
VERTEX
  8
PLAN_1
  6
CONTINUOUS
 10
0.823295
 20
-3.407508
  0
VERTEX
  8
PLAN_1
  6
CONTINUOUS
 10
0.812382
 20
-3.413185
  0
VERTEX
  8
PLAN_1
  6
CONTINUOUS
 10
0.792303
 20
-3.424094
  0
VERTEX
  8
PLAN_1
  6
CONTINUOUS
 10
0.787504
 20
-3.427150
  0
VERTEX
  8
PLAN_1
  6
CONTINUOUS
 10
0.783138
 20
-3.429772
  0
VERTEX
  8
PLAN_1
  6
CONTINUOUS
 10
0.779209
 20
-3.432390
  0
VERTEX
  8
PLAN_1
  6
CONTINUOUS
 10
0.776154
 20
-3.435445
  0
VERTEX
  8
PLAN_1
  6
CONTINUOUS
 10
0.770043
 20
-3.440681
  0
VERTEX
  8
PLAN_1
  6
CONTINUOUS
 10
0.766114
 20
-3.445484
  0
VERTEX
  8
PLAN_1
  6
CONTINUOUS
 10
0.762622
 20
-3.450287
  0
VERTEX
  8
PLAN_1
  6
CONTINUOUS
 10
0.760874
 20
-3.454650
  0
VERTEX
  8
PLAN_1
  6
CONTINUOUS
 10
0.759567
 20
-3.458579
  0
VERTEX
  8
PLAN_1
  6
CONTINUOUS
 10
0.758693
 20
-3.461634
  0
VERTEX
  8
PLAN_1
  6
CONTINUOUS
 10
0.864764
 20
-3.461634
  0
VERTEX
  8
PLAN_1
  6
CONTINUOUS
 10
0.864764
 20
-3.484768
  0
VERTEX
  8
PLAN_1
  6
CONTINUOUS
 10
0.731193
 20
-3.484768
  0
VERTEX
  8
PLAN_1
  6
CONTINUOUS
 10
0.731630
 20
-3.477350
  0
VERTEX
  8
PLAN_1
  6
CONTINUOUS
 10
0.732504
 20
-3.470366
  0
VERTEX
  8
PLAN_1
  6
CONTINUOUS
 10
0.733811
 20
-3.463819
  0
VERTEX
  8
PLAN_1
  6
CONTINUOUS
 10
0.735122
 20
-3.457705
  0
VERTEX
  8
PLAN_1
  6
CONTINUOUS
 10
0.737303
 20
-3.452031
  0
VERTEX
  8
PLAN_1
  6
CONTINUOUS
 10
0.739488
 20
-3.446358
  0
VERTEX
  8
PLAN_1
  6
CONTINUOUS
 10
0.742106
 20
-3.441555
  0
VERTEX
  8
PLAN_1
  6
CONTINUOUS
 10
0.744724
 20
-3.436756
  0
VERTEX
  8
PLAN_1
  6
CONTINUOUS
 10
0.748217
 20
-3.431953
  0
VERTEX
  8
PLAN_1
  6
CONTINUOUS
 10
0.751272
 20
-3.428024
  0
VERTEX
  8
PLAN_1
  6
CONTINUOUS
 10
0.755201
 20
-3.423661
  0
VERTEX
  8
PLAN_1
  6
CONTINUOUS
 10
0.759130
 20
-3.420169
  0
VERTEX
  8
PLAN_1
  6
CONTINUOUS
 10
0.763059
 20
-3.416677
  0
VERTEX
  8
PLAN_1
  6
CONTINUOUS
 10
0.767425
 20
-3.413185
  0
VERTEX
  8
PLAN_1
  6
CONTINUOUS
 10
0.772224
 20
-3.410126
  0
VERTEX
  8
PLAN_1
  6
CONTINUOUS
 10
0.777028
 20
-3.407508
  0
VERTEX
  8
PLAN_1
  6
CONTINUOUS
 10
0.802780
 20
-3.392232
  0
VERTEX
  8
PLAN_1
  6
CONTINUOUS
 10
0.810201
 20
-3.387866
  0
VERTEX
  8
PLAN_1
  6
CONTINUOUS
 10
0.817185
 20
-3.383937
  0
VERTEX
  8
PLAN_1
  6
CONTINUOUS
 10
0.823295
 20
-3.379575
  0
VERTEX
  8
PLAN_1
  6
CONTINUOUS
 10
0.828531
 20
-3.374772
  0
VERTEX
  8
PLAN_1
  6
CONTINUOUS
 10
0.830717
 20
-3.372154
  0
VERTEX
  8
PLAN_1
  6
CONTINUOUS
 10
0.832898
 20
-3.369098
  0
VERTEX
  8
PLAN_1
  6
CONTINUOUS
 10
0.834646
 20
-3.366476
  0
VERTEX
  8
PLAN_1
  6
CONTINUOUS
 10
0.835953
 20
-3.362984
  0
VERTEX
  8
PLAN_1
  6
CONTINUOUS
 10
0.837264
 20
-3.359492
  0
VERTEX
  8
PLAN_1
  6
CONTINUOUS
 10
0.838138
 20
-3.355567
  0
VERTEX
  8
PLAN_1
  6
CONTINUOUS
 10
0.838575
 20
-3.351201
  0
VERTEX
  8
PLAN_1
  6
CONTINUOUS
 10
0.838575
 20
-3.346835
  0
VERTEX
  8
PLAN_1
  6
CONTINUOUS
 10
0.838575
 20
-3.343780
  0
VERTEX
  8
PLAN_1
  6
CONTINUOUS
 10
0.838138
 20
-3.340724
  0
VERTEX
  8
PLAN_1
  6
CONTINUOUS
 10
0.837701
 20
-3.337669
  0
VERTEX
  8
PLAN_1
  6
CONTINUOUS
 10
0.836827
 20
-3.334614
  0
VERTEX
  8
PLAN_1
  6
CONTINUOUS
 10
0.835516
 20
-3.331559
  0
VERTEX
  8
PLAN_1
  6
CONTINUOUS
 10
0.833772
 20
-3.328937
  0
VERTEX
  8
PLAN_1
  6
CONTINUOUS
 10
0.832024
 20
-3.325882
  0
VERTEX
  8
PLAN_1
  6
CONTINUOUS
 10
0.830280
 20
-3.323264
  0
VERTEX
  8
PLAN_1
  6
CONTINUOUS
 10
0.827661
 20
-3.321083
  0
VERTEX
  8
PLAN_1
  6
CONTINUOUS
 10
0.825043
 20
-3.318465
  0
VERTEX
  8
PLAN_1
  6
CONTINUOUS
 10
0.821551
 20
-3.316717
  0
VERTEX
  8
PLAN_1
  6
CONTINUOUS
 10
0.818059
 20
-3.314972
  0
VERTEX
  8
PLAN_1
  6
CONTINUOUS
 10
0.814130
 20
-3.313661
  0
VERTEX
  8
PLAN_1
  6
CONTINUOUS
 10
0.809764
 20
-3.312350
  0
VERTEX
  8
PLAN_1
  6
CONTINUOUS
 10
0.805398
 20
-3.311913
  0
VERTEX
  8
PLAN_1
  6
CONTINUOUS
 10
0.800161
 20
-3.311480
  0
VERTEX
  8
PLAN_1
  6
CONTINUOUS
 10
0.793614
 20
-3.311913
  0
VERTEX
  8
PLAN_1
  6
CONTINUOUS
 10
0.787937
 20
-3.313224
  0
VERTEX
  8
PLAN_1
  6
CONTINUOUS
 10
0.782701
 20
-3.314972
  0
VERTEX
  8
PLAN_1
  6
CONTINUOUS
 10
0.778335
 20
-3.317154
  0
VERTEX
  8
PLAN_1
  6
CONTINUOUS
 10
0.774843
 20
-3.319772
  0
VERTEX
  8
PLAN_1
  6
CONTINUOUS
 10
0.771787
 20
-3.323264
  0
VERTEX
  8
PLAN_1
  6
CONTINUOUS
 10
0.769169
 20
-3.326756
  0
VERTEX
  8
PLAN_1
  6
CONTINUOUS
 10
0.766988
 20
-3.330248
  0
VERTEX
  8
PLAN_1
  6
CONTINUOUS
 10
0.765240
 20
-3.334177
  0
VERTEX
  8
PLAN_1
  6
CONTINUOUS
 10
0.763933
 20
-3.338543
  0
VERTEX
  8
PLAN_1
  6
CONTINUOUS
 10
0.762622
 20
-3.342469
  0
VERTEX
  8
PLAN_1
  6
CONTINUOUS
 10
0.762185
 20
-3.346398
  0
VERTEX
  8
PLAN_1
  6
CONTINUOUS
 10
0.760874
 20
-3.353382
  0
VERTEX
  8
PLAN_1
  6
CONTINUOUS
 10
0.760441
 20
-3.359492
  0
VERTEX
  8
PLAN_1
  6
CONTINUOUS
 10
0.736433
 20
-3.359492
  0
SEQEND
  8
0
  0
POLYLINE
  8
PLAN_1
  6
CONTINUOUS
 66
     1
 40
0.003000
 41
0.003000
  0
VERTEX
  8
PLAN_1
  6
CONTINUOUS
 10
0.890079
 20
-3.356437
  0
VERTEX
  8
PLAN_1
  6
CONTINUOUS
 10
0.890516
 20
-3.349890
  0
VERTEX
  8
PLAN_1
  6
CONTINUOUS
 10
0.890953
 20
-3.343343
  0
VERTEX
  8
PLAN_1
  6
CONTINUOUS
 10
0.892264
 20
-3.337232
  0
VERTEX
  8
PLAN_1
  6
CONTINUOUS
 10
0.894008
 20
-3.331122
  0
VERTEX
  8
PLAN_1
  6
CONTINUOUS
 10
0.896193
 20
-3.325445
  0
VERTEX
  8
PLAN_1
  6
CONTINUOUS
 10
0.899248
 20
-3.319772
  0
VERTEX
  8
PLAN_1
  6
CONTINUOUS
 10
0.902303
 20
-3.314535
  0
VERTEX
  8
PLAN_1
  6
CONTINUOUS
 10
0.906232
 20
-3.309732
  0
VERTEX
  8
PLAN_1
  6
CONTINUOUS
 10
0.910157
 20
-3.305366
  0
VERTEX
  8
PLAN_1
  6
CONTINUOUS
 10
0.914961
 20
-3.301441
  0
VERTEX
  8
PLAN_1
  6
CONTINUOUS
 10
0.920197
 20
-3.297949
  0
VERTEX
  8
PLAN_1
  6
CONTINUOUS
 10
0.925437
 20
-3.294894
  0
VERTEX
  8
PLAN_1
  6
CONTINUOUS
 10
0.931547
 20
-3.292709
  0
VERTEX
  8
PLAN_1
  6
CONTINUOUS
 10
0.938094
 20
-3.290965
  0
VERTEX
  8
PLAN_1
  6
CONTINUOUS
 10
0.945516
 20
-3.290091
  0
VERTEX
  8
PLAN_1
  6
CONTINUOUS
 10
0.952937
 20
-3.289654
  0
VERTEX
  8
PLAN_1
  6
CONTINUOUS
 10
0.958610
 20
-3.289654
  0
VERTEX
  8
PLAN_1
  6
CONTINUOUS
 10
0.963850
 20
-3.290091
  0
VERTEX
  8
PLAN_1
  6
CONTINUOUS
 10
0.968650
 20
-3.290965
  0
VERTEX
  8
PLAN_1
  6
CONTINUOUS
 10
0.973453
 20
-3.292272
  0
VERTEX
  8
PLAN_1
  6
CONTINUOUS
 10
0.977815
 20
-3.293583
  0
VERTEX
  8
PLAN_1
  6
CONTINUOUS
 10
0.982181
 20
-3.295327
  0
VERTEX
  8
PLAN_1
  6
CONTINUOUS
 10
0.986110
 20
-3.297075
  0
VERTEX
  8
PLAN_1
  6
CONTINUOUS
 10
0.989602
 20
-3.299256
  0
VERTEX
  8
PLAN_1
  6
CONTINUOUS
 10
0.993094
 20
-3.301874
  0
VERTEX
  8
PLAN_1
  6
CONTINUOUS
 10
0.996150
 20
-3.304059
  0
VERTEX
  8
PLAN_1
  6
CONTINUOUS
 10
0.999205
 20
-3.307114
  0
VERTEX
  8
PLAN_1
  6
CONTINUOUS
 10
1.001823
 20
-3.309732
  0
VERTEX
  8
PLAN_1
  6
CONTINUOUS
 10
1.004008
 20
-3.312787
  0
VERTEX
  8
PLAN_1
  6
CONTINUOUS
 10
1.006189
 20
-3.316280
  0
VERTEX
  8
PLAN_1
  6
CONTINUOUS
 10
1.008370
 20
-3.319335
  0
VERTEX
  8
PLAN_1
  6
CONTINUOUS
 10
1.010118
 20
-3.322827
  0
VERTEX
  8
PLAN_1
  6
CONTINUOUS
 10
1.013173
 20
-3.330248
  0
VERTEX
  8
PLAN_1
  6
CONTINUOUS
 10
1.015791
 20
-3.337669
  0
VERTEX
  8
PLAN_1
  6
CONTINUOUS
 10
1.017539
 20
-3.345091
  0
VERTEX
  8
PLAN_1
  6
CONTINUOUS
 10
1.019283
 20
-3.352512
  0
VERTEX
  8
PLAN_1
  6
CONTINUOUS
 10
1.020157
 20
-3.359929
  0
VERTEX
  8
PLAN_1
  6
CONTINUOUS
 10
1.020594
 20
-3.366913
  0
VERTEX
  8
PLAN_1
  6
CONTINUOUS
 10
1.021031
 20
-3.373898
  0
VERTEX
  8
PLAN_1
  6
CONTINUOUS
 10
1.021031
 20
-3.380008
  0
VERTEX
  8
PLAN_1
  6
CONTINUOUS
 10
1.020594
 20
-3.390921
  0
VERTEX
  8
PLAN_1
  6
CONTINUOUS
 10
1.019283
 20
-3.406201
  0
VERTEX
  8
PLAN_1
  6
CONTINUOUS
 10
1.017976
 20
-3.414929
  0
VERTEX
  8
PLAN_1
  6
CONTINUOUS
 10
1.016228
 20
-3.424094
  0
VERTEX
  8
PLAN_1
  6
CONTINUOUS
 10
1.014047
 20
-3.433264
  0
VERTEX
  8
PLAN_1
  6
CONTINUOUS
 10
1.010992
 20
-3.442866
  0
VERTEX
  8
PLAN_1
  6
CONTINUOUS
 10
1.008807
 20
-3.447665
  0
VERTEX
  8
PLAN_1
  6
CONTINUOUS
 10
1.007063
 20
-3.452031
  0
VERTEX
  8
PLAN_1
  6
CONTINUOUS
 10
1.004878
 20
-3.456398
  0
VERTEX
  8
PLAN_1
  6
CONTINUOUS
 10
1.002260
 20
-3.460764
  0
VERTEX
  8
PLAN_1
  6
CONTINUOUS
 10
0.999642
 20
-3.464689
  0
VERTEX
  8
PLAN_1
  6
CONTINUOUS
 10
0.996587
 20
-3.468618
  0
VERTEX
  8
PLAN_1
  6
CONTINUOUS
 10
0.993094
 20
-3.472547
  0
VERTEX
  8
PLAN_1
  6
CONTINUOUS
 10
0.989602
 20
-3.475602
  0
VERTEX
  8
PLAN_1
  6
CONTINUOUS
 10
0.985673
 20
-3.478657
  0
VERTEX
  8
PLAN_1
  6
CONTINUOUS
 10
0.981744
 20
-3.481713
  0
VERTEX
  8
PLAN_1
  6
CONTINUOUS
 10
0.977382
 20
-3.483898
  0
VERTEX
  8
PLAN_1
  6
CONTINUOUS
 10
0.972579
 20
-3.486079
  0
VERTEX
  8
PLAN_1
  6
CONTINUOUS
 10
0.967339
 20
-3.487827
  0
VERTEX
  8
PLAN_1
  6
CONTINUOUS
 10
0.962102
 20
-3.489134
  0
VERTEX
  8
PLAN_1
  6
CONTINUOUS
 10
0.956429
 20
-3.489571
  0
VERTEX
  8
PLAN_1
  6
CONTINUOUS
 10
0.950319
 20
-3.490008
  0
VERTEX
  8
PLAN_1
  6
CONTINUOUS
 10
0.942024
 20
-3.489571
  0
VERTEX
  8
PLAN_1
  6
CONTINUOUS
 10
0.934602
 20
-3.488697
  0
VERTEX
  8
PLAN_1
  6
CONTINUOUS
 10
0.928055
 20
-3.486953
  0
VERTEX
  8
PLAN_1
  6
CONTINUOUS
 10
0.921945
 20
-3.484335
  0
VERTEX
  8
PLAN_1
  6
CONTINUOUS
 10
0.916705
 20
-3.481713
  0
VERTEX
  8
PLAN_1
  6
CONTINUOUS
 10
0.911906
 20
-3.478657
  0
VERTEX
  8
PLAN_1
  6
CONTINUOUS
 10
0.907539
 20
-3.474728
  0
VERTEX
  8
PLAN_1
  6
CONTINUOUS
 10
0.904047
 20
-3.470803
  0
VERTEX
  8
PLAN_1
  6
CONTINUOUS
 10
0.900992
 20
-3.466874
  0
VERTEX
  8
PLAN_1
  6
CONTINUOUS
 10
0.898374
 20
-3.462508
  0
VERTEX
  8
PLAN_1
  6
CONTINUOUS
 10
0.896626
 20
-3.458142
  0
VERTEX
  8
PLAN_1
  6
CONTINUOUS
 10
0.894882
 20
-3.453780
  0
VERTEX
  8
PLAN_1
  6
CONTINUOUS
 10
0.893571
 20
-3.449850
  0
VERTEX
  8
PLAN_1
  6
CONTINUOUS
 10
0.892701
 20
-3.445484
  0
VERTEX
  8
PLAN_1
  6
CONTINUOUS
 10
0.892264
 20
-3.441555
  0
VERTEX
  8
PLAN_1
  6
CONTINUOUS
 10
0.892264
 20
-3.437626
  0
VERTEX
  8
PLAN_1
  6
CONTINUOUS
 10
0.916705
 20
-3.437626
  0
VERTEX
  8
PLAN_1
  6
CONTINUOUS
 10
0.917142
 20
-3.441555
  0
VERTEX
  8
PLAN_1
  6
CONTINUOUS
 10
0.917579
 20
-3.445047
  0
VERTEX
  8
PLAN_1
  6
CONTINUOUS
 10
0.918453
 20
-3.448102
  0
VERTEX
  8
PLAN_1
  6
CONTINUOUS
 10
0.919764
 20
-3.451157
  0
VERTEX
  8
PLAN_1
  6
CONTINUOUS
 10
0.921071
 20
-3.453780
  0
VERTEX
  8
PLAN_1
  6
CONTINUOUS
 10
0.922382
 20
-3.456398
  0
VERTEX
  8
PLAN_1
  6
CONTINUOUS
 10
0.924126
 20
-3.459016
  0
VERTEX
  8
PLAN_1
  6
CONTINUOUS
 10
0.926311
 20
-3.461197
  0
VERTEX
  8
PLAN_1
  6
CONTINUOUS
 10
0.928492
 20
-3.462945
  0
VERTEX
  8
PLAN_1
  6
CONTINUOUS
 10
0.930673
 20
-3.464689
  0
VERTEX
  8
PLAN_1
  6
CONTINUOUS
 10
0.933295
 20
-3.466437
  0
VERTEX
  8
PLAN_1
  6
CONTINUOUS
 10
0.936350
 20
-3.467744
  0
VERTEX
  8
PLAN_1
  6
CONTINUOUS
 10
0.939406
 20
-3.468618
  0
VERTEX
  8
PLAN_1
  6
CONTINUOUS
 10
0.942461
 20
-3.469055
  0
VERTEX
  8
PLAN_1
  6
CONTINUOUS
 10
0.945953
 20
-3.469492
  0
VERTEX
  8
PLAN_1
  6
CONTINUOUS
 10
0.949882
 20
-3.469929
  0
VERTEX
  8
PLAN_1
  6
CONTINUOUS
 10
0.954681
 20
-3.469492
  0
VERTEX
  8
PLAN_1
  6
CONTINUOUS
 10
0.959047
 20
-3.468618
  0
VERTEX
  8
PLAN_1
  6
CONTINUOUS
 10
0.963413
 20
-3.467311
  0
VERTEX
  8
PLAN_1
  6
CONTINUOUS
 10
0.967339
 20
-3.465563
  0
VERTEX
  8
PLAN_1
  6
CONTINUOUS
 10
0.971268
 20
-3.462945
  0
VERTEX
  8
PLAN_1
  6
CONTINUOUS
 10
0.974760
 20
-3.459890
  0
VERTEX
  8
PLAN_1
  6
CONTINUOUS
 10
0.977815
 20
-3.456398
  0
VERTEX
  8
PLAN_1
  6
CONTINUOUS
 10
0.980874
 20
-3.452031
  0
VERTEX
  8
PLAN_1
  6
CONTINUOUS
 10
0.983492
 20
-3.447232
  0
VERTEX
  8
PLAN_1
  6
CONTINUOUS
 10
0.986110
 20
-3.441992
  0
VERTEX
  8
PLAN_1
  6
CONTINUOUS
 10
0.988291
 20
-3.435882
  0
VERTEX
  8
PLAN_1
  6
CONTINUOUS
 10
0.990476
 20
-3.429335
  0
VERTEX
  8
PLAN_1
  6
CONTINUOUS
 10
0.992220
 20
-3.422350
  0
VERTEX
  8
PLAN_1
  6
CONTINUOUS
 10
0.993969
 20
-3.414492
  0
VERTEX
  8
PLAN_1
  6
CONTINUOUS
 10
0.995276
 20
-3.405764
  0
VERTEX
  8
PLAN_1
  6
CONTINUOUS
 10
0.996587
 20
-3.396594
  0
VERTEX
  8
PLAN_1
  6
CONTINUOUS
 10
0.996150
 20
-3.396161
  0
VERTEX
  8
PLAN_1
  6
CONTINUOUS
 10
0.994406
 20
-3.398780
  0
VERTEX
  8
PLAN_1
  6
CONTINUOUS
 10
0.992657
 20
-3.401398
  0
VERTEX
  8
PLAN_1
  6
CONTINUOUS
 10
0.990913
 20
-3.404016
  0
VERTEX
  8
PLAN_1
  6
CONTINUOUS
 10
0.988728
 20
-3.406201
  0
VERTEX
  8
PLAN_1
  6
CONTINUOUS
 10
0.986110
 20
-3.408382
  0
VERTEX
  8
PLAN_1
  6
CONTINUOUS
 10
0.983492
 20
-3.410126
  0
VERTEX
  8
PLAN_1
  6
CONTINUOUS
 10
0.980874
 20
-3.411874
  0
VERTEX
  8
PLAN_1
  6
CONTINUOUS
 10
0.977815
 20
-3.413618
  0
VERTEX
  8
PLAN_1
  6
CONTINUOUS
 10
0.971705
 20
-3.416240
  0
VERTEX
  8
PLAN_1
  6
CONTINUOUS
 10
0.965157
 20
-3.417984
  0
VERTEX
  8
PLAN_1
  6
CONTINUOUS
 10
0.958173
 20
-3.419295
  0
VERTEX
  8
PLAN_1
  6
CONTINUOUS
 10
0.951189
 20
-3.419295
  0
VERTEX
  8
PLAN_1
  6
CONTINUOUS
 10
0.944642
 20
-3.419295
  0
VERTEX
  8
PLAN_1
  6
CONTINUOUS
 10
0.938531
 20
-3.418421
  0
VERTEX
  8
PLAN_1
  6
CONTINUOUS
 10
0.932421
 20
-3.417110
  0
VERTEX
  8
PLAN_1
  6
CONTINUOUS
 10
0.926744
 20
-3.414929
  0
VERTEX
  8
PLAN_1
  6
CONTINUOUS
 10
0.921071
 20
-3.412748
  0
VERTEX
  8
PLAN_1
  6
CONTINUOUS
 10
0.916272
 20
-3.409693
  0
VERTEX
  8
PLAN_1
  6
CONTINUOUS
 10
0.911469
 20
-3.406638
  0
VERTEX
  8
PLAN_1
  6
CONTINUOUS
 10
0.907102
 20
-3.402709
  0
VERTEX
  8
PLAN_1
  6
CONTINUOUS
 10
0.903173
 20
-3.398343
  0
VERTEX
  8
PLAN_1
  6
CONTINUOUS
 10
0.900118
 20
-3.393539
  0
VERTEX
  8
PLAN_1
  6
CONTINUOUS
 10
0.897063
 20
-3.388303
  0
VERTEX
  8
PLAN_1
  6
CONTINUOUS
 10
0.894445
 20
-3.382630
  0
VERTEX
  8
PLAN_1
  6
CONTINUOUS
 10
0.892701
 20
-3.376953
  0
VERTEX
  8
PLAN_1
  6
CONTINUOUS
 10
0.891390
 20
-3.370406
  0
VERTEX
  8
PLAN_1
  6
CONTINUOUS
 10
0.890516
 20
-3.363421
  0
VERTEX
  8
PLAN_1
  6
CONTINUOUS
 10
0.890079
 20
-3.356437
  0
SEQEND
  8
0
  0
POLYLINE
  8
PLAN_1
  6
CONTINUOUS
 66
     1
 40
0.003000
 41
0.003000
  0
VERTEX
  8
PLAN_1
  6
CONTINUOUS
 10
0.992657
 20
-3.353382
  0
VERTEX
  8
PLAN_1
  6
CONTINUOUS
 10
0.992220
 20
-3.349020
  0
VERTEX
  8
PLAN_1
  6
CONTINUOUS
 10
0.991783
 20
-3.345091
  0
VERTEX
  8
PLAN_1
  6
CONTINUOUS
 10
0.991346
 20
-3.341161
  0
VERTEX
  8
PLAN_1
  6
CONTINUOUS
 10
0.990476
 20
-3.337232
  0
VERTEX
  8
PLAN_1
  6
CONTINUOUS
 10
0.989165
 20
-3.333740
  0
VERTEX
  8
PLAN_1
  6
CONTINUOUS
 10
0.987421
 20
-3.330248
  0
VERTEX
  8
PLAN_1
  6
CONTINUOUS
 10
0.985673
 20
-3.327193
  0
VERTEX
  8
PLAN_1
  6
CONTINUOUS
 10
0.983492
 20
-3.324138
  0
VERTEX
  8
PLAN_1
  6
CONTINUOUS
 10
0.980874
 20
-3.321520
  0
VERTEX
  8
PLAN_1
  6
CONTINUOUS
 10
0.977815
 20
-3.318898
  0
VERTEX
  8
PLAN_1
  6
CONTINUOUS
 10
0.974760
 20
-3.316717
  0
VERTEX
  8
PLAN_1
  6
CONTINUOUS
 10
0.970831
 20
-3.314972
  0
VERTEX
  8
PLAN_1
  6
CONTINUOUS
 10
0.966906
 20
-3.313661
  0
VERTEX
  8
PLAN_1
  6
CONTINUOUS
 10
0.962976
 20
-3.312350
  0
VERTEX
  8
PLAN_1
  6
CONTINUOUS
 10
0.958173
 20
-3.311913
  0
VERTEX
  8
PLAN_1
  6
CONTINUOUS
 10
0.952937
 20
-3.311480
  0
VERTEX
  8
PLAN_1
  6
CONTINUOUS
 10
0.949008
 20
-3.311913
  0
VERTEX
  8
PLAN_1
  6
CONTINUOUS
 10
0.945079
 20
-3.312350
  0
VERTEX
  8
PLAN_1
  6
CONTINUOUS
 10
0.941150
 20
-3.313224
  0
VERTEX
  8
PLAN_1
  6
CONTINUOUS
 10
0.937657
 20
-3.314535
  0
VERTEX
  8
PLAN_1
  6
CONTINUOUS
 10
0.934165
 20
-3.316280
  0
VERTEX
  8
PLAN_1
  6
CONTINUOUS
 10
0.931110
 20
-3.318465
  0
VERTEX
  8
PLAN_1
  6
CONTINUOUS
 10
0.928055
 20
-3.321083
  0
VERTEX
  8
PLAN_1
  6
CONTINUOUS
 10
0.925437
 20
-3.323701
  0
VERTEX
  8
PLAN_1
  6
CONTINUOUS
 10
0.923256
 20
-3.326756
  0
VERTEX
  8
PLAN_1
  6
CONTINUOUS
 10
0.921071
 20
-3.330248
  0
VERTEX
  8
PLAN_1
  6
CONTINUOUS
 10
0.919327
 20
-3.333740
  0
VERTEX
  8
PLAN_1
  6
CONTINUOUS
 10
0.918016
 20
-3.337669
  0
VERTEX
  8
PLAN_1
  6
CONTINUOUS
 10
0.916705
 20
-3.341598
  0
VERTEX
  8
PLAN_1
  6
CONTINUOUS
 10
0.915835
 20
-3.345961
  0
VERTEX
  8
PLAN_1
  6
CONTINUOUS
 10
0.915398
 20
-3.350764
  0
VERTEX
  8
PLAN_1
  6
CONTINUOUS
 10
0.915398
 20
-3.355567
  0
VERTEX
  8
PLAN_1
  6
CONTINUOUS
 10
0.915398
 20
-3.362114
  0
VERTEX
  8
PLAN_1
  6
CONTINUOUS
 10
0.916272
 20
-3.367787
  0
VERTEX
  8
PLAN_1
  6
CONTINUOUS
 10
0.917579
 20
-3.373024
  0
VERTEX
  8
PLAN_1
  6
CONTINUOUS
 10
0.919327
 20
-3.377827
  0
VERTEX
  8
PLAN_1
  6
CONTINUOUS
 10
0.921071
 20
-3.381756
  0
VERTEX
  8
PLAN_1
  6
CONTINUOUS
 10
0.923689
 20
-3.385248
  0
VERTEX
  8
PLAN_1
  6
CONTINUOUS
 10
0.926311
 20
-3.388303
  0
VERTEX
  8
PLAN_1
  6
CONTINUOUS
 10
0.928929
 20
-3.390484
  0
VERTEX
  8
PLAN_1
  6
CONTINUOUS
 10
0.931984
 20
-3.392669
  0
VERTEX
  8
PLAN_1
  6
CONTINUOUS
 10
0.935039
 20
-3.393976
  0
VERTEX
  8
PLAN_1
  6
CONTINUOUS
 10
0.938531
 20
-3.395287
  0
VERTEX
  8
PLAN_1
  6
CONTINUOUS
 10
0.942024
 20
-3.396161
  0
VERTEX
  8
PLAN_1
  6
CONTINUOUS
 10
0.948571
 20
-3.397469
  0
VERTEX
  8
PLAN_1
  6
CONTINUOUS
 10
0.955118
 20
-3.397469
  0
VERTEX
  8
PLAN_1
  6
CONTINUOUS
 10
0.960358
 20
-3.397469
  0
VERTEX
  8
PLAN_1
  6
CONTINUOUS
 10
0.966031
 20
-3.396161
  0
VERTEX
  8
PLAN_1
  6
CONTINUOUS
 10
0.969524
 20
-3.394850
  0
VERTEX
  8
PLAN_1
  6
CONTINUOUS
 10
0.972579
 20
-3.393539
  0
VERTEX
  8
PLAN_1
  6
CONTINUOUS
 10
0.975634
 20
-3.391795
  0
VERTEX
  8
PLAN_1
  6
CONTINUOUS
 10
0.978689
 20
-3.390047
  0
VERTEX
  8
PLAN_1
  6
CONTINUOUS
 10
0.981307
 20
-3.387429
  0
VERTEX
  8
PLAN_1
  6
CONTINUOUS
 10
0.983929
 20
-3.384374
  0
VERTEX
  8
PLAN_1
  6
CONTINUOUS
 10
0.986547
 20
-3.380445
  0
VERTEX
  8
PLAN_1
  6
CONTINUOUS
 10
0.988291
 20
-3.376516
  0
VERTEX
  8
PLAN_1
  6
CONTINUOUS
 10
0.990039
 20
-3.371717
  0
VERTEX
  8
PLAN_1
  6
CONTINUOUS
 10
0.991346
 20
-3.366043
  0
VERTEX
  8
PLAN_1
  6
CONTINUOUS
 10
0.992220
 20
-3.359929
  0
VERTEX
  8
PLAN_1
  6
CONTINUOUS
 10
0.992657
 20
-3.353382
  0
SEQEND
  8
0
  0
POLYLINE
  8
PLAN_1
  6
CONTINUOUS
 66
     1
 40
0.003000
 41
0.003000
  0
VERTEX
  8
PLAN_1
  6
CONTINUOUS
 10
1.084323
 20
-3.484768
  0
VERTEX
  8
PLAN_1
  6
CONTINUOUS
 10
1.057260
 20
-3.484768
  0
VERTEX
  8
PLAN_1
  6
CONTINUOUS
 10
1.057260
 20
-3.285287
  0
VERTEX
  8
PLAN_1
  6
CONTINUOUS
 10
1.149362
 20
-3.285287
  0
VERTEX
  8
PLAN_1
  6
CONTINUOUS
 10
1.155472
 20
-3.285724
  0
VERTEX
  8
PLAN_1
  6
CONTINUOUS
 10
1.161583
 20
-3.286161
  0
VERTEX
  8
PLAN_1
  6
CONTINUOUS
 10
1.167693
 20
-3.286598
  0
VERTEX
  8
PLAN_1
  6
CONTINUOUS
 10
1.173370
 20
-3.287909
  0
VERTEX
  8
PLAN_1
  6
CONTINUOUS
 10
1.179043
 20
-3.289217
  0
VERTEX
  8
PLAN_1
  6
CONTINUOUS
 10
1.184280
 20
-3.291402
  0
VERTEX
  8
PLAN_1
  6
CONTINUOUS
 10
1.189520
 20
-3.293583
  0
VERTEX
  8
PLAN_1
  6
CONTINUOUS
 10
1.194319
 20
-3.296201
  0
VERTEX
  8
PLAN_1
  6
CONTINUOUS
 10
1.198685
 20
-3.299693
  0
VERTEX
  8
PLAN_1
  6
CONTINUOUS
 10
1.202614
 20
-3.303622
  0
VERTEX
  8
PLAN_1
  6
CONTINUOUS
 10
1.206106
 20
-3.307988
  0
VERTEX
  8
PLAN_1
  6
CONTINUOUS
 10
1.209161
 20
-3.312787
  0
VERTEX
  8
PLAN_1
  6
CONTINUOUS
 10
1.211780
 20
-3.318465
  0
VERTEX
  8
PLAN_1
  6
CONTINUOUS
 10
1.213528
 20
-3.324575
  0
VERTEX
  8
PLAN_1
  6
CONTINUOUS
 10
1.214402
 20
-3.331559
  0
VERTEX
  8
PLAN_1
  6
CONTINUOUS
 10
1.214835
 20
-3.338980
  0
VERTEX
  8
PLAN_1
  6
CONTINUOUS
 10
1.214835
 20
-3.344217
  0
VERTEX
  8
PLAN_1
  6
CONTINUOUS
 10
1.214402
 20
-3.349020
  0
VERTEX
  8
PLAN_1
  6
CONTINUOUS
 10
1.213528
 20
-3.353819
  0
VERTEX
  8
PLAN_1
  6
CONTINUOUS
 10
1.212217
 20
-3.357748
  0
VERTEX
  8
PLAN_1
  6
CONTINUOUS
 10
1.210909
 20
-3.361677
  0
VERTEX
  8
PLAN_1
  6
CONTINUOUS
 10
1.209598
 20
-3.365169
  0
VERTEX
  8
PLAN_1
  6
CONTINUOUS
 10
1.207850
 20
-3.368224
  0
VERTEX
  8
PLAN_1
  6
CONTINUOUS
 10
1.205669
 20
-3.371280
  0
VERTEX
  8
PLAN_1
  6
CONTINUOUS
 10
1.201303
 20
-3.376083
  0
VERTEX
  8
PLAN_1
  6
CONTINUOUS
 10
1.196941
 20
-3.380445
  0
VERTEX
  8
PLAN_1
  6
CONTINUOUS
 10
1.192138
 20
-3.383937
  0
VERTEX
  8
PLAN_1
  6
CONTINUOUS
 10
1.186902
 20
-3.386555
  0
VERTEX
  8
PLAN_1
  6
CONTINUOUS
 10
1.191264
 20
-3.388740
  0
VERTEX
  8
PLAN_1
  6
CONTINUOUS
 10
1.195630
 20
-3.390484
  0
VERTEX
  8
PLAN_1
  6
CONTINUOUS
 10
1.199559
 20
-3.393539
  0
VERTEX
  8
PLAN_1
  6
CONTINUOUS
 10
1.203051
 20
-3.397031
  0
VERTEX
  8
PLAN_1
  6
CONTINUOUS
 10
1.204362
 20
-3.398780
  0
VERTEX
  8
PLAN_1
  6
CONTINUOUS
 10
1.206106
 20
-3.401398
  0
VERTEX
  8
PLAN_1
  6
CONTINUOUS
 10
1.207417
 20
-3.404016
  0
VERTEX
  8
PLAN_1
  6
CONTINUOUS
 10
1.208287
 20
-3.407508
  0
VERTEX
  8
PLAN_1
  6
CONTINUOUS
 10
1.209161
 20
-3.411000
  0
VERTEX
  8
PLAN_1
  6
CONTINUOUS
 10
1.210035
 20
-3.414929
  0
VERTEX
  8
PLAN_1
  6
CONTINUOUS
 10
1.210472
 20
-3.419295
  0
VERTEX
  8
PLAN_1
  6
CONTINUOUS
 10
1.210909
 20
-3.424094
  0
VERTEX
  8
PLAN_1
  6
CONTINUOUS
 10
1.212654
 20
-3.460327
  0
VERTEX
  8
PLAN_1
  6
CONTINUOUS
 10
1.212654
 20
-3.464256
  0
VERTEX
  8
PLAN_1
  6
CONTINUOUS
 10
1.213091
 20
-3.467311
  0
VERTEX
  8
PLAN_1
  6
CONTINUOUS
 10
1.213528
 20
-3.470366
  0
VERTEX
  8
PLAN_1
  6
CONTINUOUS
 10
1.214835
 20
-3.472547
  0
VERTEX
  8
PLAN_1
  6
CONTINUOUS
 10
1.215709
 20
-3.474728
  0
VERTEX
  8
PLAN_1
  6
CONTINUOUS
 10
1.217457
 20
-3.476913
  0
VERTEX
  8
PLAN_1
  6
CONTINUOUS
 10
1.219638
 20
-3.478657
  0
VERTEX
  8
PLAN_1
  6
CONTINUOUS
 10
1.222693
 20
-3.480406
  0
VERTEX
  8
PLAN_1
  6
CONTINUOUS
 10
1.222693
 20
-3.484768
  0
VERTEX
  8
PLAN_1
  6
CONTINUOUS
 10
1.189520
 20
-3.484768
  0
VERTEX
  8
PLAN_1
  6
CONTINUOUS
 10
1.188209
 20
-3.479531
  0
VERTEX
  8
PLAN_1
  6
CONTINUOUS
 10
1.187339
 20
-3.472984
  0
VERTEX
  8
PLAN_1
  6
CONTINUOUS
 10
1.186465
 20
-3.465563
  0
VERTEX
  8
PLAN_1
  6
CONTINUOUS
 10
1.185591
 20
-3.458142
  0
VERTEX
  8
PLAN_1
  6
CONTINUOUS
 10
1.185154
 20
-3.450724
  0
VERTEX
  8
PLAN_1
  6
CONTINUOUS
 10
1.185154
 20
-3.444173
  0
VERTEX
  8
PLAN_1
  6
CONTINUOUS
 10
1.185154
 20
-3.438500
  0
VERTEX
  8
PLAN_1
  6
CONTINUOUS
 10
1.184717
 20
-3.434571
  0
VERTEX
  8
PLAN_1
  6
CONTINUOUS
 10
1.184717
 20
-3.428461
  0
VERTEX
  8
PLAN_1
  6
CONTINUOUS
 10
1.183846
 20
-3.422350
  0
VERTEX
  8
PLAN_1
  6
CONTINUOUS
 10
1.182972
 20
-3.419295
  0
VERTEX
  8
PLAN_1
  6
CONTINUOUS
 10
1.182098
 20
-3.416240
  0
VERTEX
  8
PLAN_1
  6
CONTINUOUS
 10
1.180787
 20
-3.413618
  0
VERTEX
  8
PLAN_1
  6
CONTINUOUS
 10
1.179043
 20
-3.411000
  0
VERTEX
  8
PLAN_1
  6
CONTINUOUS
 10
1.177299
 20
-3.408382
  0
VERTEX
  8
PLAN_1
  6
CONTINUOUS
 10
1.174677
 20
-3.406201
  0
VERTEX
  8
PLAN_1
  6
CONTINUOUS
 10
1.172059
 20
-3.404016
  0
VERTEX
  8
PLAN_1
  6
CONTINUOUS
 10
1.168567
 20
-3.402709
  0
VERTEX
  8
PLAN_1
  6
CONTINUOUS
 10
1.164638
 20
-3.400961
  0
VERTEX
  8
PLAN_1
  6
CONTINUOUS
 10
1.160276
 20
-3.400087
  0
VERTEX
  8
PLAN_1
  6
CONTINUOUS
 10
1.155035
 20
-3.399654
  0
VERTEX
  8
PLAN_1
  6
CONTINUOUS
 10
1.149362
 20
-3.399217
  0
VERTEX
  8
PLAN_1
  6
CONTINUOUS
 10
1.084323
 20
-3.399217
  0
VERTEX
  8
PLAN_1
  6
CONTINUOUS
 10
1.084323
 20
-3.484768
  0
SEQEND
  8
0
  0
POLYLINE
  8
PLAN_1
  6
CONTINUOUS
 66
     1
 40
0.003000
 41
0.003000
  0
VERTEX
  8
PLAN_1
  6
CONTINUOUS
 10
1.084323
 20
-3.376083
  0
VERTEX
  8
PLAN_1
  6
CONTINUOUS
 10
1.146744
 20
-3.376083
  0
VERTEX
  8
PLAN_1
  6
CONTINUOUS
 10
1.154161
 20
-3.376083
  0
VERTEX
  8
PLAN_1
  6
CONTINUOUS
 10
1.161146
 20
-3.374772
  0
VERTEX
  8
PLAN_1
  6
CONTINUOUS
 10
1.164638
 20
-3.374335
  0
VERTEX
  8
PLAN_1
  6
CONTINUOUS
 10
1.168130
 20
-3.373024
  0
VERTEX
  8
PLAN_1
  6
CONTINUOUS
 10
1.171185
 20
-3.371717
  0
VERTEX
  8
PLAN_1
  6
CONTINUOUS
 10
1.174240
 20
-3.369969
  0
VERTEX
  8
PLAN_1
  6
CONTINUOUS
 10
1.176862
 20
-3.368224
  0
VERTEX
  8
PLAN_1
  6
CONTINUOUS
 10
1.179480
 20
-3.365606
  0
VERTEX
  8
PLAN_1
  6
CONTINUOUS
 10
1.181661
 20
-3.362984
  0
VERTEX
  8
PLAN_1
  6
CONTINUOUS
 10
1.183409
 20
-3.359492
  0
VERTEX
  8
PLAN_1
  6
CONTINUOUS
 10
1.185154
 20
-3.356000
  0
VERTEX
  8
PLAN_1
  6
CONTINUOUS
 10
1.186028
 20
-3.351638
  0
VERTEX
  8
PLAN_1
  6
CONTINUOUS
 10
1.186902
 20
-3.346835
  0
VERTEX
  8
PLAN_1
  6
CONTINUOUS
 10
1.186902
 20
-3.341598
  0
VERTEX
  8
PLAN_1
  6
CONTINUOUS
 10
1.186902
 20
-3.336358
  0
VERTEX
  8
PLAN_1
  6
CONTINUOUS
 10
1.186028
 20
-3.331559
  0
VERTEX
  8
PLAN_1
  6
CONTINUOUS
 10
1.185154
 20
-3.327193
  0
VERTEX
  8
PLAN_1
  6
CONTINUOUS
 10
1.183409
 20
-3.323701
  0
VERTEX
  8
PLAN_1
  6
CONTINUOUS
 10
1.181661
 20
-3.320209
  0
VERTEX
  8
PLAN_1
  6
CONTINUOUS
 10
1.179480
 20
-3.317591
  0
VERTEX
  8
PLAN_1
  6
CONTINUOUS
 10
1.176862
 20
-3.315406
  0
VERTEX
  8
PLAN_1
  6
CONTINUOUS
 10
1.174240
 20
-3.313661
  0
VERTEX
  8
PLAN_1
  6
CONTINUOUS
 10
1.171185
 20
-3.311913
  0
VERTEX
  8
PLAN_1
  6
CONTINUOUS
 10
1.168567
 20
-3.311043
  0
VERTEX
  8
PLAN_1
  6
CONTINUOUS
 10
1.165512
 20
-3.310169
  0
VERTEX
  8
PLAN_1
  6
CONTINUOUS
 10
1.162457
 20
-3.309295
  0
VERTEX
  8
PLAN_1
  6
CONTINUOUS
 10
1.156783
 20
-3.308858
  0
VERTEX
  8
PLAN_1
  6
CONTINUOUS
 10
1.151106
 20
-3.308425
  0
VERTEX
  8
PLAN_1
  6
CONTINUOUS
 10
1.084323
 20
-3.308425
  0
VERTEX
  8
PLAN_1
  6
CONTINUOUS
 10
1.084323
 20
-3.376083
  0
SEQEND
  8
0
  0
SOLID
  8
PLAN_1
 10
1.286421
 20
-3.484768
 11
1.257614
 21
-3.484768
 12
1.286421
 22
-3.455524
 13
1.257614
 23
-3.455524
  0
POLYLINE
  8
PLAN_1
  6
CONTINUOUS
 66
     1
 40
0.003000
 41
0.003000
  0
VERTEX
  8
PLAN_1
  6
CONTINUOUS
 10
1.286421
 20
-3.484768
  0
VERTEX
  8
PLAN_1
  6
CONTINUOUS
 10
1.257614
 20
-3.484768
  0
VERTEX
  8
PLAN_1
  6
CONTINUOUS
 10
1.257614
 20
-3.455524
  0
VERTEX
  8
PLAN_1
  6
CONTINUOUS
 10
1.286421
 20
-3.455524
  0
VERTEX
  8
PLAN_1
  6
CONTINUOUS
 10
1.286421
 20
-3.484768
  0
SEQEND
  8
0
  0
POLYLINE
  8
PLAN_1
  6
CONTINUOUS
 66
     1
 40
0.003000
 41
0.003000
  0
VERTEX
  8
PLAN_1
  6
CONTINUOUS
 10
1.481539
 20
-3.484768
  0
VERTEX
  8
PLAN_1
  6
CONTINUOUS
 10
1.334437
 20
-3.484768
  0
VERTEX
  8
PLAN_1
  6
CONTINUOUS
 10
1.334437
 20
-3.285287
  0
VERTEX
  8
PLAN_1
  6
CONTINUOUS
 10
1.479354
 20
-3.285287
  0
VERTEX
  8
PLAN_1
  6
CONTINUOUS
 10
1.479354
 20
-3.309295
  0
VERTEX
  8
PLAN_1
  6
CONTINUOUS
 10
1.361063
 20
-3.309295
  0
VERTEX
  8
PLAN_1
  6
CONTINUOUS
 10
1.361063
 20
-3.370406
  0
VERTEX
  8
PLAN_1
  6
CONTINUOUS
 10
1.470189
 20
-3.370406
  0
VERTEX
  8
PLAN_1
  6
CONTINUOUS
 10
1.470189
 20
-3.394413
  0
VERTEX
  8
PLAN_1
  6
CONTINUOUS
 10
1.361063
 20
-3.394413
  0
VERTEX
  8
PLAN_1
  6
CONTINUOUS
 10
1.361063
 20
-3.460764
  0
VERTEX
  8
PLAN_1
  6
CONTINUOUS
 10
1.481539
 20
-3.460764
  0
VERTEX
  8
PLAN_1
  6
CONTINUOUS
 10
1.481539
 20
-3.484768
  0
SEQEND
  8
0
  0
POLYLINE
  8
PLAN_1
  6
CONTINUOUS
 66
     1
 40
0.003000
 41
0.003000
  0
VERTEX
  8
PLAN_1
  6
CONTINUOUS
 10
1.546575
 20
-3.484768
  0
VERTEX
  8
PLAN_1
  6
CONTINUOUS
 10
1.519512
 20
-3.484768
  0
VERTEX
  8
PLAN_1
  6
CONTINUOUS
 10
1.519512
 20
-3.285287
  0
VERTEX
  8
PLAN_1
  6
CONTINUOUS
 10
1.608996
 20
-3.285287
  0
VERTEX
  8
PLAN_1
  6
CONTINUOUS
 10
1.615980
 20
-3.285724
  0
VERTEX
  8
PLAN_1
  6
CONTINUOUS
 10
1.622528
 20
-3.286598
  0
VERTEX
  8
PLAN_1
  6
CONTINUOUS
 10
1.628201
 20
-3.287909
  0
VERTEX
  8
PLAN_1
  6
CONTINUOUS
 10
1.633878
 20
-3.289654
  0
VERTEX
  8
PLAN_1
  6
CONTINUOUS
 10
1.639114
 20
-3.291835
  0
VERTEX
  8
PLAN_1
  6
CONTINUOUS
 10
1.643917
 20
-3.294894
  0
VERTEX
  8
PLAN_1
  6
CONTINUOUS
 10
1.648717
 20
-3.297949
  0
VERTEX
  8
PLAN_1
  6
CONTINUOUS
 10
1.652646
 20
-3.301441
  0
VERTEX
  8
PLAN_1
  6
CONTINUOUS
 10
1.656138
 20
-3.305366
  0
VERTEX
  8
PLAN_1
  6
CONTINUOUS
 10
1.659193
 20
-3.309732
  0
VERTEX
  8
PLAN_1
  6
CONTINUOUS
 10
1.662248
 20
-3.314098
  0
VERTEX
  8
PLAN_1
  6
CONTINUOUS
 10
1.664433
 20
-3.319335
  0
VERTEX
  8
PLAN_1
  6
CONTINUOUS
 10
1.666177
 20
-3.324575
  0
VERTEX
  8
PLAN_1
  6
CONTINUOUS
 10
1.667488
 20
-3.329811
  0
VERTEX
  8
PLAN_1
  6
CONTINUOUS
 10
1.667925
 20
-3.335488
  0
VERTEX
  8
PLAN_1
  6
CONTINUOUS
 10
1.668362
 20
-3.341598
  0
VERTEX
  8
PLAN_1
  6
CONTINUOUS
 10
1.667925
 20
-3.346835
  0
VERTEX
  8
PLAN_1
  6
CONTINUOUS
 10
1.667488
 20
-3.352075
  0
VERTEX
  8
PLAN_1
  6
CONTINUOUS
 10
1.666614
 20
-3.357311
  0
VERTEX
  8
PLAN_1
  6
CONTINUOUS
 10
1.665303
 20
-3.362551
  0
VERTEX
  8
PLAN_1
  6
CONTINUOUS
 10
1.663122
 20
-3.367350
  0
VERTEX
  8
PLAN_1
  6
CONTINUOUS
 10
1.660941
 20
-3.372591
  0
VERTEX
  8
PLAN_1
  6
CONTINUOUS
 10
1.658319
 20
-3.376953
  0
VERTEX
  8
PLAN_1
  6
CONTINUOUS
 10
1.654831
 20
-3.381319
  0
VERTEX
  8
PLAN_1
  6
CONTINUOUS
 10
1.651339
 20
-3.385685
  0
VERTEX
  8
PLAN_1
  6
CONTINUOUS
 10
1.646972
 20
-3.389177
  0
VERTEX
  8
PLAN_1
  6
CONTINUOUS
 10
1.642169
 20
-3.392669
  0
VERTEX
  8
PLAN_1
  6
CONTINUOUS
 10
1.636496
 20
-3.395287
  0
VERTEX
  8
PLAN_1
  6
CONTINUOUS
 10
1.630823
 20
-3.397469
  0
VERTEX
  8
PLAN_1
  6
CONTINUOUS
 10
1.624276
 20
-3.399217
  0
VERTEX
  8
PLAN_1
  6
CONTINUOUS
 10
1.616854
 20
-3.400087
  0
VERTEX
  8
PLAN_1
  6
CONTINUOUS
 10
1.608996
 20
-3.400524
  0
VERTEX
  8
PLAN_1
  6
CONTINUOUS
 10
1.546575
 20
-3.400524
  0
VERTEX
  8
PLAN_1
  6
CONTINUOUS
 10
1.546575
 20
-3.484768
  0
SEQEND
  8
0
  0
POLYLINE
  8
PLAN_1
  6
CONTINUOUS
 66
     1
 40
0.003000
 41
0.003000
  0
VERTEX
  8
PLAN_1
  6
CONTINUOUS
 10
1.546575
 20
-3.377390
  0
VERTEX
  8
PLAN_1
  6
CONTINUOUS
 10
1.599831
 20
-3.377390
  0
VERTEX
  8
PLAN_1
  6
CONTINUOUS
 10
1.604630
 20
-3.377390
  0
VERTEX
  8
PLAN_1
  6
CONTINUOUS
 10
1.608559
 20
-3.376953
  0
VERTEX
  8
PLAN_1
  6
CONTINUOUS
 10
1.612925
 20
-3.376516
  0
VERTEX
  8
PLAN_1
  6
CONTINUOUS
 10
1.616417
 20
-3.375646
  0
VERTEX
  8
PLAN_1
  6
CONTINUOUS
 10
1.620346
 20
-3.374772
  0
VERTEX
  8
PLAN_1
  6
CONTINUOUS
 10
1.623402
 20
-3.373461
  0
VERTEX
  8
PLAN_1
  6
CONTINUOUS
 10
1.626457
 20
-3.371717
  0
VERTEX
  8
PLAN_1
  6
CONTINUOUS
 10
1.629512
 20
-3.369969
  0
VERTEX
  8
PLAN_1
  6
CONTINUOUS
 10
1.631693
 20
-3.367350
  0
VERTEX
  8
PLAN_1
  6
CONTINUOUS
 10
1.634315
 20
-3.365169
  0
VERTEX
  8
PLAN_1
  6
CONTINUOUS
 10
1.636059
 20
-3.362114
  0
VERTEX
  8
PLAN_1
  6
CONTINUOUS
 10
1.637807
 20
-3.358622
  0
VERTEX
  8
PLAN_1
  6
CONTINUOUS
 10
1.638677
 20
-3.355130
  0
VERTEX
  8
PLAN_1
  6
CONTINUOUS
 10
1.639988
 20
-3.351201
  0
VERTEX
  8
PLAN_1
  6
CONTINUOUS
 10
1.640425
 20
-3.346835
  0
VERTEX
  8
PLAN_1
  6
CONTINUOUS
 10
1.640425
 20
-3.341598
  0
VERTEX
  8
PLAN_1
  6
CONTINUOUS
 10
1.640425
 20
-3.337232
  0
VERTEX
  8
PLAN_1
  6
CONTINUOUS
 10
1.639988
 20
-3.333303
  0
VERTEX
  8
PLAN_1
  6
CONTINUOUS
 10
1.638677
 20
-3.329374
  0
VERTEX
  8
PLAN_1
  6
CONTINUOUS
 10
1.637370
 20
-3.325882
  0
VERTEX
  8
PLAN_1
  6
CONTINUOUS
 10
1.636059
 20
-3.322827
  0
VERTEX
  8
PLAN_1
  6
CONTINUOUS
 10
1.633878
 20
-3.320209
  0
VERTEX
  8
PLAN_1
  6
CONTINUOUS
 10
1.631693
 20
-3.317591
  0
VERTEX
  8
PLAN_1
  6
CONTINUOUS
 10
1.629075
 20
-3.315843
  0
VERTEX
  8
PLAN_1
  6
CONTINUOUS
 10
1.626457
 20
-3.314098
  0
VERTEX
  8
PLAN_1
  6
CONTINUOUS
 10
1.623402
 20
-3.312350
  0
VERTEX
  8
PLAN_1
  6
CONTINUOUS
 10
1.619909
 20
-3.311043
  0
VERTEX
  8
PLAN_1
  6
CONTINUOUS
 10
1.616854
 20
-3.310169
  0
VERTEX
  8
PLAN_1
  6
CONTINUOUS
 10
1.612925
 20
-3.309295
  0
VERTEX
  8
PLAN_1
  6
CONTINUOUS
 10
1.608996
 20
-3.308858
  0
VERTEX
  8
PLAN_1
  6
CONTINUOUS
 10
1.605067
 20
-3.308425
  0
VERTEX
  8
PLAN_1
  6
CONTINUOUS
 10
1.601138
 20
-3.308425
  0
VERTEX
  8
PLAN_1
  6
CONTINUOUS
 10
1.546575
 20
-3.308425
  0
VERTEX
  8
PLAN_1
  6
CONTINUOUS
 10
1.546575
 20
-3.377390
  0
SEQEND
  8
0
  0
POLYLINE
  8
PLAN_1
  6
CONTINUOUS
 66
     1
 40
0.003000
 41
0.003000
  0
VERTEX
  8
PLAN_1
  6
CONTINUOUS
 10
1.822008
 20
-3.343780
  0
VERTEX
  8
PLAN_1
  6
CONTINUOUS
 10
1.821571
 20
-3.338106
  0
VERTEX
  8
PLAN_1
  6
CONTINUOUS
 10
1.820701
 20
-3.333303
  0
VERTEX
  8
PLAN_1
  6
CONTINUOUS
 10
1.818953
 20
-3.328504
  0
VERTEX
  8
PLAN_1
  6
CONTINUOUS
 10
1.817209
 20
-3.324575
  0
VERTEX
  8
PLAN_1
  6
CONTINUOUS
 10
1.814587
 20
-3.320646
  0
VERTEX
  8
PLAN_1
  6
CONTINUOUS
 10
1.811969
 20
-3.317591
  0
VERTEX
  8
PLAN_1
  6
CONTINUOUS
 10
1.808913
 20
-3.314535
  0
VERTEX
  8
PLAN_1
  6
CONTINUOUS
 10
1.805421
 20
-3.311913
  0
VERTEX
  8
PLAN_1
  6
CONTINUOUS
 10
1.801929
 20
-3.309732
  0
VERTEX
  8
PLAN_1
  6
CONTINUOUS
 10
1.798000
 20
-3.307988
  0
VERTEX
  8
PLAN_1
  6
CONTINUOUS
 10
1.794071
 20
-3.306240
  0
VERTEX
  8
PLAN_1
  6
CONTINUOUS
 10
1.789709
 20
-3.305366
  0
VERTEX
  8
PLAN_1
  6
CONTINUOUS
 10
1.785780
 20
-3.304496
  0
VERTEX
  8
PLAN_1
  6
CONTINUOUS
 10
1.781413
 20
-3.303622
  0
VERTEX
  8
PLAN_1
  6
CONTINUOUS
 10
1.777047
 20
-3.303185
  0
VERTEX
  8
PLAN_1
  6
CONTINUOUS
 10
1.772685
 20
-3.303185
  0
VERTEX
  8
PLAN_1
  6
CONTINUOUS
 10
1.766138
 20
-3.303622
  0
VERTEX
  8
PLAN_1
  6
CONTINUOUS
 10
1.758717
 20
-3.304496
  0
VERTEX
  8
PLAN_1
  6
CONTINUOUS
 10
1.754787
 20
-3.305366
  0
VERTEX
  8
PLAN_1
  6
CONTINUOUS
 10
1.750858
 20
-3.306240
  0
VERTEX
  8
PLAN_1
  6
CONTINUOUS
 10
1.747366
 20
-3.307551
  0
VERTEX
  8
PLAN_1
  6
CONTINUOUS
 10
1.743874
 20
-3.309295
  0
VERTEX
  8
PLAN_1
  6
CONTINUOUS
 10
1.740382
 20
-3.311480
  0
VERTEX
  8
PLAN_1
  6
CONTINUOUS
 10
1.737327
 20
-3.313661
  0
VERTEX
  8
PLAN_1
  6
CONTINUOUS
 10
1.734272
 20
-3.316717
  0
VERTEX
  8
PLAN_1
  6
CONTINUOUS
 10
1.732091
 20
-3.319772
  0
VERTEX
  8
PLAN_1
  6
CONTINUOUS
 10
1.729906
 20
-3.323701
  0
VERTEX
  8
PLAN_1
  6
CONTINUOUS
 10
1.728598
 20
-3.328067
  0
VERTEX
  8
PLAN_1
  6
CONTINUOUS
 10
1.727724
 20
-3.332866
  0
VERTEX
  8
PLAN_1
  6
CONTINUOUS
 10
1.727287
 20
-3.338106
  0
VERTEX
  8
PLAN_1
  6
CONTINUOUS
 10
1.727287
 20
-3.341161
  0
VERTEX
  8
PLAN_1
  6
CONTINUOUS
 10
1.727724
 20
-3.344217
  0
VERTEX
  8
PLAN_1
  6
CONTINUOUS
 10
1.728598
 20
-3.346398
  0
VERTEX
  8
PLAN_1
  6
CONTINUOUS
 10
1.729469
 20
-3.349020
  0
VERTEX
  8
PLAN_1
  6
CONTINUOUS
 10
1.730343
 20
-3.351201
  0
VERTEX
  8
PLAN_1
  6
CONTINUOUS
 10
1.731654
 20
-3.352945
  0
VERTEX
  8
PLAN_1
  6
CONTINUOUS
 10
1.732961
 20
-3.354693
  0
VERTEX
  8
PLAN_1
  6
CONTINUOUS
 10
1.734709
 20
-3.356000
  0
VERTEX
  8
PLAN_1
  6
CONTINUOUS
 10
1.738201
 20
-3.358622
  0
VERTEX
  8
PLAN_1
  6
CONTINUOUS
 10
1.742130
 20
-3.360803
  0
VERTEX
  8
PLAN_1
  6
CONTINUOUS
 10
1.746492
 20
-3.362114
  0
VERTEX
  8
PLAN_1
  6
CONTINUOUS
 10
1.750858
 20
-3.363421
  0
VERTEX
  8
PLAN_1
  6
CONTINUOUS
 10
1.807602
 20
-3.376516
  0
VERTEX
  8
PLAN_1
  6
CONTINUOUS
 10
1.812406
 20
-3.377827
  0
VERTEX
  8
PLAN_1
  6
CONTINUOUS
 10
1.817209
 20
-3.379138
  0
VERTEX
  8
PLAN_1
  6
CONTINUOUS
 10
1.821571
 20
-3.380882
  0
VERTEX
  8
PLAN_1
  6
CONTINUOUS
 10
1.825500
 20
-3.383063
  0
VERTEX
  8
PLAN_1
  6
CONTINUOUS
 10
1.829866
 20
-3.385248
  0
VERTEX
  8
PLAN_1
  6
CONTINUOUS
 10
1.833358
 20
-3.387866
  0
VERTEX
  8
PLAN_1
  6
CONTINUOUS
 10
1.836850
 20
-3.390484
  0
VERTEX
  8
PLAN_1
  6
CONTINUOUS
 10
1.839906
 20
-3.393539
  0
VERTEX
  8
PLAN_1
  6
CONTINUOUS
 10
1.842961
 20
-3.397031
  0
VERTEX
  8
PLAN_1
  6
CONTINUOUS
 10
1.845579
 20
-3.400524
  0
VERTEX
  8
PLAN_1
  6
CONTINUOUS
 10
1.847764
 20
-3.404453
  0
VERTEX
  8
PLAN_1
  6
CONTINUOUS
 10
1.849508
 20
-3.408819
  0
VERTEX
  8
PLAN_1
  6
CONTINUOUS
 10
1.850819
 20
-3.413618
  0
VERTEX
  8
PLAN_1
  6
CONTINUOUS
 10
1.852126
 20
-3.418858
  0
VERTEX
  8
PLAN_1
  6
CONTINUOUS
 10
1.852563
 20
-3.424094
  0
VERTEX
  8
PLAN_1
  6
CONTINUOUS
 10
1.853000
 20
-3.429772
  0
VERTEX
  8
PLAN_1
  6
CONTINUOUS
 10
1.853000
 20
-3.434134
  0
VERTEX
  8
PLAN_1
  6
CONTINUOUS
 10
1.852563
 20
-3.438063
  0
VERTEX
  8
PLAN_1
  6
CONTINUOUS
 10
1.851689
 20
-3.441992
  0
VERTEX
  8
PLAN_1
  6
CONTINUOUS
 10
1.851256
 20
-3.445921
  0
VERTEX
  8
PLAN_1
  6
CONTINUOUS
 10
1.849945
 20
-3.449413
  0
VERTEX
  8
PLAN_1
  6
CONTINUOUS
 10
1.848634
 20
-3.452906
  0
VERTEX
  8
PLAN_1
  6
CONTINUOUS
 10
1.847327
 20
-3.455961
  0
VERTEX
  8
PLAN_1
  6
CONTINUOUS
 10
1.845579
 20
-3.459016
  0
VERTEX
  8
PLAN_1
  6
CONTINUOUS
 10
1.843835
 20
-3.462071
  0
VERTEX
  8
PLAN_1
  6
CONTINUOUS
 10
1.841650
 20
-3.464689
  0
VERTEX
  8
PLAN_1
  6
CONTINUOUS
 10
1.839469
 20
-3.467311
  0
VERTEX
  8
PLAN_1
  6
CONTINUOUS
 10
1.837287
 20
-3.469492
  0
VERTEX
  8
PLAN_1
  6
CONTINUOUS
 10
1.832484
 20
-3.473858
  0
VERTEX
  8
PLAN_1
  6
CONTINUOUS
 10
1.826811
 20
-3.477787
  0
VERTEX
  8
PLAN_1
  6
CONTINUOUS
 10
1.820701
 20
-3.480843
  0
VERTEX
  8
PLAN_1
  6
CONTINUOUS
 10
1.814587
 20
-3.483461
  0
VERTEX
  8
PLAN_1
  6
CONTINUOUS
 10
1.808039
 20
-3.485642
  0
VERTEX
  8
PLAN_1
  6
CONTINUOUS
 10
1.801492
 20
-3.487390
  0
VERTEX
  8
PLAN_1
  6
CONTINUOUS
 10
1.794945
 20
-3.488697
  0
VERTEX
  8
PLAN_1
  6
CONTINUOUS
 10
1.787961
 20
-3.489571
  0
VERTEX
  8
PLAN_1
  6
CONTINUOUS
 10
1.781413
 20
-3.490008
  0
VERTEX
  8
PLAN_1
  6
CONTINUOUS
 10
1.774866
 20
-3.490008
  0
VERTEX
  8
PLAN_1
  6
CONTINUOUS
 10
1.768319
 20
-3.490008
  0
VERTEX
  8
PLAN_1
  6
CONTINUOUS
 10
1.762209
 20
-3.489571
  0
VERTEX
  8
PLAN_1
  6
CONTINUOUS
 10
1.756531
 20
-3.489134
  0
VERTEX
  8
PLAN_1
  6
CONTINUOUS
 10
1.751295
 20
-3.488260
  0
VERTEX
  8
PLAN_1
  6
CONTINUOUS
 10
1.746492
 20
-3.487390
  0
VERTEX
  8
PLAN_1
  6
CONTINUOUS
 10
1.742130
 20
-3.486079
  0
VERTEX
  8
PLAN_1
  6
CONTINUOUS
 10
1.738201
 20
-3.484768
  0
VERTEX
  8
PLAN_1
  6
CONTINUOUS
 10
1.734272
 20
-3.483461
  0
VERTEX
  8
PLAN_1
  6
CONTINUOUS
 10
1.728161
 20
-3.480406
  0
VERTEX
  8
PLAN_1
  6
CONTINUOUS
 10
1.722921
 20
-3.477350
  0
VERTEX
  8
PLAN_1
  6
CONTINUOUS
 10
1.718559
 20
-3.473858
  0
VERTEX
  8
PLAN_1
  6
CONTINUOUS
 10
1.714630
 20
-3.470803
  0
VERTEX
  8
PLAN_1
  6
CONTINUOUS
 10
1.711575
 20
-3.468181
  0
VERTEX
  8
PLAN_1
  6
CONTINUOUS
 10
1.708957
 20
-3.465126
  0
VERTEX
  8
PLAN_1
  6
CONTINUOUS
 10
1.706772
 20
-3.462071
  0
VERTEX
  8
PLAN_1
  6
CONTINUOUS
 10
1.704591
 20
-3.459016
  0
VERTEX
  8
PLAN_1
  6
CONTINUOUS
 10
1.702406
 20
-3.455961
  0
VERTEX
  8
PLAN_1
  6
CONTINUOUS
 10
1.701098
 20
-3.452906
  0
VERTEX
  8
PLAN_1
  6
CONTINUOUS
 10
1.699350
 20
-3.449850
  0
VERTEX
  8
PLAN_1
  6
CONTINUOUS
 10
1.698480
 20
-3.446795
  0
VERTEX
  8
PLAN_1
  6
CONTINUOUS
 10
1.696295
 20
-3.440681
  0
VERTEX
  8
PLAN_1
  6
CONTINUOUS
 10
1.695425
 20
-3.434134
  0
VERTEX
  8
PLAN_1
  6
CONTINUOUS
 10
1.694551
 20
-3.427150
  0
VERTEX
  8
PLAN_1
  6
CONTINUOUS
 10
1.694551
 20
-3.420169
  0
VERTEX
  8
PLAN_1
  6
CONTINUOUS
 10
1.719866
 20
-3.420169
  0
VERTEX
  8
PLAN_1
  6
CONTINUOUS
 10
1.720303
 20
-3.426717
  0
VERTEX
  8
PLAN_1
  6
CONTINUOUS
 10
1.721177
 20
-3.432827
  0
VERTEX
  8
PLAN_1
  6
CONTINUOUS
 10
1.722488
 20
-3.438063
  0
VERTEX
  8
PLAN_1
  6
CONTINUOUS
 10
1.724669
 20
-3.442866
  0
VERTEX
  8
PLAN_1
  6
CONTINUOUS
 10
1.727287
 20
-3.447232
  0
VERTEX
  8
PLAN_1
  6
CONTINUOUS
 10
1.730343
 20
-3.451157
  0
VERTEX
  8
PLAN_1
  6
CONTINUOUS
 10
1.733835
 20
-3.454213
  0
VERTEX
  8
PLAN_1
  6
CONTINUOUS
 10
1.737764
 20
-3.457272
  0
VERTEX
  8
PLAN_1
  6
CONTINUOUS
 10
1.741693
 20
-3.459453
  0
VERTEX
  8
PLAN_1
  6
CONTINUOUS
 10
1.746059
 20
-3.461634
  0
VERTEX
  8
PLAN_1
  6
CONTINUOUS
 10
1.750858
 20
-3.463382
  0
VERTEX
  8
PLAN_1
  6
CONTINUOUS
 10
1.755224
 20
-3.464689
  0
VERTEX
  8
PLAN_1
  6
CONTINUOUS
 10
1.760024
 20
-3.465563
  0
VERTEX
  8
PLAN_1
  6
CONTINUOUS
 10
1.764827
 20
-3.466437
  0
VERTEX
  8
PLAN_1
  6
CONTINUOUS
 10
1.770063
 20
-3.466874
  0
VERTEX
  8
PLAN_1
  6
CONTINUOUS
 10
1.774866
 20
-3.466874
  0
VERTEX
  8
PLAN_1
  6
CONTINUOUS
 10
1.782724
 20
-3.466874
  0
VERTEX
  8
PLAN_1
  6
CONTINUOUS
 10
1.791016
 20
-3.465563
  0
VERTEX
  8
PLAN_1
  6
CONTINUOUS
 10
1.795382
 20
-3.465126
  0
VERTEX
  8
PLAN_1
  6
CONTINUOUS
 10
1.799748
 20
-3.463819
  0
VERTEX
  8
PLAN_1
  6
CONTINUOUS
 10
1.804110
 20
-3.462508
  0
VERTEX
  8
PLAN_1
  6
CONTINUOUS
 10
1.808039
 20
-3.460764
  0
VERTEX
  8
PLAN_1
  6
CONTINUOUS
 10
1.811969
 20
-3.459016
  0
VERTEX
  8
PLAN_1
  6
CONTINUOUS
 10
1.815461
 20
-3.456398
  0
VERTEX
  8
PLAN_1
  6
CONTINUOUS
 10
1.818516
 20
-3.453780
  0
VERTEX
  8
PLAN_1
  6
CONTINUOUS
 10
1.821571
 20
-3.450724
  0
VERTEX
  8
PLAN_1
  6
CONTINUOUS
 10
1.823756
 20
-3.447232
  0
VERTEX
  8
PLAN_1
  6
CONTINUOUS
 10
1.825500
 20
-3.442866
  0
VERTEX
  8
PLAN_1
  6
CONTINUOUS
 10
1.826374
 20
-3.438500
  0
VERTEX
  8
PLAN_1
  6
CONTINUOUS
 10
1.826811
 20
-3.433264
  0
VERTEX
  8
PLAN_1
  6
CONTINUOUS
 10
1.826811
 20
-3.429772
  0
VERTEX
  8
PLAN_1
  6
CONTINUOUS
 10
1.826374
 20
-3.426280
  0
VERTEX
  8
PLAN_1
  6
CONTINUOUS
 10
1.825937
 20
-3.423224
  0
VERTEX
  8
PLAN_1
  6
CONTINUOUS
 10
1.825063
 20
-3.420169
  0
VERTEX
  8
PLAN_1
  6
CONTINUOUS
 10
1.823756
 20
-3.417547
  0
VERTEX
  8
PLAN_1
  6
CONTINUOUS
 10
1.822008
 20
-3.414929
  0
VERTEX
  8
PLAN_1
  6
CONTINUOUS
 10
1.820264
 20
-3.412748
  0
VERTEX
  8
PLAN_1
  6
CONTINUOUS
 10
1.818079
 20
-3.411000
  0
VERTEX
  8
PLAN_1
  6
CONTINUOUS
 10
1.815461
 20
-3.408819
  0
VERTEX
  8
PLAN_1
  6
CONTINUOUS
 10
1.812406
 20
-3.407071
  0
VERTEX
  8
PLAN_1
  6
CONTINUOUS
 10
1.808913
 20
-3.405764
  0
VERTEX
  8
PLAN_1
  6
CONTINUOUS
 10
1.804984
 20
-3.404016
  0
VERTEX
  8
PLAN_1
  6
CONTINUOUS
 10
1.795819
 20
-3.400961
  0
VERTEX
  8
PLAN_1
  6
CONTINUOUS
 10
1.784469
 20
-3.398343
  0
VERTEX
  8
PLAN_1
  6
CONTINUOUS
 10
1.743437
 20
-3.388740
  0
VERTEX
  8
PLAN_1
  6
CONTINUOUS
 10
1.738201
 20
-3.387429
  0
VERTEX
  8
PLAN_1
  6
CONTINUOUS
 10
1.731654
 20
-3.384811
  0
VERTEX
  8
PLAN_1
  6
CONTINUOUS
 10
1.728161
 20
-3.383500
  0
VERTEX
  8
PLAN_1
  6
CONTINUOUS
 10
1.724669
 20
-3.381756
  0
VERTEX
  8
PLAN_1
  6
CONTINUOUS
 10
1.720740
 20
-3.379575
  0
VERTEX
  8
PLAN_1
  6
CONTINUOUS
 10
1.717685
 20
-3.376953
  0
VERTEX
  8
PLAN_1
  6
CONTINUOUS
 10
1.714193
 20
-3.374335
  0
VERTEX
  8
PLAN_1
  6
CONTINUOUS
 10
1.711138
 20
-3.371280
  0
VERTEX
  8
PLAN_1
  6
CONTINUOUS
 10
1.708520
 20
-3.367350
  0
VERTEX
  8
PLAN_1
  6
CONTINUOUS
 10
1.705898
 20
-3.363421
  0
VERTEX
  8
PLAN_1
  6
CONTINUOUS
 10
1.704154
 20
-3.358622
  0
VERTEX
  8
PLAN_1
  6
CONTINUOUS
 10
1.702406
 20
-3.353819
  0
VERTEX
  8
PLAN_1
  6
CONTINUOUS
 10
1.701535
 20
-3.348146
  0
VERTEX
  8
PLAN_1
  6
CONTINUOUS
 10
1.701098
 20
-3.341598
  0
VERTEX
  8
PLAN_1
  6
CONTINUOUS
 10
1.701535
 20
-3.335921
  0
VERTEX
  8
PLAN_1
  6
CONTINUOUS
 10
1.701972
 20
-3.330248
  0
VERTEX
  8
PLAN_1
  6
CONTINUOUS
 10
1.703280
 20
-3.324575
  0
VERTEX
  8
PLAN_1
  6
CONTINUOUS
 10
1.705028
 20
-3.318898
  0
VERTEX
  8
PLAN_1
  6
CONTINUOUS
 10
1.707209
 20
-3.313661
  0
VERTEX
  8
PLAN_1
  6
CONTINUOUS
 10
1.710264
 20
-3.308425
  0
VERTEX
  8
PLAN_1
  6
CONTINUOUS
 10
1.713319
 20
-3.303622
  0
VERTEX
  8
PLAN_1
  6
CONTINUOUS
 10
1.717248
 20
-3.299256
  0
VERTEX
  8
PLAN_1
  6
CONTINUOUS
 10
1.721614
 20
-3.295327
  0
VERTEX
  8
PLAN_1
  6
CONTINUOUS
 10
1.726850
 20
-3.291402
  0
VERTEX
  8
PLAN_1
  6
CONTINUOUS
 10
1.732528
 20
-3.288343
  0
VERTEX
  8
PLAN_1
  6
CONTINUOUS
 10
1.738638
 20
-3.285287
  0
VERTEX
  8
PLAN_1
  6
CONTINUOUS
 10
1.745622
 20
-3.283106
  0
VERTEX
  8
PLAN_1
  6
CONTINUOUS
 10
1.753043
 20
-3.281362
  0
VERTEX
  8
PLAN_1
  6
CONTINUOUS
 10
1.760898
 20
-3.280488
  0
VERTEX
  8
PLAN_1
  6
CONTINUOUS
 10
1.769630
 20
-3.280051
  0
VERTEX
  8
PLAN_1
  6
CONTINUOUS
 10
1.776177
 20
-3.280488
  0
VERTEX
  8
PLAN_1
  6
CONTINUOUS
 10
1.782287
 20
-3.280488
  0
VERTEX
  8
PLAN_1
  6
CONTINUOUS
 10
1.787524
 20
-3.281362
  0
VERTEX
  8
PLAN_1
  6
CONTINUOUS
 10
1.793201
 20
-3.282232
  0
VERTEX
  8
PLAN_1
  6
CONTINUOUS
 10
1.798000
 20
-3.283106
  0
VERTEX
  8
PLAN_1
  6
CONTINUOUS
 10
1.802803
 20
-3.283980
  0
VERTEX
  8
PLAN_1
  6
CONTINUOUS
 10
1.807169
 20
-3.285724
  0
VERTEX
  8
PLAN_1
  6
CONTINUOUS
 10
1.811094
 20
-3.287035
  0
VERTEX
  8
PLAN_1
  6
CONTINUOUS
 10
1.815024
 20
-3.288780
  0
VERTEX
  8
PLAN_1
  6
CONTINUOUS
 10
1.818516
 20
-3.290528
  0
VERTEX
  8
PLAN_1
  6
CONTINUOUS
 10
1.821571
 20
-3.292272
  0
VERTEX
  8
PLAN_1
  6
CONTINUOUS
 10
1.824626
 20
-3.294457
  0
VERTEX
  8
PLAN_1
  6
CONTINUOUS
 10
1.829866
 20
-3.298819
  0
VERTEX
  8
PLAN_1
  6
CONTINUOUS
 10
1.834232
 20
-3.303622
  0
VERTEX
  8
PLAN_1
  6
CONTINUOUS
 10
1.837724
 20
-3.308858
  0
VERTEX
  8
PLAN_1
  6
CONTINUOUS
 10
1.840780
 20
-3.314098
  0
VERTEX
  8
PLAN_1
  6
CONTINUOUS
 10
1.842961
 20
-3.319335
  0
VERTEX
  8
PLAN_1
  6
CONTINUOUS
 10
1.844705
 20
-3.324575
  0
VERTEX
  8
PLAN_1
  6
CONTINUOUS
 10
1.846016
 20
-3.329811
  0
VERTEX
  8
PLAN_1
  6
CONTINUOUS
 10
1.846453
 20
-3.334614
  0
VERTEX
  8
PLAN_1
  6
CONTINUOUS
 10
1.847327
 20
-3.339413
  0
VERTEX
  8
PLAN_1
  6
CONTINUOUS
 10
1.847327
 20
-3.343780
  0
VERTEX
  8
PLAN_1
  6
CONTINUOUS
 10
1.822008
 20
-3.343780
  0
SEQEND
  8
0
  0
POLYLINE
  8
PLAN_1
  6
CONTINUOUS
 66
     1
 40
0.008291
 41
0.008291
  0
VERTEX
  8
PLAN_1
  6
CONTINUOUS
 10
-0.758146
 20
1.278323
  0
VERTEX
  8
PLAN_1
  6
CONTINUOUS
 10
-0.758146
 20
1.799941
  0
VERTEX
  8
PLAN_1
  6
CONTINUOUS
 10
-1.850272
 20
1.799941
  0
VERTEX
  8
PLAN_1
  6
CONTINUOUS
 10
-1.850272
 20
1.278323
  0
VERTEX
  8
PLAN_1
  6
CONTINUOUS
 10
-0.758146
 20
1.278323
  0
SEQEND
  8
0
  0
POLYLINE
  8
PLAN_1
  6
CONTINUOUS
 66
     1
 40
0.008291
 41
0.008291
  0
VERTEX
  8
PLAN_1
  6
CONTINUOUS
 10
-0.899571
 20
1.861488
  0
VERTEX
  8
PLAN_1
  6
CONTINUOUS
 10
-0.899571
 20
1.901646
  0
VERTEX
  8
PLAN_1
  6
CONTINUOUS
 10
-1.708843
 20
1.901646
  0
VERTEX
  8
PLAN_1
  6
CONTINUOUS
 10
-1.708843
 20
1.861488
  0
SEQEND
  8
0
  0
POLYLINE
  8
PLAN_1
  6
CONTINUOUS
 66
     1
 40
0.008291
 41
0.008291
  0
VERTEX
  8
PLAN_1
  6
CONTINUOUS
 10
-1.654717
 20
2.120335
  0
VERTEX
  8
PLAN_1
  6
CONTINUOUS
 10
-1.652535
 20
2.125571
  0
VERTEX
  8
PLAN_1
  6
CONTINUOUS
 10
-1.649917
 20
2.129937
  0
VERTEX
  8
PLAN_1
  6
CONTINUOUS
 10
-1.646425
 20
2.134299
  0
VERTEX
  8
PLAN_1
  6
CONTINUOUS
 10
-1.642496
 20
2.137791
  0
VERTEX
  8
PLAN_1
  6
CONTINUOUS
 10
-1.637693
 20
2.140413
  0
VERTEX
  8
PLAN_1
  6
CONTINUOUS
 10
-1.632894
 20
2.142594
  0
VERTEX
  8
PLAN_1
  6
CONTINUOUS
 10
-1.630276
 20
2.143469
  0
VERTEX
  8
PLAN_1
  6
CONTINUOUS
 10
-1.627654
 20
2.143906
  0
VERTEX
  8
PLAN_1
  6
CONTINUOUS
 10
-1.624598
 20
2.144339
  0
VERTEX
  8
PLAN_1
  6
CONTINUOUS
 10
-1.621980
 20
2.144339
  0
SEQEND
  8
0
  0
POLYLINE
  8
PLAN_1
  6
CONTINUOUS
 66
     1
 40
0.008291
 41
0.008291
  0
VERTEX
  8
PLAN_1
  6
CONTINUOUS
 10
-1.621980
 20
2.144339
  0
VERTEX
  8
PLAN_1
  6
CONTINUOUS
 10
-1.608449
 20
2.144339
  0
VERTEX
  8
PLAN_1
  6
CONTINUOUS
 10
-0.997346
 20
2.144339
  0
VERTEX
  8
PLAN_1
  6
CONTINUOUS
 10
-0.986000
 20
2.144339
  0
SEQEND
  8
0
  0
POLYLINE
  8
PLAN_1
  6
CONTINUOUS
 66
     1
 40
0.008291
 41
0.008291
  0
VERTEX
  8
PLAN_1
  6
CONTINUOUS
 10
-0.986000
 20
2.144339
  0
VERTEX
  8
PLAN_1
  6
CONTINUOUS
 10
-0.982508
 20
2.144339
  0
VERTEX
  8
PLAN_1
  6
CONTINUOUS
 10
-0.979016
 20
2.143469
  0
VERTEX
  8
PLAN_1
  6
CONTINUOUS
 10
-0.975524
 20
2.143031
  0
VERTEX
  8
PLAN_1
  6
CONTINUOUS
 10
-0.972469
 20
2.141720
  0
VERTEX
  8
PLAN_1
  6
CONTINUOUS
 10
-0.969413
 20
2.140413
  0
VERTEX
  8
PLAN_1
  6
CONTINUOUS
 10
-0.966358
 20
2.138665
  0
VERTEX
  8
PLAN_1
  6
CONTINUOUS
 10
-0.963736
 20
2.136484
  0
VERTEX
  8
PLAN_1
  6
CONTINUOUS
 10
-0.961555
 20
2.134299
  0
VERTEX
  8
PLAN_1
  6
CONTINUOUS
 10
-0.958937
 20
2.131681
  0
VERTEX
  8
PLAN_1
  6
CONTINUOUS
 10
-0.957189
 20
2.129063
  0
VERTEX
  8
PLAN_1
  6
CONTINUOUS
 10
-0.955445
 20
2.126008
  0
VERTEX
  8
PLAN_1
  6
CONTINUOUS
 10
-0.954134
 20
2.123390
  0
VERTEX
  8
PLAN_1
  6
CONTINUOUS
 10
-0.952827
 20
2.119898
  0
VERTEX
  8
PLAN_1
  6
CONTINUOUS
 10
-0.951953
 20
2.116843
  0
VERTEX
  8
PLAN_1
  6
CONTINUOUS
 10
-0.951516
 20
2.113350
  0
VERTEX
  8
PLAN_1
  6
CONTINUOUS
 10
-0.951079
 20
2.109858
  0
SEQEND
  8
0
  0
POLYLINE
  8
PLAN_1
  6
CONTINUOUS
 66
     1
 40
0.008291
 41
0.008291
  0
VERTEX
  8
PLAN_1
  6
CONTINUOUS
 10
-0.951079
 20
2.109858
  0
VERTEX
  8
PLAN_1
  6
CONTINUOUS
 10
-0.949335
 20
2.100689
  0
VERTEX
  8
PLAN_1
  6
CONTINUOUS
 10
-0.899571
 20
1.901646
  0
VERTEX
  8
PLAN_1
  6
CONTINUOUS
 10
-1.708843
 20
1.901646
  0
VERTEX
  8
PLAN_1
  6
CONTINUOUS
 10
-1.656902
 20
2.108547
  0
VERTEX
  8
PLAN_1
  6
CONTINUOUS
 10
-1.654717
 20
2.120335
  0
SEQEND
  8
0
  0
POLYLINE
  8
PLAN_1
  6
CONTINUOUS
 66
     1
 40
0.006980
 41
0.006980
  0
VERTEX
  8
PLAN_1
  6
CONTINUOUS
 10
-1.717138
 20
1.860614
  0
VERTEX
  8
PLAN_1
  6
CONTINUOUS
 10
-1.627217
 20
1.860614
  0
VERTEX
  8
PLAN_1
  6
CONTINUOUS
 10
-1.627217
 20
1.799941
  0
VERTEX
  8
PLAN_1
  6
CONTINUOUS
 10
-1.849835
 20
1.799941
  0
VERTEX
  8
PLAN_1
  6
CONTINUOUS
 10
-1.849835
 20
1.860614
  0
VERTEX
  8
PLAN_1
  6
CONTINUOUS
 10
-1.759913
 20
1.860614
  0
VERTEX
  8
PLAN_1
  6
CONTINUOUS
 10
-1.759913
 20
1.860177
  0
VERTEX
  8
PLAN_1
  6
CONTINUOUS
 10
-1.759913
 20
1.829189
  0
VERTEX
  8
PLAN_1
  6
CONTINUOUS
 10
-1.717575
 20
1.829189
  0
VERTEX
  8
PLAN_1
  6
CONTINUOUS
 10
-1.717575
 20
1.860177
  0
VERTEX
  8
PLAN_1
  6
CONTINUOUS
 10
-1.717138
 20
1.860614
  0
SEQEND
  8
0
  0
POLYLINE
  8
PLAN_1
  6
CONTINUOUS
 66
     1
 40
0.006980
 41
0.006980
  0
VERTEX
  8
PLAN_1
  6
CONTINUOUS
 10
-0.848500
 20
1.860614
  0
VERTEX
  8
PLAN_1
  6
CONTINUOUS
 10
-0.758583
 20
1.860614
  0
VERTEX
  8
PLAN_1
  6
CONTINUOUS
 10
-0.758583
 20
1.799941
  0
VERTEX
  8
PLAN_1
  6
CONTINUOUS
 10
-0.981197
 20
1.799941
  0
VERTEX
  8
PLAN_1
  6
CONTINUOUS
 10
-0.981197
 20
1.860614
  0
VERTEX
  8
PLAN_1
  6
CONTINUOUS
 10
-0.891280
 20
1.860614
  0
VERTEX
  8
PLAN_1
  6
CONTINUOUS
 10
-0.891280
 20
1.860177
  0
VERTEX
  8
PLAN_1
  6
CONTINUOUS
 10
-0.891280
 20
1.829189
  0
VERTEX
  8
PLAN_1
  6
CONTINUOUS
 10
-0.848937
 20
1.829189
  0
VERTEX
  8
PLAN_1
  6
CONTINUOUS
 10
-0.848937
 20
1.860177
  0
VERTEX
  8
PLAN_1
  6
CONTINUOUS
 10
-0.848500
 20
1.860614
  0
SEQEND
  8
0
  0
POLYLINE
  8
PLAN_1
  6
CONTINUOUS
 66
     1
 40
0.006980
 41
0.006980
  0
VERTEX
  8
PLAN_1
  6
CONTINUOUS
 10
-1.810110
 20
1.277886
  0
VERTEX
  8
PLAN_1
  6
CONTINUOUS
 10
-1.809677
 20
1.359075
  0
VERTEX
  8
PLAN_1
  6
CONTINUOUS
 10
-1.850272
 20
1.359075
  0
SEQEND
  8
0
  0
POLYLINE
  8
PLAN_1
  6
CONTINUOUS
 66
     1
 40
0.006980
 41
0.006980
  0
VERTEX
  8
PLAN_1
  6
CONTINUOUS
 10
-0.800488
 20
1.277886
  0
VERTEX
  8
PLAN_1
  6
CONTINUOUS
 10
-0.800051
 20
1.359075
  0
VERTEX
  8
PLAN_1
  6
CONTINUOUS
 10
-0.759457
 20
1.359075
  0
SEQEND
  8
0
  0
POLYLINE
  8
PLAN_1
  6
CONTINUOUS
 66
     1
 40
0.004362
 41
0.004362
  0
VERTEX
  8
PLAN_1
  6
CONTINUOUS
 10
-1.856819
 20
0.604803
  0
VERTEX
  8
PLAN_1
  6
CONTINUOUS
 10
-1.856819
 20
1.277886
  0
VERTEX
  8
PLAN_1
  6
CONTINUOUS
 10
-0.744177
 20
1.278323
  0
VERTEX
  8
PLAN_1
  6
CONTINUOUS
 10
-0.744177
 20
0.606551
  0
SEQEND
  8
0
  0
POLYLINE
  8
PLAN_1
  6
CONTINUOUS
 66
     1
 40
0.008291
 41
0.008291
  0
VERTEX
  8
PLAN_1
  6
CONTINUOUS
 10
-0.835406
 20
1.231618
  0
VERTEX
  8
PLAN_1
  6
CONTINUOUS
 10
-0.835406
 20
1.278323
  0
VERTEX
  8
PLAN_1
  6
CONTINUOUS
 10
-1.786539
 20
1.278323
  0
VERTEX
  8
PLAN_1
  6
CONTINUOUS
 10
-1.786539
 20
1.231618
  0
VERTEX
  8
PLAN_1
  6
CONTINUOUS
 10
-0.835406
 20
1.231618
  0
SEQEND
  8
0
  0
POLYLINE
  8
PLAN_1
  6
CONTINUOUS
 66
     1
 40
0.008291
 41
0.008291
  0
VERTEX
  8
PLAN_1
  6
CONTINUOUS
 10
-1.732850
 20
0.968409
  0
VERTEX
  8
PLAN_1
  6
CONTINUOUS
 10
-0.889094
 20
0.968409
  0
SEQEND
  8
0
  0
POLYLINE
  8
PLAN_1
  6
CONTINUOUS
 66
     1
 40
0.008291
 41
0.008291
  0
VERTEX
  8
PLAN_1
  6
CONTINUOUS
 10
-0.889094
 20
0.968409
  0
VERTEX
  8
PLAN_1
  6
CONTINUOUS
 10
-0.927071
 20
0.929996
  0
VERTEX
  8
PLAN_1
  6
CONTINUOUS
 10
-1.691382
 20
0.929996
  0
VERTEX
  8
PLAN_1
  6
CONTINUOUS
 10
-1.732850
 20
0.968409
  0
VERTEX
  8
PLAN_1
  6
CONTINUOUS
 10
-1.732850
 20
1.231618
  0
VERTEX
  8
PLAN_1
  6
CONTINUOUS
 10
-0.889094
 20
1.231618
  0
VERTEX
  8
PLAN_1
  6
CONTINUOUS
 10
-0.889094
 20
0.968409
  0
SEQEND
  8
0
  0
POLYLINE
  8
PLAN_1
  6
CONTINUOUS
 66
     1
 40
0.008291
 41
0.008291
  0
VERTEX
  8
PLAN_1
  6
CONTINUOUS
 10
-1.640748
 20
0.929996
  0
VERTEX
  8
PLAN_1
  6
CONTINUOUS
 10
-1.590551
 20
0.740118
  0
VERTEX
  8
PLAN_1
  6
CONTINUOUS
 10
-1.034886
 20
0.740118
  0
VERTEX
  8
PLAN_1
  6
CONTINUOUS
 10
-0.972469
 20
0.929996
  0
VERTEX
  8
PLAN_1
  6
CONTINUOUS
 10
-1.640748
 20
0.929996
  0
SEQEND
  8
0
  0
POLYLINE
  8
PLAN_1
  6
CONTINUOUS
 66
     1
 40
0.006980
 41
0.006980
  0
VERTEX
  8
PLAN_1
  6
CONTINUOUS
 10
-1.596228
 20
0.927378
  0
VERTEX
  8
PLAN_1
  6
CONTINUOUS
 10
-1.548213
 20
0.740118
  0
SEQEND
  8
0
  0
POLYLINE
  8
PLAN_1
  6
CONTINUOUS
 66
     1
 40
0.006980
 41
0.006980
  0
VERTEX
  8
PLAN_1
  6
CONTINUOUS
 10
-1.563925
 20
0.927378
  0
VERTEX
  8
PLAN_1
  6
CONTINUOUS
 10
-1.515909
 20
0.740118
  0
SEQEND
  8
0
  0
POLYLINE
  8
PLAN_1
  6
CONTINUOUS
 66
     1
 40
0.006980
 41
0.006980
  0
VERTEX
  8
PLAN_1
  6
CONTINUOUS
 10
-1.034886
 20
0.929122
  0
VERTEX
  8
PLAN_1
  6
CONTINUOUS
 10
-1.082902
 20
0.741866
  0
SEQEND
  8
0
  0
POLYLINE
  8
PLAN_1
  6
CONTINUOUS
 66
     1
 40
0.006980
 41
0.006980
  0
VERTEX
  8
PLAN_1
  6
CONTINUOUS
 10
-1.067189
 20
0.929122
  0
VERTEX
  8
PLAN_1
  6
CONTINUOUS
 10
-1.115205
 20
0.741866
  0
SEQEND
  8
0
  0
POLYLINE
  8
PLAN_1
  6
CONTINUOUS
 66
     1
 40
0.008291
 41
0.008291
  0
VERTEX
  8
PLAN_1
  6
CONTINUOUS
 10
-1.224764
 20
3.082382
  0
VERTEX
  8
PLAN_1
  6
CONTINUOUS
 10
-1.224764
 20
2.615323
  0
VERTEX
  8
PLAN_1
  6
CONTINUOUS
 10
-1.384961
 20
2.615323
  0
VERTEX
  8
PLAN_1
  6
CONTINUOUS
 10
-1.384961
 20
3.082382
  0
VERTEX
  8
PLAN_1
  6
CONTINUOUS
 10
-1.224764
 20
3.082382
  0
SEQEND
  8
0
  0
POLYLINE
  8
PLAN_1
  6
CONTINUOUS
 66
     1
 40
0.008291
 41
0.008291
  0
VERTEX
  8
PLAN_1
  6
CONTINUOUS
 10
-0.999094
 20
2.144776
  0
VERTEX
  8
PLAN_1
  6
CONTINUOUS
 10
-0.999969
 20
2.149142
  0
VERTEX
  8
PLAN_1
  6
CONTINUOUS
 10
-1.003024
 20
2.159618
  0
VERTEX
  8
PLAN_1
  6
CONTINUOUS
 10
-1.005205
 20
2.167039
  0
VERTEX
  8
PLAN_1
  6
CONTINUOUS
 10
-1.008697
 20
2.174894
  0
VERTEX
  8
PLAN_1
  6
CONTINUOUS
 10
-1.012626
 20
2.183626
  0
VERTEX
  8
PLAN_1
  6
CONTINUOUS
 10
-1.017862
 20
2.192354
  0
VERTEX
  8
PLAN_1
  6
CONTINUOUS
 10
-1.020917
 20
2.196720
  0
VERTEX
  8
PLAN_1
  6
CONTINUOUS
 10
-1.023976
 20
2.201087
  0
VERTEX
  8
PLAN_1
  6
CONTINUOUS
 10
-1.027469
 20
2.205449
  0
VERTEX
  8
PLAN_1
  6
CONTINUOUS
 10
-1.031394
 20
2.209815
  0
VERTEX
  8
PLAN_1
  6
CONTINUOUS
 10
-1.035323
 20
2.213744
  0
VERTEX
  8
PLAN_1
  6
CONTINUOUS
 10
-1.039689
 20
2.217673
  0
VERTEX
  8
PLAN_1
  6
CONTINUOUS
 10
-1.044055
 20
2.221602
  0
VERTEX
  8
PLAN_1
  6
CONTINUOUS
 10
-1.049291
 20
2.225094
  0
VERTEX
  8
PLAN_1
  6
CONTINUOUS
 10
-1.054531
 20
2.228150
  0
VERTEX
  8
PLAN_1
  6
CONTINUOUS
 10
-1.060205
 20
2.230768
  0
VERTEX
  8
PLAN_1
  6
CONTINUOUS
 10
-1.066315
 20
2.233386
  0
VERTEX
  8
PLAN_1
  6
CONTINUOUS
 10
-1.072425
 20
2.235571
  0
VERTEX
  8
PLAN_1
  6
CONTINUOUS
 10
-1.079409
 20
2.237315
  0
VERTEX
  8
PLAN_1
  6
CONTINUOUS
 10
-1.086394
 20
2.238626
  0
VERTEX
  8
PLAN_1
  6
CONTINUOUS
 10
-1.093815
 20
2.239496
  0
VERTEX
  8
PLAN_1
  6
CONTINUOUS
 10
-1.101673
 20
2.239496
  0
SEQEND
  8
0
  0
POLYLINE
  8
PLAN_1
  6
CONTINUOUS
 66
     1
 40
0.008291
 41
0.008291
  0
VERTEX
  8
PLAN_1
  6
CONTINUOUS
 10
-1.101673
 20
2.239496
  0
VERTEX
  8
PLAN_1
  6
CONTINUOUS
 10
-1.105165
 20
2.239496
  0
SEQEND
  8
0
  0
POLYLINE
  8
PLAN_1
  6
CONTINUOUS
 66
     1
 40
0.008291
 41
0.008291
  0
VERTEX
  8
PLAN_1
  6
CONTINUOUS
 10
-1.105165
 20
2.239496
  0
VERTEX
  8
PLAN_1
  6
CONTINUOUS
 10
-1.118697
 20
2.239496
  0
VERTEX
  8
PLAN_1
  6
CONTINUOUS
 10
-1.154925
 20
2.239496
  0
VERTEX
  8
PLAN_1
  6
CONTINUOUS
 10
-1.208177
 20
2.239496
  0
VERTEX
  8
PLAN_1
  6
CONTINUOUS
 10
-1.271906
 20
2.239496
  0
VERTEX
  8
PLAN_1
  6
CONTINUOUS
 10
-1.339126
 20
2.239496
  0
VERTEX
  8
PLAN_1
  6
CONTINUOUS
 10
-1.404602
 20
2.239496
  0
VERTEX
  8
PLAN_1
  6
CONTINUOUS
 10
-1.461346
 20
2.239496
  0
VERTEX
  8
PLAN_1
  6
CONTINUOUS
 10
-1.503689
 20
2.239496
  0
VERTEX
  8
PLAN_1
  6
CONTINUOUS
 10
-1.511547
 20
2.239496
  0
VERTEX
  8
PLAN_1
  6
CONTINUOUS
 10
-1.518965
 20
2.238626
  0
VERTEX
  8
PLAN_1
  6
CONTINUOUS
 10
-1.525949
 20
2.237315
  0
VERTEX
  8
PLAN_1
  6
CONTINUOUS
 10
-1.532933
 20
2.235571
  0
VERTEX
  8
PLAN_1
  6
CONTINUOUS
 10
-1.539043
 20
2.233386
  0
VERTEX
  8
PLAN_1
  6
CONTINUOUS
 10
-1.545157
 20
2.230768
  0
VERTEX
  8
PLAN_1
  6
CONTINUOUS
 10
-1.550831
 20
2.228150
  0
VERTEX
  8
PLAN_1
  6
CONTINUOUS
 10
-1.556067
 20
2.225094
  0
VERTEX
  8
PLAN_1
  6
CONTINUOUS
 10
-1.561307
 20
2.221602
  0
VERTEX
  8
PLAN_1
  6
CONTINUOUS
 10
-1.565673
 20
2.217673
  0
VERTEX
  8
PLAN_1
  6
CONTINUOUS
 10
-1.570035
 20
2.213744
  0
VERTEX
  8
PLAN_1
  6
CONTINUOUS
 10
-1.574402
 20
2.209815
  0
VERTEX
  8
PLAN_1
  6
CONTINUOUS
 10
-1.577894
 20
2.205449
  0
VERTEX
  8
PLAN_1
  6
CONTINUOUS
 10
-1.581386
 20
2.201087
  0
VERTEX
  8
PLAN_1
  6
CONTINUOUS
 10
-1.584441
 20
2.196720
  0
VERTEX
  8
PLAN_1
  6
CONTINUOUS
 10
-1.587496
 20
2.192354
  0
VERTEX
  8
PLAN_1
  6
CONTINUOUS
 10
-1.592736
 20
2.183626
  0
VERTEX
  8
PLAN_1
  6
CONTINUOUS
 10
-1.596661
 20
2.174894
  0
VERTEX
  8
PLAN_1
  6
CONTINUOUS
 10
-1.600154
 20
2.167039
  0
VERTEX
  8
PLAN_1
  6
CONTINUOUS
 10
-1.602339
 20
2.159618
  0
VERTEX
  8
PLAN_1
  6
CONTINUOUS
 10
-1.605394
 20
2.149142
  0
VERTEX
  8
PLAN_1
  6
CONTINUOUS
 10
-1.606268
 20
2.144776
  0
SEQEND
  8
0
  0
POLYLINE
  8
PLAN_1
  6
CONTINUOUS
 66
     1
 40
0.008291
 41
0.008291
  0
VERTEX
  8
PLAN_1
  6
CONTINUOUS
 10
-1.606268
 20
2.144776
  0
VERTEX
  8
PLAN_1
  6
CONTINUOUS
 10
-0.999094
 20
2.144776
  0
SEQEND
  8
0
  0
POLYLINE
  8
PLAN_1
  6
CONTINUOUS
 66
     1
 40
0.008291
 41
0.008291
  0
VERTEX
  8
PLAN_1
  6
CONTINUOUS
 10
-1.384961
 20
2.908217
  0
VERTEX
  8
PLAN_1
  6
CONTINUOUS
 10
-1.487976
 20
2.908217
  0
VERTEX
  8
PLAN_1
  6
CONTINUOUS
 10
-1.487976
 20
2.239933
  0
VERTEX
  8
PLAN_1
  6
CONTINUOUS
 10
-1.127425
 20
2.239933
  0
VERTEX
  8
PLAN_1
  6
CONTINUOUS
 10
-1.127425
 20
2.908217
  0
VERTEX
  8
PLAN_1
  6
CONTINUOUS
 10
-1.224764
 20
2.908217
  0
VERTEX
  8
PLAN_1
  6
CONTINUOUS
 10
-1.224764
 20
2.277035
  0
VERTEX
  8
PLAN_1
  6
CONTINUOUS
 10
-1.384961
 20
2.277035
  0
VERTEX
  8
PLAN_1
  6
CONTINUOUS
 10
-1.384961
 20
2.908217
  0
SEQEND
  8
0
  0
POLYLINE
  8
PLAN_1
  6
CONTINUOUS
 66
     1
 40
0.008291
 41
0.008291
  0
VERTEX
  8
PLAN_1
  6
CONTINUOUS
 10
-1.224764
 20
2.278346
  0
VERTEX
  8
PLAN_1
  6
CONTINUOUS
 10
-1.224764
 20
2.456000
  0
VERTEX
  8
PLAN_1
  6
CONTINUOUS
 10
-1.384961
 20
2.456000
  0
VERTEX
  8
PLAN_1
  6
CONTINUOUS
 10
-1.384961
 20
2.278346
  0
VERTEX
  8
PLAN_1
  6
CONTINUOUS
 10
-1.224764
 20
2.278346
  0
SEQEND
  8
0
  0
POLYLINE
  8
PLAN_1
 62
     2
  6
CONTINUOUS
 66
     1
 40
0.004362
 41
0.004362
  0
VERTEX
  8
PLAN_1
 62
     2
  6
CONTINUOUS
 10
-1.279327
 20
3.397098
  0
VERTEX
  8
PLAN_1
 62
     2
  6
CONTINUOUS
 10
-0.786520
 20
3.397098
  0
SEQEND
  8
0
  0
SOLID
  8
PLAN_1
 62
     2
 10
-0.757272
 20
3.397098
 11
-0.816201
 21
3.412811
 12
-0.757272
 22
3.397098
 13
-0.816201
 23
3.381382
  0
POLYLINE
  8
PLAN_1
 62
     2
  6
CONTINUOUS
 66
     1
 40
0.003000
 41
0.003000
  0
VERTEX
  8
PLAN_1
 62
     2
  6
CONTINUOUS
 10
-0.757272
 20
3.397098
  0
VERTEX
  8
PLAN_1
 62
     2
  6
CONTINUOUS
 10
-0.816201
 20
3.412811
  0
VERTEX
  8
PLAN_1
 62
     2
  6
CONTINUOUS
 10
-0.816201
 20
3.381382
  0
VERTEX
  8
PLAN_1
 62
     2
  6
CONTINUOUS
 10
-0.757272
 20
3.397098
  0
SEQEND
  8
0
  0
SOLID
  8
PLAN_1
 62
     2
 10
-1.308575
 20
3.397098
 11
-1.249646
 21
3.412811
 12
-1.308575
 22
3.397098
 13
-1.249646
 23
3.381382
  0
POLYLINE
  8
PLAN_1
 62
     2
  6
CONTINUOUS
 66
     1
 40
0.003000
 41
0.003000
  0
VERTEX
  8
PLAN_1
 62
     2
  6
CONTINUOUS
 10
-1.308575
 20
3.397098
  0
VERTEX
  8
PLAN_1
 62
     2
  6
CONTINUOUS
 10
-1.249646
 20
3.412811
  0
VERTEX
  8
PLAN_1
 62
     2
  6
CONTINUOUS
 10
-1.249646
 20
3.381382
  0
VERTEX
  8
PLAN_1
 62
     2
  6
CONTINUOUS
 10
-1.308575
 20
3.397098
  0
SEQEND
  8
0
  0
POLYLINE
  8
PLAN_1
 62
     2
  6
CONTINUOUS
 66
     1
 40
0.003000
 41
0.003000
  0
VERTEX
  8
PLAN_1
 62
     2
  6
CONTINUOUS
 10
-1.053657
 20
3.420669
  0
VERTEX
  8
PLAN_1
 62
     2
  6
CONTINUOUS
 10
-1.063260
 20
3.420669
  0
VERTEX
  8
PLAN_1
 62
     2
  6
CONTINUOUS
 10
-1.063260
 20
3.472610
  0
VERTEX
  8
PLAN_1
 62
     2
  6
CONTINUOUS
 10
-1.080283
 20
3.472610
  0
VERTEX
  8
PLAN_1
 62
     2
  6
CONTINUOUS
 10
-1.080283
 20
3.480031
  0
VERTEX
  8
PLAN_1
 62
     2
  6
CONTINUOUS
 10
-1.076354
 20
3.480469
  0
VERTEX
  8
PLAN_1
 62
     2
  6
CONTINUOUS
 10
-1.072425
 20
3.480906
  0
VERTEX
  8
PLAN_1
 62
     2
  6
CONTINUOUS
 10
-1.069807
 20
3.481780
  0
VERTEX
  8
PLAN_1
 62
     2
  6
CONTINUOUS
 10
-1.067189
 20
3.482650
  0
VERTEX
  8
PLAN_1
 62
     2
  6
CONTINUOUS
 10
-1.065004
 20
3.484398
  0
VERTEX
  8
PLAN_1
 62
     2
  6
CONTINUOUS
 10
-1.063260
 20
3.487016
  0
VERTEX
  8
PLAN_1
 62
     2
  6
CONTINUOUS
 10
-1.061949
 20
3.490071
  0
VERTEX
  8
PLAN_1
 62
     2
  6
CONTINUOUS
 10
-1.060642
 20
3.494000
  0
VERTEX
  8
PLAN_1
 62
     2
  6
CONTINUOUS
 10
-1.053657
 20
3.494000
  0
VERTEX
  8
PLAN_1
 62
     2
  6
CONTINUOUS
 10
-1.053657
 20
3.420669
  0
SEQEND
  8
0
  0
POLYLINE
  8
PLAN_1
 62
     2
  6
CONTINUOUS
 66
     1
 40
0.003000
 41
0.003000
  0
VERTEX
  8
PLAN_1
 62
     2
  6
CONTINUOUS
 10
-0.989055
 20
3.438563
  0
VERTEX
  8
PLAN_1
 62
     2
  6
CONTINUOUS
 10
-0.989055
 20
3.420669
  0
VERTEX
  8
PLAN_1
 62
     2
  6
CONTINUOUS
 10
-0.998220
 20
3.420669
  0
VERTEX
  8
PLAN_1
 62
     2
  6
CONTINUOUS
 10
-0.998220
 20
3.438563
  0
VERTEX
  8
PLAN_1
 62
     2
  6
CONTINUOUS
 10
-1.030524
 20
3.438563
  0
VERTEX
  8
PLAN_1
 62
     2
  6
CONTINUOUS
 10
-1.030524
 20
3.447732
  0
VERTEX
  8
PLAN_1
 62
     2
  6
CONTINUOUS
 10
-0.996913
 20
3.494000
  0
VERTEX
  8
PLAN_1
 62
     2
  6
CONTINUOUS
 10
-0.989055
 20
3.494000
  0
VERTEX
  8
PLAN_1
 62
     2
  6
CONTINUOUS
 10
-0.989055
 20
3.446421
  0
VERTEX
  8
PLAN_1
 62
     2
  6
CONTINUOUS
 10
-0.978579
 20
3.446421
  0
VERTEX
  8
PLAN_1
 62
     2
  6
CONTINUOUS
 10
-0.978579
 20
3.438563
  0
VERTEX
  8
PLAN_1
 62
     2
  6
CONTINUOUS
 10
-0.989055
 20
3.438563
  0
SEQEND
  8
0
  0
SOLID
  8
PLAN_1
 62
     2
 10
-1.021791
 20
3.446421
 11
-0.998220
 21
3.446421
 12
-0.998657
 22
3.479594
 13
-0.998220
 23
3.479594
  0
POLYLINE
  8
PLAN_1
 62
     2
  6
CONTINUOUS
 66
     1
 40
0.003000
 41
0.003000
  0
VERTEX
  8
PLAN_1
 62
     2
  6
CONTINUOUS
 10
-1.021791
 20
3.446421
  0
VERTEX
  8
PLAN_1
 62
     2
  6
CONTINUOUS
 10
-0.998220
 20
3.446421
  0
VERTEX
  8
PLAN_1
 62
     2
  6
CONTINUOUS
 10
-0.998220
 20
3.479594
  0
VERTEX
  8
PLAN_1
 62
     2
  6
CONTINUOUS
 10
-0.998657
 20
3.479594
  0
VERTEX
  8
PLAN_1
 62
     2
  6
CONTINUOUS
 10
-1.021791
 20
3.446421
  0
SEQEND
  8
0
  0
POLYLINE
  8
PLAN_1
 62
     2
  6
CONTINUOUS
 66
     1
 40
0.004362
 41
0.004362
  0
VERTEX
  8
PLAN_1
 62
     2
  6
CONTINUOUS
 10
-1.529004
 20
3.239957
  0
VERTEX
  8
PLAN_1
 62
     2
  6
CONTINUOUS
 10
-1.197264
 20
3.239957
  0
SEQEND
  8
0
  0
SOLID
  8
PLAN_1
 62
     2
 10
-1.387142
 20
3.239957
 11
-1.446071
 21
3.255669
 12
-1.387142
 22
3.239957
 13
-1.446071
 23
3.224244
  0
POLYLINE
  8
PLAN_1
 62
     2
  6
CONTINUOUS
 66
     1
 40
0.003000
 41
0.003000
  0
VERTEX
  8
PLAN_1
 62
     2
  6
CONTINUOUS
 10
-1.387142
 20
3.239957
  0
VERTEX
  8
PLAN_1
 62
     2
  6
CONTINUOUS
 10
-1.446071
 20
3.255669
  0
VERTEX
  8
PLAN_1
 62
     2
  6
CONTINUOUS
 10
-1.446071
 20
3.224244
  0
VERTEX
  8
PLAN_1
 62
     2
  6
CONTINUOUS
 10
-1.387142
 20
3.239957
  0
SEQEND
  8
0
  0
SOLID
  8
PLAN_1
 62
     2
 10
-1.226949
 20
3.239957
 11
-1.167583
 21
3.255669
 12
-1.226949
 22
3.239957
 13
-1.167583
 23
3.224244
  0
POLYLINE
  8
PLAN_1
 62
     2
  6
CONTINUOUS
 66
     1
 40
0.003000
 41
0.003000
  0
VERTEX
  8
PLAN_1
 62
     2
  6
CONTINUOUS
 10
-1.226949
 20
3.239957
  0
VERTEX
  8
PLAN_1
 62
     2
  6
CONTINUOUS
 10
-1.167583
 20
3.255669
  0
VERTEX
  8
PLAN_1
 62
     2
  6
CONTINUOUS
 10
-1.167583
 20
3.224244
  0
VERTEX
  8
PLAN_1
 62
     2
  6
CONTINUOUS
 10
-1.226949
 20
3.239957
  0
SEQEND
  8
0
  0
POLYLINE
  8
PLAN_1
 62
     2
  6
CONTINUOUS
 66
     1
 40
0.003000
 41
0.003000
  0
VERTEX
  8
PLAN_1
 62
     2
  6
CONTINUOUS
 10
-1.469205
 20
3.281425
  0
VERTEX
  8
PLAN_1
 62
     2
  6
CONTINUOUS
 10
-1.469205
 20
3.263528
  0
VERTEX
  8
PLAN_1
 62
     2
  6
CONTINUOUS
 10
-1.478370
 20
3.263528
  0
VERTEX
  8
PLAN_1
 62
     2
  6
CONTINUOUS
 10
-1.478370
 20
3.281425
  0
VERTEX
  8
PLAN_1
 62
     2
  6
CONTINUOUS
 10
-1.510673
 20
3.281425
  0
VERTEX
  8
PLAN_1
 62
     2
  6
CONTINUOUS
 10
-1.510673
 20
3.290154
  0
VERTEX
  8
PLAN_1
 62
     2
  6
CONTINUOUS
 10
-1.477063
 20
3.336425
  0
VERTEX
  8
PLAN_1
 62
     2
  6
CONTINUOUS
 10
-1.469205
 20
3.336425
  0
VERTEX
  8
PLAN_1
 62
     2
  6
CONTINUOUS
 10
-1.469205
 20
3.289280
  0
VERTEX
  8
PLAN_1
 62
     2
  6
CONTINUOUS
 10
-1.458728
 20
3.289280
  0
VERTEX
  8
PLAN_1
 62
     2
  6
CONTINUOUS
 10
-1.458728
 20
3.281425
  0
VERTEX
  8
PLAN_1
 62
     2
  6
CONTINUOUS
 10
-1.469205
 20
3.281425
  0
SEQEND
  8
0
  0
SOLID
  8
PLAN_1
 62
     2
 10
-1.501941
 20
3.289280
 11
-1.478370
 21
3.289280
 12
-1.478807
 22
3.322457
 13
-1.478370
 23
3.322457
  0
POLYLINE
  8
PLAN_1
 62
     2
  6
CONTINUOUS
 66
     1
 40
0.003000
 41
0.003000
  0
VERTEX
  8
PLAN_1
 62
     2
  6
CONTINUOUS
 10
-1.501941
 20
3.289280
  0
VERTEX
  8
PLAN_1
 62
     2
  6
CONTINUOUS
 10
-1.478370
 20
3.289280
  0
VERTEX
  8
PLAN_1
 62
     2
  6
CONTINUOUS
 10
-1.478370
 20
3.322457
  0
VERTEX
  8
PLAN_1
 62
     2
  6
CONTINUOUS
 10
-1.478807
 20
3.322457
  0
VERTEX
  8
PLAN_1
 62
     2
  6
CONTINUOUS
 10
-1.501941
 20
3.289280
  0
SEQEND
  8
0
  0
POLYLINE
  8
PLAN_1
 62
     2
  6
CONTINUOUS
 66
     1
 40
0.004362
 41
0.004362
  0
VERTEX
  8
PLAN_1
 62
     2
  6
CONTINUOUS
 10
-1.387142
 20
3.105953
  0
VERTEX
  8
PLAN_1
 62
     2
  6
CONTINUOUS
 10
-1.387142
 20
3.263528
  0
SEQEND
  8
0
  0
POLYLINE
  8
PLAN_1
 62
     2
  6
CONTINUOUS
 66
     1
 40
0.004362
 41
0.004362
  0
VERTEX
  8
PLAN_1
 62
     2
  6
CONTINUOUS
 10
-1.226949
 20
3.105953
  0
VERTEX
  8
PLAN_1
 62
     2
  6
CONTINUOUS
 10
-1.226949
 20
3.263528
  0
SEQEND
  8
0
  0
POLYLINE
  8
PLAN_1
 62
     2
  6
CONTINUOUS
 66
     1
 40
0.004362
 41
0.004362
  0
VERTEX
  8
PLAN_1
 62
     2
  6
CONTINUOUS
 10
-1.308575
 20
3.107260
  0
VERTEX
  8
PLAN_1
 62
     2
  6
CONTINUOUS
 10
-1.308575
 20
3.215075
  0
SEQEND
  8
0
  0
POLYLINE
  8
PLAN_1
 62
     2
  6
CONTINUOUS
 66
     1
 40
0.004362
 41
0.004362
  0
VERTEX
  8
PLAN_1
 62
     2
  6
CONTINUOUS
 10
-1.308575
 20
3.263528
  0
VERTEX
  8
PLAN_1
 62
     2
  6
CONTINUOUS
 10
-1.308575
 20
3.420669
  0
SEQEND
  8
0
  0
POLYLINE
  8
PLAN_1
 62
     2
  6
CONTINUOUS
 66
     1
 40
0.004362
 41
0.004362
  0
VERTEX
  8
PLAN_1
 62
     2
  6
CONTINUOUS
 10
-0.757272
 20
1.884185
  0
VERTEX
  8
PLAN_1
 62
     2
  6
CONTINUOUS
 10
-0.757272
 20
3.418484
  0
SEQEND
  8
0
  0
ENDSEC
  0
EOF
