  0
SECTION
  2
HEADER
  9
$ACADVER
  1
AC1006
  9
$EXTMIN
 10
-2.297000
 20
-4.108748
  9
$EXTMAX
 10
2.290000
 20
4.108000
  9
$LTSCALE
 40
0.000394
  9
$PDMODE
 70
    35
  9
$PDSIZE
 40
0.000315
  0
ENDSEC
  0
SECTION
  2
TABLES
  0
TABLE
  2
LTYPE
 70
     9
  0
LTYPE
  2
CONTINUOUS
 70
    64
  3
Solid line
 72
    65
 73
     0
 40
0.000000
  0
LTYPE
  2
DASHED
 70
    64
  3
__ __ __ __ __ __ __ __ __ __ __ __ __ __ __
 72
    65
 73
     2
 40
0.000003
 49
0.000002
 49
-0.000001
  0
LTYPE
  2
HIDDEN
 70
    64
  3
 _ _ _ _ _ _ _ _ _ _ _ _ _ _ _ _ _ _ _ _ _ _
 72
    65
 73
     2
 40
0.000001
 49
0.000001
 49
-0.000000
  0
LTYPE
  2
CENTER
 70
    64
  3
____ _ ____ _ ____ _ ____ _ ____ _ ____ _ ____
 72
    65
 73
     4
 40
0.000008
 49
0.000005
 49
-0.000001
 49
0.000001
 49
-0.000001
  0
LTYPE
  2
PHANTOM
 70
    64
  3
_____ _ _ _____ _ _ _____ _ _ _____ _ _ ____
 72
    65
 73
     6
 40
0.000010
 49
0.000005
 49
-0.000001
 49
0.000001
 49
-0.000001
 49
0.000001
 49
-0.000001
  0
LTYPE
  2
DOT
 70
    64
  3
...............................................
 72
    65
 73
     2
 40
0.000001
 49
0.000000
 49
-0.000001
  0
LTYPE
  2
DASHDOT
 70
    64
  3
__ . __ . __ . __ . __ . __ . __ . __ . __ . __
 72
    65
 73
     4
 40
0.000004
 49
0.000002
 49
-0.000001
 49
0.000000
 49
-0.000001
  0
LTYPE
  2
BORDER
 70
    64
  3
__ __ . __ __ . __ __ . __ __ . __ __ . __ __
 72
    65
 73
     6
 40
0.000007
 49
0.000002
 49
-0.000001
 49
0.000002
 49
-0.000001
 49
0.000000
 49
-0.000001
  0
LTYPE
  2
DIVIDE
 70
    64
  3
__ . . __ . . __ . . __ . . __ . . __ . . __
 72
    65
 73
     6
 40
0.000005
 49
0.000002
 49
-0.000001
 49
0.000000
 49
-0.000001
 49
0.000000
 49
-0.000001
  0
LTYPE
  2
DOTDOT
 70
    64
  3
 . .  . .  . .  . .  . .  . . 
 72
    65
 73
     5
 40
0.000002
 49
-0.000001
 49
0.000000
 49
-0.000001
 49
0.000000
 49
-0.000001
  0
ENDTAB
  0
TABLE
  2
STYLE
 70
     0
  0
ENDTAB
  0
TABLE
  2
LAYER
 70
     3
  0
LAYER
  2
FOREGROUND
 70
    64
 62
     7
  6
CONTINUOUS
  0
LAYER
  2
BACKGROUND
 70
    65
 62
    -7
  6
CONTINUOUS
  0
LAYER
  2
PLAN_1
 70
    64
 62
     7
  6
CONTINUOUS
  0
ENDTAB
  0
ENDSEC
  0
SECTION
  2
ENTITIES
  0
POLYLINE
  8
PLAN_1
  6
CONTINUOUS
 66
     1
 40
0.003000
 41
0.003000
  0
VERTEX
  8
PLAN_1
  6
CONTINUOUS
 10
0.414012
 20
-4.073827
  0
VERTEX
  8
PLAN_1
  6
CONTINUOUS
 10
0.257382
 20
-4.073827
  0
VERTEX
  8
PLAN_1
  6
CONTINUOUS
 10
0.257382
 20
-4.051744
  0
VERTEX
  8
PLAN_1
  6
CONTINUOUS
 10
0.379606
 20
-3.898709
  0
VERTEX
  8
PLAN_1
  6
CONTINUOUS
 10
0.266626
 20
-3.898709
  0
VERTEX
  8
PLAN_1
  6
CONTINUOUS
 10
0.266626
 20
-3.874571
  0
VERTEX
  8
PLAN_1
  6
CONTINUOUS
 10
0.414012
 20
-3.874571
  0
VERTEX
  8
PLAN_1
  6
CONTINUOUS
 10
0.414012
 20
-3.898193
  0
VERTEX
  8
PLAN_1
  6
CONTINUOUS
 10
0.291276
 20
-4.050205
  0
VERTEX
  8
PLAN_1
  6
CONTINUOUS
 10
0.414012
 20
-4.050205
  0
VERTEX
  8
PLAN_1
  6
CONTINUOUS
 10
0.414012
 20
-4.073827
  0
SEQEND
  8
0
  0
POLYLINE
  8
PLAN_1
  6
CONTINUOUS
 66
     1
 40
0.003000
 41
0.003000
  0
VERTEX
  8
PLAN_1
  6
CONTINUOUS
 10
0.581429
 20
-3.934657
  0
VERTEX
  8
PLAN_1
  6
CONTINUOUS
 10
0.579890
 20
-3.928492
  0
VERTEX
  8
PLAN_1
  6
CONTINUOUS
 10
0.577835
 20
-3.922846
  0
VERTEX
  8
PLAN_1
  6
CONTINUOUS
 10
0.575268
 20
-3.917709
  0
VERTEX
  8
PLAN_1
  6
CONTINUOUS
 10
0.572185
 20
-3.913602
  0
VERTEX
  8
PLAN_1
  6
CONTINUOUS
 10
0.569106
 20
-3.909492
  0
VERTEX
  8
PLAN_1
  6
CONTINUOUS
 10
0.565512
 20
-3.906409
  0
VERTEX
  8
PLAN_1
  6
CONTINUOUS
 10
0.561913
 20
-3.903331
  0
VERTEX
  8
PLAN_1
  6
CONTINUOUS
 10
0.557807
 20
-3.900764
  0
VERTEX
  8
PLAN_1
  6
CONTINUOUS
 10
0.554213
 20
-3.898709
  0
VERTEX
  8
PLAN_1
  6
CONTINUOUS
 10
0.550102
 20
-3.897169
  0
VERTEX
  8
PLAN_1
  6
CONTINUOUS
 10
0.545480
 20
-3.896142
  0
VERTEX
  8
PLAN_1
  6
CONTINUOUS
 10
0.541374
 20
-3.895114
  0
VERTEX
  8
PLAN_1
  6
CONTINUOUS
 10
0.533157
 20
-3.893571
  0
VERTEX
  8
PLAN_1
  6
CONTINUOUS
 10
0.525969
 20
-3.893571
  0
VERTEX
  8
PLAN_1
  6
CONTINUOUS
 10
0.519291
 20
-3.893571
  0
VERTEX
  8
PLAN_1
  6
CONTINUOUS
 10
0.512614
 20
-3.894598
  0
VERTEX
  8
PLAN_1
  6
CONTINUOUS
 10
0.506453
 20
-3.896142
  0
VERTEX
  8
PLAN_1
  6
CONTINUOUS
 10
0.500291
 20
-3.898193
  0
VERTEX
  8
PLAN_1
  6
CONTINUOUS
 10
0.494642
 20
-3.901276
  0
VERTEX
  8
PLAN_1
  6
CONTINUOUS
 10
0.489504
 20
-3.904358
  0
VERTEX
  8
PLAN_1
  6
CONTINUOUS
 10
0.484370
 20
-3.908465
  0
VERTEX
  8
PLAN_1
  6
CONTINUOUS
 10
0.479748
 20
-3.913087
  0
VERTEX
  8
PLAN_1
  6
CONTINUOUS
 10
0.475638
 20
-3.918736
  0
VERTEX
  8
PLAN_1
  6
CONTINUOUS
 10
0.471531
 20
-3.924386
  0
VERTEX
  8
PLAN_1
  6
CONTINUOUS
 10
0.468449
 20
-3.931063
  0
VERTEX
  8
PLAN_1
  6
CONTINUOUS
 10
0.465882
 20
-3.938252
  0
VERTEX
  8
PLAN_1
  6
CONTINUOUS
 10
0.463315
 20
-3.945953
  0
VERTEX
  8
PLAN_1
  6
CONTINUOUS
 10
0.461772
 20
-3.954169
  0
VERTEX
  8
PLAN_1
  6
CONTINUOUS
 10
0.460748
 20
-3.962902
  0
VERTEX
  8
PLAN_1
  6
CONTINUOUS
 10
0.460748
 20
-3.972657
  0
VERTEX
  8
PLAN_1
  6
CONTINUOUS
 10
0.460748
 20
-3.981390
  0
VERTEX
  8
PLAN_1
  6
CONTINUOUS
 10
0.461260
 20
-3.989606
  0
VERTEX
  8
PLAN_1
  6
CONTINUOUS
 10
0.462287
 20
-3.997823
  0
VERTEX
  8
PLAN_1
  6
CONTINUOUS
 10
0.463827
 20
-4.005012
  0
VERTEX
  8
PLAN_1
  6
CONTINUOUS
 10
0.465882
 20
-4.012717
  0
VERTEX
  8
PLAN_1
  6
CONTINUOUS
 10
0.468449
 20
-4.019390
  0
VERTEX
  8
PLAN_1
  6
CONTINUOUS
 10
0.471531
 20
-4.025555
  0
VERTEX
  8
PLAN_1
  6
CONTINUOUS
 10
0.475126
 20
-4.031717
  0
VERTEX
  8
PLAN_1
  6
CONTINUOUS
 10
0.479232
 20
-4.036850
  0
VERTEX
  8
PLAN_1
  6
CONTINUOUS
 10
0.483854
 20
-4.041472
  0
VERTEX
  8
PLAN_1
  6
CONTINUOUS
 10
0.489504
 20
-4.045583
  0
VERTEX
  8
PLAN_1
  6
CONTINUOUS
 10
0.495669
 20
-4.049177
  0
VERTEX
  8
PLAN_1
  6
CONTINUOUS
 10
0.502343
 20
-4.051744
  0
VERTEX
  8
PLAN_1
  6
CONTINUOUS
 10
0.509531
 20
-4.053799
  0
VERTEX
  8
PLAN_1
  6
CONTINUOUS
 10
0.517752
 20
-4.054827
  0
VERTEX
  8
PLAN_1
  6
CONTINUOUS
 10
0.526480
 20
-4.055339
  0
VERTEX
  8
PLAN_1
  6
CONTINUOUS
 10
0.533669
 20
-4.054827
  0
VERTEX
  8
PLAN_1
  6
CONTINUOUS
 10
0.541374
 20
-4.053287
  0
VERTEX
  8
PLAN_1
  6
CONTINUOUS
 10
0.545480
 20
-4.052260
  0
VERTEX
  8
PLAN_1
  6
CONTINUOUS
 10
0.550102
 20
-4.050205
  0
VERTEX
  8
PLAN_1
  6
CONTINUOUS
 10
0.554213
 20
-4.048150
  0
VERTEX
  8
PLAN_1
  6
CONTINUOUS
 10
0.558319
 20
-4.045583
  0
VERTEX
  8
PLAN_1
  6
CONTINUOUS
 10
0.562429
 20
-4.042500
  0
VERTEX
  8
PLAN_1
  6
CONTINUOUS
 10
0.566024
 20
-4.038394
  0
VERTEX
  8
PLAN_1
  6
CONTINUOUS
 10
0.569618
 20
-4.033772
  0
VERTEX
  8
PLAN_1
  6
CONTINUOUS
 10
0.573213
 20
-4.029150
  0
VERTEX
  8
PLAN_1
  6
CONTINUOUS
 10
0.576295
 20
-4.022988
  0
VERTEX
  8
PLAN_1
  6
CONTINUOUS
 10
0.579374
 20
-4.016311
  0
VERTEX
  8
PLAN_1
  6
CONTINUOUS
 10
0.581429
 20
-4.009122
  0
VERTEX
  8
PLAN_1
  6
CONTINUOUS
 10
0.583484
 20
-4.000906
  0
VERTEX
  8
PLAN_1
  6
CONTINUOUS
 10
0.609673
 20
-4.000906
  0
VERTEX
  8
PLAN_1
  6
CONTINUOUS
 10
0.608650
 20
-4.007579
  0
VERTEX
  8
PLAN_1
  6
CONTINUOUS
 10
0.607106
 20
-4.014256
  0
VERTEX
  8
PLAN_1
  6
CONTINUOUS
 10
0.605051
 20
-4.019906
  0
VERTEX
  8
PLAN_1
  6
CONTINUOUS
 10
0.603512
 20
-4.025555
  0
VERTEX
  8
PLAN_1
  6
CONTINUOUS
 10
0.600945
 20
-4.031205
  0
VERTEX
  8
PLAN_1
  6
CONTINUOUS
 10
0.598890
 20
-4.035827
  0
VERTEX
  8
PLAN_1
  6
CONTINUOUS
 10
0.596323
 20
-4.040449
  0
VERTEX
  8
PLAN_1
  6
CONTINUOUS
 10
0.593240
 20
-4.044555
  0
VERTEX
  8
PLAN_1
  6
CONTINUOUS
 10
0.590673
 20
-4.048665
  0
VERTEX
  8
PLAN_1
  6
CONTINUOUS
 10
0.587591
 20
-4.052260
  0
VERTEX
  8
PLAN_1
  6
CONTINUOUS
 10
0.584512
 20
-4.055854
  0
VERTEX
  8
PLAN_1
  6
CONTINUOUS
 10
0.580917
 20
-4.058933
  0
VERTEX
  8
PLAN_1
  6
CONTINUOUS
 10
0.574240
 20
-4.064071
  0
VERTEX
  8
PLAN_1
  6
CONTINUOUS
 10
0.567563
 20
-4.068177
  0
VERTEX
  8
PLAN_1
  6
CONTINUOUS
 10
0.560374
 20
-4.071772
  0
VERTEX
  8
PLAN_1
  6
CONTINUOUS
 10
0.553697
 20
-4.074343
  0
VERTEX
  8
PLAN_1
  6
CONTINUOUS
 10
0.547024
 20
-4.076394
  0
VERTEX
  8
PLAN_1
  6
CONTINUOUS
 10
0.540858
 20
-4.077421
  0
VERTEX
  8
PLAN_1
  6
CONTINUOUS
 10
0.530075
 20
-4.078965
  0
VERTEX
  8
PLAN_1
  6
CONTINUOUS
 10
0.522370
 20
-4.079476
  0
VERTEX
  8
PLAN_1
  6
CONTINUOUS
 10
0.514154
 20
-4.078965
  0
VERTEX
  8
PLAN_1
  6
CONTINUOUS
 10
0.505425
 20
-4.077937
  0
VERTEX
  8
PLAN_1
  6
CONTINUOUS
 10
0.497209
 20
-4.075882
  0
VERTEX
  8
PLAN_1
  6
CONTINUOUS
 10
0.489504
 20
-4.073315
  0
VERTEX
  8
PLAN_1
  6
CONTINUOUS
 10
0.481803
 20
-4.070232
  0
VERTEX
  8
PLAN_1
  6
CONTINUOUS
 10
0.474098
 20
-4.066126
  0
VERTEX
  8
PLAN_1
  6
CONTINUOUS
 10
0.467421
 20
-4.060988
  0
VERTEX
  8
PLAN_1
  6
CONTINUOUS
 10
0.460748
 20
-4.054827
  0
VERTEX
  8
PLAN_1
  6
CONTINUOUS
 10
0.457665
 20
-4.051744
  0
VERTEX
  8
PLAN_1
  6
CONTINUOUS
 10
0.454583
 20
-4.048150
  0
VERTEX
  8
PLAN_1
  6
CONTINUOUS
 10
0.452016
 20
-4.044555
  0
VERTEX
  8
PLAN_1
  6
CONTINUOUS
 10
0.449449
 20
-4.040449
  0
VERTEX
  8
PLAN_1
  6
CONTINUOUS
 10
0.446882
 20
-4.036339
  0
VERTEX
  8
PLAN_1
  6
CONTINUOUS
 10
0.444311
 20
-4.031717
  0
VERTEX
  8
PLAN_1
  6
CONTINUOUS
 10
0.442260
 20
-4.027094
  0
VERTEX
  8
PLAN_1
  6
CONTINUOUS
 10
0.440205
 20
-4.021961
  0
VERTEX
  8
PLAN_1
  6
CONTINUOUS
 10
0.438665
 20
-4.016823
  0
VERTEX
  8
PLAN_1
  6
CONTINUOUS
 10
0.437122
 20
-4.011689
  0
VERTEX
  8
PLAN_1
  6
CONTINUOUS
 10
0.436094
 20
-4.006039
  0
VERTEX
  8
PLAN_1
  6
CONTINUOUS
 10
0.434555
 20
-3.999878
  0
VERTEX
  8
PLAN_1
  6
CONTINUOUS
 10
0.434043
 20
-3.993713
  0
VERTEX
  8
PLAN_1
  6
CONTINUOUS
 10
0.433528
 20
-3.987039
  0
VERTEX
  8
PLAN_1
  6
CONTINUOUS
 10
0.433016
 20
-3.980362
  0
VERTEX
  8
PLAN_1
  6
CONTINUOUS
 10
0.433016
 20
-3.973173
  0
VERTEX
  8
PLAN_1
  6
CONTINUOUS
 10
0.433016
 20
-3.961874
  0
VERTEX
  8
PLAN_1
  6
CONTINUOUS
 10
0.434555
 20
-3.951091
  0
VERTEX
  8
PLAN_1
  6
CONTINUOUS
 10
0.436610
 20
-3.940819
  0
VERTEX
  8
PLAN_1
  6
CONTINUOUS
 10
0.439177
 20
-3.931063
  0
VERTEX
  8
PLAN_1
  6
CONTINUOUS
 10
0.442772
 20
-3.922331
  0
VERTEX
  8
PLAN_1
  6
CONTINUOUS
 10
0.446882
 20
-3.913602
  0
VERTEX
  8
PLAN_1
  6
CONTINUOUS
 10
0.452016
 20
-3.905386
  0
VERTEX
  8
PLAN_1
  6
CONTINUOUS
 10
0.457665
 20
-3.898193
  0
VERTEX
  8
PLAN_1
  6
CONTINUOUS
 10
0.463827
 20
-3.892031
  0
VERTEX
  8
PLAN_1
  6
CONTINUOUS
 10
0.471016
 20
-3.886382
  0
VERTEX
  8
PLAN_1
  6
CONTINUOUS
 10
0.478720
 20
-3.881248
  0
VERTEX
  8
PLAN_1
  6
CONTINUOUS
 10
0.486937
 20
-3.877138
  0
VERTEX
  8
PLAN_1
  6
CONTINUOUS
 10
0.495669
 20
-3.874059
  0
VERTEX
  8
PLAN_1
  6
CONTINUOUS
 10
0.504909
 20
-3.871488
  0
VERTEX
  8
PLAN_1
  6
CONTINUOUS
 10
0.515181
 20
-3.869949
  0
VERTEX
  8
PLAN_1
  6
CONTINUOUS
 10
0.525969
 20
-3.869437
  0
VERTEX
  8
PLAN_1
  6
CONTINUOUS
 10
0.535209
 20
-3.869949
  0
VERTEX
  8
PLAN_1
  6
CONTINUOUS
 10
0.543941
 20
-3.870976
  0
VERTEX
  8
PLAN_1
  6
CONTINUOUS
 10
0.552157
 20
-3.872516
  0
VERTEX
  8
PLAN_1
  6
CONTINUOUS
 10
0.559862
 20
-3.875087
  0
VERTEX
  8
PLAN_1
  6
CONTINUOUS
 10
0.566535
 20
-3.878165
  0
VERTEX
  8
PLAN_1
  6
CONTINUOUS
 10
0.573213
 20
-3.881248
  0
VERTEX
  8
PLAN_1
  6
CONTINUOUS
 10
0.579374
 20
-3.885354
  0
VERTEX
  8
PLAN_1
  6
CONTINUOUS
 10
0.584512
 20
-3.889465
  0
VERTEX
  8
PLAN_1
  6
CONTINUOUS
 10
0.589134
 20
-3.894598
  0
VERTEX
  8
PLAN_1
  6
CONTINUOUS
 10
0.593756
 20
-3.899220
  0
VERTEX
  8
PLAN_1
  6
CONTINUOUS
 10
0.597350
 20
-3.904870
  0
VERTEX
  8
PLAN_1
  6
CONTINUOUS
 10
0.600429
 20
-3.910520
  0
VERTEX
  8
PLAN_1
  6
CONTINUOUS
 10
0.603000
 20
-3.916169
  0
VERTEX
  8
PLAN_1
  6
CONTINUOUS
 10
0.605051
 20
-3.922331
  0
VERTEX
  8
PLAN_1
  6
CONTINUOUS
 10
0.606594
 20
-3.928492
  0
VERTEX
  8
PLAN_1
  6
CONTINUOUS
 10
0.607622
 20
-3.934657
  0
VERTEX
  8
PLAN_1
  6
CONTINUOUS
 10
0.581429
 20
-3.934657
  0
SEQEND
  8
0
  0
POLYLINE
  8
PLAN_1
  6
CONTINUOUS
 66
     1
 40
0.003000
 41
0.003000
  0
VERTEX
  8
PLAN_1
  6
CONTINUOUS
 10
0.669248
 20
-4.073827
  0
VERTEX
  8
PLAN_1
  6
CONTINUOUS
 10
0.642028
 20
-4.073827
  0
VERTEX
  8
PLAN_1
  6
CONTINUOUS
 10
0.642028
 20
-3.874571
  0
VERTEX
  8
PLAN_1
  6
CONTINUOUS
 10
0.669248
 20
-3.874571
  0
VERTEX
  8
PLAN_1
  6
CONTINUOUS
 10
0.669248
 20
-3.971630
  0
VERTEX
  8
PLAN_1
  6
CONTINUOUS
 10
0.765791
 20
-3.874571
  0
VERTEX
  8
PLAN_1
  6
CONTINUOUS
 10
0.802768
 20
-3.874571
  0
VERTEX
  8
PLAN_1
  6
CONTINUOUS
 10
0.720087
 20
-3.955197
  0
VERTEX
  8
PLAN_1
  6
CONTINUOUS
 10
0.804823
 20
-4.073827
  0
VERTEX
  8
PLAN_1
  6
CONTINUOUS
 10
0.769902
 20
-4.073827
  0
VERTEX
  8
PLAN_1
  6
CONTINUOUS
 10
0.700571
 20
-3.974201
  0
VERTEX
  8
PLAN_1
  6
CONTINUOUS
 10
0.669248
 20
-4.003984
  0
VERTEX
  8
PLAN_1
  6
CONTINUOUS
 10
0.669248
 20
-4.073827
  0
SEQEND
  8
0
  0
POLYLINE
  8
PLAN_1
  6
CONTINUOUS
 66
     1
 40
0.003000
 41
0.003000
  0
VERTEX
  8
PLAN_1
  6
CONTINUOUS
 10
0.828961
 20
-3.874571
  0
VERTEX
  8
PLAN_1
  6
CONTINUOUS
 10
0.909587
 20
-3.874571
  0
VERTEX
  8
PLAN_1
  6
CONTINUOUS
 10
0.918831
 20
-3.875087
  0
VERTEX
  8
PLAN_1
  6
CONTINUOUS
 10
0.928075
 20
-3.876626
  0
VERTEX
  8
PLAN_1
  6
CONTINUOUS
 10
0.936291
 20
-3.878681
  0
VERTEX
  8
PLAN_1
  6
CONTINUOUS
 10
0.944508
 20
-3.881760
  0
VERTEX
  8
PLAN_1
  6
CONTINUOUS
 10
0.951697
 20
-3.885870
  0
VERTEX
  8
PLAN_1
  6
CONTINUOUS
 10
0.958886
 20
-3.890492
  0
VERTEX
  8
PLAN_1
  6
CONTINUOUS
 10
0.965051
 20
-3.895626
  0
VERTEX
  8
PLAN_1
  6
CONTINUOUS
 10
0.970697
 20
-3.901791
  0
VERTEX
  8
PLAN_1
  6
CONTINUOUS
 10
0.975835
 20
-3.908465
  0
VERTEX
  8
PLAN_1
  6
CONTINUOUS
 10
0.980457
 20
-3.915654
  0
VERTEX
  8
PLAN_1
  6
CONTINUOUS
 10
0.984563
 20
-3.923870
  0
VERTEX
  8
PLAN_1
  6
CONTINUOUS
 10
0.987646
 20
-3.932091
  0
VERTEX
  8
PLAN_1
  6
CONTINUOUS
 10
0.990213
 20
-3.941331
  0
VERTEX
  8
PLAN_1
  6
CONTINUOUS
 10
0.991752
 20
-3.951091
  0
VERTEX
  8
PLAN_1
  6
CONTINUOUS
 10
0.992780
 20
-3.960846
  0
VERTEX
  8
PLAN_1
  6
CONTINUOUS
 10
0.993295
 20
-3.971630
  0
VERTEX
  8
PLAN_1
  6
CONTINUOUS
 10
0.993295
 20
-3.980362
  0
VERTEX
  8
PLAN_1
  6
CONTINUOUS
 10
0.992268
 20
-3.989091
  0
VERTEX
  8
PLAN_1
  6
CONTINUOUS
 10
0.991240
 20
-3.997823
  0
VERTEX
  8
PLAN_1
  6
CONTINUOUS
 10
0.989185
 20
-4.006551
  0
VERTEX
  8
PLAN_1
  6
CONTINUOUS
 10
0.986618
 20
-4.015283
  0
VERTEX
  8
PLAN_1
  6
CONTINUOUS
 10
0.983535
 20
-4.023500
  0
VERTEX
  8
PLAN_1
  6
CONTINUOUS
 10
0.979941
 20
-4.031717
  0
VERTEX
  8
PLAN_1
  6
CONTINUOUS
 10
0.975319
 20
-4.039421
  0
VERTEX
  8
PLAN_1
  6
CONTINUOUS
 10
0.972752
 20
-4.043528
  0
VERTEX
  8
PLAN_1
  6
CONTINUOUS
 10
0.970185
 20
-4.046610
  0
VERTEX
  8
PLAN_1
  6
CONTINUOUS
 10
0.967102
 20
-4.050205
  0
VERTEX
  8
PLAN_1
  6
CONTINUOUS
 10
0.964024
 20
-4.053287
  0
VERTEX
  8
PLAN_1
  6
CONTINUOUS
 10
0.960941
 20
-4.056366
  0
VERTEX
  8
PLAN_1
  6
CONTINUOUS
 10
0.957346
 20
-4.059449
  0
VERTEX
  8
PLAN_1
  6
CONTINUOUS
 10
0.953236
 20
-4.062016
  0
VERTEX
  8
PLAN_1
  6
CONTINUOUS
 10
0.949130
 20
-4.064583
  0
VERTEX
  8
PLAN_1
  6
CONTINUOUS
 10
0.945020
 20
-4.066638
  0
VERTEX
  8
PLAN_1
  6
CONTINUOUS
 10
0.940398
 20
-4.068693
  0
VERTEX
  8
PLAN_1
  6
CONTINUOUS
 10
0.935776
 20
-4.070232
  0
VERTEX
  8
PLAN_1
  6
CONTINUOUS
 10
0.930642
 20
-4.071260
  0
VERTEX
  8
PLAN_1
  6
CONTINUOUS
 10
0.925508
 20
-4.072799
  0
VERTEX
  8
PLAN_1
  6
CONTINUOUS
 10
0.920370
 20
-4.073315
  0
VERTEX
  8
PLAN_1
  6
CONTINUOUS
 10
0.914209
 20
-4.073827
  0
VERTEX
  8
PLAN_1
  6
CONTINUOUS
 10
0.908559
 20
-4.073827
  0
VERTEX
  8
PLAN_1
  6
CONTINUOUS
 10
0.828961
 20
-4.073827
  0
VERTEX
  8
PLAN_1
  6
CONTINUOUS
 10
0.828961
 20
-3.874571
  0
SEQEND
  8
0
  0
POLYLINE
  8
PLAN_1
  6
CONTINUOUS
 66
     1
 40
0.003000
 41
0.003000
  0
VERTEX
  8
PLAN_1
  6
CONTINUOUS
 10
0.855665
 20
-4.051232
  0
VERTEX
  8
PLAN_1
  6
CONTINUOUS
 10
0.908047
 20
-4.051232
  0
VERTEX
  8
PLAN_1
  6
CONTINUOUS
 10
0.914209
 20
-4.050717
  0
VERTEX
  8
PLAN_1
  6
CONTINUOUS
 10
0.920370
 20
-4.049689
  0
VERTEX
  8
PLAN_1
  6
CONTINUOUS
 10
0.926020
 20
-4.048150
  0
VERTEX
  8
PLAN_1
  6
CONTINUOUS
 10
0.931669
 20
-4.046094
  0
VERTEX
  8
PLAN_1
  6
CONTINUOUS
 10
0.936803
 20
-4.043016
  0
VERTEX
  8
PLAN_1
  6
CONTINUOUS
 10
0.941425
 20
-4.039933
  0
VERTEX
  8
PLAN_1
  6
CONTINUOUS
 10
0.946047
 20
-4.035827
  0
VERTEX
  8
PLAN_1
  6
CONTINUOUS
 10
0.949642
 20
-4.031205
  0
VERTEX
  8
PLAN_1
  6
CONTINUOUS
 10
0.953236
 20
-4.025555
  0
VERTEX
  8
PLAN_1
  6
CONTINUOUS
 10
0.956319
 20
-4.019906
  0
VERTEX
  8
PLAN_1
  6
CONTINUOUS
 10
0.959402
 20
-4.013744
  0
VERTEX
  8
PLAN_1
  6
CONTINUOUS
 10
0.961453
 20
-4.006551
  0
VERTEX
  8
PLAN_1
  6
CONTINUOUS
 10
0.962996
 20
-3.999362
  0
VERTEX
  8
PLAN_1
  6
CONTINUOUS
 10
0.964535
 20
-3.991146
  0
VERTEX
  8
PLAN_1
  6
CONTINUOUS
 10
0.965563
 20
-3.982417
  0
VERTEX
  8
PLAN_1
  6
CONTINUOUS
 10
0.965563
 20
-3.973173
  0
VERTEX
  8
PLAN_1
  6
CONTINUOUS
 10
0.965563
 20
-3.964441
  0
VERTEX
  8
PLAN_1
  6
CONTINUOUS
 10
0.964535
 20
-3.955713
  0
VERTEX
  8
PLAN_1
  6
CONTINUOUS
 10
0.962996
 20
-3.947496
  0
VERTEX
  8
PLAN_1
  6
CONTINUOUS
 10
0.961453
 20
-3.940307
  0
VERTEX
  8
PLAN_1
  6
CONTINUOUS
 10
0.958886
 20
-3.933630
  0
VERTEX
  8
PLAN_1
  6
CONTINUOUS
 10
0.956319
 20
-3.927469
  0
VERTEX
  8
PLAN_1
  6
CONTINUOUS
 10
0.953236
 20
-3.921819
  0
VERTEX
  8
PLAN_1
  6
CONTINUOUS
 10
0.949642
 20
-3.916681
  0
VERTEX
  8
PLAN_1
  6
CONTINUOUS
 10
0.945535
 20
-3.912059
  0
VERTEX
  8
PLAN_1
  6
CONTINUOUS
 10
0.940913
 20
-3.908465
  0
VERTEX
  8
PLAN_1
  6
CONTINUOUS
 10
0.935776
 20
-3.905386
  0
VERTEX
  8
PLAN_1
  6
CONTINUOUS
 10
0.930642
 20
-3.902815
  0
VERTEX
  8
PLAN_1
  6
CONTINUOUS
 10
0.924992
 20
-3.900248
  0
VERTEX
  8
PLAN_1
  6
CONTINUOUS
 10
0.918831
 20
-3.899220
  0
VERTEX
  8
PLAN_1
  6
CONTINUOUS
 10
0.912669
 20
-3.898193
  0
VERTEX
  8
PLAN_1
  6
CONTINUOUS
 10
0.905992
 20
-3.897681
  0
VERTEX
  8
PLAN_1
  6
CONTINUOUS
 10
0.855665
 20
-3.897681
  0
VERTEX
  8
PLAN_1
  6
CONTINUOUS
 10
0.855665
 20
-4.051232
  0
SEQEND
  8
0
  0
POLYLINE
  8
PLAN_1
  6
CONTINUOUS
 66
     1
 40
0.003000
 41
0.003000
  0
VERTEX
  8
PLAN_1
  6
CONTINUOUS
 10
1.047728
 20
-3.960335
  0
VERTEX
  8
PLAN_1
  6
CONTINUOUS
 10
1.050811
 20
-3.958280
  0
VERTEX
  8
PLAN_1
  6
CONTINUOUS
 10
1.054406
 20
-3.955713
  0
VERTEX
  8
PLAN_1
  6
CONTINUOUS
 10
1.058516
 20
-3.953657
  0
VERTEX
  8
PLAN_1
  6
CONTINUOUS
 10
1.063138
 20
-3.952118
  0
VERTEX
  8
PLAN_1
  6
CONTINUOUS
 10
1.067760
 20
-3.950575
  0
VERTEX
  8
PLAN_1
  6
CONTINUOUS
 10
1.073409
 20
-3.949551
  0
VERTEX
  8
PLAN_1
  6
CONTINUOUS
 10
1.079055
 20
-3.948524
  0
VERTEX
  8
PLAN_1
  6
CONTINUOUS
 10
1.085220
 20
-3.948524
  0
VERTEX
  8
PLAN_1
  6
CONTINUOUS
 10
1.091382
 20
-3.948524
  0
VERTEX
  8
PLAN_1
  6
CONTINUOUS
 10
1.097031
 20
-3.949551
  0
VERTEX
  8
PLAN_1
  6
CONTINUOUS
 10
1.103193
 20
-3.950575
  0
VERTEX
  8
PLAN_1
  6
CONTINUOUS
 10
1.108843
 20
-3.952630
  0
VERTEX
  8
PLAN_1
  6
CONTINUOUS
 10
1.113976
 20
-3.954685
  0
VERTEX
  8
PLAN_1
  6
CONTINUOUS
 10
1.119626
 20
-3.957252
  0
VERTEX
  8
PLAN_1
  6
CONTINUOUS
 10
1.124248
 20
-3.960846
  0
VERTEX
  8
PLAN_1
  6
CONTINUOUS
 10
1.129386
 20
-3.964441
  0
VERTEX
  8
PLAN_1
  6
CONTINUOUS
 10
1.133492
 20
-3.968551
  0
VERTEX
  8
PLAN_1
  6
CONTINUOUS
 10
1.137602
 20
-3.973173
  0
VERTEX
  8
PLAN_1
  6
CONTINUOUS
 10
1.140681
 20
-3.978307
  0
VERTEX
  8
PLAN_1
  6
CONTINUOUS
 10
1.143764
 20
-3.983957
  0
VERTEX
  8
PLAN_1
  6
CONTINUOUS
 10
1.146331
 20
-3.990118
  0
VERTEX
  8
PLAN_1
  6
CONTINUOUS
 10
1.147870
 20
-3.996795
  0
VERTEX
  8
PLAN_1
  6
CONTINUOUS
 10
1.148898
 20
-4.003472
  0
VERTEX
  8
PLAN_1
  6
CONTINUOUS
 10
1.149413
 20
-4.010661
  0
VERTEX
  8
PLAN_1
  6
CONTINUOUS
 10
1.149413
 20
-4.015283
  0
VERTEX
  8
PLAN_1
  6
CONTINUOUS
 10
1.148898
 20
-4.019906
  0
VERTEX
  8
PLAN_1
  6
CONTINUOUS
 10
1.147870
 20
-4.025039
  0
VERTEX
  8
PLAN_1
  6
CONTINUOUS
 10
1.146846
 20
-4.030689
  0
VERTEX
  8
PLAN_1
  6
CONTINUOUS
 10
1.145303
 20
-4.036339
  0
VERTEX
  8
PLAN_1
  6
CONTINUOUS
 10
1.143252
 20
-4.041988
  0
VERTEX
  8
PLAN_1
  6
CONTINUOUS
 10
1.140169
 20
-4.047638
  0
VERTEX
  8
PLAN_1
  6
CONTINUOUS
 10
1.137087
 20
-4.053287
  0
VERTEX
  8
PLAN_1
  6
CONTINUOUS
 10
1.132980
 20
-4.058421
  0
VERTEX
  8
PLAN_1
  6
CONTINUOUS
 10
1.127843
 20
-4.063555
  0
VERTEX
  8
PLAN_1
  6
CONTINUOUS
 10
1.122193
 20
-4.067665
  0
VERTEX
  8
PLAN_1
  6
CONTINUOUS
 10
1.115520
 20
-4.071772
  0
VERTEX
  8
PLAN_1
  6
CONTINUOUS
 10
1.111925
 20
-4.073315
  0
VERTEX
  8
PLAN_1
  6
CONTINUOUS
 10
1.107815
 20
-4.074854
  0
VERTEX
  8
PLAN_1
  6
CONTINUOUS
 10
1.103709
 20
-4.076394
  0
VERTEX
  8
PLAN_1
  6
CONTINUOUS
 10
1.099087
 20
-4.077421
  0
VERTEX
  8
PLAN_1
  6
CONTINUOUS
 10
1.094465
 20
-4.077937
  0
VERTEX
  8
PLAN_1
  6
CONTINUOUS
 10
1.089327
 20
-4.078965
  0
VERTEX
  8
PLAN_1
  6
CONTINUOUS
 10
1.084193
 20
-4.078965
  0
VERTEX
  8
PLAN_1
  6
CONTINUOUS
 10
1.078543
 20
-4.079476
  0
VERTEX
  8
PLAN_1
  6
CONTINUOUS
 10
1.073921
 20
-4.078965
  0
VERTEX
  8
PLAN_1
  6
CONTINUOUS
 10
1.068787
 20
-4.078965
  0
VERTEX
  8
PLAN_1
  6
CONTINUOUS
 10
1.063650
 20
-4.077937
  0
VERTEX
  8
PLAN_1
  6
CONTINUOUS
 10
1.058516
 20
-4.076909
  0
VERTEX
  8
PLAN_1
  6
CONTINUOUS
 10
1.053894
 20
-4.075882
  0
VERTEX
  8
PLAN_1
  6
CONTINUOUS
 10
1.048756
 20
-4.073827
  0
VERTEX
  8
PLAN_1
  6
CONTINUOUS
 10
1.044134
 20
-4.071260
  0
VERTEX
  8
PLAN_1
  6
CONTINUOUS
 10
1.039512
 20
-4.068693
  0
VERTEX
  8
PLAN_1
  6
CONTINUOUS
 10
1.034890
 20
-4.065610
  0
VERTEX
  8
PLAN_1
  6
CONTINUOUS
 10
1.030783
 20
-4.061504
  0
VERTEX
  8
PLAN_1
  6
CONTINUOUS
 10
1.027189
 20
-4.057394
  0
VERTEX
  8
PLAN_1
  6
CONTINUOUS
 10
1.024106
 20
-4.052260
  0
VERTEX
  8
PLAN_1
  6
CONTINUOUS
 10
1.021028
 20
-4.046610
  0
VERTEX
  8
PLAN_1
  6
CONTINUOUS
 10
1.018457
 20
-4.040449
  0
VERTEX
  8
PLAN_1
  6
CONTINUOUS
 10
1.016917
 20
-4.033256
  0
VERTEX
  8
PLAN_1
  6
CONTINUOUS
 10
1.015378
 20
-4.025555
  0
VERTEX
  8
PLAN_1
  6
CONTINUOUS
 10
1.041055
 20
-4.025555
  0
VERTEX
  8
PLAN_1
  6
CONTINUOUS
 10
1.041567
 20
-4.029661
  0
VERTEX
  8
PLAN_1
  6
CONTINUOUS
 10
1.042594
 20
-4.033256
  0
VERTEX
  8
PLAN_1
  6
CONTINUOUS
 10
1.043622
 20
-4.036850
  0
VERTEX
  8
PLAN_1
  6
CONTINUOUS
 10
1.045161
 20
-4.040449
  0
VERTEX
  8
PLAN_1
  6
CONTINUOUS
 10
1.047217
 20
-4.043016
  0
VERTEX
  8
PLAN_1
  6
CONTINUOUS
 10
1.049272
 20
-4.046094
  0
VERTEX
  8
PLAN_1
  6
CONTINUOUS
 10
1.051839
 20
-4.048150
  0
VERTEX
  8
PLAN_1
  6
CONTINUOUS
 10
1.054406
 20
-4.050205
  0
VERTEX
  8
PLAN_1
  6
CONTINUOUS
 10
1.056972
 20
-4.052260
  0
VERTEX
  8
PLAN_1
  6
CONTINUOUS
 10
1.060055
 20
-4.053799
  0
VERTEX
  8
PLAN_1
  6
CONTINUOUS
 10
1.063650
 20
-4.055339
  0
VERTEX
  8
PLAN_1
  6
CONTINUOUS
 10
1.066732
 20
-4.056366
  0
VERTEX
  8
PLAN_1
  6
CONTINUOUS
 10
1.070327
 20
-4.057394
  0
VERTEX
  8
PLAN_1
  6
CONTINUOUS
 10
1.074433
 20
-4.057909
  0
VERTEX
  8
PLAN_1
  6
CONTINUOUS
 10
1.078031
 20
-4.057909
  0
VERTEX
  8
PLAN_1
  6
CONTINUOUS
 10
1.082138
 20
-4.058421
  0
VERTEX
  8
PLAN_1
  6
CONTINUOUS
 10
1.086760
 20
-4.057909
  0
VERTEX
  8
PLAN_1
  6
CONTINUOUS
 10
1.091382
 20
-4.057394
  0
VERTEX
  8
PLAN_1
  6
CONTINUOUS
 10
1.095488
 20
-4.056366
  0
VERTEX
  8
PLAN_1
  6
CONTINUOUS
 10
1.099087
 20
-4.054827
  0
VERTEX
  8
PLAN_1
  6
CONTINUOUS
 10
1.103193
 20
-4.052772
  0
VERTEX
  8
PLAN_1
  6
CONTINUOUS
 10
1.106276
 20
-4.050717
  0
VERTEX
  8
PLAN_1
  6
CONTINUOUS
 10
1.109354
 20
-4.048150
  0
VERTEX
  8
PLAN_1
  6
CONTINUOUS
 10
1.112437
 20
-4.045071
  0
VERTEX
  8
PLAN_1
  6
CONTINUOUS
 10
1.115004
 20
-4.041988
  0
VERTEX
  8
PLAN_1
  6
CONTINUOUS
 10
1.117059
 20
-4.038394
  0
VERTEX
  8
PLAN_1
  6
CONTINUOUS
 10
1.119114
 20
-4.034799
  0
VERTEX
  8
PLAN_1
  6
CONTINUOUS
 10
1.120654
 20
-4.030689
  0
VERTEX
  8
PLAN_1
  6
CONTINUOUS
 10
1.121681
 20
-4.026583
  0
VERTEX
  8
PLAN_1
  6
CONTINUOUS
 10
1.122709
 20
-4.022472
  0
VERTEX
  8
PLAN_1
  6
CONTINUOUS
 10
1.123220
 20
-4.017850
  0
VERTEX
  8
PLAN_1
  6
CONTINUOUS
 10
1.123220
 20
-4.013744
  0
VERTEX
  8
PLAN_1
  6
CONTINUOUS
 10
1.123220
 20
-4.008606
  0
VERTEX
  8
PLAN_1
  6
CONTINUOUS
 10
1.122193
 20
-4.003472
  0
VERTEX
  8
PLAN_1
  6
CONTINUOUS
 10
1.121169
 20
-3.999362
  0
VERTEX
  8
PLAN_1
  6
CONTINUOUS
 10
1.120142
 20
-3.994740
  0
VERTEX
  8
PLAN_1
  6
CONTINUOUS
 10
1.118087
 20
-3.991146
  0
VERTEX
  8
PLAN_1
  6
CONTINUOUS
 10
1.116031
 20
-3.987551
  0
VERTEX
  8
PLAN_1
  6
CONTINUOUS
 10
1.113465
 20
-3.984469
  0
VERTEX
  8
PLAN_1
  6
CONTINUOUS
 10
1.110898
 20
-3.981390
  0
VERTEX
  8
PLAN_1
  6
CONTINUOUS
 10
1.107815
 20
-3.978823
  0
VERTEX
  8
PLAN_1
  6
CONTINUOUS
 10
1.104220
 20
-3.976768
  0
VERTEX
  8
PLAN_1
  6
CONTINUOUS
 10
1.100626
 20
-3.974713
  0
VERTEX
  8
PLAN_1
  6
CONTINUOUS
 10
1.097031
 20
-3.973173
  0
VERTEX
  8
PLAN_1
  6
CONTINUOUS
 10
1.092921
 20
-3.971630
  0
VERTEX
  8
PLAN_1
  6
CONTINUOUS
 10
1.088815
 20
-3.971118
  0
VERTEX
  8
PLAN_1
  6
CONTINUOUS
 10
1.084705
 20
-3.970606
  0
VERTEX
  8
PLAN_1
  6
CONTINUOUS
 10
1.080083
 20
-3.970091
  0
VERTEX
  8
PLAN_1
  6
CONTINUOUS
 10
1.074949
 20
-3.970606
  0
VERTEX
  8
PLAN_1
  6
CONTINUOUS
 10
1.069811
 20
-3.971630
  0
VERTEX
  8
PLAN_1
  6
CONTINUOUS
 10
1.064677
 20
-3.973173
  0
VERTEX
  8
PLAN_1
  6
CONTINUOUS
 10
1.060055
 20
-3.975228
  0
VERTEX
  8
PLAN_1
  6
CONTINUOUS
 10
1.055433
 20
-3.977795
  0
VERTEX
  8
PLAN_1
  6
CONTINUOUS
 10
1.051327
 20
-3.980874
  0
VERTEX
  8
PLAN_1
  6
CONTINUOUS
 10
1.047728
 20
-3.984469
  0
VERTEX
  8
PLAN_1
  6
CONTINUOUS
 10
1.044134
 20
-3.989091
  0
VERTEX
  8
PLAN_1
  6
CONTINUOUS
 10
1.023079
 20
-3.987551
  0
VERTEX
  8
PLAN_1
  6
CONTINUOUS
 10
1.037461
 20
-3.883303
  0
VERTEX
  8
PLAN_1
  6
CONTINUOUS
 10
1.138630
 20
-3.883303
  0
VERTEX
  8
PLAN_1
  6
CONTINUOUS
 10
1.138630
 20
-3.906925
  0
VERTEX
  8
PLAN_1
  6
CONTINUOUS
 10
1.055949
 20
-3.906925
  0
VERTEX
  8
PLAN_1
  6
CONTINUOUS
 10
1.047728
 20
-3.960335
  0
SEQEND
  8
0
  0
POLYLINE
  8
PLAN_1
  6
CONTINUOUS
 66
     1
 40
0.003000
 41
0.003000
  0
VERTEX
  8
PLAN_1
  6
CONTINUOUS
 10
1.277799
 20
-4.026583
  0
VERTEX
  8
PLAN_1
  6
CONTINUOUS
 10
1.277799
 20
-4.073827
  0
VERTEX
  8
PLAN_1
  6
CONTINUOUS
 10
1.253150
 20
-4.073827
  0
VERTEX
  8
PLAN_1
  6
CONTINUOUS
 10
1.253150
 20
-4.026583
  0
VERTEX
  8
PLAN_1
  6
CONTINUOUS
 10
1.167902
 20
-4.026583
  0
VERTEX
  8
PLAN_1
  6
CONTINUOUS
 10
1.167902
 20
-4.002957
  0
VERTEX
  8
PLAN_1
  6
CONTINUOUS
 10
1.257256
 20
-3.879193
  0
VERTEX
  8
PLAN_1
  6
CONTINUOUS
 10
1.277799
 20
-3.879193
  0
VERTEX
  8
PLAN_1
  6
CONTINUOUS
 10
1.277799
 20
-4.005528
  0
VERTEX
  8
PLAN_1
  6
CONTINUOUS
 10
1.306043
 20
-4.005528
  0
VERTEX
  8
PLAN_1
  6
CONTINUOUS
 10
1.306043
 20
-4.026583
  0
VERTEX
  8
PLAN_1
  6
CONTINUOUS
 10
1.277799
 20
-4.026583
  0
SEQEND
  8
0
  0
SOLID
  8
PLAN_1
 10
1.190496
 20
-4.005528
 11
1.253150
 21
-4.005528
 12
1.252634
 22
-3.917197
 13
1.253150
 23
-3.917197
  0
POLYLINE
  8
PLAN_1
  6
CONTINUOUS
 66
     1
 40
0.003000
 41
0.003000
  0
VERTEX
  8
PLAN_1
  6
CONTINUOUS
 10
1.190496
 20
-4.005528
  0
VERTEX
  8
PLAN_1
  6
CONTINUOUS
 10
1.253150
 20
-4.005528
  0
VERTEX
  8
PLAN_1
  6
CONTINUOUS
 10
1.253150
 20
-3.917197
  0
VERTEX
  8
PLAN_1
  6
CONTINUOUS
 10
1.252634
 20
-3.917197
  0
VERTEX
  8
PLAN_1
  6
CONTINUOUS
 10
1.190496
 20
-4.005528
  0
SEQEND
  8
0
  0
SOLID
  8
PLAN_1
 10
1.315287
 20
-4.108748
 11
1.315287
 21
-4.094882
 12
1.469866
 22
-4.108748
 13
1.469866
 23
-4.094882
  0
POLYLINE
  8
PLAN_1
  6
CONTINUOUS
 66
     1
 40
0.003000
 41
0.003000
  0
VERTEX
  8
PLAN_1
  6
CONTINUOUS
 10
1.315287
 20
-4.108748
  0
VERTEX
  8
PLAN_1
  6
CONTINUOUS
 10
1.315287
 20
-4.094882
  0
VERTEX
  8
PLAN_1
  6
CONTINUOUS
 10
1.469866
 20
-4.094882
  0
VERTEX
  8
PLAN_1
  6
CONTINUOUS
 10
1.469866
 20
-4.108748
  0
VERTEX
  8
PLAN_1
  6
CONTINUOUS
 10
1.315287
 20
-4.108748
  0
SEQEND
  8
0
  0
POLYLINE
  8
PLAN_1
  6
CONTINUOUS
 66
     1
 40
0.003000
 41
0.003000
  0
VERTEX
  8
PLAN_1
  6
CONTINUOUS
 10
1.521220
 20
-4.073827
  0
VERTEX
  8
PLAN_1
  6
CONTINUOUS
 10
1.494516
 20
-4.073827
  0
VERTEX
  8
PLAN_1
  6
CONTINUOUS
 10
1.494516
 20
-3.874571
  0
VERTEX
  8
PLAN_1
  6
CONTINUOUS
 10
1.586441
 20
-3.874571
  0
VERTEX
  8
PLAN_1
  6
CONTINUOUS
 10
1.592602
 20
-3.875087
  0
VERTEX
  8
PLAN_1
  6
CONTINUOUS
 10
1.598768
 20
-3.875598
  0
VERTEX
  8
PLAN_1
  6
CONTINUOUS
 10
1.604413
 20
-3.876110
  0
VERTEX
  8
PLAN_1
  6
CONTINUOUS
 10
1.610579
 20
-3.877138
  0
VERTEX
  8
PLAN_1
  6
CONTINUOUS
 10
1.616228
 20
-3.878681
  0
VERTEX
  8
PLAN_1
  6
CONTINUOUS
 10
1.621362
 20
-3.880732
  0
VERTEX
  8
PLAN_1
  6
CONTINUOUS
 10
1.626496
 20
-3.882787
  0
VERTEX
  8
PLAN_1
  6
CONTINUOUS
 10
1.631634
 20
-3.885870
  0
VERTEX
  8
PLAN_1
  6
CONTINUOUS
 10
1.635740
 20
-3.888949
  0
VERTEX
  8
PLAN_1
  6
CONTINUOUS
 10
1.639850
 20
-3.893059
  0
VERTEX
  8
PLAN_1
  6
CONTINUOUS
 10
1.643445
 20
-3.897169
  0
VERTEX
  8
PLAN_1
  6
CONTINUOUS
 10
1.646528
 20
-3.902303
  0
VERTEX
  8
PLAN_1
  6
CONTINUOUS
 10
1.648579
 20
-3.907953
  0
VERTEX
  8
PLAN_1
  6
CONTINUOUS
 10
1.650634
 20
-3.914114
  0
VERTEX
  8
PLAN_1
  6
CONTINUOUS
 10
1.651661
 20
-3.920791
  0
VERTEX
  8
PLAN_1
  6
CONTINUOUS
 10
1.652173
 20
-3.928492
  0
VERTEX
  8
PLAN_1
  6
CONTINUOUS
 10
1.651661
 20
-3.933630
  0
VERTEX
  8
PLAN_1
  6
CONTINUOUS
 10
1.651150
 20
-3.938764
  0
VERTEX
  8
PLAN_1
  6
CONTINUOUS
 10
1.650634
 20
-3.942874
  0
VERTEX
  8
PLAN_1
  6
CONTINUOUS
 10
1.649606
 20
-3.946980
  0
VERTEX
  8
PLAN_1
  6
CONTINUOUS
 10
1.648067
 20
-3.951091
  0
VERTEX
  8
PLAN_1
  6
CONTINUOUS
 10
1.646528
 20
-3.954169
  0
VERTEX
  8
PLAN_1
  6
CONTINUOUS
 10
1.644984
 20
-3.957768
  0
VERTEX
  8
PLAN_1
  6
CONTINUOUS
 10
1.642929
 20
-3.960335
  0
VERTEX
  8
PLAN_1
  6
CONTINUOUS
 10
1.638311
 20
-3.965469
  0
VERTEX
  8
PLAN_1
  6
CONTINUOUS
 10
1.633689
 20
-3.969579
  0
VERTEX
  8
PLAN_1
  6
CONTINUOUS
 10
1.629067
 20
-3.973173
  0
VERTEX
  8
PLAN_1
  6
CONTINUOUS
 10
1.623929
 20
-3.976252
  0
VERTEX
  8
PLAN_1
  6
CONTINUOUS
 10
1.628551
 20
-3.977795
  0
VERTEX
  8
PLAN_1
  6
CONTINUOUS
 10
1.632661
 20
-3.979850
  0
VERTEX
  8
PLAN_1
  6
CONTINUOUS
 10
1.636256
 20
-3.982929
  0
VERTEX
  8
PLAN_1
  6
CONTINUOUS
 10
1.639850
 20
-3.986012
  0
VERTEX
  8
PLAN_1
  6
CONTINUOUS
 10
1.641390
 20
-3.988579
  0
VERTEX
  8
PLAN_1
  6
CONTINUOUS
 10
1.642929
 20
-3.990634
  0
VERTEX
  8
PLAN_1
  6
CONTINUOUS
 10
1.644472
 20
-3.993713
  0
VERTEX
  8
PLAN_1
  6
CONTINUOUS
 10
1.645500
 20
-3.996795
  0
VERTEX
  8
PLAN_1
  6
CONTINUOUS
 10
1.646528
 20
-4.000390
  0
VERTEX
  8
PLAN_1
  6
CONTINUOUS
 10
1.647039
 20
-4.003984
  0
VERTEX
  8
PLAN_1
  6
CONTINUOUS
 10
1.647551
 20
-4.008606
  0
VERTEX
  8
PLAN_1
  6
CONTINUOUS
 10
1.648067
 20
-4.013744
  0
VERTEX
  8
PLAN_1
  6
CONTINUOUS
 10
1.649606
 20
-4.049689
  0
VERTEX
  8
PLAN_1
  6
CONTINUOUS
 10
1.650122
 20
-4.053287
  0
VERTEX
  8
PLAN_1
  6
CONTINUOUS
 10
1.650122
 20
-4.056882
  0
VERTEX
  8
PLAN_1
  6
CONTINUOUS
 10
1.650634
 20
-4.059449
  0
VERTEX
  8
PLAN_1
  6
CONTINUOUS
 10
1.651661
 20
-4.062016
  0
VERTEX
  8
PLAN_1
  6
CONTINUOUS
 10
1.653201
 20
-4.064071
  0
VERTEX
  8
PLAN_1
  6
CONTINUOUS
 10
1.654744
 20
-4.066126
  0
VERTEX
  8
PLAN_1
  6
CONTINUOUS
 10
1.656795
 20
-4.067665
  0
VERTEX
  8
PLAN_1
  6
CONTINUOUS
 10
1.659878
 20
-4.069720
  0
VERTEX
  8
PLAN_1
  6
CONTINUOUS
 10
1.659878
 20
-4.073827
  0
VERTEX
  8
PLAN_1
  6
CONTINUOUS
 10
1.626496
 20
-4.073827
  0
VERTEX
  8
PLAN_1
  6
CONTINUOUS
 10
1.625469
 20
-4.068693
  0
VERTEX
  8
PLAN_1
  6
CONTINUOUS
 10
1.624445
 20
-4.062016
  0
VERTEX
  8
PLAN_1
  6
CONTINUOUS
 10
1.623417
 20
-4.054827
  0
VERTEX
  8
PLAN_1
  6
CONTINUOUS
 10
1.622902
 20
-4.047122
  0
VERTEX
  8
PLAN_1
  6
CONTINUOUS
 10
1.622390
 20
-4.039933
  0
VERTEX
  8
PLAN_1
  6
CONTINUOUS
 10
1.622390
 20
-4.033256
  0
VERTEX
  8
PLAN_1
  6
CONTINUOUS
 10
1.621874
 20
-4.028122
  0
VERTEX
  8
PLAN_1
  6
CONTINUOUS
 10
1.621874
 20
-4.024012
  0
VERTEX
  8
PLAN_1
  6
CONTINUOUS
 10
1.621874
 20
-4.017850
  0
VERTEX
  8
PLAN_1
  6
CONTINUOUS
 10
1.620850
 20
-4.011689
  0
VERTEX
  8
PLAN_1
  6
CONTINUOUS
 10
1.620335
 20
-4.008606
  0
VERTEX
  8
PLAN_1
  6
CONTINUOUS
 10
1.619307
 20
-4.005528
  0
VERTEX
  8
PLAN_1
  6
CONTINUOUS
 10
1.617768
 20
-4.002957
  0
VERTEX
  8
PLAN_1
  6
CONTINUOUS
 10
1.616228
 20
-4.000390
  0
VERTEX
  8
PLAN_1
  6
CONTINUOUS
 10
1.614173
 20
-3.997823
  0
VERTEX
  8
PLAN_1
  6
CONTINUOUS
 10
1.611606
 20
-3.995768
  0
VERTEX
  8
PLAN_1
  6
CONTINUOUS
 10
1.609035
 20
-3.993713
  0
VERTEX
  8
PLAN_1
  6
CONTINUOUS
 10
1.605441
 20
-3.991661
  0
VERTEX
  8
PLAN_1
  6
CONTINUOUS
 10
1.601846
 20
-3.990634
  0
VERTEX
  8
PLAN_1
  6
CONTINUOUS
 10
1.597224
 20
-3.989606
  0
VERTEX
  8
PLAN_1
  6
CONTINUOUS
 10
1.592091
 20
-3.988579
  0
VERTEX
  8
PLAN_1
  6
CONTINUOUS
 10
1.586441
 20
-3.988579
  0
VERTEX
  8
PLAN_1
  6
CONTINUOUS
 10
1.521220
 20
-3.988579
  0
VERTEX
  8
PLAN_1
  6
CONTINUOUS
 10
1.521220
 20
-4.073827
  0
SEQEND
  8
0
  0
POLYLINE
  8
PLAN_1
  6
CONTINUOUS
 66
     1
 40
0.003000
 41
0.003000
  0
VERTEX
  8
PLAN_1
  6
CONTINUOUS
 10
1.521220
 20
-3.965469
  0
VERTEX
  8
PLAN_1
  6
CONTINUOUS
 10
1.583874
 20
-3.965469
  0
VERTEX
  8
PLAN_1
  6
CONTINUOUS
 10
1.591063
 20
-3.965469
  0
VERTEX
  8
PLAN_1
  6
CONTINUOUS
 10
1.598252
 20
-3.964441
  0
VERTEX
  8
PLAN_1
  6
CONTINUOUS
 10
1.601846
 20
-3.963413
  0
VERTEX
  8
PLAN_1
  6
CONTINUOUS
 10
1.604929
 20
-3.962390
  0
VERTEX
  8
PLAN_1
  6
CONTINUOUS
 10
1.608524
 20
-3.960846
  0
VERTEX
  8
PLAN_1
  6
CONTINUOUS
 10
1.611091
 20
-3.959307
  0
VERTEX
  8
PLAN_1
  6
CONTINUOUS
 10
1.614173
 20
-3.957252
  0
VERTEX
  8
PLAN_1
  6
CONTINUOUS
 10
1.616740
 20
-3.955197
  0
VERTEX
  8
PLAN_1
  6
CONTINUOUS
 10
1.618795
 20
-3.952118
  0
VERTEX
  8
PLAN_1
  6
CONTINUOUS
 10
1.620850
 20
-3.949035
  0
VERTEX
  8
PLAN_1
  6
CONTINUOUS
 10
1.621874
 20
-3.945441
  0
VERTEX
  8
PLAN_1
  6
CONTINUOUS
 10
1.623417
 20
-3.940819
  0
VERTEX
  8
PLAN_1
  6
CONTINUOUS
 10
1.623929
 20
-3.936197
  0
VERTEX
  8
PLAN_1
  6
CONTINUOUS
 10
1.623929
 20
-3.931063
  0
VERTEX
  8
PLAN_1
  6
CONTINUOUS
 10
1.623929
 20
-3.925925
  0
VERTEX
  8
PLAN_1
  6
CONTINUOUS
 10
1.623417
 20
-3.920791
  0
VERTEX
  8
PLAN_1
  6
CONTINUOUS
 10
1.621874
 20
-3.916681
  0
VERTEX
  8
PLAN_1
  6
CONTINUOUS
 10
1.620335
 20
-3.913087
  0
VERTEX
  8
PLAN_1
  6
CONTINUOUS
 10
1.618795
 20
-3.910008
  0
VERTEX
  8
PLAN_1
  6
CONTINUOUS
 10
1.616228
 20
-3.906925
  0
VERTEX
  8
PLAN_1
  6
CONTINUOUS
 10
1.613657
 20
-3.904870
  0
VERTEX
  8
PLAN_1
  6
CONTINUOUS
 10
1.611091
 20
-3.902815
  0
VERTEX
  8
PLAN_1
  6
CONTINUOUS
 10
1.608524
 20
-3.901276
  0
VERTEX
  8
PLAN_1
  6
CONTINUOUS
 10
1.605441
 20
-3.900248
  0
VERTEX
  8
PLAN_1
  6
CONTINUOUS
 10
1.602362
 20
-3.899220
  0
VERTEX
  8
PLAN_1
  6
CONTINUOUS
 10
1.599791
 20
-3.898709
  0
VERTEX
  8
PLAN_1
  6
CONTINUOUS
 10
1.593630
 20
-3.898193
  0
VERTEX
  8
PLAN_1
  6
CONTINUOUS
 10
1.588496
 20
-3.897681
  0
VERTEX
  8
PLAN_1
  6
CONTINUOUS
 10
1.521220
 20
-3.897681
  0
VERTEX
  8
PLAN_1
  6
CONTINUOUS
 10
1.521220
 20
-3.965469
  0
SEQEND
  8
0
  0
SOLID
  8
PLAN_1
 10
1.723559
 20
-4.073827
 11
1.694287
 21
-4.073827
 12
1.723559
 22
-4.044555
 13
1.694287
 23
-4.044555
  0
POLYLINE
  8
PLAN_1
  6
CONTINUOUS
 66
     1
 40
0.003000
 41
0.003000
  0
VERTEX
  8
PLAN_1
  6
CONTINUOUS
 10
1.723559
 20
-4.073827
  0
VERTEX
  8
PLAN_1
  6
CONTINUOUS
 10
1.694287
 20
-4.073827
  0
VERTEX
  8
PLAN_1
  6
CONTINUOUS
 10
1.694287
 20
-4.044555
  0
VERTEX
  8
PLAN_1
  6
CONTINUOUS
 10
1.723559
 20
-4.044555
  0
VERTEX
  8
PLAN_1
  6
CONTINUOUS
 10
1.723559
 20
-4.073827
  0
SEQEND
  8
0
  0
POLYLINE
  8
PLAN_1
  6
CONTINUOUS
 66
     1
 40
0.003000
 41
0.003000
  0
VERTEX
  8
PLAN_1
  6
CONTINUOUS
 10
1.918705
 20
-4.073827
  0
VERTEX
  8
PLAN_1
  6
CONTINUOUS
 10
1.771319
 20
-4.073827
  0
VERTEX
  8
PLAN_1
  6
CONTINUOUS
 10
1.771319
 20
-3.874571
  0
VERTEX
  8
PLAN_1
  6
CONTINUOUS
 10
1.916650
 20
-3.874571
  0
VERTEX
  8
PLAN_1
  6
CONTINUOUS
 10
1.916650
 20
-3.898709
  0
VERTEX
  8
PLAN_1
  6
CONTINUOUS
 10
1.798535
 20
-3.898709
  0
VERTEX
  8
PLAN_1
  6
CONTINUOUS
 10
1.798535
 20
-3.959819
  0
VERTEX
  8
PLAN_1
  6
CONTINUOUS
 10
1.907409
 20
-3.959819
  0
VERTEX
  8
PLAN_1
  6
CONTINUOUS
 10
1.907409
 20
-3.983445
  0
VERTEX
  8
PLAN_1
  6
CONTINUOUS
 10
1.798535
 20
-3.983445
  0
VERTEX
  8
PLAN_1
  6
CONTINUOUS
 10
1.798535
 20
-4.050205
  0
VERTEX
  8
PLAN_1
  6
CONTINUOUS
 10
1.918705
 20
-4.050205
  0
VERTEX
  8
PLAN_1
  6
CONTINUOUS
 10
1.918705
 20
-4.073827
  0
SEQEND
  8
0
  0
POLYLINE
  8
PLAN_1
  6
CONTINUOUS
 66
     1
 40
0.003000
 41
0.003000
  0
VERTEX
  8
PLAN_1
  6
CONTINUOUS
 10
1.983413
 20
-4.073827
  0
VERTEX
  8
PLAN_1
  6
CONTINUOUS
 10
1.956709
 20
-4.073827
  0
VERTEX
  8
PLAN_1
  6
CONTINUOUS
 10
1.956709
 20
-3.874571
  0
VERTEX
  8
PLAN_1
  6
CONTINUOUS
 10
2.046067
 20
-3.874571
  0
VERTEX
  8
PLAN_1
  6
CONTINUOUS
 10
2.052740
 20
-3.875087
  0
VERTEX
  8
PLAN_1
  6
CONTINUOUS
 10
2.059417
 20
-3.876110
  0
VERTEX
  8
PLAN_1
  6
CONTINUOUS
 10
2.065579
 20
-3.877138
  0
VERTEX
  8
PLAN_1
  6
CONTINUOUS
 10
2.071228
 20
-3.879193
  0
VERTEX
  8
PLAN_1
  6
CONTINUOUS
 10
2.076366
 20
-3.881248
  0
VERTEX
  8
PLAN_1
  6
CONTINUOUS
 10
2.080988
 20
-3.883815
  0
VERTEX
  8
PLAN_1
  6
CONTINUOUS
 10
2.085610
 20
-3.887409
  0
VERTEX
  8
PLAN_1
  6
CONTINUOUS
 10
2.089717
 20
-3.891004
  0
VERTEX
  8
PLAN_1
  6
CONTINUOUS
 10
2.093311
 20
-3.894598
  0
VERTEX
  8
PLAN_1
  6
CONTINUOUS
 10
2.096394
 20
-3.899220
  0
VERTEX
  8
PLAN_1
  6
CONTINUOUS
 10
2.098961
 20
-3.903843
  0
VERTEX
  8
PLAN_1
  6
CONTINUOUS
 10
2.101528
 20
-3.908465
  0
VERTEX
  8
PLAN_1
  6
CONTINUOUS
 10
2.103071
 20
-3.913602
  0
VERTEX
  8
PLAN_1
  6
CONTINUOUS
 10
2.104094
 20
-3.919252
  0
VERTEX
  8
PLAN_1
  6
CONTINUOUS
 10
2.105122
 20
-3.924898
  0
VERTEX
  8
PLAN_1
  6
CONTINUOUS
 10
2.105122
 20
-3.931063
  0
VERTEX
  8
PLAN_1
  6
CONTINUOUS
 10
2.105122
 20
-3.936197
  0
VERTEX
  8
PLAN_1
  6
CONTINUOUS
 10
2.104610
 20
-3.941331
  0
VERTEX
  8
PLAN_1
  6
CONTINUOUS
 10
2.103583
 20
-3.946469
  0
VERTEX
  8
PLAN_1
  6
CONTINUOUS
 10
2.102043
 20
-3.951602
  0
VERTEX
  8
PLAN_1
  6
CONTINUOUS
 10
2.100500
 20
-3.956740
  0
VERTEX
  8
PLAN_1
  6
CONTINUOUS
 10
2.097933
 20
-3.961874
  0
VERTEX
  8
PLAN_1
  6
CONTINUOUS
 10
2.095366
 20
-3.966496
  0
VERTEX
  8
PLAN_1
  6
CONTINUOUS
 10
2.091772
 20
-3.970606
  0
VERTEX
  8
PLAN_1
  6
CONTINUOUS
 10
2.088177
 20
-3.974713
  0
VERTEX
  8
PLAN_1
  6
CONTINUOUS
 10
2.084067
 20
-3.978823
  0
VERTEX
  8
PLAN_1
  6
CONTINUOUS
 10
2.078933
 20
-3.981902
  0
VERTEX
  8
PLAN_1
  6
CONTINUOUS
 10
2.073795
 20
-3.984469
  0
VERTEX
  8
PLAN_1
  6
CONTINUOUS
 10
2.067634
 20
-3.987039
  0
VERTEX
  8
PLAN_1
  6
CONTINUOUS
 10
2.060957
 20
-3.988579
  0
VERTEX
  8
PLAN_1
  6
CONTINUOUS
 10
2.053768
 20
-3.989606
  0
VERTEX
  8
PLAN_1
  6
CONTINUOUS
 10
2.046067
 20
-3.990118
  0
VERTEX
  8
PLAN_1
  6
CONTINUOUS
 10
1.983413
 20
-3.990118
  0
VERTEX
  8
PLAN_1
  6
CONTINUOUS
 10
1.983413
 20
-4.073827
  0
SEQEND
  8
0
  0
POLYLINE
  8
PLAN_1
  6
CONTINUOUS
 66
     1
 40
0.003000
 41
0.003000
  0
VERTEX
  8
PLAN_1
  6
CONTINUOUS
 10
1.983413
 20
-3.967012
  0
VERTEX
  8
PLAN_1
  6
CONTINUOUS
 10
2.036823
 20
-3.967012
  0
VERTEX
  8
PLAN_1
  6
CONTINUOUS
 10
2.041445
 20
-3.967012
  0
VERTEX
  8
PLAN_1
  6
CONTINUOUS
 10
2.045551
 20
-3.966496
  0
VERTEX
  8
PLAN_1
  6
CONTINUOUS
 10
2.049661
 20
-3.965984
  0
VERTEX
  8
PLAN_1
  6
CONTINUOUS
 10
2.053768
 20
-3.964957
  0
VERTEX
  8
PLAN_1
  6
CONTINUOUS
 10
2.057362
 20
-3.963929
  0
VERTEX
  8
PLAN_1
  6
CONTINUOUS
 10
2.060445
 20
-3.962902
  0
VERTEX
  8
PLAN_1
  6
CONTINUOUS
 10
2.063528
 20
-3.960846
  0
VERTEX
  8
PLAN_1
  6
CONTINUOUS
 10
2.066606
 20
-3.959307
  0
VERTEX
  8
PLAN_1
  6
CONTINUOUS
 10
2.068661
 20
-3.956740
  0
VERTEX
  8
PLAN_1
  6
CONTINUOUS
 10
2.071228
 20
-3.954169
  0
VERTEX
  8
PLAN_1
  6
CONTINUOUS
 10
2.073283
 20
-3.951602
  0
VERTEX
  8
PLAN_1
  6
CONTINUOUS
 10
2.074823
 20
-3.948008
  0
VERTEX
  8
PLAN_1
  6
CONTINUOUS
 10
2.075850
 20
-3.944413
  0
VERTEX
  8
PLAN_1
  6
CONTINUOUS
 10
2.076878
 20
-3.940307
  0
VERTEX
  8
PLAN_1
  6
CONTINUOUS
 10
2.077390
 20
-3.936197
  0
VERTEX
  8
PLAN_1
  6
CONTINUOUS
 10
2.077390
 20
-3.931063
  0
VERTEX
  8
PLAN_1
  6
CONTINUOUS
 10
2.077390
 20
-3.926441
  0
VERTEX
  8
PLAN_1
  6
CONTINUOUS
 10
2.076878
 20
-3.922331
  0
VERTEX
  8
PLAN_1
  6
CONTINUOUS
 10
2.075850
 20
-3.918736
  0
VERTEX
  8
PLAN_1
  6
CONTINUOUS
 10
2.074311
 20
-3.915142
  0
VERTEX
  8
PLAN_1
  6
CONTINUOUS
 10
2.072772
 20
-3.912059
  0
VERTEX
  8
PLAN_1
  6
CONTINUOUS
 10
2.070717
 20
-3.909492
  0
VERTEX
  8
PLAN_1
  6
CONTINUOUS
 10
2.068661
 20
-3.906925
  0
VERTEX
  8
PLAN_1
  6
CONTINUOUS
 10
2.066094
 20
-3.904870
  0
VERTEX
  8
PLAN_1
  6
CONTINUOUS
 10
2.063528
 20
-3.903331
  0
VERTEX
  8
PLAN_1
  6
CONTINUOUS
 10
2.060445
 20
-3.901791
  0
VERTEX
  8
PLAN_1
  6
CONTINUOUS
 10
2.057362
 20
-3.900248
  0
VERTEX
  8
PLAN_1
  6
CONTINUOUS
 10
2.053768
 20
-3.899736
  0
VERTEX
  8
PLAN_1
  6
CONTINUOUS
 10
2.046067
 20
-3.898193
  0
VERTEX
  8
PLAN_1
  6
CONTINUOUS
 10
2.038362
 20
-3.897681
  0
VERTEX
  8
PLAN_1
  6
CONTINUOUS
 10
1.983413
 20
-3.897681
  0
VERTEX
  8
PLAN_1
  6
CONTINUOUS
 10
1.983413
 20
-3.967012
  0
SEQEND
  8
0
  0
POLYLINE
  8
PLAN_1
  6
CONTINUOUS
 66
     1
 40
0.003000
 41
0.003000
  0
VERTEX
  8
PLAN_1
  6
CONTINUOUS
 10
2.259189
 20
-3.933114
  0
VERTEX
  8
PLAN_1
  6
CONTINUOUS
 10
2.258673
 20
-3.927469
  0
VERTEX
  8
PLAN_1
  6
CONTINUOUS
 10
2.257646
 20
-3.922331
  0
VERTEX
  8
PLAN_1
  6
CONTINUOUS
 10
2.256106
 20
-3.917709
  0
VERTEX
  8
PLAN_1
  6
CONTINUOUS
 10
2.254051
 20
-3.913602
  0
VERTEX
  8
PLAN_1
  6
CONTINUOUS
 10
2.251484
 20
-3.910008
  0
VERTEX
  8
PLAN_1
  6
CONTINUOUS
 10
2.248917
 20
-3.906925
  0
VERTEX
  8
PLAN_1
  6
CONTINUOUS
 10
2.245835
 20
-3.903843
  0
VERTEX
  8
PLAN_1
  6
CONTINUOUS
 10
2.242240
 20
-3.901276
  0
VERTEX
  8
PLAN_1
  6
CONTINUOUS
 10
2.238646
 20
-3.899220
  0
VERTEX
  8
PLAN_1
  6
CONTINUOUS
 10
2.235051
 20
-3.897169
  0
VERTEX
  8
PLAN_1
  6
CONTINUOUS
 10
2.230941
 20
-3.895626
  0
VERTEX
  8
PLAN_1
  6
CONTINUOUS
 10
2.226835
 20
-3.894598
  0
VERTEX
  8
PLAN_1
  6
CONTINUOUS
 10
2.222724
 20
-3.893571
  0
VERTEX
  8
PLAN_1
  6
CONTINUOUS
 10
2.218102
 20
-3.893059
  0
VERTEX
  8
PLAN_1
  6
CONTINUOUS
 10
2.213996
 20
-3.892547
  0
VERTEX
  8
PLAN_1
  6
CONTINUOUS
 10
2.209886
 20
-3.892547
  0
VERTEX
  8
PLAN_1
  6
CONTINUOUS
 10
2.203209
 20
-3.893059
  0
VERTEX
  8
PLAN_1
  6
CONTINUOUS
 10
2.195508
 20
-3.893571
  0
VERTEX
  8
PLAN_1
  6
CONTINUOUS
 10
2.191913
 20
-3.894598
  0
VERTEX
  8
PLAN_1
  6
CONTINUOUS
 10
2.187803
 20
-3.895626
  0
VERTEX
  8
PLAN_1
  6
CONTINUOUS
 10
2.184209
 20
-3.897169
  0
VERTEX
  8
PLAN_1
  6
CONTINUOUS
 10
2.180614
 20
-3.898709
  0
VERTEX
  8
PLAN_1
  6
CONTINUOUS
 10
2.177531
 20
-3.900764
  0
VERTEX
  8
PLAN_1
  6
CONTINUOUS
 10
2.174453
 20
-3.903331
  0
VERTEX
  8
PLAN_1
  6
CONTINUOUS
 10
2.171370
 20
-3.905898
  0
VERTEX
  8
PLAN_1
  6
CONTINUOUS
 10
2.168803
 20
-3.909492
  0
VERTEX
  8
PLAN_1
  6
CONTINUOUS
 10
2.167264
 20
-3.913087
  0
VERTEX
  8
PLAN_1
  6
CONTINUOUS
 10
2.165720
 20
-3.917197
  0
VERTEX
  8
PLAN_1
  6
CONTINUOUS
 10
2.164693
 20
-3.922331
  0
VERTEX
  8
PLAN_1
  6
CONTINUOUS
 10
2.164181
 20
-3.927469
  0
VERTEX
  8
PLAN_1
  6
CONTINUOUS
 10
2.164181
 20
-3.930547
  0
VERTEX
  8
PLAN_1
  6
CONTINUOUS
 10
2.164693
 20
-3.933114
  0
VERTEX
  8
PLAN_1
  6
CONTINUOUS
 10
2.165209
 20
-3.935685
  0
VERTEX
  8
PLAN_1
  6
CONTINUOUS
 10
2.166236
 20
-3.938252
  0
VERTEX
  8
PLAN_1
  6
CONTINUOUS
 10
2.168803
 20
-3.942358
  0
VERTEX
  8
PLAN_1
  6
CONTINUOUS
 10
2.171886
 20
-3.945441
  0
VERTEX
  8
PLAN_1
  6
CONTINUOUS
 10
2.175480
 20
-3.948008
  0
VERTEX
  8
PLAN_1
  6
CONTINUOUS
 10
2.179075
 20
-3.950063
  0
VERTEX
  8
PLAN_1
  6
CONTINUOUS
 10
2.183697
 20
-3.951602
  0
VERTEX
  8
PLAN_1
  6
CONTINUOUS
 10
2.187803
 20
-3.952630
  0
VERTEX
  8
PLAN_1
  6
CONTINUOUS
 10
2.244807
 20
-3.965984
  0
VERTEX
  8
PLAN_1
  6
CONTINUOUS
 10
2.249429
 20
-3.967012
  0
VERTEX
  8
PLAN_1
  6
CONTINUOUS
 10
2.254051
 20
-3.968551
  0
VERTEX
  8
PLAN_1
  6
CONTINUOUS
 10
2.258673
 20
-3.970091
  0
VERTEX
  8
PLAN_1
  6
CONTINUOUS
 10
2.262783
 20
-3.972146
  0
VERTEX
  8
PLAN_1
  6
CONTINUOUS
 10
2.266890
 20
-3.974713
  0
VERTEX
  8
PLAN_1
  6
CONTINUOUS
 10
2.270484
 20
-3.977280
  0
VERTEX
  8
PLAN_1
  6
CONTINUOUS
 10
2.274079
 20
-3.979850
  0
VERTEX
  8
PLAN_1
  6
CONTINUOUS
 10
2.277161
 20
-3.982929
  0
VERTEX
  8
PLAN_1
  6
CONTINUOUS
 10
2.279728
 20
-3.986524
  0
VERTEX
  8
PLAN_1
  6
CONTINUOUS
 10
2.282295
 20
-3.990118
  0
VERTEX
  8
PLAN_1
  6
CONTINUOUS
 10
2.284866
 20
-3.993713
  0
VERTEX
  8
PLAN_1
  6
CONTINUOUS
 10
2.286406
 20
-3.998335
  0
VERTEX
  8
PLAN_1
  6
CONTINUOUS
 10
2.287945
 20
-4.002957
  0
VERTEX
  8
PLAN_1
  6
CONTINUOUS
 10
2.288972
 20
-4.008094
  0
VERTEX
  8
PLAN_1
  6
CONTINUOUS
 10
2.290000
 20
-4.013228
  0
VERTEX
  8
PLAN_1
  6
CONTINUOUS
 10
2.290000
 20
-4.018878
  0
VERTEX
  8
PLAN_1
  6
CONTINUOUS
 10
2.290000
 20
-4.023500
  0
VERTEX
  8
PLAN_1
  6
CONTINUOUS
 10
2.289488
 20
-4.027610
  0
VERTEX
  8
PLAN_1
  6
CONTINUOUS
 10
2.288972
 20
-4.031717
  0
VERTEX
  8
PLAN_1
  6
CONTINUOUS
 10
2.287945
 20
-4.035311
  0
VERTEX
  8
PLAN_1
  6
CONTINUOUS
 10
2.285890
 20
-4.041988
  0
VERTEX
  8
PLAN_1
  6
CONTINUOUS
 10
2.282811
 20
-4.048665
  0
VERTEX
  8
PLAN_1
  6
CONTINUOUS
 10
2.278701
 20
-4.053799
  0
VERTEX
  8
PLAN_1
  6
CONTINUOUS
 10
2.274079
 20
-4.058933
  0
VERTEX
  8
PLAN_1
  6
CONTINUOUS
 10
2.269457
 20
-4.063043
  0
VERTEX
  8
PLAN_1
  6
CONTINUOUS
 10
2.263811
 20
-4.067150
  0
VERTEX
  8
PLAN_1
  6
CONTINUOUS
 10
2.257646
 20
-4.070232
  0
VERTEX
  8
PLAN_1
  6
CONTINUOUS
 10
2.251484
 20
-4.072799
  0
VERTEX
  8
PLAN_1
  6
CONTINUOUS
 10
2.245323
 20
-4.074854
  0
VERTEX
  8
PLAN_1
  6
CONTINUOUS
 10
2.238646
 20
-4.076394
  0
VERTEX
  8
PLAN_1
  6
CONTINUOUS
 10
2.231969
 20
-4.077937
  0
VERTEX
  8
PLAN_1
  6
CONTINUOUS
 10
2.225291
 20
-4.078449
  0
VERTEX
  8
PLAN_1
  6
CONTINUOUS
 10
2.218618
 20
-4.078965
  0
VERTEX
  8
PLAN_1
  6
CONTINUOUS
 10
2.211941
 20
-4.079476
  0
VERTEX
  8
PLAN_1
  6
CONTINUOUS
 10
2.199102
 20
-4.078965
  0
VERTEX
  8
PLAN_1
  6
CONTINUOUS
 10
2.188319
 20
-4.077421
  0
VERTEX
  8
PLAN_1
  6
CONTINUOUS
 10
2.179075
 20
-4.075370
  0
VERTEX
  8
PLAN_1
  6
CONTINUOUS
 10
2.171370
 20
-4.072799
  0
VERTEX
  8
PLAN_1
  6
CONTINUOUS
 10
2.165209
 20
-4.069720
  0
VERTEX
  8
PLAN_1
  6
CONTINUOUS
 10
2.159559
 20
-4.066638
  0
VERTEX
  8
PLAN_1
  6
CONTINUOUS
 10
2.155449
 20
-4.063555
  0
VERTEX
  8
PLAN_1
  6
CONTINUOUS
 10
2.151854
 20
-4.059961
  0
VERTEX
  8
PLAN_1
  6
CONTINUOUS
 10
2.146209
 20
-4.054311
  0
VERTEX
  8
PLAN_1
  6
CONTINUOUS
 10
2.141587
 20
-4.048665
  0
VERTEX
  8
PLAN_1
  6
CONTINUOUS
 10
2.137988
 20
-4.042500
  0
VERTEX
  8
PLAN_1
  6
CONTINUOUS
 10
2.135421
 20
-4.036339
  0
VERTEX
  8
PLAN_1
  6
CONTINUOUS
 10
2.133370
 20
-4.029661
  0
VERTEX
  8
PLAN_1
  6
CONTINUOUS
 10
2.132343
 20
-4.023500
  0
VERTEX
  8
PLAN_1
  6
CONTINUOUS
 10
2.131827
 20
-4.016311
  0
VERTEX
  8
PLAN_1
  6
CONTINUOUS
 10
2.131315
 20
-4.009634
  0
VERTEX
  8
PLAN_1
  6
CONTINUOUS
 10
2.156992
 20
-4.009634
  0
VERTEX
  8
PLAN_1
  6
CONTINUOUS
 10
2.156992
 20
-4.016311
  0
VERTEX
  8
PLAN_1
  6
CONTINUOUS
 10
2.158020
 20
-4.021961
  0
VERTEX
  8
PLAN_1
  6
CONTINUOUS
 10
2.159559
 20
-4.027610
  0
VERTEX
  8
PLAN_1
  6
CONTINUOUS
 10
2.161614
 20
-4.032228
  0
VERTEX
  8
PLAN_1
  6
CONTINUOUS
 10
2.164181
 20
-4.036339
  0
VERTEX
  8
PLAN_1
  6
CONTINUOUS
 10
2.167264
 20
-4.040449
  0
VERTEX
  8
PLAN_1
  6
CONTINUOUS
 10
2.170858
 20
-4.043528
  0
VERTEX
  8
PLAN_1
  6
CONTINUOUS
 10
2.174453
 20
-4.046610
  0
VERTEX
  8
PLAN_1
  6
CONTINUOUS
 10
2.178559
 20
-4.049177
  0
VERTEX
  8
PLAN_1
  6
CONTINUOUS
 10
2.183181
 20
-4.051232
  0
VERTEX
  8
PLAN_1
  6
CONTINUOUS
 10
2.187803
 20
-4.052772
  0
VERTEX
  8
PLAN_1
  6
CONTINUOUS
 10
2.192425
 20
-4.054311
  0
VERTEX
  8
PLAN_1
  6
CONTINUOUS
 10
2.197047
 20
-4.055339
  0
VERTEX
  8
PLAN_1
  6
CONTINUOUS
 10
2.202185
 20
-4.055854
  0
VERTEX
  8
PLAN_1
  6
CONTINUOUS
 10
2.206807
 20
-4.056366
  0
VERTEX
  8
PLAN_1
  6
CONTINUOUS
 10
2.211941
 20
-4.056366
  0
VERTEX
  8
PLAN_1
  6
CONTINUOUS
 10
2.219646
 20
-4.055854
  0
VERTEX
  8
PLAN_1
  6
CONTINUOUS
 10
2.227862
 20
-4.054827
  0
VERTEX
  8
PLAN_1
  6
CONTINUOUS
 10
2.232484
 20
-4.054311
  0
VERTEX
  8
PLAN_1
  6
CONTINUOUS
 10
2.236591
 20
-4.053287
  0
VERTEX
  8
PLAN_1
  6
CONTINUOUS
 10
2.241213
 20
-4.051744
  0
VERTEX
  8
PLAN_1
  6
CONTINUOUS
 10
2.245323
 20
-4.050205
  0
VERTEX
  8
PLAN_1
  6
CONTINUOUS
 10
2.248917
 20
-4.048150
  0
VERTEX
  8
PLAN_1
  6
CONTINUOUS
 10
2.252512
 20
-4.046094
  0
VERTEX
  8
PLAN_1
  6
CONTINUOUS
 10
2.255591
 20
-4.043016
  0
VERTEX
  8
PLAN_1
  6
CONTINUOUS
 10
2.258673
 20
-4.039933
  0
VERTEX
  8
PLAN_1
  6
CONTINUOUS
 10
2.260728
 20
-4.036339
  0
VERTEX
  8
PLAN_1
  6
CONTINUOUS
 10
2.262268
 20
-4.032228
  0
VERTEX
  8
PLAN_1
  6
CONTINUOUS
 10
2.263295
 20
-4.027610
  0
VERTEX
  8
PLAN_1
  6
CONTINUOUS
 10
2.263811
 20
-4.022472
  0
VERTEX
  8
PLAN_1
  6
CONTINUOUS
 10
2.263811
 20
-4.018878
  0
VERTEX
  8
PLAN_1
  6
CONTINUOUS
 10
2.263295
 20
-4.015795
  0
VERTEX
  8
PLAN_1
  6
CONTINUOUS
 10
2.262783
 20
-4.012201
  0
VERTEX
  8
PLAN_1
  6
CONTINUOUS
 10
2.261756
 20
-4.009634
  0
VERTEX
  8
PLAN_1
  6
CONTINUOUS
 10
2.260728
 20
-4.007067
  0
VERTEX
  8
PLAN_1
  6
CONTINUOUS
 10
2.259189
 20
-4.004500
  0
VERTEX
  8
PLAN_1
  6
CONTINUOUS
 10
2.257134
 20
-4.002445
  0
VERTEX
  8
PLAN_1
  6
CONTINUOUS
 10
2.255079
 20
-4.000390
  0
VERTEX
  8
PLAN_1
  6
CONTINUOUS
 10
2.252512
 20
-3.998335
  0
VERTEX
  8
PLAN_1
  6
CONTINUOUS
 10
2.249429
 20
-3.996795
  0
VERTEX
  8
PLAN_1
  6
CONTINUOUS
 10
2.245835
 20
-3.994740
  0
VERTEX
  8
PLAN_1
  6
CONTINUOUS
 10
2.241728
 20
-3.993201
  0
VERTEX
  8
PLAN_1
  6
CONTINUOUS
 10
2.232484
 20
-3.990118
  0
VERTEX
  8
PLAN_1
  6
CONTINUOUS
 10
2.221697
 20
-3.987551
  0
VERTEX
  8
PLAN_1
  6
CONTINUOUS
 10
2.180614
 20
-3.977795
  0
VERTEX
  8
PLAN_1
  6
CONTINUOUS
 10
2.174965
 20
-3.976768
  0
VERTEX
  8
PLAN_1
  6
CONTINUOUS
 10
2.168291
 20
-3.974201
  0
VERTEX
  8
PLAN_1
  6
CONTINUOUS
 10
2.165209
 20
-3.972657
  0
VERTEX
  8
PLAN_1
  6
CONTINUOUS
 10
2.161614
 20
-3.971118
  0
VERTEX
  8
PLAN_1
  6
CONTINUOUS
 10
2.158020
 20
-3.969063
  0
VERTEX
  8
PLAN_1
  6
CONTINUOUS
 10
2.154425
 20
-3.966496
  0
VERTEX
  8
PLAN_1
  6
CONTINUOUS
 10
2.151343
 20
-3.963413
  0
VERTEX
  8
PLAN_1
  6
CONTINUOUS
 10
2.148260
 20
-3.960335
  0
VERTEX
  8
PLAN_1
  6
CONTINUOUS
 10
2.145181
 20
-3.956740
  0
VERTEX
  8
PLAN_1
  6
CONTINUOUS
 10
2.143126
 20
-3.952630
  0
VERTEX
  8
PLAN_1
  6
CONTINUOUS
 10
2.141071
 20
-3.948008
  0
VERTEX
  8
PLAN_1
  6
CONTINUOUS
 10
2.139531
 20
-3.942874
  0
VERTEX
  8
PLAN_1
  6
CONTINUOUS
 10
2.138504
 20
-3.937224
  0
VERTEX
  8
PLAN_1
  6
CONTINUOUS
 10
2.137988
 20
-3.931063
  0
VERTEX
  8
PLAN_1
  6
CONTINUOUS
 10
2.138504
 20
-3.925413
  0
VERTEX
  8
PLAN_1
  6
CONTINUOUS
 10
2.139016
 20
-3.919764
  0
VERTEX
  8
PLAN_1
  6
CONTINUOUS
 10
2.140559
 20
-3.914114
  0
VERTEX
  8
PLAN_1
  6
CONTINUOUS
 10
2.142098
 20
-3.908465
  0
VERTEX
  8
PLAN_1
  6
CONTINUOUS
 10
2.144154
 20
-3.903331
  0
VERTEX
  8
PLAN_1
  6
CONTINUOUS
 10
2.147232
 20
-3.898193
  0
VERTEX
  8
PLAN_1
  6
CONTINUOUS
 10
2.150315
 20
-3.893059
  0
VERTEX
  8
PLAN_1
  6
CONTINUOUS
 10
2.154425
 20
-3.888437
  0
VERTEX
  8
PLAN_1
  6
CONTINUOUS
 10
2.159047
 20
-3.884331
  0
VERTEX
  8
PLAN_1
  6
CONTINUOUS
 10
2.163669
 20
-3.880732
  0
VERTEX
  8
PLAN_1
  6
CONTINUOUS
 10
2.169315
 20
-3.877654
  0
VERTEX
  8
PLAN_1
  6
CONTINUOUS
 10
2.175480
 20
-3.874571
  0
VERTEX
  8
PLAN_1
  6
CONTINUOUS
 10
2.182669
 20
-3.872516
  0
VERTEX
  8
PLAN_1
  6
CONTINUOUS
 10
2.189858
 20
-3.870976
  0
VERTEX
  8
PLAN_1
  6
CONTINUOUS
 10
2.198075
 20
-3.869949
  0
VERTEX
  8
PLAN_1
  6
CONTINUOUS
 10
2.206807
 20
-3.869437
  0
VERTEX
  8
PLAN_1
  6
CONTINUOUS
 10
2.219130
 20
-3.869949
  0
VERTEX
  8
PLAN_1
  6
CONTINUOUS
 10
2.229913
 20
-3.871488
  0
VERTEX
  8
PLAN_1
  6
CONTINUOUS
 10
2.239673
 20
-3.873543
  0
VERTEX
  8
PLAN_1
  6
CONTINUOUS
 10
2.247890
 20
-3.876626
  0
VERTEX
  8
PLAN_1
  6
CONTINUOUS
 10
2.255591
 20
-3.879709
  0
VERTEX
  8
PLAN_1
  6
CONTINUOUS
 10
2.261756
 20
-3.883815
  0
VERTEX
  8
PLAN_1
  6
CONTINUOUS
 10
2.266890
 20
-3.888437
  0
VERTEX
  8
PLAN_1
  6
CONTINUOUS
 10
2.271512
 20
-3.893059
  0
VERTEX
  8
PLAN_1
  6
CONTINUOUS
 10
2.275106
 20
-3.898193
  0
VERTEX
  8
PLAN_1
  6
CONTINUOUS
 10
2.277673
 20
-3.903331
  0
VERTEX
  8
PLAN_1
  6
CONTINUOUS
 10
2.279728
 20
-3.908465
  0
VERTEX
  8
PLAN_1
  6
CONTINUOUS
 10
2.281783
 20
-3.914114
  0
VERTEX
  8
PLAN_1
  6
CONTINUOUS
 10
2.282811
 20
-3.919252
  0
VERTEX
  8
PLAN_1
  6
CONTINUOUS
 10
2.283839
 20
-3.923870
  0
VERTEX
  8
PLAN_1
  6
CONTINUOUS
 10
2.284350
 20
-3.929008
  0
VERTEX
  8
PLAN_1
  6
CONTINUOUS
 10
2.284350
 20
-3.933114
  0
VERTEX
  8
PLAN_1
  6
CONTINUOUS
 10
2.259189
 20
-3.933114
  0
SEQEND
  8
0
  0
POLYLINE
  8
PLAN_1
  6
CONTINUOUS
 66
     1
 40
0.008217
 41
0.008217
  0
VERTEX
  8
PLAN_1
  6
CONTINUOUS
 10
-2.086445
 20
0.317512
  0
VERTEX
  8
PLAN_1
  6
CONTINUOUS
 10
-2.086445
 20
0.854681
  0
VERTEX
  8
PLAN_1
  6
CONTINUOUS
 10
-2.213807
 20
0.854681
  0
VERTEX
  8
PLAN_1
  6
CONTINUOUS
 10
-2.213807
 20
0.317512
  0
VERTEX
  8
PLAN_1
  6
CONTINUOUS
 10
-2.086445
 20
0.317512
  0
SEQEND
  8
0
  0
POLYLINE
  8
PLAN_1
  6
CONTINUOUS
 66
     1
 40
0.005646
 41
0.005646
  0
VERTEX
  8
PLAN_1
  6
CONTINUOUS
 10
-2.185047
 20
0.717563
  0
VERTEX
  8
PLAN_1
  6
CONTINUOUS
 10
-2.090039
 20
0.717563
  0
SEQEND
  8
0
  0
POLYLINE
  8
PLAN_1
  6
CONTINUOUS
 66
     1
 40
0.005646
 41
0.005646
  0
VERTEX
  8
PLAN_1
  6
CONTINUOUS
 10
-2.185047
 20
0.454114
  0
VERTEX
  8
PLAN_1
  6
CONTINUOUS
 10
-2.090039
 20
0.454114
  0
SEQEND
  8
0
  0
POLYLINE
  8
PLAN_1
  6
CONTINUOUS
 66
     1
 40
0.005646
 41
0.005646
  0
VERTEX
  8
PLAN_1
  6
CONTINUOUS
 10
-2.189154
 20
0.854169
  0
VERTEX
  8
PLAN_1
  6
CONTINUOUS
 10
-2.190697
 20
0.851087
  0
VERTEX
  8
PLAN_1
  6
CONTINUOUS
 10
-2.194291
 20
0.842354
  0
VERTEX
  8
PLAN_1
  6
CONTINUOUS
 10
-2.196346
 20
0.836193
  0
VERTEX
  8
PLAN_1
  6
CONTINUOUS
 10
-2.198398
 20
0.828488
  0
VERTEX
  8
PLAN_1
  6
CONTINUOUS
 10
-2.200453
 20
0.820272
  0
VERTEX
  8
PLAN_1
  6
CONTINUOUS
 10
-2.202508
 20
0.811031
  0
VERTEX
  8
PLAN_1
  6
CONTINUOUS
 10
-2.203535
 20
0.800760
  0
VERTEX
  8
PLAN_1
  6
CONTINUOUS
 10
-2.204563
 20
0.789972
  0
VERTEX
  8
PLAN_1
  6
CONTINUOUS
 10
-2.204047
 20
0.778677
  0
VERTEX
  8
PLAN_1
  6
CONTINUOUS
 10
-2.203020
 20
0.766866
  0
VERTEX
  8
PLAN_1
  6
CONTINUOUS
 10
-2.202508
 20
0.761217
  0
VERTEX
  8
PLAN_1
  6
CONTINUOUS
 10
-2.200969
 20
0.755051
  0
VERTEX
  8
PLAN_1
  6
CONTINUOUS
 10
-2.199425
 20
0.748890
  0
VERTEX
  8
PLAN_1
  6
CONTINUOUS
 10
-2.197886
 20
0.742213
  0
VERTEX
  8
PLAN_1
  6
CONTINUOUS
 10
-2.195319
 20
0.736051
  0
VERTEX
  8
PLAN_1
  6
CONTINUOUS
 10
-2.192752
 20
0.729890
  0
VERTEX
  8
PLAN_1
  6
CONTINUOUS
 10
-2.189669
 20
0.723213
  0
VERTEX
  8
PLAN_1
  6
CONTINUOUS
 10
-2.186075
 20
0.717051
  0
VERTEX
  8
PLAN_1
  6
CONTINUOUS
 10
-2.188130
 20
0.712429
  0
VERTEX
  8
PLAN_1
  6
CONTINUOUS
 10
-2.191724
 20
0.698051
  0
VERTEX
  8
PLAN_1
  6
CONTINUOUS
 10
-2.194291
 20
0.687780
  0
VERTEX
  8
PLAN_1
  6
CONTINUOUS
 10
-2.196858
 20
0.675453
  0
VERTEX
  8
PLAN_1
  6
CONTINUOUS
 10
-2.198913
 20
0.661075
  0
VERTEX
  8
PLAN_1
  6
CONTINUOUS
 10
-2.200969
 20
0.644642
  0
VERTEX
  8
PLAN_1
  6
CONTINUOUS
 10
-2.203020
 20
0.626154
  0
VERTEX
  8
PLAN_1
  6
CONTINUOUS
 10
-2.204047
 20
0.606126
  0
VERTEX
  8
PLAN_1
  6
CONTINUOUS
 10
-2.204563
 20
0.584555
  0
VERTEX
  8
PLAN_1
  6
CONTINUOUS
 10
-2.204047
 20
0.561445
  0
VERTEX
  8
PLAN_1
  6
CONTINUOUS
 10
-2.203535
 20
0.549122
  0
VERTEX
  8
PLAN_1
  6
CONTINUOUS
 10
-2.202508
 20
0.536795
  0
VERTEX
  8
PLAN_1
  6
CONTINUOUS
 10
-2.200969
 20
0.523957
  0
VERTEX
  8
PLAN_1
  6
CONTINUOUS
 10
-2.199425
 20
0.510606
  0
VERTEX
  8
PLAN_1
  6
CONTINUOUS
 10
-2.197886
 20
0.496740
  0
VERTEX
  8
PLAN_1
  6
CONTINUOUS
 10
-2.195319
 20
0.482874
  0
VERTEX
  8
PLAN_1
  6
CONTINUOUS
 10
-2.192752
 20
0.468492
  0
VERTEX
  8
PLAN_1
  6
CONTINUOUS
 10
-2.189669
 20
0.454114
  0
VERTEX
  8
PLAN_1
  6
CONTINUOUS
 10
-2.191209
 20
0.451031
  0
VERTEX
  8
PLAN_1
  6
CONTINUOUS
 10
-2.194803
 20
0.442303
  0
VERTEX
  8
PLAN_1
  6
CONTINUOUS
 10
-2.196858
 20
0.436142
  0
VERTEX
  8
PLAN_1
  6
CONTINUOUS
 10
-2.198913
 20
0.428949
  0
VERTEX
  8
PLAN_1
  6
CONTINUOUS
 10
-2.200969
 20
0.420732
  0
VERTEX
  8
PLAN_1
  6
CONTINUOUS
 10
-2.203020
 20
0.412004
  0
VERTEX
  8
PLAN_1
  6
CONTINUOUS
 10
-2.204047
 20
0.401732
  0
VERTEX
  8
PLAN_1
  6
CONTINUOUS
 10
-2.205075
 20
0.391461
  0
VERTEX
  8
PLAN_1
  6
CONTINUOUS
 10
-2.204563
 20
0.380165
  0
VERTEX
  8
PLAN_1
  6
CONTINUOUS
 10
-2.203535
 20
0.368350
  0
VERTEX
  8
PLAN_1
  6
CONTINUOUS
 10
-2.203020
 20
0.362705
  0
VERTEX
  8
PLAN_1
  6
CONTINUOUS
 10
-2.201480
 20
0.356539
  0
VERTEX
  8
PLAN_1
  6
CONTINUOUS
 10
-2.199941
 20
0.350378
  0
VERTEX
  8
PLAN_1
  6
CONTINUOUS
 10
-2.197886
 20
0.344217
  0
VERTEX
  8
PLAN_1
  6
CONTINUOUS
 10
-2.195831
 20
0.337539
  0
VERTEX
  8
PLAN_1
  6
CONTINUOUS
 10
-2.193264
 20
0.331378
  0
VERTEX
  8
PLAN_1
  6
CONTINUOUS
 10
-2.190181
 20
0.325213
  0
VERTEX
  8
PLAN_1
  6
CONTINUOUS
 10
-2.186587
 20
0.319051
  0
SEQEND
  8
0
  0
POLYLINE
  8
PLAN_1
  6
CONTINUOUS
 66
     1
 40
0.008217
 41
0.008217
  0
VERTEX
  8
PLAN_1
  6
CONTINUOUS
 10
-2.254374
 20
0.432031
  0
VERTEX
  8
PLAN_1
  6
CONTINUOUS
 10
-2.292890
 20
0.470035
  0
VERTEX
  8
PLAN_1
  6
CONTINUOUS
 10
-2.292890
 20
0.697535
  0
VERTEX
  8
PLAN_1
  6
CONTINUOUS
 10
-2.254374
 20
0.735539
  0
VERTEX
  8
PLAN_1
  6
CONTINUOUS
 10
-2.213807
 20
0.736567
  0
VERTEX
  8
PLAN_1
  6
CONTINUOUS
 10
-2.213807
 20
0.432031
  0
VERTEX
  8
PLAN_1
  6
CONTINUOUS
 10
-2.254374
 20
0.432031
  0
SEQEND
  8
0
  0
POLYLINE
  8
PLAN_1
  6
CONTINUOUS
 66
     1
 40
0.005646
 41
0.005646
  0
VERTEX
  8
PLAN_1
  6
CONTINUOUS
 10
-0.838528
 20
-0.511354
  0
VERTEX
  8
PLAN_1
  6
CONTINUOUS
 10
-0.987969
 20
-0.537543
  0
VERTEX
  8
PLAN_1
  6
CONTINUOUS
 10
-0.997213
 20
-0.539598
  0
SEQEND
  8
0
  0
POLYLINE
  8
PLAN_1
  6
CONTINUOUS
 66
     1
 40
0.005646
 41
0.005646
  0
VERTEX
  8
PLAN_1
  6
CONTINUOUS
 10
-0.997213
 20
-0.539598
  0
VERTEX
  8
PLAN_1
  6
CONTINUOUS
 10
-1.001835
 20
-0.540626
  0
VERTEX
  8
PLAN_1
  6
CONTINUOUS
 10
-1.006457
 20
-0.542681
  0
VERTEX
  8
PLAN_1
  6
CONTINUOUS
 10
-1.010051
 20
-0.545760
  0
VERTEX
  8
PLAN_1
  6
CONTINUOUS
 10
-1.012618
 20
-0.549354
  0
VERTEX
  8
PLAN_1
  6
CONTINUOUS
 10
-1.015189
 20
-0.553465
  0
VERTEX
  8
PLAN_1
  6
CONTINUOUS
 10
-1.016728
 20
-0.557571
  0
VERTEX
  8
PLAN_1
  6
CONTINUOUS
 10
-1.017240
 20
-0.562193
  0
VERTEX
  8
PLAN_1
  6
CONTINUOUS
 10
-1.016728
 20
-0.567331
  0
VERTEX
  8
PLAN_1
  6
CONTINUOUS
 10
-1.015701
 20
-0.571953
  0
VERTEX
  8
PLAN_1
  6
CONTINUOUS
 10
-1.013134
 20
-0.576059
  0
VERTEX
  8
PLAN_1
  6
CONTINUOUS
 10
-1.010567
 20
-0.579654
  0
VERTEX
  8
PLAN_1
  6
CONTINUOUS
 10
-1.006969
 20
-0.582736
  0
VERTEX
  8
PLAN_1
  6
CONTINUOUS
 10
-1.002862
 20
-0.584791
  0
VERTEX
  8
PLAN_1
  6
CONTINUOUS
 10
-0.998752
 20
-0.586331
  0
VERTEX
  8
PLAN_1
  6
CONTINUOUS
 10
-0.993618
 20
-0.586846
  0
VERTEX
  8
PLAN_1
  6
CONTINUOUS
 10
-0.988996
 20
-0.586846
  0
SEQEND
  8
0
  0
POLYLINE
  8
PLAN_1
  6
CONTINUOUS
 66
     1
 40
0.005646
 41
0.005646
  0
VERTEX
  8
PLAN_1
  6
CONTINUOUS
 10
-0.988996
 20
-0.586846
  0
VERTEX
  8
PLAN_1
  6
CONTINUOUS
 10
-0.979240
 20
-0.584791
  0
VERTEX
  8
PLAN_1
  6
CONTINUOUS
 10
-0.563268
 20
-0.511354
  0
VERTEX
  8
PLAN_1
  6
CONTINUOUS
 10
-0.838528
 20
-0.511354
  0
SEQEND
  8
0
  0
POLYLINE
  8
PLAN_1
  6
CONTINUOUS
 66
     1
 40
0.005646
 41
0.005646
  0
VERTEX
  8
PLAN_1
  6
CONTINUOUS
 10
-0.399445
 20
-0.691610
  0
VERTEX
  8
PLAN_1
  6
CONTINUOUS
 10
-0.394823
 20
-0.690067
  0
VERTEX
  8
PLAN_1
  6
CONTINUOUS
 10
-0.390713
 20
-0.688012
  0
VERTEX
  8
PLAN_1
  6
CONTINUOUS
 10
-0.387118
 20
-0.685445
  0
VERTEX
  8
PLAN_1
  6
CONTINUOUS
 10
-0.384039
 20
-0.681850
  0
VERTEX
  8
PLAN_1
  6
CONTINUOUS
 10
-0.381984
 20
-0.677744
  0
VERTEX
  8
PLAN_1
  6
CONTINUOUS
 10
-0.380445
 20
-0.673634
  0
VERTEX
  8
PLAN_1
  6
CONTINUOUS
 10
-0.379929
 20
-0.668500
  0
VERTEX
  8
PLAN_1
  6
CONTINUOUS
 10
-0.380445
 20
-0.663878
  0
VERTEX
  8
PLAN_1
  6
CONTINUOUS
 10
-0.381469
 20
-0.659256
  0
VERTEX
  8
PLAN_1
  6
CONTINUOUS
 10
-0.383524
 20
-0.655146
  0
VERTEX
  8
PLAN_1
  6
CONTINUOUS
 10
-0.386606
 20
-0.651551
  0
VERTEX
  8
PLAN_1
  6
CONTINUOUS
 10
-0.390201
 20
-0.648469
  0
VERTEX
  8
PLAN_1
  6
CONTINUOUS
 10
-0.394311
 20
-0.645902
  0
VERTEX
  8
PLAN_1
  6
CONTINUOUS
 10
-0.398417
 20
-0.644362
  0
VERTEX
  8
PLAN_1
  6
CONTINUOUS
 10
-0.403039
 20
-0.643850
  0
VERTEX
  8
PLAN_1
  6
CONTINUOUS
 10
-0.408173
 20
-0.644362
  0
SEQEND
  8
0
  0
POLYLINE
  8
PLAN_1
  6
CONTINUOUS
 66
     1
 40
0.005646
 41
0.005646
  0
VERTEX
  8
PLAN_1
  6
CONTINUOUS
 10
-0.408173
 20
-0.644362
  0
VERTEX
  8
PLAN_1
  6
CONTINUOUS
 10
-0.423067
 20
-0.646929
  0
VERTEX
  8
PLAN_1
  6
CONTINUOUS
 10
-0.987457
 20
-0.746559
  0
VERTEX
  8
PLAN_1
  6
CONTINUOUS
 10
-0.997213
 20
-0.748610
  0
SEQEND
  8
0
  0
POLYLINE
  8
PLAN_1
  6
CONTINUOUS
 66
     1
 40
0.005646
 41
0.005646
  0
VERTEX
  8
PLAN_1
  6
CONTINUOUS
 10
-0.997213
 20
-0.748610
  0
VERTEX
  8
PLAN_1
  6
CONTINUOUS
 10
-1.001835
 20
-0.749638
  0
VERTEX
  8
PLAN_1
  6
CONTINUOUS
 10
-1.005945
 20
-0.752209
  0
VERTEX
  8
PLAN_1
  6
CONTINUOUS
 10
-1.009539
 20
-0.754776
  0
VERTEX
  8
PLAN_1
  6
CONTINUOUS
 10
-1.012618
 20
-0.758370
  0
VERTEX
  8
PLAN_1
  6
CONTINUOUS
 10
-1.014673
 20
-0.762476
  0
VERTEX
  8
PLAN_1
  6
CONTINUOUS
 10
-1.016213
 20
-0.766587
  0
VERTEX
  8
PLAN_1
  6
CONTINUOUS
 10
-1.016728
 20
-0.771209
  0
VERTEX
  8
PLAN_1
  6
CONTINUOUS
 10
-1.016728
 20
-0.776343
  0
VERTEX
  8
PLAN_1
  6
CONTINUOUS
 10
-1.015189
 20
-0.780965
  0
VERTEX
  8
PLAN_1
  6
CONTINUOUS
 10
-1.013134
 20
-0.785075
  0
VERTEX
  8
PLAN_1
  6
CONTINUOUS
 10
-1.010051
 20
-0.788669
  0
VERTEX
  8
PLAN_1
  6
CONTINUOUS
 10
-1.006969
 20
-0.791752
  0
VERTEX
  8
PLAN_1
  6
CONTINUOUS
 10
-1.002862
 20
-0.793803
  0
VERTEX
  8
PLAN_1
  6
CONTINUOUS
 10
-0.998240
 20
-0.795346
  0
VERTEX
  8
PLAN_1
  6
CONTINUOUS
 10
-0.993618
 20
-0.795858
  0
VERTEX
  8
PLAN_1
  6
CONTINUOUS
 10
-0.988996
 20
-0.795858
  0
SEQEND
  8
0
  0
POLYLINE
  8
PLAN_1
  6
CONTINUOUS
 66
     1
 40
0.005646
 41
0.005646
  0
VERTEX
  8
PLAN_1
  6
CONTINUOUS
 10
-0.988996
 20
-0.795858
  0
VERTEX
  8
PLAN_1
  6
CONTINUOUS
 10
-0.979240
 20
-0.793803
  0
VERTEX
  8
PLAN_1
  6
CONTINUOUS
 10
-0.414339
 20
-0.694177
  0
VERTEX
  8
PLAN_1
  6
CONTINUOUS
 10
-0.399445
 20
-0.691610
  0
SEQEND
  8
0
  0
POLYLINE
  8
PLAN_1
  6
CONTINUOUS
 66
     1
 40
0.005646
 41
0.005646
  0
VERTEX
  8
PLAN_1
  6
CONTINUOUS
 10
-0.394311
 20
-1.004870
  0
VERTEX
  8
PLAN_1
  6
CONTINUOUS
 10
-0.389689
 20
-1.004358
  0
VERTEX
  8
PLAN_1
  6
CONTINUOUS
 10
-0.385067
 20
-1.002819
  0
VERTEX
  8
PLAN_1
  6
CONTINUOUS
 10
-0.380957
 20
-1.000764
  0
VERTEX
  8
PLAN_1
  6
CONTINUOUS
 10
-0.377362
 20
-0.997681
  0
VERTEX
  8
PLAN_1
  6
CONTINUOUS
 10
-0.374280
 20
-0.994087
  0
VERTEX
  8
PLAN_1
  6
CONTINUOUS
 10
-0.372228
 20
-0.989980
  0
VERTEX
  8
PLAN_1
  6
CONTINUOUS
 10
-0.370685
 20
-0.985358
  0
VERTEX
  8
PLAN_1
  6
CONTINUOUS
 10
-0.370173
 20
-0.980736
  0
VERTEX
  8
PLAN_1
  6
CONTINUOUS
 10
-0.370685
 20
-0.975598
  0
VERTEX
  8
PLAN_1
  6
CONTINUOUS
 10
-0.372228
 20
-0.971492
  0
VERTEX
  8
PLAN_1
  6
CONTINUOUS
 10
-0.374280
 20
-0.967382
  0
VERTEX
  8
PLAN_1
  6
CONTINUOUS
 10
-0.377362
 20
-0.963787
  0
VERTEX
  8
PLAN_1
  6
CONTINUOUS
 10
-0.380957
 20
-0.960709
  0
VERTEX
  8
PLAN_1
  6
CONTINUOUS
 10
-0.385067
 20
-0.958654
  0
VERTEX
  8
PLAN_1
  6
CONTINUOUS
 10
-0.389689
 20
-0.957110
  0
VERTEX
  8
PLAN_1
  6
CONTINUOUS
 10
-0.394311
 20
-0.956598
  0
SEQEND
  8
0
  0
POLYLINE
  8
PLAN_1
  6
CONTINUOUS
 66
     1
 40
0.005646
 41
0.005646
  0
VERTEX
  8
PLAN_1
  6
CONTINUOUS
 10
-0.394311
 20
-0.956598
  0
VERTEX
  8
PLAN_1
  6
CONTINUOUS
 10
-0.409201
 20
-0.956598
  0
VERTEX
  8
PLAN_1
  6
CONTINUOUS
 10
-0.982835
 20
-0.957110
  0
VERTEX
  8
PLAN_1
  6
CONTINUOUS
 10
-0.992591
 20
-0.957110
  0
SEQEND
  8
0
  0
POLYLINE
  8
PLAN_1
  6
CONTINUOUS
 66
     1
 40
0.005646
 41
0.005646
  0
VERTEX
  8
PLAN_1
  6
CONTINUOUS
 10
-0.992591
 20
-0.957110
  0
VERTEX
  8
PLAN_1
  6
CONTINUOUS
 10
-0.997213
 20
-0.957626
  0
VERTEX
  8
PLAN_1
  6
CONTINUOUS
 10
-1.001835
 20
-0.958654
  0
VERTEX
  8
PLAN_1
  6
CONTINUOUS
 10
-1.005945
 20
-0.961220
  0
VERTEX
  8
PLAN_1
  6
CONTINUOUS
 10
-1.009539
 20
-0.963787
  0
VERTEX
  8
PLAN_1
  6
CONTINUOUS
 10
-1.012618
 20
-0.967382
  0
VERTEX
  8
PLAN_1
  6
CONTINUOUS
 10
-1.014673
 20
-0.971492
  0
VERTEX
  8
PLAN_1
  6
CONTINUOUS
 10
-1.016213
 20
-0.976114
  0
VERTEX
  8
PLAN_1
  6
CONTINUOUS
 10
-1.016728
 20
-0.980736
  0
VERTEX
  8
PLAN_1
  6
CONTINUOUS
 10
-1.016213
 20
-0.985870
  0
VERTEX
  8
PLAN_1
  6
CONTINUOUS
 10
-1.014673
 20
-0.990492
  0
VERTEX
  8
PLAN_1
  6
CONTINUOUS
 10
-1.012618
 20
-0.994087
  0
VERTEX
  8
PLAN_1
  6
CONTINUOUS
 10
-1.009539
 20
-0.997681
  0
VERTEX
  8
PLAN_1
  6
CONTINUOUS
 10
-1.005945
 20
-1.000764
  0
VERTEX
  8
PLAN_1
  6
CONTINUOUS
 10
-1.001835
 20
-1.002819
  0
VERTEX
  8
PLAN_1
  6
CONTINUOUS
 10
-0.997213
 20
-1.004358
  0
VERTEX
  8
PLAN_1
  6
CONTINUOUS
 10
-0.992591
 20
-1.004870
  0
SEQEND
  8
0
  0
POLYLINE
  8
PLAN_1
  6
CONTINUOUS
 66
     1
 40
0.005646
 41
0.005646
  0
VERTEX
  8
PLAN_1
  6
CONTINUOUS
 10
-0.992591
 20
-1.004870
  0
VERTEX
  8
PLAN_1
  6
CONTINUOUS
 10
-0.982835
 20
-1.004870
  0
VERTEX
  8
PLAN_1
  6
CONTINUOUS
 10
-0.409201
 20
-1.004870
  0
VERTEX
  8
PLAN_1
  6
CONTINUOUS
 10
-0.394311
 20
-1.004870
  0
SEQEND
  8
0
  0
POLYLINE
  8
PLAN_1
  6
CONTINUOUS
 66
     1
 40
0.008217
 41
0.008217
  0
VERTEX
  8
PLAN_1
  6
CONTINUOUS
 10
-1.645823
 20
0.125445
  0
VERTEX
  8
PLAN_1
  6
CONTINUOUS
 10
-1.645823
 20
1.029287
  0
VERTEX
  8
PLAN_1
  6
CONTINUOUS
 10
-1.348480
 20
1.080642
  0
VERTEX
  8
PLAN_1
  6
CONTINUOUS
 10
-1.348480
 20
0.090012
  0
VERTEX
  8
PLAN_1
  6
CONTINUOUS
 10
-1.645823
 20
0.125445
  0
SEQEND
  8
0
  0
POLYLINE
  8
PLAN_1
  6
CONTINUOUS
 66
     1
 40
0.008217
 41
0.008217
  0
VERTEX
  8
PLAN_1
  6
CONTINUOUS
 10
-0.052799
 20
1.208516
  0
VERTEX
  8
PLAN_1
  6
CONTINUOUS
 10
-0.052799
 20
-0.053272
  0
VERTEX
  8
PLAN_1
  6
CONTINUOUS
 10
-1.348480
 20
-0.053272
  0
VERTEX
  8
PLAN_1
  6
CONTINUOUS
 10
-1.348480
 20
1.208516
  0
VERTEX
  8
PLAN_1
  6
CONTINUOUS
 10
-0.052799
 20
1.208516
  0
SEQEND
  8
0
  0
POLYLINE
  8
PLAN_1
  6
CONTINUOUS
 66
     1
 40
0.007189
 41
0.007189
  0
VERTEX
  8
PLAN_1
  6
CONTINUOUS
 10
-0.052799
 20
1.066264
  0
VERTEX
  8
PLAN_1
  6
CONTINUOUS
 10
-0.410744
 20
1.066264
  0
VERTEX
  8
PLAN_1
  6
CONTINUOUS
 10
-0.410744
 20
1.208516
  0
VERTEX
  8
PLAN_1
  6
CONTINUOUS
 10
-0.986429
 20
1.208516
  0
VERTEX
  8
PLAN_1
  6
CONTINUOUS
 10
-0.986429
 20
1.066264
  0
VERTEX
  8
PLAN_1
  6
CONTINUOUS
 10
-1.348480
 20
1.066264
  0
SEQEND
  8
0
  0
POLYLINE
  8
PLAN_1
  6
CONTINUOUS
 66
     1
 40
0.007189
 41
0.007189
  0
VERTEX
  8
PLAN_1
  6
CONTINUOUS
 10
-1.151276
 20
1.100669
  0
VERTEX
  8
PLAN_1
  6
CONTINUOUS
 10
-1.226768
 20
1.100669
  0
VERTEX
  8
PLAN_1
  6
CONTINUOUS
 10
-1.226768
 20
1.137646
  0
VERTEX
  8
PLAN_1
  6
CONTINUOUS
 10
-1.341291
 20
1.137646
  0
VERTEX
  8
PLAN_1
  6
CONTINUOUS
 10
-1.341291
 20
1.065236
  0
VERTEX
  8
PLAN_1
  6
CONTINUOUS
 10
-1.033673
 20
1.065236
  0
VERTEX
  8
PLAN_1
  6
CONTINUOUS
 10
-1.033673
 20
1.137646
  0
VERTEX
  8
PLAN_1
  6
CONTINUOUS
 10
-1.151276
 20
1.137646
  0
VERTEX
  8
PLAN_1
  6
CONTINUOUS
 10
-1.151276
 20
1.100669
  0
SEQEND
  8
0
  0
POLYLINE
  8
PLAN_1
  6
CONTINUOUS
 66
     1
 40
0.007189
 41
0.007189
  0
VERTEX
  8
PLAN_1
  6
CONTINUOUS
 10
-0.178618
 20
1.100669
  0
VERTEX
  8
PLAN_1
  6
CONTINUOUS
 10
-0.254110
 20
1.100669
  0
VERTEX
  8
PLAN_1
  6
CONTINUOUS
 10
-0.254110
 20
1.137646
  0
VERTEX
  8
PLAN_1
  6
CONTINUOUS
 10
-0.368630
 20
1.137646
  0
VERTEX
  8
PLAN_1
  6
CONTINUOUS
 10
-0.368630
 20
1.065236
  0
VERTEX
  8
PLAN_1
  6
CONTINUOUS
 10
-0.061016
 20
1.065236
  0
VERTEX
  8
PLAN_1
  6
CONTINUOUS
 10
-0.061016
 20
1.137646
  0
VERTEX
  8
PLAN_1
  6
CONTINUOUS
 10
-0.178618
 20
1.137646
  0
VERTEX
  8
PLAN_1
  6
CONTINUOUS
 10
-0.178618
 20
1.100669
  0
SEQEND
  8
0
  0
POLYLINE
  8
PLAN_1
  6
CONTINUOUS
 66
     1
 40
0.008217
 41
0.008217
  0
VERTEX
  8
PLAN_1
  6
CONTINUOUS
 10
-0.165780
 20
-0.128248
  0
VERTEX
  8
PLAN_1
  6
CONTINUOUS
 10
-0.160646
 20
-0.127732
  0
VERTEX
  8
PLAN_1
  6
CONTINUOUS
 10
-0.156024
 20
-0.127220
  0
VERTEX
  8
PLAN_1
  6
CONTINUOUS
 10
-0.151402
 20
-0.126193
  0
VERTEX
  8
PLAN_1
  6
CONTINUOUS
 10
-0.147291
 20
-0.125165
  0
VERTEX
  8
PLAN_1
  6
CONTINUOUS
 10
-0.143697
 20
-0.123110
  0
VERTEX
  8
PLAN_1
  6
CONTINUOUS
 10
-0.140102
 20
-0.121059
  0
VERTEX
  8
PLAN_1
  6
CONTINUOUS
 10
-0.137024
 20
-0.119004
  0
VERTEX
  8
PLAN_1
  6
CONTINUOUS
 10
-0.133941
 20
-0.116437
  0
VERTEX
  8
PLAN_1
  6
CONTINUOUS
 10
-0.131886
 20
-0.113870
  0
VERTEX
  8
PLAN_1
  6
CONTINUOUS
 10
-0.129319
 20
-0.110787
  0
VERTEX
  8
PLAN_1
  6
CONTINUOUS
 10
-0.127264
 20
-0.107705
  0
VERTEX
  8
PLAN_1
  6
CONTINUOUS
 10
-0.125724
 20
-0.104626
  0
VERTEX
  8
PLAN_1
  6
CONTINUOUS
 10
-0.122642
 20
-0.097949
  0
VERTEX
  8
PLAN_1
  6
CONTINUOUS
 10
-0.121102
 20
-0.090760
  0
VERTEX
  8
PLAN_1
  6
CONTINUOUS
 10
-0.119563
 20
-0.084083
  0
VERTEX
  8
PLAN_1
  6
CONTINUOUS
 10
-0.118535
 20
-0.076894
  0
VERTEX
  8
PLAN_1
  6
CONTINUOUS
 10
-0.118535
 20
-0.070728
  0
VERTEX
  8
PLAN_1
  6
CONTINUOUS
 10
-0.118535
 20
-0.065083
  0
VERTEX
  8
PLAN_1
  6
CONTINUOUS
 10
-0.119047
 20
-0.056866
  0
VERTEX
  8
PLAN_1
  6
CONTINUOUS
 10
-0.119047
 20
-0.053272
  0
SEQEND
  8
0
  0
POLYLINE
  8
PLAN_1
  6
CONTINUOUS
 66
     1
 40
0.008217
 41
0.008217
  0
VERTEX
  8
PLAN_1
  6
CONTINUOUS
 10
-0.119047
 20
-0.053272
  0
VERTEX
  8
PLAN_1
  6
CONTINUOUS
 10
-1.271449
 20
-0.053272
  0
SEQEND
  8
0
  0
POLYLINE
  8
PLAN_1
  6
CONTINUOUS
 66
     1
 40
0.008217
 41
0.008217
  0
VERTEX
  8
PLAN_1
  6
CONTINUOUS
 10
-1.271449
 20
-0.053272
  0
VERTEX
  8
PLAN_1
  6
CONTINUOUS
 10
-1.272472
 20
-0.056866
  0
VERTEX
  8
PLAN_1
  6
CONTINUOUS
 10
-1.274528
 20
-0.065083
  0
VERTEX
  8
PLAN_1
  6
CONTINUOUS
 10
-1.275555
 20
-0.070728
  0
VERTEX
  8
PLAN_1
  6
CONTINUOUS
 10
-1.276583
 20
-0.076894
  0
VERTEX
  8
PLAN_1
  6
CONTINUOUS
 10
-1.277094
 20
-0.084083
  0
VERTEX
  8
PLAN_1
  6
CONTINUOUS
 10
-1.276583
 20
-0.090760
  0
VERTEX
  8
PLAN_1
  6
CONTINUOUS
 10
-1.276071
 20
-0.097949
  0
VERTEX
  8
PLAN_1
  6
CONTINUOUS
 10
-1.274016
 20
-0.104626
  0
VERTEX
  8
PLAN_1
  6
CONTINUOUS
 10
-1.272988
 20
-0.107705
  0
VERTEX
  8
PLAN_1
  6
CONTINUOUS
 10
-1.271449
 20
-0.110787
  0
VERTEX
  8
PLAN_1
  6
CONTINUOUS
 10
-1.269394
 20
-0.113870
  0
VERTEX
  8
PLAN_1
  6
CONTINUOUS
 10
-1.267339
 20
-0.116437
  0
VERTEX
  8
PLAN_1
  6
CONTINUOUS
 10
-1.264772
 20
-0.119004
  0
VERTEX
  8
PLAN_1
  6
CONTINUOUS
 10
-1.261689
 20
-0.121059
  0
VERTEX
  8
PLAN_1
  6
CONTINUOUS
 10
-1.258610
 20
-0.123110
  0
VERTEX
  8
PLAN_1
  6
CONTINUOUS
 10
-1.255012
 20
-0.125165
  0
VERTEX
  8
PLAN_1
  6
CONTINUOUS
 10
-1.250906
 20
-0.126193
  0
VERTEX
  8
PLAN_1
  6
CONTINUOUS
 10
-1.246283
 20
-0.127220
  0
VERTEX
  8
PLAN_1
  6
CONTINUOUS
 10
-1.241150
 20
-0.127732
  0
VERTEX
  8
PLAN_1
  6
CONTINUOUS
 10
-1.235500
 20
-0.128248
  0
VERTEX
  8
PLAN_1
  6
CONTINUOUS
 10
-1.180551
 20
-0.128248
  0
VERTEX
  8
PLAN_1
  6
CONTINUOUS
 10
-1.061406
 20
-0.128248
  0
VERTEX
  8
PLAN_1
  6
CONTINUOUS
 10
-0.899126
 20
-0.128248
  0
VERTEX
  8
PLAN_1
  6
CONTINUOUS
 10
-0.714248
 20
-0.128248
  0
VERTEX
  8
PLAN_1
  6
CONTINUOUS
 10
-0.527831
 20
-0.128248
  0
VERTEX
  8
PLAN_1
  6
CONTINUOUS
 10
-0.359902
 20
-0.128248
  0
VERTEX
  8
PLAN_1
  6
CONTINUOUS
 10
-0.232543
 20
-0.128248
  0
VERTEX
  8
PLAN_1
  6
CONTINUOUS
 10
-0.165780
 20
-0.128248
  0
SEQEND
  8
0
  0
POLYLINE
  8
PLAN_1
  6
CONTINUOUS
 66
     1
 40
0.008217
 41
0.008217
  0
VERTEX
  8
PLAN_1
  6
CONTINUOUS
 10
-1.179008
 20
-0.128248
  0
VERTEX
  8
PLAN_1
  6
CONTINUOUS
 10
-1.179008
 20
-0.512382
  0
VERTEX
  8
PLAN_1
  6
CONTINUOUS
 10
-1.128169
 20
-0.512382
  0
VERTEX
  8
PLAN_1
  6
CONTINUOUS
 10
-1.128169
 20
-0.565276
  0
VERTEX
  8
PLAN_1
  6
CONTINUOUS
 10
-1.062949
 20
-0.565276
  0
VERTEX
  8
PLAN_1
  6
CONTINUOUS
 10
-1.062949
 20
-0.512382
  0
VERTEX
  8
PLAN_1
  6
CONTINUOUS
 10
-0.346551
 20
-0.512382
  0
VERTEX
  8
PLAN_1
  6
CONTINUOUS
 10
-0.346551
 20
-0.565276
  0
VERTEX
  8
PLAN_1
  6
CONTINUOUS
 10
-0.281843
 20
-0.565276
  0
VERTEX
  8
PLAN_1
  6
CONTINUOUS
 10
-0.281843
 20
-0.512382
  0
VERTEX
  8
PLAN_1
  6
CONTINUOUS
 10
-0.219189
 20
-0.512382
  0
VERTEX
  8
PLAN_1
  6
CONTINUOUS
 10
-0.219189
 20
-0.128248
  0
VERTEX
  8
PLAN_1
  6
CONTINUOUS
 10
-1.179008
 20
-0.128248
  0
SEQEND
  8
0
  0
POLYLINE
  8
PLAN_1
  6
CONTINUOUS
 66
     1
 40
0.004106
 41
0.004106
  0
VERTEX
  8
PLAN_1
  6
CONTINUOUS
 10
-0.056909
 20
-0.287449
  0
VERTEX
  8
PLAN_1
  6
CONTINUOUS
 10
0.239409
 20
-0.287449
  0
SEQEND
  8
0
  0
POLYLINE
  8
PLAN_1
  6
CONTINUOUS
 66
     1
 40
0.004106
 41
0.004106
  0
VERTEX
  8
PLAN_1
  6
CONTINUOUS
 10
-1.486110
 20
-0.285394
  0
VERTEX
  8
PLAN_1
  6
CONTINUOUS
 10
-1.189791
 20
-0.285394
  0
SEQEND
  8
0
  0
POLYLINE
  8
PLAN_1
  6
CONTINUOUS
 66
     1
 40
0.004106
 41
0.004106
  0
VERTEX
  8
PLAN_1
  6
CONTINUOUS
 10
-1.653528
 20
-0.853890
  0
VERTEX
  8
PLAN_1
  6
CONTINUOUS
 10
-1.653528
 20
-0.523677
  0
VERTEX
  8
PLAN_1
  6
CONTINUOUS
 10
-1.350020
 20
-0.523677
  0
VERTEX
  8
PLAN_1
  6
CONTINUOUS
 10
-1.350020
 20
-0.053783
  0
VERTEX
  8
PLAN_1
  6
CONTINUOUS
 10
0.074559
 20
-0.053272
  0
VERTEX
  8
PLAN_1
  6
CONTINUOUS
 10
0.074559
 20
-0.851835
  0
SEQEND
  8
0
  0
POLYLINE
  8
PLAN_1
  6
CONTINUOUS
 66
     1
 40
0.005646
 41
0.005646
  0
VERTEX
  8
PLAN_1
  6
CONTINUOUS
 10
-2.254374
 20
0.736567
  0
VERTEX
  8
PLAN_1
  6
CONTINUOUS
 10
-2.254374
 20
0.432031
  0
SEQEND
  8
0
  0
POLYLINE
  8
PLAN_1
  6
CONTINUOUS
 66
     1
 40
0.008217
 41
0.008217
  0
VERTEX
  8
PLAN_1
  6
CONTINUOUS
 10
-2.009413
 20
2.524736
  0
VERTEX
  8
PLAN_1
  6
CONTINUOUS
 10
-2.009413
 20
0.899874
  0
SEQEND
  8
0
  0
POLYLINE
  8
PLAN_1
  6
CONTINUOUS
 66
     1
 40
0.008217
 41
0.008217
  0
VERTEX
  8
PLAN_1
  6
CONTINUOUS
 10
-2.009413
 20
0.245614
  0
VERTEX
  8
PLAN_1
  6
CONTINUOUS
 10
-2.009413
 20
-0.627929
  0
VERTEX
  8
PLAN_1
  6
CONTINUOUS
 10
-1.721315
 20
-0.627929
  0
VERTEX
  8
PLAN_1
  6
CONTINUOUS
 10
-1.721315
 20
0.245614
  0
SEQEND
  8
0
  0
POLYLINE
  8
PLAN_1
  6
CONTINUOUS
 66
     1
 40
0.008217
 41
0.008217
  0
VERTEX
  8
PLAN_1
  6
CONTINUOUS
 10
-1.721315
 20
0.898331
  0
VERTEX
  8
PLAN_1
  6
CONTINUOUS
 10
-1.721315
 20
2.689071
  0
SEQEND
  8
0
  0
POLYLINE
  8
PLAN_1
  6
CONTINUOUS
 66
     1
 40
0.008217
 41
0.008217
  0
VERTEX
  8
PLAN_1
  6
CONTINUOUS
 10
-1.721315
 20
2.927354
  0
VERTEX
  8
PLAN_1
  6
CONTINUOUS
 10
-1.721315
 20
3.858929
  0
VERTEX
  8
PLAN_1
  6
CONTINUOUS
 10
-2.009413
 20
3.858929
  0
VERTEX
  8
PLAN_1
  6
CONTINUOUS
 10
-2.009413
 20
2.763020
  0
SEQEND
  8
0
  0
POLYLINE
  8
PLAN_1
  6
CONTINUOUS
 66
     1
 40
0.004106
 41
0.004106
  0
VERTEX
  8
PLAN_1
  6
CONTINUOUS
 10
-2.194291
 20
2.656717
  0
VERTEX
  8
PLAN_1
  6
CONTINUOUS
 10
-1.584197
 20
3.001819
  0
SEQEND
  8
0
  0
POLYLINE
  8
PLAN_1
  6
CONTINUOUS
 66
     1
 40
0.004106
 41
0.004106
  0
VERTEX
  8
PLAN_1
  6
CONTINUOUS
 10
-2.194291
 20
2.416378
  0
VERTEX
  8
PLAN_1
  6
CONTINUOUS
 10
-1.584197
 20
2.761992
  0
SEQEND
  8
0
  0
POLYLINE
  8
PLAN_1
  6
CONTINUOUS
 66
     1
 40
0.004106
 41
0.004106
  0
VERTEX
  8
PLAN_1
  6
CONTINUOUS
 10
-1.858945
 20
3.933909
  0
VERTEX
  8
PLAN_1
  6
CONTINUOUS
 10
-1.858945
 20
2.894488
  0
SEQEND
  8
0
  0
POLYLINE
  8
PLAN_1
  6
CONTINUOUS
 66
     1
 40
0.005646
 41
0.005646
  0
VERTEX
  8
PLAN_1
  6
CONTINUOUS
 10
-1.697177
 20
0.246130
  0
VERTEX
  8
PLAN_1
  6
CONTINUOUS
 10
-1.697177
 20
0.897819
  0
VERTEX
  8
PLAN_1
  6
CONTINUOUS
 10
-2.034063
 20
0.897819
  0
VERTEX
  8
PLAN_1
  6
CONTINUOUS
 10
-2.034063
 20
0.246130
  0
VERTEX
  8
PLAN_1
  6
CONTINUOUS
 10
-1.697177
 20
0.246130
  0
SEQEND
  8
0
  0
POLYLINE
  8
PLAN_1
  6
CONTINUOUS
 66
     1
 40
0.005646
 41
0.005646
  0
VERTEX
  8
PLAN_1
  6
CONTINUOUS
 10
-1.697177
 20
0.246130
  0
VERTEX
  8
PLAN_1
  6
CONTINUOUS
 10
-1.650445
 20
0.192205
  0
SEQEND
  8
0
  0
POLYLINE
  8
PLAN_1
  6
CONTINUOUS
 66
     1
 40
0.005646
 41
0.005646
  0
VERTEX
  8
PLAN_1
  6
CONTINUOUS
 10
-2.083878
 20
0.188098
  0
VERTEX
  8
PLAN_1
  6
CONTINUOUS
 10
-2.034063
 20
0.246130
  0
SEQEND
  8
0
  0
POLYLINE
  8
PLAN_1
  6
CONTINUOUS
 66
     1
 40
0.005646
 41
0.005646
  0
VERTEX
  8
PLAN_1
  6
CONTINUOUS
 10
-1.697177
 20
0.897819
  0
VERTEX
  8
PLAN_1
  6
CONTINUOUS
 10
-1.644283
 20
0.957390
  0
SEQEND
  8
0
  0
POLYLINE
  8
PLAN_1
  6
CONTINUOUS
 66
     1
 40
0.005646
 41
0.005646
  0
VERTEX
  8
PLAN_1
  6
CONTINUOUS
 10
-2.080283
 20
0.957390
  0
VERTEX
  8
PLAN_1
  6
CONTINUOUS
 10
-2.034063
 20
0.897819
  0
SEQEND
  8
0
  0
POLYLINE
  8
PLAN_1
  6
CONTINUOUS
 66
     1
 40
0.008217
 41
0.008217
  0
VERTEX
  8
PLAN_1
  6
CONTINUOUS
 10
-2.010953
 20
0.961500
  0
VERTEX
  8
PLAN_1
  6
CONTINUOUS
 10
-2.085933
 20
0.961500
  0
VERTEX
  8
PLAN_1
  6
CONTINUOUS
 10
-2.085933
 20
0.188098
  0
VERTEX
  8
PLAN_1
  6
CONTINUOUS
 10
-2.011980
 20
0.188098
  0
SEQEND
  8
0
  0
POLYLINE
  8
PLAN_1
  6
CONTINUOUS
 66
     1
 40
0.008217
 41
0.008217
  0
VERTEX
  8
PLAN_1
  6
CONTINUOUS
 10
-1.722343
 20
0.188098
  0
VERTEX
  8
PLAN_1
  6
CONTINUOUS
 10
-1.646335
 20
0.188098
  0
VERTEX
  8
PLAN_1
  6
CONTINUOUS
 10
-1.646335
 20
0.961500
  0
VERTEX
  8
PLAN_1
  6
CONTINUOUS
 10
-1.720799
 20
0.961500
  0
SEQEND
  8
0
  0
POLYLINE
  8
PLAN_1
  6
CONTINUOUS
 66
     1
 40
0.005646
 41
0.005646
  0
VERTEX
  8
PLAN_1
  6
CONTINUOUS
 10
-0.717331
 20
-0.956598
  0
VERTEX
  8
PLAN_1
  6
CONTINUOUS
 10
-0.414339
 20
-0.903189
  0
VERTEX
  8
PLAN_1
  6
CONTINUOUS
 10
-0.399445
 20
-0.900622
  0
SEQEND
  8
0
  0
POLYLINE
  8
PLAN_1
  6
CONTINUOUS
 66
     1
 40
0.005646
 41
0.005646
  0
VERTEX
  8
PLAN_1
  6
CONTINUOUS
 10
-0.399445
 20
-0.900622
  0
VERTEX
  8
PLAN_1
  6
CONTINUOUS
 10
-0.394823
 20
-0.899083
  0
VERTEX
  8
PLAN_1
  6
CONTINUOUS
 10
-0.390713
 20
-0.897028
  0
VERTEX
  8
PLAN_1
  6
CONTINUOUS
 10
-0.387118
 20
-0.893945
  0
VERTEX
  8
PLAN_1
  6
CONTINUOUS
 10
-0.384039
 20
-0.890866
  0
VERTEX
  8
PLAN_1
  6
CONTINUOUS
 10
-0.381984
 20
-0.886756
  0
VERTEX
  8
PLAN_1
  6
CONTINUOUS
 10
-0.380445
 20
-0.882134
  0
VERTEX
  8
PLAN_1
  6
CONTINUOUS
 10
-0.379929
 20
-0.877512
  0
VERTEX
  8
PLAN_1
  6
CONTINUOUS
 10
-0.379929
 20
-0.872890
  0
VERTEX
  8
PLAN_1
  6
CONTINUOUS
 10
-0.381469
 20
-0.868268
  0
VERTEX
  8
PLAN_1
  6
CONTINUOUS
 10
-0.383524
 20
-0.863646
  0
VERTEX
  8
PLAN_1
  6
CONTINUOUS
 10
-0.386606
 20
-0.860051
  0
VERTEX
  8
PLAN_1
  6
CONTINUOUS
 10
-0.390201
 20
-0.856969
  0
VERTEX
  8
PLAN_1
  6
CONTINUOUS
 10
-0.393795
 20
-0.854917
  0
VERTEX
  8
PLAN_1
  6
CONTINUOUS
 10
-0.398417
 20
-0.853374
  0
VERTEX
  8
PLAN_1
  6
CONTINUOUS
 10
-0.403039
 20
-0.852862
  0
VERTEX
  8
PLAN_1
  6
CONTINUOUS
 10
-0.408173
 20
-0.853374
  0
SEQEND
  8
0
  0
POLYLINE
  8
PLAN_1
  6
CONTINUOUS
 66
     1
 40
0.005646
 41
0.005646
  0
VERTEX
  8
PLAN_1
  6
CONTINUOUS
 10
-0.408173
 20
-0.853374
  0
VERTEX
  8
PLAN_1
  6
CONTINUOUS
 10
-0.422555
 20
-0.855945
  0
VERTEX
  8
PLAN_1
  6
CONTINUOUS
 10
-0.987457
 20
-0.955571
  0
VERTEX
  8
PLAN_1
  6
CONTINUOUS
 10
-0.997213
 20
-0.957110
  0
SEQEND
  8
0
  0
POLYLINE
  8
PLAN_1
  6
CONTINUOUS
 66
     1
 40
0.005646
 41
0.005646
  0
VERTEX
  8
PLAN_1
  6
CONTINUOUS
 10
-0.997213
 20
-0.957110
  0
VERTEX
  8
PLAN_1
  6
CONTINUOUS
 10
-1.001835
 20
-0.958654
  0
VERTEX
  8
PLAN_1
  6
CONTINUOUS
 10
-1.005945
 20
-0.960709
  0
VERTEX
  8
PLAN_1
  6
CONTINUOUS
 10
-1.009539
 20
-0.963787
  0
VERTEX
  8
PLAN_1
  6
CONTINUOUS
 10
-1.012618
 20
-0.967382
  0
VERTEX
  8
PLAN_1
  6
CONTINUOUS
 10
-1.014673
 20
-0.970976
  0
VERTEX
  8
PLAN_1
  6
CONTINUOUS
 10
-1.016213
 20
-0.975598
  0
VERTEX
  8
PLAN_1
  6
CONTINUOUS
 10
-1.016728
 20
-0.980220
  0
VERTEX
  8
PLAN_1
  6
CONTINUOUS
 10
-1.016728
 20
-0.985358
  0
VERTEX
  8
PLAN_1
  6
CONTINUOUS
 10
-1.015189
 20
-0.989980
  0
VERTEX
  8
PLAN_1
  6
CONTINUOUS
 10
-1.013134
 20
-0.994087
  0
VERTEX
  8
PLAN_1
  6
CONTINUOUS
 10
-1.010051
 20
-0.997681
  0
VERTEX
  8
PLAN_1
  6
CONTINUOUS
 10
-1.006457
 20
-1.000764
  0
VERTEX
  8
PLAN_1
  6
CONTINUOUS
 10
-1.002862
 20
-1.002819
  0
VERTEX
  8
PLAN_1
  6
CONTINUOUS
 10
-0.998240
 20
-1.004358
  0
VERTEX
  8
PLAN_1
  6
CONTINUOUS
 10
-0.993618
 20
-1.004870
  0
VERTEX
  8
PLAN_1
  6
CONTINUOUS
 10
-0.988484
 20
-1.004358
  0
SEQEND
  8
0
  0
POLYLINE
  8
PLAN_1
  6
CONTINUOUS
 66
     1
 40
0.005646
 41
0.005646
  0
VERTEX
  8
PLAN_1
  6
CONTINUOUS
 10
-0.543752
 20
-0.876484
  0
VERTEX
  8
PLAN_1
  6
CONTINUOUS
 10
-0.987457
 20
-0.797913
  0
VERTEX
  8
PLAN_1
  6
CONTINUOUS
 10
-0.996701
 20
-0.796370
  0
SEQEND
  8
0
  0
POLYLINE
  8
PLAN_1
  6
CONTINUOUS
 66
     1
 40
0.005646
 41
0.005646
  0
VERTEX
  8
PLAN_1
  6
CONTINUOUS
 10
-0.996701
 20
-0.796370
  0
VERTEX
  8
PLAN_1
  6
CONTINUOUS
 10
-1.001323
 20
-0.794831
  0
VERTEX
  8
PLAN_1
  6
CONTINUOUS
 10
-1.005945
 20
-0.792776
  0
VERTEX
  8
PLAN_1
  6
CONTINUOUS
 10
-1.009539
 20
-0.790209
  0
VERTEX
  8
PLAN_1
  6
CONTINUOUS
 10
-1.012618
 20
-0.786614
  0
VERTEX
  8
PLAN_1
  6
CONTINUOUS
 10
-1.014673
 20
-0.782508
  0
VERTEX
  8
PLAN_1
  6
CONTINUOUS
 10
-1.016213
 20
-0.777886
  0
VERTEX
  8
PLAN_1
  6
CONTINUOUS
 10
-1.016728
 20
-0.773264
  0
VERTEX
  8
PLAN_1
  6
CONTINUOUS
 10
-1.016213
 20
-0.768642
  0
VERTEX
  8
PLAN_1
  6
CONTINUOUS
 10
-1.015189
 20
-0.764020
  0
VERTEX
  8
PLAN_1
  6
CONTINUOUS
 10
-1.013134
 20
-0.759398
  0
VERTEX
  8
PLAN_1
  6
CONTINUOUS
 10
-1.010051
 20
-0.755803
  0
VERTEX
  8
PLAN_1
  6
CONTINUOUS
 10
-1.006457
 20
-0.753232
  0
VERTEX
  8
PLAN_1
  6
CONTINUOUS
 10
-1.002350
 20
-0.750665
  0
VERTEX
  8
PLAN_1
  6
CONTINUOUS
 10
-0.998240
 20
-0.749126
  0
VERTEX
  8
PLAN_1
  6
CONTINUOUS
 10
-0.993618
 20
-0.748610
  0
VERTEX
  8
PLAN_1
  6
CONTINUOUS
 10
-0.988484
 20
-0.749126
  0
SEQEND
  8
0
  0
POLYLINE
  8
PLAN_1
  6
CONTINUOUS
 66
     1
 40
0.005646
 41
0.005646
  0
VERTEX
  8
PLAN_1
  6
CONTINUOUS
 10
-0.856500
 20
-0.772236
  0
VERTEX
  8
PLAN_1
  6
CONTINUOUS
 10
-0.414339
 20
-0.850295
  0
VERTEX
  8
PLAN_1
  6
CONTINUOUS
 10
-0.399445
 20
-0.853374
  0
SEQEND
  8
0
  0
POLYLINE
  8
PLAN_1
  6
CONTINUOUS
 66
     1
 40
0.005646
 41
0.005646
  0
VERTEX
  8
PLAN_1
  6
CONTINUOUS
 10
-0.399445
 20
-0.853374
  0
VERTEX
  8
PLAN_1
  6
CONTINUOUS
 10
-0.394823
 20
-0.854402
  0
VERTEX
  8
PLAN_1
  6
CONTINUOUS
 10
-0.390713
 20
-0.856457
  0
VERTEX
  8
PLAN_1
  6
CONTINUOUS
 10
-0.387118
 20
-0.859539
  0
VERTEX
  8
PLAN_1
  6
CONTINUOUS
 10
-0.384039
 20
-0.863134
  0
VERTEX
  8
PLAN_1
  6
CONTINUOUS
 10
-0.381469
 20
-0.867240
  0
VERTEX
  8
PLAN_1
  6
CONTINUOUS
 10
-0.380445
 20
-0.871350
  0
VERTEX
  8
PLAN_1
  6
CONTINUOUS
 10
-0.379417
 20
-0.875972
  0
VERTEX
  8
PLAN_1
  6
CONTINUOUS
 10
-0.379929
 20
-0.881106
  0
VERTEX
  8
PLAN_1
  6
CONTINUOUS
 10
-0.381469
 20
-0.885728
  0
VERTEX
  8
PLAN_1
  6
CONTINUOUS
 10
-0.383524
 20
-0.889839
  0
VERTEX
  8
PLAN_1
  6
CONTINUOUS
 10
-0.386606
 20
-0.893433
  0
VERTEX
  8
PLAN_1
  6
CONTINUOUS
 10
-0.389689
 20
-0.896512
  0
VERTEX
  8
PLAN_1
  6
CONTINUOUS
 10
-0.393795
 20
-0.898567
  0
VERTEX
  8
PLAN_1
  6
CONTINUOUS
 10
-0.398417
 20
-0.900110
  0
VERTEX
  8
PLAN_1
  6
CONTINUOUS
 10
-0.403039
 20
-0.900622
  0
VERTEX
  8
PLAN_1
  6
CONTINUOUS
 10
-0.407661
 20
-0.900622
  0
SEQEND
  8
0
  0
POLYLINE
  8
PLAN_1
  6
CONTINUOUS
 66
     1
 40
0.005646
 41
0.005646
  0
VERTEX
  8
PLAN_1
  6
CONTINUOUS
 10
-0.860094
 20
-0.562709
  0
VERTEX
  8
PLAN_1
  6
CONTINUOUS
 10
-0.414339
 20
-0.641280
  0
VERTEX
  8
PLAN_1
  6
CONTINUOUS
 10
-0.399445
 20
-0.643850
  0
SEQEND
  8
0
  0
POLYLINE
  8
PLAN_1
  6
CONTINUOUS
 66
     1
 40
0.005646
 41
0.005646
  0
VERTEX
  8
PLAN_1
  6
CONTINUOUS
 10
-0.399445
 20
-0.643850
  0
VERTEX
  8
PLAN_1
  6
CONTINUOUS
 10
-0.394823
 20
-0.645390
  0
VERTEX
  8
PLAN_1
  6
CONTINUOUS
 10
-0.390713
 20
-0.647445
  0
VERTEX
  8
PLAN_1
  6
CONTINUOUS
 10
-0.387118
 20
-0.650012
  0
VERTEX
  8
PLAN_1
  6
CONTINUOUS
 10
-0.384039
 20
-0.653606
  0
VERTEX
  8
PLAN_1
  6
CONTINUOUS
 10
-0.381469
 20
-0.657713
  0
VERTEX
  8
PLAN_1
  6
CONTINUOUS
 10
-0.379929
 20
-0.662335
  0
VERTEX
  8
PLAN_1
  6
CONTINUOUS
 10
-0.379417
 20
-0.666957
  0
VERTEX
  8
PLAN_1
  6
CONTINUOUS
 10
-0.379929
 20
-0.671579
  0
VERTEX
  8
PLAN_1
  6
CONTINUOUS
 10
-0.381469
 20
-0.676201
  0
VERTEX
  8
PLAN_1
  6
CONTINUOUS
 10
-0.383524
 20
-0.680311
  0
VERTEX
  8
PLAN_1
  6
CONTINUOUS
 10
-0.386091
 20
-0.684417
  0
VERTEX
  8
PLAN_1
  6
CONTINUOUS
 10
-0.389689
 20
-0.686988
  0
VERTEX
  8
PLAN_1
  6
CONTINUOUS
 10
-0.393795
 20
-0.689555
  0
VERTEX
  8
PLAN_1
  6
CONTINUOUS
 10
-0.398417
 20
-0.691094
  0
VERTEX
  8
PLAN_1
  6
CONTINUOUS
 10
-0.403039
 20
-0.691610
  0
VERTEX
  8
PLAN_1
  6
CONTINUOUS
 10
-0.407661
 20
-0.691094
  0
SEQEND
  8
0
  0
POLYLINE
  8
PLAN_1
  6
CONTINUOUS
 66
     1
 40
0.005646
 41
0.005646
  0
VERTEX
  8
PLAN_1
  6
CONTINUOUS
 10
-0.540669
 20
-0.667472
  0
VERTEX
  8
PLAN_1
  6
CONTINUOUS
 10
-0.987457
 20
-0.588898
  0
VERTEX
  8
PLAN_1
  6
CONTINUOUS
 10
-0.996701
 20
-0.586846
  0
SEQEND
  8
0
  0
POLYLINE
  8
PLAN_1
  6
CONTINUOUS
 66
     1
 40
0.005646
 41
0.005646
  0
VERTEX
  8
PLAN_1
  6
CONTINUOUS
 10
-0.996701
 20
-0.586846
  0
VERTEX
  8
PLAN_1
  6
CONTINUOUS
 10
-1.001323
 20
-0.585819
  0
VERTEX
  8
PLAN_1
  6
CONTINUOUS
 10
-1.005945
 20
-0.583764
  0
VERTEX
  8
PLAN_1
  6
CONTINUOUS
 10
-1.009539
 20
-0.580681
  0
VERTEX
  8
PLAN_1
  6
CONTINUOUS
 10
-1.012106
 20
-0.577087
  0
VERTEX
  8
PLAN_1
  6
CONTINUOUS
 10
-1.014673
 20
-0.572980
  0
VERTEX
  8
PLAN_1
  6
CONTINUOUS
 10
-1.016213
 20
-0.568870
  0
VERTEX
  8
PLAN_1
  6
CONTINUOUS
 10
-1.016728
 20
-0.564248
  0
VERTEX
  8
PLAN_1
  6
CONTINUOUS
 10
-1.016213
 20
-0.559114
  0
VERTEX
  8
PLAN_1
  6
CONTINUOUS
 10
-1.015189
 20
-0.554492
  0
VERTEX
  8
PLAN_1
  6
CONTINUOUS
 10
-1.012618
 20
-0.550382
  0
VERTEX
  8
PLAN_1
  6
CONTINUOUS
 10
-1.010051
 20
-0.546787
  0
VERTEX
  8
PLAN_1
  6
CONTINUOUS
 10
-1.006457
 20
-0.543709
  0
VERTEX
  8
PLAN_1
  6
CONTINUOUS
 10
-1.002350
 20
-0.541654
  0
VERTEX
  8
PLAN_1
  6
CONTINUOUS
 10
-0.998240
 20
-0.540110
  0
VERTEX
  8
PLAN_1
  6
CONTINUOUS
 10
-0.993106
 20
-0.539598
  0
VERTEX
  8
PLAN_1
  6
CONTINUOUS
 10
-0.988484
 20
-0.539598
  0
SEQEND
  8
0
  0
POLYLINE
  8
PLAN_1
 62
     2
  6
CONTINUOUS
 66
     1
 40
0.004106
 41
0.004106
  0
VERTEX
  8
PLAN_1
 62
     2
  6
CONTINUOUS
 10
-1.825563
 20
4.011453
  0
VERTEX
  8
PLAN_1
 62
     2
  6
CONTINUOUS
 10
0.044260
 20
4.011453
  0
SEQEND
  8
0
  0
SOLID
  8
PLAN_1
 62
     2
 10
0.073531
 20
4.011453
 11
0.014472
 21
4.026858
 12
0.073531
 22
4.011453
 13
0.014472
 23
3.995531
  0
POLYLINE
  8
PLAN_1
 62
     2
  6
CONTINUOUS
 66
     1
 40
0.003000
 41
0.003000
  0
VERTEX
  8
PLAN_1
 62
     2
  6
CONTINUOUS
 10
0.073531
 20
4.011453
  0
VERTEX
  8
PLAN_1
 62
     2
  6
CONTINUOUS
 10
0.014472
 20
4.026858
  0
VERTEX
  8
PLAN_1
 62
     2
  6
CONTINUOUS
 10
0.014472
 20
3.995531
  0
VERTEX
  8
PLAN_1
 62
     2
  6
CONTINUOUS
 10
0.073531
 20
4.011453
  0
SEQEND
  8
0
  0
SOLID
  8
PLAN_1
 62
     2
 10
-1.854835
 20
4.011453
 11
-1.795780
 21
4.026858
 12
-1.854835
 22
4.011453
 13
-1.795780
 23
3.995531
  0
POLYLINE
  8
PLAN_1
 62
     2
  6
CONTINUOUS
 66
     1
 40
0.003000
 41
0.003000
  0
VERTEX
  8
PLAN_1
 62
     2
  6
CONTINUOUS
 10
-1.854835
 20
4.011453
  0
VERTEX
  8
PLAN_1
 62
     2
  6
CONTINUOUS
 10
-1.795780
 20
4.026858
  0
VERTEX
  8
PLAN_1
 62
     2
  6
CONTINUOUS
 10
-1.795780
 20
3.995531
  0
VERTEX
  8
PLAN_1
 62
     2
  6
CONTINUOUS
 10
-1.854835
 20
4.011453
  0
SEQEND
  8
0
  0
POLYLINE
  8
PLAN_1
 62
     2
  6
CONTINUOUS
 66
     1
 40
0.003000
 41
0.003000
  0
VERTEX
  8
PLAN_1
 62
     2
  6
CONTINUOUS
 10
-0.904776
 20
4.052535
  0
VERTEX
  8
PLAN_1
 62
     2
  6
CONTINUOUS
 10
-0.904776
 20
4.035075
  0
VERTEX
  8
PLAN_1
 62
     2
  6
CONTINUOUS
 10
-0.914020
 20
4.035075
  0
VERTEX
  8
PLAN_1
 62
     2
  6
CONTINUOUS
 10
-0.914020
 20
4.052535
  0
VERTEX
  8
PLAN_1
 62
     2
  6
CONTINUOUS
 10
-0.945858
 20
4.052535
  0
VERTEX
  8
PLAN_1
 62
     2
  6
CONTINUOUS
 10
-0.945858
 20
4.061780
  0
VERTEX
  8
PLAN_1
 62
     2
  6
CONTINUOUS
 10
-0.912476
 20
4.108000
  0
VERTEX
  8
PLAN_1
 62
     2
  6
CONTINUOUS
 10
-0.904776
 20
4.108000
  0
VERTEX
  8
PLAN_1
 62
     2
  6
CONTINUOUS
 10
-0.904776
 20
4.060752
  0
VERTEX
  8
PLAN_1
 62
     2
  6
CONTINUOUS
 10
-0.893988
 20
4.060752
  0
VERTEX
  8
PLAN_1
 62
     2
  6
CONTINUOUS
 10
-0.893988
 20
4.052535
  0
VERTEX
  8
PLAN_1
 62
     2
  6
CONTINUOUS
 10
-0.904776
 20
4.052535
  0
SEQEND
  8
0
  0
SOLID
  8
PLAN_1
 62
     2
 10
-0.937642
 20
4.060752
 11
-0.914020
 21
4.060752
 12
-0.937642
 22
4.060752
 13
-0.914020
 23
4.093622
  0
POLYLINE
  8
PLAN_1
 62
     2
  6
CONTINUOUS
 66
     1
 40
0.003000
 41
0.003000
  0
VERTEX
  8
PLAN_1
 62
     2
  6
CONTINUOUS
 10
-0.937642
 20
4.060752
  0
VERTEX
  8
PLAN_1
 62
     2
  6
CONTINUOUS
 10
-0.914020
 20
4.060752
  0
VERTEX
  8
PLAN_1
 62
     2
  6
CONTINUOUS
 10
-0.914020
 20
4.093622
  0
VERTEX
  8
PLAN_1
 62
     2
  6
CONTINUOUS
 10
-0.937642
 20
4.060752
  0
SEQEND
  8
0
  0
POLYLINE
  8
PLAN_1
 62
     2
  6
CONTINUOUS
 66
     1
 40
0.003000
 41
0.003000
  0
VERTEX
  8
PLAN_1
 62
     2
  6
CONTINUOUS
 10
-0.886287
 20
4.082835
  0
VERTEX
  8
PLAN_1
 62
     2
  6
CONTINUOUS
 10
-0.885772
 20
4.087972
  0
VERTEX
  8
PLAN_1
 62
     2
  6
CONTINUOUS
 10
-0.884748
 20
4.092594
  0
VERTEX
  8
PLAN_1
 62
     2
  6
CONTINUOUS
 10
-0.882693
 20
4.096701
  0
VERTEX
  8
PLAN_1
 62
     2
  6
CONTINUOUS
 10
-0.880126
 20
4.100295
  0
VERTEX
  8
PLAN_1
 62
     2
  6
CONTINUOUS
 10
-0.877043
 20
4.103378
  0
VERTEX
  8
PLAN_1
 62
     2
  6
CONTINUOUS
 10
-0.872933
 20
4.105945
  0
VERTEX
  8
PLAN_1
 62
     2
  6
CONTINUOUS
 10
-0.870882
 20
4.106972
  0
VERTEX
  8
PLAN_1
 62
     2
  6
CONTINUOUS
 10
-0.868311
 20
4.107488
  0
VERTEX
  8
PLAN_1
 62
     2
  6
CONTINUOUS
 10
-0.865744
 20
4.108000
  0
VERTEX
  8
PLAN_1
 62
     2
  6
CONTINUOUS
 10
-0.862665
 20
4.108000
  0
VERTEX
  8
PLAN_1
 62
     2
  6
CONTINUOUS
 10
-0.858555
 20
4.108000
  0
VERTEX
  8
PLAN_1
 62
     2
  6
CONTINUOUS
 10
-0.854961
 20
4.106972
  0
VERTEX
  8
PLAN_1
 62
     2
  6
CONTINUOUS
 10
-0.851878
 20
4.105945
  0
VERTEX
  8
PLAN_1
 62
     2
  6
CONTINUOUS
 10
-0.848799
 20
4.104406
  0
VERTEX
  8
PLAN_1
 62
     2
  6
CONTINUOUS
 10
-0.846228
 20
4.102350
  0
VERTEX
  8
PLAN_1
 62
     2
  6
CONTINUOUS
 10
-0.844177
 20
4.100295
  0
VERTEX
  8
PLAN_1
 62
     2
  6
CONTINUOUS
 10
-0.842634
 20
4.098244
  0
VERTEX
  8
PLAN_1
 62
     2
  6
CONTINUOUS
 10
-0.841094
 20
4.095673
  0
VERTEX
  8
PLAN_1
 62
     2
  6
CONTINUOUS
 10
-0.839039
 20
4.090028
  0
VERTEX
  8
PLAN_1
 62
     2
  6
CONTINUOUS
 10
-0.838012
 20
4.084378
  0
VERTEX
  8
PLAN_1
 62
     2
  6
CONTINUOUS
 10
-0.837500
 20
4.078728
  0
VERTEX
  8
PLAN_1
 62
     2
  6
CONTINUOUS
 10
-0.836988
 20
4.074106
  0
VERTEX
  8
PLAN_1
 62
     2
  6
CONTINUOUS
 10
-0.837500
 20
4.069996
  0
VERTEX
  8
PLAN_1
 62
     2
  6
CONTINUOUS
 10
-0.837500
 20
4.064350
  0
VERTEX
  8
PLAN_1
 62
     2
  6
CONTINUOUS
 10
-0.839039
 20
4.057673
  0
VERTEX
  8
PLAN_1
 62
     2
  6
CONTINUOUS
 10
-0.841094
 20
4.050484
  0
VERTEX
  8
PLAN_1
 62
     2
  6
CONTINUOUS
 10
-0.842634
 20
4.046890
  0
VERTEX
  8
PLAN_1
 62
     2
  6
CONTINUOUS
 10
-0.844177
 20
4.043807
  0
VERTEX
  8
PLAN_1
 62
     2
  6
CONTINUOUS
 10
-0.846228
 20
4.040724
  0
VERTEX
  8
PLAN_1
 62
     2
  6
CONTINUOUS
 10
-0.848799
 20
4.038157
  0
VERTEX
  8
PLAN_1
 62
     2
  6
CONTINUOUS
 10
-0.851878
 20
4.036102
  0
VERTEX
  8
PLAN_1
 62
     2
  6
CONTINUOUS
 10
-0.855472
 20
4.034563
  0
VERTEX
  8
PLAN_1
 62
     2
  6
CONTINUOUS
 10
-0.859071
 20
4.033024
  0
VERTEX
  8
PLAN_1
 62
     2
  6
CONTINUOUS
 10
-0.863689
 20
4.033024
  0
VERTEX
  8
PLAN_1
 62
     2
  6
CONTINUOUS
 10
-0.866772
 20
4.033024
  0
VERTEX
  8
PLAN_1
 62
     2
  6
CONTINUOUS
 10
-0.869339
 20
4.033535
  0
VERTEX
  8
PLAN_1
 62
     2
  6
CONTINUOUS
 10
-0.871909
 20
4.034051
  0
VERTEX
  8
PLAN_1
 62
     2
  6
CONTINUOUS
 10
-0.874476
 20
4.035075
  0
VERTEX
  8
PLAN_1
 62
     2
  6
CONTINUOUS
 10
-0.878071
 20
4.037130
  0
VERTEX
  8
PLAN_1
 62
     2
  6
CONTINUOUS
 10
-0.881150
 20
4.040213
  0
VERTEX
  8
PLAN_1
 62
     2
  6
CONTINUOUS
 10
-0.883205
 20
4.043291
  0
VERTEX
  8
PLAN_1
 62
     2
  6
CONTINUOUS
 10
-0.884232
 20
4.046374
  0
VERTEX
  8
PLAN_1
 62
     2
  6
CONTINUOUS
 10
-0.885260
 20
4.049457
  0
VERTEX
  8
PLAN_1
 62
     2
  6
CONTINUOUS
 10
-0.885260
 20
4.052535
  0
VERTEX
  8
PLAN_1
 62
     2
  6
CONTINUOUS
 10
-0.876016
 20
4.052535
  0
VERTEX
  8
PLAN_1
 62
     2
  6
CONTINUOUS
 10
-0.876016
 20
4.049969
  0
VERTEX
  8
PLAN_1
 62
     2
  6
CONTINUOUS
 10
-0.874988
 20
4.047402
  0
VERTEX
  8
PLAN_1
 62
     2
  6
CONTINUOUS
 10
-0.873961
 20
4.045346
  0
VERTEX
  8
PLAN_1
 62
     2
  6
CONTINUOUS
 10
-0.872933
 20
4.043807
  0
VERTEX
  8
PLAN_1
 62
     2
  6
CONTINUOUS
 10
-0.870882
 20
4.042268
  0
VERTEX
  8
PLAN_1
 62
     2
  6
CONTINUOUS
 10
-0.868827
 20
4.041240
  0
VERTEX
  8
PLAN_1
 62
     2
  6
CONTINUOUS
 10
-0.866772
 20
4.040724
  0
VERTEX
  8
PLAN_1
 62
     2
  6
CONTINUOUS
 10
-0.863689
 20
4.040724
  0
VERTEX
  8
PLAN_1
 62
     2
  6
CONTINUOUS
 10
-0.860094
 20
4.040724
  0
VERTEX
  8
PLAN_1
 62
     2
  6
CONTINUOUS
 10
-0.857016
 20
4.042268
  0
VERTEX
  8
PLAN_1
 62
     2
  6
CONTINUOUS
 10
-0.854449
 20
4.044319
  0
VERTEX
  8
PLAN_1
 62
     2
  6
CONTINUOUS
 10
-0.852394
 20
4.046890
  0
VERTEX
  8
PLAN_1
 62
     2
  6
CONTINUOUS
 10
-0.850339
 20
4.050996
  0
VERTEX
  8
PLAN_1
 62
     2
  6
CONTINUOUS
 10
-0.848799
 20
4.055618
  0
VERTEX
  8
PLAN_1
 62
     2
  6
CONTINUOUS
 10
-0.847256
 20
4.061268
  0
VERTEX
  8
PLAN_1
 62
     2
  6
CONTINUOUS
 10
-0.846228
 20
4.067945
  0
VERTEX
  8
PLAN_1
 62
     2
  6
CONTINUOUS
 10
-0.846744
 20
4.067945
  0
VERTEX
  8
PLAN_1
 62
     2
  6
CONTINUOUS
 10
-0.847772
 20
4.065890
  0
VERTEX
  8
PLAN_1
 62
     2
  6
CONTINUOUS
 10
-0.849311
 20
4.064350
  0
VERTEX
  8
PLAN_1
 62
     2
  6
CONTINUOUS
 10
-0.851366
 20
4.062807
  0
VERTEX
  8
PLAN_1
 62
     2
  6
CONTINUOUS
 10
-0.853421
 20
4.061780
  0
VERTEX
  8
PLAN_1
 62
     2
  6
CONTINUOUS
 10
-0.855472
 20
4.060752
  0
VERTEX
  8
PLAN_1
 62
     2
  6
CONTINUOUS
 10
-0.858043
 20
4.059728
  0
VERTEX
  8
PLAN_1
 62
     2
  6
CONTINUOUS
 10
-0.860610
 20
4.059213
  0
VERTEX
  8
PLAN_1
 62
     2
  6
CONTINUOUS
 10
-0.863177
 20
4.059213
  0
VERTEX
  8
PLAN_1
 62
     2
  6
CONTINUOUS
 10
-0.868311
 20
4.059728
  0
VERTEX
  8
PLAN_1
 62
     2
  6
CONTINUOUS
 10
-0.872421
 20
4.060752
  0
VERTEX
  8
PLAN_1
 62
     2
  6
CONTINUOUS
 10
-0.876531
 20
4.062807
  0
VERTEX
  8
PLAN_1
 62
     2
  6
CONTINUOUS
 10
-0.879610
 20
4.065890
  0
VERTEX
  8
PLAN_1
 62
     2
  6
CONTINUOUS
 10
-0.882693
 20
4.068969
  0
VERTEX
  8
PLAN_1
 62
     2
  6
CONTINUOUS
 10
-0.884748
 20
4.073079
  0
VERTEX
  8
PLAN_1
 62
     2
  6
CONTINUOUS
 10
-0.885772
 20
4.077701
  0
VERTEX
  8
PLAN_1
 62
     2
  6
CONTINUOUS
 10
-0.886287
 20
4.082835
  0
SEQEND
  8
0
  0
POLYLINE
  8
PLAN_1
 62
     2
  6
CONTINUOUS
 66
     1
 40
0.003000
 41
0.003000
  0
VERTEX
  8
PLAN_1
 62
     2
  6
CONTINUOUS
 10
-0.847772
 20
4.084378
  0
VERTEX
  8
PLAN_1
 62
     2
  6
CONTINUOUS
 10
-0.848283
 20
4.087457
  0
VERTEX
  8
PLAN_1
 62
     2
  6
CONTINUOUS
 10
-0.848799
 20
4.090028
  0
VERTEX
  8
PLAN_1
 62
     2
  6
CONTINUOUS
 10
-0.849827
 20
4.092594
  0
VERTEX
  8
PLAN_1
 62
     2
  6
CONTINUOUS
 10
-0.851366
 20
4.095161
  0
VERTEX
  8
PLAN_1
 62
     2
  6
CONTINUOUS
 10
-0.853421
 20
4.097217
  0
VERTEX
  8
PLAN_1
 62
     2
  6
CONTINUOUS
 10
-0.855988
 20
4.098756
  0
VERTEX
  8
PLAN_1
 62
     2
  6
CONTINUOUS
 10
-0.859071
 20
4.099272
  0
VERTEX
  8
PLAN_1
 62
     2
  6
CONTINUOUS
 10
-0.862665
 20
4.099783
  0
VERTEX
  8
PLAN_1
 62
     2
  6
CONTINUOUS
 10
-0.865744
 20
4.099272
  0
VERTEX
  8
PLAN_1
 62
     2
  6
CONTINUOUS
 10
-0.868311
 20
4.098756
  0
VERTEX
  8
PLAN_1
 62
     2
  6
CONTINUOUS
 10
-0.870882
 20
4.097217
  0
VERTEX
  8
PLAN_1
 62
     2
  6
CONTINUOUS
 10
-0.872933
 20
4.095161
  0
VERTEX
  8
PLAN_1
 62
     2
  6
CONTINUOUS
 10
-0.874476
 20
4.092594
  0
VERTEX
  8
PLAN_1
 62
     2
  6
CONTINUOUS
 10
-0.876016
 20
4.090028
  0
VERTEX
  8
PLAN_1
 62
     2
  6
CONTINUOUS
 10
-0.876531
 20
4.086945
  0
VERTEX
  8
PLAN_1
 62
     2
  6
CONTINUOUS
 10
-0.876531
 20
4.083350
  0
VERTEX
  8
PLAN_1
 62
     2
  6
CONTINUOUS
 10
-0.876531
 20
4.078728
  0
VERTEX
  8
PLAN_1
 62
     2
  6
CONTINUOUS
 10
-0.875504
 20
4.075134
  0
VERTEX
  8
PLAN_1
 62
     2
  6
CONTINUOUS
 10
-0.873449
 20
4.072051
  0
VERTEX
  8
PLAN_1
 62
     2
  6
CONTINUOUS
 10
-0.871394
 20
4.069996
  0
VERTEX
  8
PLAN_1
 62
     2
  6
CONTINUOUS
 10
-0.869339
 20
4.068969
  0
VERTEX
  8
PLAN_1
 62
     2
  6
CONTINUOUS
 10
-0.866772
 20
4.067945
  0
VERTEX
  8
PLAN_1
 62
     2
  6
CONTINUOUS
 10
-0.864205
 20
4.067429
  0
VERTEX
  8
PLAN_1
 62
     2
  6
CONTINUOUS
 10
-0.862150
 20
4.067429
  0
VERTEX
  8
PLAN_1
 62
     2
  6
CONTINUOUS
 10
-0.860094
 20
4.067429
  0
VERTEX
  8
PLAN_1
 62
     2
  6
CONTINUOUS
 10
-0.857528
 20
4.067945
  0
VERTEX
  8
PLAN_1
 62
     2
  6
CONTINUOUS
 10
-0.855472
 20
4.068969
  0
VERTEX
  8
PLAN_1
 62
     2
  6
CONTINUOUS
 10
-0.852906
 20
4.070512
  0
VERTEX
  8
PLAN_1
 62
     2
  6
CONTINUOUS
 10
-0.850850
 20
4.072567
  0
VERTEX
  8
PLAN_1
 62
     2
  6
CONTINUOUS
 10
-0.849311
 20
4.075646
  0
VERTEX
  8
PLAN_1
 62
     2
  6
CONTINUOUS
 10
-0.848283
 20
4.079240
  0
VERTEX
  8
PLAN_1
 62
     2
  6
CONTINUOUS
 10
-0.847772
 20
4.084378
  0
SEQEND
  8
0
  0
POLYLINE
  8
PLAN_1
 62
     2
  6
CONTINUOUS
 66
     1
 40
0.004106
 41
0.004106
  0
VERTEX
  8
PLAN_1
 62
     2
  6
CONTINUOUS
 10
-2.263106
 20
-1.158937
  0
VERTEX
  8
PLAN_1
 62
     2
  6
CONTINUOUS
 10
0.044260
 20
-1.158937
  0
SEQEND
  8
0
  0
SOLID
  8
PLAN_1
 62
     2
 10
0.073531
 20
-1.158937
 11
0.014472
 21
-1.143531
 12
0.073531
 22
-1.158937
 13
0.014472
 23
-1.174854
  0
POLYLINE
  8
PLAN_1
 62
     2
  6
CONTINUOUS
 66
     1
 40
0.003000
 41
0.003000
  0
VERTEX
  8
PLAN_1
 62
     2
  6
CONTINUOUS
 10
0.073531
 20
-1.158937
  0
VERTEX
  8
PLAN_1
 62
     2
  6
CONTINUOUS
 10
0.014472
 20
-1.143531
  0
VERTEX
  8
PLAN_1
 62
     2
  6
CONTINUOUS
 10
0.014472
 20
-1.174854
  0
VERTEX
  8
PLAN_1
 62
     2
  6
CONTINUOUS
 10
0.073531
 20
-1.158937
  0
SEQEND
  8
0
  0
SOLID
  8
PLAN_1
 62
     2
 10
-2.292890
 20
-1.158937
 11
-2.233835
 21
-1.143531
 12
-2.292890
 22
-1.158937
 13
-2.233835
 23
-1.174854
  0
POLYLINE
  8
PLAN_1
 62
     2
  6
CONTINUOUS
 66
     1
 40
0.003000
 41
0.003000
  0
VERTEX
  8
PLAN_1
 62
     2
  6
CONTINUOUS
 10
-2.292890
 20
-1.158937
  0
VERTEX
  8
PLAN_1
 62
     2
  6
CONTINUOUS
 10
-2.233835
 20
-1.143531
  0
VERTEX
  8
PLAN_1
 62
     2
  6
CONTINUOUS
 10
-2.233835
 20
-1.174854
  0
VERTEX
  8
PLAN_1
 62
     2
  6
CONTINUOUS
 10
-2.292890
 20
-1.158937
  0
SEQEND
  8
0
  0
POLYLINE
  8
PLAN_1
 62
     2
  6
CONTINUOUS
 66
     1
 40
0.003000
 41
0.003000
  0
VERTEX
  8
PLAN_1
 62
     2
  6
CONTINUOUS
 10
-1.152303
 20
-1.093201
  0
VERTEX
  8
PLAN_1
 62
     2
  6
CONTINUOUS
 10
-1.150764
 20
-1.092173
  0
VERTEX
  8
PLAN_1
 62
     2
  6
CONTINUOUS
 10
-1.149736
 20
-1.091150
  0
VERTEX
  8
PLAN_1
 62
     2
  6
CONTINUOUS
 10
-1.148197
 20
-1.090634
  0
VERTEX
  8
PLAN_1
 62
     2
  6
CONTINUOUS
 10
-1.146142
 20
-1.089606
  0
VERTEX
  8
PLAN_1
 62
     2
  6
CONTINUOUS
 10
-1.144602
 20
-1.089094
  0
VERTEX
  8
PLAN_1
 62
     2
  6
CONTINUOUS
 10
-1.142547
 20
-1.088579
  0
VERTEX
  8
PLAN_1
 62
     2
  6
CONTINUOUS
 10
-1.140492
 20
-1.088579
  0
VERTEX
  8
PLAN_1
 62
     2
  6
CONTINUOUS
 10
-1.137925
 20
-1.088579
  0
VERTEX
  8
PLAN_1
 62
     2
  6
CONTINUOUS
 10
-1.133815
 20
-1.088579
  0
VERTEX
  8
PLAN_1
 62
     2
  6
CONTINUOUS
 10
-1.129193
 20
-1.090122
  0
VERTEX
  8
PLAN_1
 62
     2
  6
CONTINUOUS
 10
-1.125087
 20
-1.091661
  0
VERTEX
  8
PLAN_1
 62
     2
  6
CONTINUOUS
 10
-1.121492
 20
-1.094228
  0
VERTEX
  8
PLAN_1
 62
     2
  6
CONTINUOUS
 10
-1.118409
 20
-1.097823
  0
VERTEX
  8
PLAN_1
 62
     2
  6
CONTINUOUS
 10
-1.115843
 20
-1.101933
  0
VERTEX
  8
PLAN_1
 62
     2
  6
CONTINUOUS
 10
-1.115331
 20
-1.103988
  0
VERTEX
  8
PLAN_1
 62
     2
  6
CONTINUOUS
 10
-1.114303
 20
-1.106555
  0
VERTEX
  8
PLAN_1
 62
     2
  6
CONTINUOUS
 10
-1.114303
 20
-1.109122
  0
VERTEX
  8
PLAN_1
 62
     2
  6
CONTINUOUS
 10
-1.113787
 20
-1.111689
  0
VERTEX
  8
PLAN_1
 62
     2
  6
CONTINUOUS
 10
-1.114303
 20
-1.115283
  0
VERTEX
  8
PLAN_1
 62
     2
  6
CONTINUOUS
 10
-1.114815
 20
-1.119394
  0
VERTEX
  8
PLAN_1
 62
     2
  6
CONTINUOUS
 10
-1.116354
 20
-1.123500
  0
VERTEX
  8
PLAN_1
 62
     2
  6
CONTINUOUS
 10
-1.118925
 20
-1.127610
  0
VERTEX
  8
PLAN_1
 62
     2
  6
CONTINUOUS
 10
-1.120465
 20
-1.129665
  0
VERTEX
  8
PLAN_1
 62
     2
  6
CONTINUOUS
 10
-1.122004
 20
-1.131717
  0
VERTEX
  8
PLAN_1
 62
     2
  6
CONTINUOUS
 10
-1.124059
 20
-1.133260
  0
VERTEX
  8
PLAN_1
 62
     2
  6
CONTINUOUS
 10
-1.126626
 20
-1.134799
  0
VERTEX
  8
PLAN_1
 62
     2
  6
CONTINUOUS
 10
-1.129709
 20
-1.135827
  0
VERTEX
  8
PLAN_1
 62
     2
  6
CONTINUOUS
 10
-1.132791
 20
-1.136854
  0
VERTEX
  8
PLAN_1
 62
     2
  6
CONTINUOUS
 10
-1.136386
 20
-1.137366
  0
VERTEX
  8
PLAN_1
 62
     2
  6
CONTINUOUS
 10
-1.140492
 20
-1.137366
  0
VERTEX
  8
PLAN_1
 62
     2
  6
CONTINUOUS
 10
-1.144087
 20
-1.137366
  0
VERTEX
  8
PLAN_1
 62
     2
  6
CONTINUOUS
 10
-1.148197
 20
-1.136854
  0
VERTEX
  8
PLAN_1
 62
     2
  6
CONTINUOUS
 10
-1.151791
 20
-1.135311
  0
VERTEX
  8
PLAN_1
 62
     2
  6
CONTINUOUS
 10
-1.155386
 20
-1.133260
  0
VERTEX
  8
PLAN_1
 62
     2
  6
CONTINUOUS
 10
-1.158469
 20
-1.130689
  0
VERTEX
  8
PLAN_1
 62
     2
  6
CONTINUOUS
 10
-1.161035
 20
-1.127094
  0
VERTEX
  8
PLAN_1
 62
     2
  6
CONTINUOUS
 10
-1.162063
 20
-1.125043
  0
VERTEX
  8
PLAN_1
 62
     2
  6
CONTINUOUS
 10
-1.163091
 20
-1.122988
  0
VERTEX
  8
PLAN_1
 62
     2
  6
CONTINUOUS
 10
-1.163602
 20
-1.120421
  0
VERTEX
  8
PLAN_1
 62
     2
  6
CONTINUOUS
 10
-1.164114
 20
-1.117339
  0
VERTEX
  8
PLAN_1
 62
     2
  6
CONTINUOUS
 10
-1.154870
 20
-1.117339
  0
VERTEX
  8
PLAN_1
 62
     2
  6
CONTINUOUS
 10
-1.153846
 20
-1.120421
  0
VERTEX
  8
PLAN_1
 62
     2
  6
CONTINUOUS
 10
-1.152819
 20
-1.122988
  0
VERTEX
  8
PLAN_1
 62
     2
  6
CONTINUOUS
 10
-1.151276
 20
-1.125043
  0
VERTEX
  8
PLAN_1
 62
     2
  6
CONTINUOUS
 10
-1.149736
 20
-1.126583
  0
VERTEX
  8
PLAN_1
 62
     2
  6
CONTINUOUS
 10
-1.147681
 20
-1.128122
  0
VERTEX
  8
PLAN_1
 62
     2
  6
CONTINUOUS
 10
-1.145114
 20
-1.128638
  0
VERTEX
  8
PLAN_1
 62
     2
  6
CONTINUOUS
 10
-1.142031
 20
-1.129150
  0
VERTEX
  8
PLAN_1
 62
     2
  6
CONTINUOUS
 10
-1.138953
 20
-1.129665
  0
VERTEX
  8
PLAN_1
 62
     2
  6
CONTINUOUS
 10
-1.135870
 20
-1.129150
  0
VERTEX
  8
PLAN_1
 62
     2
  6
CONTINUOUS
 10
-1.132791
 20
-1.128122
  0
VERTEX
  8
PLAN_1
 62
     2
  6
CONTINUOUS
 10
-1.130220
 20
-1.126583
  0
VERTEX
  8
PLAN_1
 62
     2
  6
CONTINUOUS
 10
-1.128169
 20
-1.124528
  0
VERTEX
  8
PLAN_1
 62
     2
  6
CONTINUOUS
 10
-1.126114
 20
-1.121961
  0
VERTEX
  8
PLAN_1
 62
     2
  6
CONTINUOUS
 10
-1.125087
 20
-1.119394
  0
VERTEX
  8
PLAN_1
 62
     2
  6
CONTINUOUS
 10
-1.124059
 20
-1.116311
  0
VERTEX
  8
PLAN_1
 62
     2
  6
CONTINUOUS
 10
-1.123547
 20
-1.112717
  0
VERTEX
  8
PLAN_1
 62
     2
  6
CONTINUOUS
 10
-1.124059
 20
-1.109122
  0
VERTEX
  8
PLAN_1
 62
     2
  6
CONTINUOUS
 10
-1.125087
 20
-1.106039
  0
VERTEX
  8
PLAN_1
 62
     2
  6
CONTINUOUS
 10
-1.126626
 20
-1.102961
  0
VERTEX
  8
PLAN_1
 62
     2
  6
CONTINUOUS
 10
-1.128681
 20
-1.100906
  0
VERTEX
  8
PLAN_1
 62
     2
  6
CONTINUOUS
 10
-1.130736
 20
-1.098850
  0
VERTEX
  8
PLAN_1
 62
     2
  6
CONTINUOUS
 10
-1.133815
 20
-1.097823
  0
VERTEX
  8
PLAN_1
 62
     2
  6
CONTINUOUS
 10
-1.136898
 20
-1.096795
  0
VERTEX
  8
PLAN_1
 62
     2
  6
CONTINUOUS
 10
-1.139980
 20
-1.096795
  0
VERTEX
  8
PLAN_1
 62
     2
  6
CONTINUOUS
 10
-1.142031
 20
-1.096795
  0
VERTEX
  8
PLAN_1
 62
     2
  6
CONTINUOUS
 10
-1.144087
 20
-1.096795
  0
VERTEX
  8
PLAN_1
 62
     2
  6
CONTINUOUS
 10
-1.145630
 20
-1.097823
  0
VERTEX
  8
PLAN_1
 62
     2
  6
CONTINUOUS
 10
-1.147681
 20
-1.098339
  0
VERTEX
  8
PLAN_1
 62
     2
  6
CONTINUOUS
 10
-1.149224
 20
-1.099366
  0
VERTEX
  8
PLAN_1
 62
     2
  6
CONTINUOUS
 10
-1.150764
 20
-1.100390
  0
VERTEX
  8
PLAN_1
 62
     2
  6
CONTINUOUS
 10
-1.152303
 20
-1.101933
  0
VERTEX
  8
PLAN_1
 62
     2
  6
CONTINUOUS
 10
-1.153331
 20
-1.103472
  0
VERTEX
  8
PLAN_1
 62
     2
  6
CONTINUOUS
 10
-1.161547
 20
-1.102961
  0
VERTEX
  8
PLAN_1
 62
     2
  6
CONTINUOUS
 10
-1.155898
 20
-1.063929
  0
VERTEX
  8
PLAN_1
 62
     2
  6
CONTINUOUS
 10
-1.117898
 20
-1.063929
  0
VERTEX
  8
PLAN_1
 62
     2
  6
CONTINUOUS
 10
-1.117898
 20
-1.072661
  0
VERTEX
  8
PLAN_1
 62
     2
  6
CONTINUOUS
 10
-1.149224
 20
-1.072661
  0
VERTEX
  8
PLAN_1
 62
     2
  6
CONTINUOUS
 10
-1.152303
 20
-1.093201
  0
SEQEND
  8
0
  0
POLYLINE
  8
PLAN_1
 62
     2
  6
CONTINUOUS
 66
     1
 40
0.003000
 41
0.003000
  0
VERTEX
  8
PLAN_1
 62
     2
  6
CONTINUOUS
 10
-1.105571
 20
-1.063929
  0
VERTEX
  8
PLAN_1
 62
     2
  6
CONTINUOUS
 10
-1.055244
 20
-1.063929
  0
VERTEX
  8
PLAN_1
 62
     2
  6
CONTINUOUS
 10
-1.055244
 20
-1.072146
  0
VERTEX
  8
PLAN_1
 62
     2
  6
CONTINUOUS
 10
-1.058327
 20
-1.075740
  0
VERTEX
  8
PLAN_1
 62
     2
  6
CONTINUOUS
 10
-1.062433
 20
-1.080362
  0
VERTEX
  8
PLAN_1
 62
     2
  6
CONTINUOUS
 10
-1.066543
 20
-1.086528
  0
VERTEX
  8
PLAN_1
 62
     2
  6
CONTINUOUS
 10
-1.071165
 20
-1.094228
  0
VERTEX
  8
PLAN_1
 62
     2
  6
CONTINUOUS
 10
-1.075272
 20
-1.102961
  0
VERTEX
  8
PLAN_1
 62
     2
  6
CONTINUOUS
 10
-1.079382
 20
-1.112717
  0
VERTEX
  8
PLAN_1
 62
     2
  6
CONTINUOUS
 10
-1.080921
 20
-1.118366
  0
VERTEX
  8
PLAN_1
 62
     2
  6
CONTINUOUS
 10
-1.082461
 20
-1.123500
  0
VERTEX
  8
PLAN_1
 62
     2
  6
CONTINUOUS
 10
-1.084004
 20
-1.129665
  0
VERTEX
  8
PLAN_1
 62
     2
  6
CONTINUOUS
 10
-1.085031
 20
-1.135311
  0
VERTEX
  8
PLAN_1
 62
     2
  6
CONTINUOUS
 10
-1.095299
 20
-1.135311
  0
VERTEX
  8
PLAN_1
 62
     2
  6
CONTINUOUS
 10
-1.093760
 20
-1.127610
  0
VERTEX
  8
PLAN_1
 62
     2
  6
CONTINUOUS
 10
-1.091705
 20
-1.119394
  0
VERTEX
  8
PLAN_1
 62
     2
  6
CONTINUOUS
 10
-1.088626
 20
-1.111177
  0
VERTEX
  8
PLAN_1
 62
     2
  6
CONTINUOUS
 10
-1.084516
 20
-1.102961
  0
VERTEX
  8
PLAN_1
 62
     2
  6
CONTINUOUS
 10
-1.080409
 20
-1.094744
  0
VERTEX
  8
PLAN_1
 62
     2
  6
CONTINUOUS
 10
-1.075787
 20
-1.086528
  0
VERTEX
  8
PLAN_1
 62
     2
  6
CONTINUOUS
 10
-1.070650
 20
-1.079335
  0
VERTEX
  8
PLAN_1
 62
     2
  6
CONTINUOUS
 10
-1.065516
 20
-1.072661
  0
VERTEX
  8
PLAN_1
 62
     2
  6
CONTINUOUS
 10
-1.105571
 20
-1.072661
  0
VERTEX
  8
PLAN_1
 62
     2
  6
CONTINUOUS
 10
-1.105571
 20
-1.063929
  0
SEQEND
  8
0
  0
POLYLINE
  8
PLAN_1
 62
     2
  6
CONTINUOUS
 66
     1
 40
0.004106
 41
0.004106
  0
VERTEX
  8
PLAN_1
 62
     2
  6
CONTINUOUS
 10
-1.854835
 20
3.957531
  0
VERTEX
  8
PLAN_1
 62
     2
  6
CONTINUOUS
 10
-1.854835
 20
4.035075
  0
SEQEND
  8
0
  0
POLYLINE
  8
PLAN_1
 62
     2
  6
CONTINUOUS
 66
     1
 40
0.004106
 41
0.004106
  0
VERTEX
  8
PLAN_1
 62
     2
  6
CONTINUOUS
 10
0.073531
 20
-0.029646
  0
VERTEX
  8
PLAN_1
 62
     2
  6
CONTINUOUS
 10
0.073531
 20
4.045346
  0
SEQEND
  8
0
  0
POLYLINE
  8
PLAN_1
 62
     2
  6
CONTINUOUS
 66
     1
 40
0.004106
 41
0.004106
  0
VERTEX
  8
PLAN_1
 62
     2
  6
CONTINUOUS
 10
0.074559
 20
-0.875457
  0
VERTEX
  8
PLAN_1
 62
     2
  6
CONTINUOUS
 10
0.073531
 20
-1.182559
  0
SEQEND
  8
0
  0
POLYLINE
  8
PLAN_1
 62
     2
  6
CONTINUOUS
 66
     1
 40
0.004106
 41
0.004106
  0
VERTEX
  8
PLAN_1
 62
     2
  6
CONTINUOUS
 10
-2.292890
 20
0.446409
  0
VERTEX
  8
PLAN_1
 62
     2
  6
CONTINUOUS
 10
-2.292890
 20
-1.182559
  0
SEQEND
  8
0
  0
ENDSEC
  0
EOF
