  0
SECTION
  2
HEADER
  9
$ACADVER
  1
AC1006
  9
$EXTMIN
 10
-2.046429
 20
-3.318031
  9
$EXTMAX
 10
2.040000
 20
3.312000
  9
$LTSCALE
 40
0.000394
  9
$PDMODE
 70
    35
  9
$PDSIZE
 40
0.000315
  0
ENDSEC
  0
SECTION
  2
TABLES
  0
TABLE
  2
LTYPE
 70
     9
  0
LTYPE
  2
CONTINUOUS
 70
    64
  3
Solid line
 72
    65
 73
     0
 40
0.000000
  0
LTYPE
  2
DASHED
 70
    64
  3
__ __ __ __ __ __ __ __ __ __ __ __ __ __ __
 72
    65
 73
     2
 40
0.000003
 49
0.000002
 49
-0.000001
  0
LTYPE
  2
HIDDEN
 70
    64
  3
 _ _ _ _ _ _ _ _ _ _ _ _ _ _ _ _ _ _ _ _ _ _
 72
    65
 73
     2
 40
0.000001
 49
0.000001
 49
-0.000000
  0
LTYPE
  2
CENTER
 70
    64
  3
____ _ ____ _ ____ _ ____ _ ____ _ ____ _ ____
 72
    65
 73
     4
 40
0.000008
 49
0.000005
 49
-0.000001
 49
0.000001
 49
-0.000001
  0
LTYPE
  2
PHANTOM
 70
    64
  3
_____ _ _ _____ _ _ _____ _ _ _____ _ _ ____
 72
    65
 73
     6
 40
0.000010
 49
0.000005
 49
-0.000001
 49
0.000001
 49
-0.000001
 49
0.000001
 49
-0.000001
  0
LTYPE
  2
DOT
 70
    64
  3
...............................................
 72
    65
 73
     2
 40
0.000001
 49
0.000000
 49
-0.000001
  0
LTYPE
  2
DASHDOT
 70
    64
  3
__ . __ . __ . __ . __ . __ . __ . __ . __ . __
 72
    65
 73
     4
 40
0.000004
 49
0.000002
 49
-0.000001
 49
0.000000
 49
-0.000001
  0
LTYPE
  2
BORDER
 70
    64
  3
__ __ . __ __ . __ __ . __ __ . __ __ . __ __
 72
    65
 73
     6
 40
0.000007
 49
0.000002
 49
-0.000001
 49
0.000002
 49
-0.000001
 49
0.000000
 49
-0.000001
  0
LTYPE
  2
DIVIDE
 70
    64
  3
__ . . __ . . __ . . __ . . __ . . __ . . __
 72
    65
 73
     6
 40
0.000005
 49
0.000002
 49
-0.000001
 49
0.000000
 49
-0.000001
 49
0.000000
 49
-0.000001
  0
LTYPE
  2
DOTDOT
 70
    64
  3
 . .  . .  . .  . .  . .  . . 
 72
    65
 73
     5
 40
0.000002
 49
-0.000001
 49
0.000000
 49
-0.000001
 49
0.000000
 49
-0.000001
  0
ENDTAB
  0
TABLE
  2
STYLE
 70
     0
  0
ENDTAB
  0
TABLE
  2
LAYER
 70
     3
  0
LAYER
  2
FOREGROUND
 70
    64
 62
     7
  6
CONTINUOUS
  0
LAYER
  2
BACKGROUND
 70
    65
 62
    -7
  6
CONTINUOUS
  0
LAYER
  2
PLAN_1
 70
    64
 62
     7
  6
CONTINUOUS
  0
ENDTAB
  0
ENDSEC
  0
SECTION
  2
ENTITIES
  0
POLYLINE
  8
PLAN_1
  6
CONTINUOUS
 66
     1
 40
0.003000
 41
0.003000
  0
VERTEX
  8
PLAN_1
  6
CONTINUOUS
 10
0.164114
 20
-3.283224
  0
VERTEX
  8
PLAN_1
  6
CONTINUOUS
 10
0.007480
 20
-3.283224
  0
VERTEX
  8
PLAN_1
  6
CONTINUOUS
 10
0.007480
 20
-3.260846
  0
VERTEX
  8
PLAN_1
  6
CONTINUOUS
 10
0.129307
 20
-3.107941
  0
VERTEX
  8
PLAN_1
  6
CONTINUOUS
 10
0.016598
 20
-3.107941
  0
VERTEX
  8
PLAN_1
  6
CONTINUOUS
 10
0.016598
 20
-3.083909
  0
VERTEX
  8
PLAN_1
  6
CONTINUOUS
 10
0.164114
 20
-3.083909
  0
VERTEX
  8
PLAN_1
  6
CONTINUOUS
 10
0.164114
 20
-3.107528
  0
VERTEX
  8
PLAN_1
  6
CONTINUOUS
 10
0.041461
 20
-3.259602
  0
VERTEX
  8
PLAN_1
  6
CONTINUOUS
 10
0.164114
 20
-3.259602
  0
VERTEX
  8
PLAN_1
  6
CONTINUOUS
 10
0.164114
 20
-3.283224
  0
SEQEND
  8
0
  0
POLYLINE
  8
PLAN_1
  6
CONTINUOUS
 66
     1
 40
0.003000
 41
0.003000
  0
VERTEX
  8
PLAN_1
  6
CONTINUOUS
 10
0.331524
 20
-3.143992
  0
VERTEX
  8
PLAN_1
  6
CONTINUOUS
 10
0.329866
 20
-3.137776
  0
VERTEX
  8
PLAN_1
  6
CONTINUOUS
 10
0.327795
 20
-3.132390
  0
VERTEX
  8
PLAN_1
  6
CONTINUOUS
 10
0.325307
 20
-3.127417
  0
VERTEX
  8
PLAN_1
  6
CONTINUOUS
 10
0.322409
 20
-3.122858
  0
VERTEX
  8
PLAN_1
  6
CONTINUOUS
 10
0.319091
 20
-3.119130
  0
VERTEX
  8
PLAN_1
  6
CONTINUOUS
 10
0.315776
 20
-3.115402
  0
VERTEX
  8
PLAN_1
  6
CONTINUOUS
 10
0.312047
 20
-3.112500
  0
VERTEX
  8
PLAN_1
  6
CONTINUOUS
 10
0.307906
 20
-3.110429
  0
VERTEX
  8
PLAN_1
  6
CONTINUOUS
 10
0.303760
 20
-3.108358
  0
VERTEX
  8
PLAN_1
  6
CONTINUOUS
 10
0.299618
 20
-3.106701
  0
VERTEX
  8
PLAN_1
  6
CONTINUOUS
 10
0.295472
 20
-3.105043
  0
VERTEX
  8
PLAN_1
  6
CONTINUOUS
 10
0.291331
 20
-3.104213
  0
VERTEX
  8
PLAN_1
  6
CONTINUOUS
 10
0.283457
 20
-3.102969
  0
VERTEX
  8
PLAN_1
  6
CONTINUOUS
 10
0.275583
 20
-3.102555
  0
VERTEX
  8
PLAN_1
  6
CONTINUOUS
 10
0.268953
 20
-3.102969
  0
VERTEX
  8
PLAN_1
  6
CONTINUOUS
 10
0.262736
 20
-3.103799
  0
VERTEX
  8
PLAN_1
  6
CONTINUOUS
 10
0.256106
 20
-3.105457
  0
VERTEX
  8
PLAN_1
  6
CONTINUOUS
 10
0.250307
 20
-3.107528
  0
VERTEX
  8
PLAN_1
  6
CONTINUOUS
 10
0.244504
 20
-3.110429
  0
VERTEX
  8
PLAN_1
  6
CONTINUOUS
 10
0.239118
 20
-3.113744
  0
VERTEX
  8
PLAN_1
  6
CONTINUOUS
 10
0.234146
 20
-3.117886
  0
VERTEX
  8
PLAN_1
  6
CONTINUOUS
 10
0.229587
 20
-3.122445
  0
VERTEX
  8
PLAN_1
  6
CONTINUOUS
 10
0.225445
 20
-3.127831
  0
VERTEX
  8
PLAN_1
  6
CONTINUOUS
 10
0.221713
 20
-3.133634
  0
VERTEX
  8
PLAN_1
  6
CONTINUOUS
 10
0.218398
 20
-3.140264
  0
VERTEX
  8
PLAN_1
  6
CONTINUOUS
 10
0.215500
 20
-3.147307
  0
VERTEX
  8
PLAN_1
  6
CONTINUOUS
 10
0.213425
 20
-3.155181
  0
VERTEX
  8
PLAN_1
  6
CONTINUOUS
 10
0.211768
 20
-3.163469
  0
VERTEX
  8
PLAN_1
  6
CONTINUOUS
 10
0.210941
 20
-3.172169
  0
VERTEX
  8
PLAN_1
  6
CONTINUOUS
 10
0.210528
 20
-3.181701
  0
VERTEX
  8
PLAN_1
  6
CONTINUOUS
 10
0.210528
 20
-3.190402
  0
VERTEX
  8
PLAN_1
  6
CONTINUOUS
 10
0.211354
 20
-3.198689
  0
VERTEX
  8
PLAN_1
  6
CONTINUOUS
 10
0.212185
 20
-3.206980
  0
VERTEX
  8
PLAN_1
  6
CONTINUOUS
 10
0.213843
 20
-3.214437
  0
VERTEX
  8
PLAN_1
  6
CONTINUOUS
 10
0.215913
 20
-3.221898
  0
VERTEX
  8
PLAN_1
  6
CONTINUOUS
 10
0.218398
 20
-3.228528
  0
VERTEX
  8
PLAN_1
  6
CONTINUOUS
 10
0.221299
 20
-3.235157
  0
VERTEX
  8
PLAN_1
  6
CONTINUOUS
 10
0.225028
 20
-3.240957
  0
VERTEX
  8
PLAN_1
  6
CONTINUOUS
 10
0.227102
 20
-3.243445
  0
VERTEX
  8
PLAN_1
  6
CONTINUOUS
 10
0.229173
 20
-3.246343
  0
VERTEX
  8
PLAN_1
  6
CONTINUOUS
 10
0.231657
 20
-3.248417
  0
VERTEX
  8
PLAN_1
  6
CONTINUOUS
 10
0.234146
 20
-3.250902
  0
VERTEX
  8
PLAN_1
  6
CONTINUOUS
 10
0.236630
 20
-3.252972
  0
VERTEX
  8
PLAN_1
  6
CONTINUOUS
 10
0.239531
 20
-3.255047
  0
VERTEX
  8
PLAN_1
  6
CONTINUOUS
 10
0.242433
 20
-3.256705
  0
VERTEX
  8
PLAN_1
  6
CONTINUOUS
 10
0.245335
 20
-3.258362
  0
VERTEX
  8
PLAN_1
  6
CONTINUOUS
 10
0.248650
 20
-3.260020
  0
VERTEX
  8
PLAN_1
  6
CONTINUOUS
 10
0.251965
 20
-3.261260
  0
VERTEX
  8
PLAN_1
  6
CONTINUOUS
 10
0.255693
 20
-3.262091
  0
VERTEX
  8
PLAN_1
  6
CONTINUOUS
 10
0.259421
 20
-3.262921
  0
VERTEX
  8
PLAN_1
  6
CONTINUOUS
 10
0.263567
 20
-3.263748
  0
VERTEX
  8
PLAN_1
  6
CONTINUOUS
 10
0.267709
 20
-3.264161
  0
VERTEX
  8
PLAN_1
  6
CONTINUOUS
 10
0.271854
 20
-3.264579
  0
VERTEX
  8
PLAN_1
  6
CONTINUOUS
 10
0.276413
 20
-3.264579
  0
VERTEX
  8
PLAN_1
  6
CONTINUOUS
 10
0.280142
 20
-3.264579
  0
VERTEX
  8
PLAN_1
  6
CONTINUOUS
 10
0.283457
 20
-3.264161
  0
VERTEX
  8
PLAN_1
  6
CONTINUOUS
 10
0.287598
 20
-3.263748
  0
VERTEX
  8
PLAN_1
  6
CONTINUOUS
 10
0.291331
 20
-3.262921
  0
VERTEX
  8
PLAN_1
  6
CONTINUOUS
 10
0.295472
 20
-3.261260
  0
VERTEX
  8
PLAN_1
  6
CONTINUOUS
 10
0.300031
 20
-3.259602
  0
VERTEX
  8
PLAN_1
  6
CONTINUOUS
 10
0.304173
 20
-3.257531
  0
VERTEX
  8
PLAN_1
  6
CONTINUOUS
 10
0.308319
 20
-3.254630
  0
VERTEX
  8
PLAN_1
  6
CONTINUOUS
 10
0.312047
 20
-3.251732
  0
VERTEX
  8
PLAN_1
  6
CONTINUOUS
 10
0.316193
 20
-3.247587
  0
VERTEX
  8
PLAN_1
  6
CONTINUOUS
 10
0.319508
 20
-3.243445
  0
VERTEX
  8
PLAN_1
  6
CONTINUOUS
 10
0.323236
 20
-3.238055
  0
VERTEX
  8
PLAN_1
  6
CONTINUOUS
 10
0.326138
 20
-3.232256
  0
VERTEX
  8
PLAN_1
  6
CONTINUOUS
 10
0.329039
 20
-3.225626
  0
VERTEX
  8
PLAN_1
  6
CONTINUOUS
 10
0.331524
 20
-3.218165
  0
VERTEX
  8
PLAN_1
  6
CONTINUOUS
 10
0.333594
 20
-3.209878
  0
VERTEX
  8
PLAN_1
  6
CONTINUOUS
 10
0.359701
 20
-3.209878
  0
VERTEX
  8
PLAN_1
  6
CONTINUOUS
 10
0.358457
 20
-3.216925
  0
VERTEX
  8
PLAN_1
  6
CONTINUOUS
 10
0.356799
 20
-3.223555
  0
VERTEX
  8
PLAN_1
  6
CONTINUOUS
 10
0.355142
 20
-3.229354
  0
VERTEX
  8
PLAN_1
  6
CONTINUOUS
 10
0.353071
 20
-3.235157
  0
VERTEX
  8
PLAN_1
  6
CONTINUOUS
 10
0.351000
 20
-3.240130
  0
VERTEX
  8
PLAN_1
  6
CONTINUOUS
 10
0.348512
 20
-3.245102
  0
VERTEX
  8
PLAN_1
  6
CONTINUOUS
 10
0.346028
 20
-3.249657
  0
VERTEX
  8
PLAN_1
  6
CONTINUOUS
 10
0.343539
 20
-3.254217
  0
VERTEX
  8
PLAN_1
  6
CONTINUOUS
 10
0.340642
 20
-3.257945
  0
VERTEX
  8
PLAN_1
  6
CONTINUOUS
 10
0.337327
 20
-3.261677
  0
VERTEX
  8
PLAN_1
  6
CONTINUOUS
 10
0.334425
 20
-3.264992
  0
VERTEX
  8
PLAN_1
  6
CONTINUOUS
 10
0.331110
 20
-3.267894
  0
VERTEX
  8
PLAN_1
  6
CONTINUOUS
 10
0.327795
 20
-3.270791
  0
VERTEX
  8
PLAN_1
  6
CONTINUOUS
 10
0.324480
 20
-3.273280
  0
VERTEX
  8
PLAN_1
  6
CONTINUOUS
 10
0.320748
 20
-3.275350
  0
VERTEX
  8
PLAN_1
  6
CONTINUOUS
 10
0.317433
 20
-3.277421
  0
VERTEX
  8
PLAN_1
  6
CONTINUOUS
 10
0.310390
 20
-3.281154
  0
VERTEX
  8
PLAN_1
  6
CONTINUOUS
 10
0.303760
 20
-3.283638
  0
VERTEX
  8
PLAN_1
  6
CONTINUOUS
 10
0.297130
 20
-3.285709
  0
VERTEX
  8
PLAN_1
  6
CONTINUOUS
 10
0.290913
 20
-3.286953
  0
VERTEX
  8
PLAN_1
  6
CONTINUOUS
 10
0.280142
 20
-3.288197
  0
VERTEX
  8
PLAN_1
  6
CONTINUOUS
 10
0.272268
 20
-3.288610
  0
VERTEX
  8
PLAN_1
  6
CONTINUOUS
 10
0.263980
 20
-3.288197
  0
VERTEX
  8
PLAN_1
  6
CONTINUOUS
 10
0.255693
 20
-3.287366
  0
VERTEX
  8
PLAN_1
  6
CONTINUOUS
 10
0.247406
 20
-3.285295
  0
VERTEX
  8
PLAN_1
  6
CONTINUOUS
 10
0.239118
 20
-3.282811
  0
VERTEX
  8
PLAN_1
  6
CONTINUOUS
 10
0.235390
 20
-3.281154
  0
VERTEX
  8
PLAN_1
  6
CONTINUOUS
 10
0.231657
 20
-3.279496
  0
VERTEX
  8
PLAN_1
  6
CONTINUOUS
 10
0.227929
 20
-3.277421
  0
VERTEX
  8
PLAN_1
  6
CONTINUOUS
 10
0.224201
 20
-3.275350
  0
VERTEX
  8
PLAN_1
  6
CONTINUOUS
 10
0.220472
 20
-3.272866
  0
VERTEX
  8
PLAN_1
  6
CONTINUOUS
 10
0.217157
 20
-3.270378
  0
VERTEX
  8
PLAN_1
  6
CONTINUOUS
 10
0.213843
 20
-3.267476
  0
VERTEX
  8
PLAN_1
  6
CONTINUOUS
 10
0.210528
 20
-3.264161
  0
VERTEX
  8
PLAN_1
  6
CONTINUOUS
 10
0.207626
 20
-3.261260
  0
VERTEX
  8
PLAN_1
  6
CONTINUOUS
 10
0.204724
 20
-3.257531
  0
VERTEX
  8
PLAN_1
  6
CONTINUOUS
 10
0.201823
 20
-3.253803
  0
VERTEX
  8
PLAN_1
  6
CONTINUOUS
 10
0.199339
 20
-3.249657
  0
VERTEX
  8
PLAN_1
  6
CONTINUOUS
 10
0.196850
 20
-3.245516
  0
VERTEX
  8
PLAN_1
  6
CONTINUOUS
 10
0.194366
 20
-3.240957
  0
VERTEX
  8
PLAN_1
  6
CONTINUOUS
 10
0.192291
 20
-3.236398
  0
VERTEX
  8
PLAN_1
  6
CONTINUOUS
 10
0.190220
 20
-3.231425
  0
VERTEX
  8
PLAN_1
  6
CONTINUOUS
 10
0.188563
 20
-3.226453
  0
VERTEX
  8
PLAN_1
  6
CONTINUOUS
 10
0.187319
 20
-3.220654
  0
VERTEX
  8
PLAN_1
  6
CONTINUOUS
 10
0.185661
 20
-3.215268
  0
VERTEX
  8
PLAN_1
  6
CONTINUOUS
 10
0.184835
 20
-3.209051
  0
VERTEX
  8
PLAN_1
  6
CONTINUOUS
 10
0.184004
 20
-3.202835
  0
VERTEX
  8
PLAN_1
  6
CONTINUOUS
 10
0.183177
 20
-3.196618
  0
VERTEX
  8
PLAN_1
  6
CONTINUOUS
 10
0.182764
 20
-3.189575
  0
VERTEX
  8
PLAN_1
  6
CONTINUOUS
 10
0.182764
 20
-3.182531
  0
VERTEX
  8
PLAN_1
  6
CONTINUOUS
 10
0.182764
 20
-3.176728
  0
VERTEX
  8
PLAN_1
  6
CONTINUOUS
 10
0.183177
 20
-3.171343
  0
VERTEX
  8
PLAN_1
  6
CONTINUOUS
 10
0.183591
 20
-3.165957
  0
VERTEX
  8
PLAN_1
  6
CONTINUOUS
 10
0.184421
 20
-3.160567
  0
VERTEX
  8
PLAN_1
  6
CONTINUOUS
 10
0.185248
 20
-3.155181
  0
VERTEX
  8
PLAN_1
  6
CONTINUOUS
 10
0.186492
 20
-3.150209
  0
VERTEX
  8
PLAN_1
  6
CONTINUOUS
 10
0.187736
 20
-3.145236
  0
VERTEX
  8
PLAN_1
  6
CONTINUOUS
 10
0.188976
 20
-3.140677
  0
VERTEX
  8
PLAN_1
  6
CONTINUOUS
 10
0.190634
 20
-3.135705
  0
VERTEX
  8
PLAN_1
  6
CONTINUOUS
 10
0.192709
 20
-3.131146
  0
VERTEX
  8
PLAN_1
  6
CONTINUOUS
 10
0.194780
 20
-3.127004
  0
VERTEX
  8
PLAN_1
  6
CONTINUOUS
 10
0.196850
 20
-3.122858
  0
VERTEX
  8
PLAN_1
  6
CONTINUOUS
 10
0.199339
 20
-3.118717
  0
VERTEX
  8
PLAN_1
  6
CONTINUOUS
 10
0.201823
 20
-3.114988
  0
VERTEX
  8
PLAN_1
  6
CONTINUOUS
 10
0.204724
 20
-3.111256
  0
VERTEX
  8
PLAN_1
  6
CONTINUOUS
 10
0.207626
 20
-3.107528
  0
VERTEX
  8
PLAN_1
  6
CONTINUOUS
 10
0.210528
 20
-3.104213
  0
VERTEX
  8
PLAN_1
  6
CONTINUOUS
 10
0.213843
 20
-3.101311
  0
VERTEX
  8
PLAN_1
  6
CONTINUOUS
 10
0.217157
 20
-3.098413
  0
VERTEX
  8
PLAN_1
  6
CONTINUOUS
 10
0.220886
 20
-3.095512
  0
VERTEX
  8
PLAN_1
  6
CONTINUOUS
 10
0.224614
 20
-3.093024
  0
VERTEX
  8
PLAN_1
  6
CONTINUOUS
 10
0.228343
 20
-3.090539
  0
VERTEX
  8
PLAN_1
  6
CONTINUOUS
 10
0.232488
 20
-3.088469
  0
VERTEX
  8
PLAN_1
  6
CONTINUOUS
 10
0.236630
 20
-3.086394
  0
VERTEX
  8
PLAN_1
  6
CONTINUOUS
 10
0.241189
 20
-3.084736
  0
VERTEX
  8
PLAN_1
  6
CONTINUOUS
 10
0.245748
 20
-3.083079
  0
VERTEX
  8
PLAN_1
  6
CONTINUOUS
 10
0.250307
 20
-3.081835
  0
VERTEX
  8
PLAN_1
  6
CONTINUOUS
 10
0.255280
 20
-3.080594
  0
VERTEX
  8
PLAN_1
  6
CONTINUOUS
 10
0.259835
 20
-3.079764
  0
VERTEX
  8
PLAN_1
  6
CONTINUOUS
 10
0.265224
 20
-3.079350
  0
VERTEX
  8
PLAN_1
  6
CONTINUOUS
 10
0.270197
 20
-3.078937
  0
VERTEX
  8
PLAN_1
  6
CONTINUOUS
 10
0.275583
 20
-3.078937
  0
VERTEX
  8
PLAN_1
  6
CONTINUOUS
 10
0.285114
 20
-3.079350
  0
VERTEX
  8
PLAN_1
  6
CONTINUOUS
 10
0.293815
 20
-3.080177
  0
VERTEX
  8
PLAN_1
  6
CONTINUOUS
 10
0.302102
 20
-3.081835
  0
VERTEX
  8
PLAN_1
  6
CONTINUOUS
 10
0.309563
 20
-3.084323
  0
VERTEX
  8
PLAN_1
  6
CONTINUOUS
 10
0.316606
 20
-3.087224
  0
VERTEX
  8
PLAN_1
  6
CONTINUOUS
 10
0.323236
 20
-3.090539
  0
VERTEX
  8
PLAN_1
  6
CONTINUOUS
 10
0.329039
 20
-3.094681
  0
VERTEX
  8
PLAN_1
  6
CONTINUOUS
 10
0.334425
 20
-3.098827
  0
VERTEX
  8
PLAN_1
  6
CONTINUOUS
 10
0.339398
 20
-3.103799
  0
VERTEX
  8
PLAN_1
  6
CONTINUOUS
 10
0.343539
 20
-3.108772
  0
VERTEX
  8
PLAN_1
  6
CONTINUOUS
 10
0.347272
 20
-3.114157
  0
VERTEX
  8
PLAN_1
  6
CONTINUOUS
 10
0.350587
 20
-3.119961
  0
VERTEX
  8
PLAN_1
  6
CONTINUOUS
 10
0.353071
 20
-3.125760
  0
VERTEX
  8
PLAN_1
  6
CONTINUOUS
 10
0.355142
 20
-3.131563
  0
VERTEX
  8
PLAN_1
  6
CONTINUOUS
 10
0.356799
 20
-3.137776
  0
VERTEX
  8
PLAN_1
  6
CONTINUOUS
 10
0.357630
 20
-3.143992
  0
VERTEX
  8
PLAN_1
  6
CONTINUOUS
 10
0.331524
 20
-3.143992
  0
SEQEND
  8
0
  0
POLYLINE
  8
PLAN_1
  6
CONTINUOUS
 66
     1
 40
0.003000
 41
0.003000
  0
VERTEX
  8
PLAN_1
  6
CONTINUOUS
 10
0.418957
 20
-3.283224
  0
VERTEX
  8
PLAN_1
  6
CONTINUOUS
 10
0.392024
 20
-3.283224
  0
VERTEX
  8
PLAN_1
  6
CONTINUOUS
 10
0.392024
 20
-3.083909
  0
VERTEX
  8
PLAN_1
  6
CONTINUOUS
 10
0.418957
 20
-3.083909
  0
VERTEX
  8
PLAN_1
  6
CONTINUOUS
 10
0.418957
 20
-3.180457
  0
VERTEX
  8
PLAN_1
  6
CONTINUOUS
 10
0.515508
 20
-3.083909
  0
VERTEX
  8
PLAN_1
  6
CONTINUOUS
 10
0.552799
 20
-3.083909
  0
VERTEX
  8
PLAN_1
  6
CONTINUOUS
 10
0.469925
 20
-3.164713
  0
VERTEX
  8
PLAN_1
  6
CONTINUOUS
 10
0.554874
 20
-3.283224
  0
VERTEX
  8
PLAN_1
  6
CONTINUOUS
 10
0.520067
 20
-3.283224
  0
VERTEX
  8
PLAN_1
  6
CONTINUOUS
 10
0.450449
 20
-3.183358
  0
VERTEX
  8
PLAN_1
  6
CONTINUOUS
 10
0.418957
 20
-3.213193
  0
VERTEX
  8
PLAN_1
  6
CONTINUOUS
 10
0.418957
 20
-3.283224
  0
SEQEND
  8
0
  0
POLYLINE
  8
PLAN_1
  6
CONTINUOUS
 66
     1
 40
0.003000
 41
0.003000
  0
VERTEX
  8
PLAN_1
  6
CONTINUOUS
 10
0.578906
 20
-3.083909
  0
VERTEX
  8
PLAN_1
  6
CONTINUOUS
 10
0.659295
 20
-3.083909
  0
VERTEX
  8
PLAN_1
  6
CONTINUOUS
 10
0.664268
 20
-3.084323
  0
VERTEX
  8
PLAN_1
  6
CONTINUOUS
 10
0.668827
 20
-3.084323
  0
VERTEX
  8
PLAN_1
  6
CONTINUOUS
 10
0.673386
 20
-3.085154
  0
VERTEX
  8
PLAN_1
  6
CONTINUOUS
 10
0.677945
 20
-3.085980
  0
VERTEX
  8
PLAN_1
  6
CONTINUOUS
 10
0.682500
 20
-3.086811
  0
VERTEX
  8
PLAN_1
  6
CONTINUOUS
 10
0.686646
 20
-3.088051
  0
VERTEX
  8
PLAN_1
  6
CONTINUOUS
 10
0.690374
 20
-3.089709
  0
VERTEX
  8
PLAN_1
  6
CONTINUOUS
 10
0.694520
 20
-3.090953
  0
VERTEX
  8
PLAN_1
  6
CONTINUOUS
 10
0.698248
 20
-3.093024
  0
VERTEX
  8
PLAN_1
  6
CONTINUOUS
 10
0.701976
 20
-3.095098
  0
VERTEX
  8
PLAN_1
  6
CONTINUOUS
 10
0.705291
 20
-3.097169
  0
VERTEX
  8
PLAN_1
  6
CONTINUOUS
 10
0.708606
 20
-3.099654
  0
VERTEX
  8
PLAN_1
  6
CONTINUOUS
 10
0.711921
 20
-3.102142
  0
VERTEX
  8
PLAN_1
  6
CONTINUOUS
 10
0.715236
 20
-3.105043
  0
VERTEX
  8
PLAN_1
  6
CONTINUOUS
 10
0.718138
 20
-3.107941
  0
VERTEX
  8
PLAN_1
  6
CONTINUOUS
 10
0.721039
 20
-3.110843
  0
VERTEX
  8
PLAN_1
  6
CONTINUOUS
 10
0.723524
 20
-3.114157
  0
VERTEX
  8
PLAN_1
  6
CONTINUOUS
 10
0.726012
 20
-3.117472
  0
VERTEX
  8
PLAN_1
  6
CONTINUOUS
 10
0.728496
 20
-3.121201
  0
VERTEX
  8
PLAN_1
  6
CONTINUOUS
 10
0.730567
 20
-3.124933
  0
VERTEX
  8
PLAN_1
  6
CONTINUOUS
 10
0.734299
 20
-3.132803
  0
VERTEX
  8
PLAN_1
  6
CONTINUOUS
 10
0.737614
 20
-3.141508
  0
VERTEX
  8
PLAN_1
  6
CONTINUOUS
 10
0.740098
 20
-3.150622
  0
VERTEX
  8
PLAN_1
  6
CONTINUOUS
 10
0.741756
 20
-3.160154
  0
VERTEX
  8
PLAN_1
  6
CONTINUOUS
 10
0.743000
 20
-3.170512
  0
VERTEX
  8
PLAN_1
  6
CONTINUOUS
 10
0.743413
 20
-3.180874
  0
VERTEX
  8
PLAN_1
  6
CONTINUOUS
 10
0.743000
 20
-3.189575
  0
VERTEX
  8
PLAN_1
  6
CONTINUOUS
 10
0.742173
 20
-3.198276
  0
VERTEX
  8
PLAN_1
  6
CONTINUOUS
 10
0.740929
 20
-3.206980
  0
VERTEX
  8
PLAN_1
  6
CONTINUOUS
 10
0.739272
 20
-3.215681
  0
VERTEX
  8
PLAN_1
  6
CONTINUOUS
 10
0.736783
 20
-3.224382
  0
VERTEX
  8
PLAN_1
  6
CONTINUOUS
 10
0.733882
 20
-3.233083
  0
VERTEX
  8
PLAN_1
  6
CONTINUOUS
 10
0.731811
 20
-3.237228
  0
VERTEX
  8
PLAN_1
  6
CONTINUOUS
 10
0.729740
 20
-3.240957
  0
VERTEX
  8
PLAN_1
  6
CONTINUOUS
 10
0.727669
 20
-3.245102
  0
VERTEX
  8
PLAN_1
  6
CONTINUOUS
 10
0.725594
 20
-3.248831
  0
VERTEX
  8
PLAN_1
  6
CONTINUOUS
 10
0.722697
 20
-3.252559
  0
VERTEX
  8
PLAN_1
  6
CONTINUOUS
 10
0.720209
 20
-3.256287
  0
VERTEX
  8
PLAN_1
  6
CONTINUOUS
 10
0.717307
 20
-3.259602
  0
VERTEX
  8
PLAN_1
  6
CONTINUOUS
 10
0.713992
 20
-3.262921
  0
VERTEX
  8
PLAN_1
  6
CONTINUOUS
 10
0.710677
 20
-3.265819
  0
VERTEX
  8
PLAN_1
  6
CONTINUOUS
 10
0.706949
 20
-3.268720
  0
VERTEX
  8
PLAN_1
  6
CONTINUOUS
 10
0.703220
 20
-3.271209
  0
VERTEX
  8
PLAN_1
  6
CONTINUOUS
 10
0.699075
 20
-3.273693
  0
VERTEX
  8
PLAN_1
  6
CONTINUOUS
 10
0.694933
 20
-3.275764
  0
VERTEX
  8
PLAN_1
  6
CONTINUOUS
 10
0.690374
 20
-3.277839
  0
VERTEX
  8
PLAN_1
  6
CONTINUOUS
 10
0.685815
 20
-3.279496
  0
VERTEX
  8
PLAN_1
  6
CONTINUOUS
 10
0.680843
 20
-3.280736
  0
VERTEX
  8
PLAN_1
  6
CONTINUOUS
 10
0.675457
 20
-3.281980
  0
VERTEX
  8
PLAN_1
  6
CONTINUOUS
 10
0.670071
 20
-3.282811
  0
VERTEX
  8
PLAN_1
  6
CONTINUOUS
 10
0.664268
 20
-3.283224
  0
VERTEX
  8
PLAN_1
  6
CONTINUOUS
 10
0.658469
 20
-3.283224
  0
VERTEX
  8
PLAN_1
  6
CONTINUOUS
 10
0.578906
 20
-3.283224
  0
VERTEX
  8
PLAN_1
  6
CONTINUOUS
 10
0.578906
 20
-3.083909
  0
SEQEND
  8
0
  0
POLYLINE
  8
PLAN_1
  6
CONTINUOUS
 66
     1
 40
0.003000
 41
0.003000
  0
VERTEX
  8
PLAN_1
  6
CONTINUOUS
 10
0.605843
 20
-3.260433
  0
VERTEX
  8
PLAN_1
  6
CONTINUOUS
 10
0.657638
 20
-3.260433
  0
VERTEX
  8
PLAN_1
  6
CONTINUOUS
 10
0.664268
 20
-3.260020
  0
VERTEX
  8
PLAN_1
  6
CONTINUOUS
 10
0.670484
 20
-3.259189
  0
VERTEX
  8
PLAN_1
  6
CONTINUOUS
 10
0.676283
 20
-3.257531
  0
VERTEX
  8
PLAN_1
  6
CONTINUOUS
 10
0.681673
 20
-3.255047
  0
VERTEX
  8
PLAN_1
  6
CONTINUOUS
 10
0.686646
 20
-3.252559
  0
VERTEX
  8
PLAN_1
  6
CONTINUOUS
 10
0.691618
 20
-3.248831
  0
VERTEX
  8
PLAN_1
  6
CONTINUOUS
 10
0.695760
 20
-3.245102
  0
VERTEX
  8
PLAN_1
  6
CONTINUOUS
 10
0.699906
 20
-3.240130
  0
VERTEX
  8
PLAN_1
  6
CONTINUOUS
 10
0.703220
 20
-3.235157
  0
VERTEX
  8
PLAN_1
  6
CONTINUOUS
 10
0.706535
 20
-3.229354
  0
VERTEX
  8
PLAN_1
  6
CONTINUOUS
 10
0.709020
 20
-3.222724
  0
VERTEX
  8
PLAN_1
  6
CONTINUOUS
 10
0.711508
 20
-3.216094
  0
VERTEX
  8
PLAN_1
  6
CONTINUOUS
 10
0.713165
 20
-3.208220
  0
VERTEX
  8
PLAN_1
  6
CONTINUOUS
 10
0.714409
 20
-3.200346
  0
VERTEX
  8
PLAN_1
  6
CONTINUOUS
 10
0.715236
 20
-3.191646
  0
VERTEX
  8
PLAN_1
  6
CONTINUOUS
 10
0.715650
 20
-3.182531
  0
VERTEX
  8
PLAN_1
  6
CONTINUOUS
 10
0.715236
 20
-3.173413
  0
VERTEX
  8
PLAN_1
  6
CONTINUOUS
 10
0.714409
 20
-3.165126
  0
VERTEX
  8
PLAN_1
  6
CONTINUOUS
 10
0.713165
 20
-3.156839
  0
VERTEX
  8
PLAN_1
  6
CONTINUOUS
 10
0.711508
 20
-3.149795
  0
VERTEX
  8
PLAN_1
  6
CONTINUOUS
 10
0.709020
 20
-3.142748
  0
VERTEX
  8
PLAN_1
  6
CONTINUOUS
 10
0.706122
 20
-3.136535
  0
VERTEX
  8
PLAN_1
  6
CONTINUOUS
 10
0.703220
 20
-3.131146
  0
VERTEX
  8
PLAN_1
  6
CONTINUOUS
 10
0.699492
 20
-3.126173
  0
VERTEX
  8
PLAN_1
  6
CONTINUOUS
 10
0.695346
 20
-3.121618
  0
VERTEX
  8
PLAN_1
  6
CONTINUOUS
 10
0.690787
 20
-3.117886
  0
VERTEX
  8
PLAN_1
  6
CONTINUOUS
 10
0.685815
 20
-3.114571
  0
VERTEX
  8
PLAN_1
  6
CONTINUOUS
 10
0.680843
 20
-3.111673
  0
VERTEX
  8
PLAN_1
  6
CONTINUOUS
 10
0.675043
 20
-3.109598
  0
VERTEX
  8
PLAN_1
  6
CONTINUOUS
 10
0.668827
 20
-3.108358
  0
VERTEX
  8
PLAN_1
  6
CONTINUOUS
 10
0.662610
 20
-3.107528
  0
VERTEX
  8
PLAN_1
  6
CONTINUOUS
 10
0.655980
 20
-3.107114
  0
VERTEX
  8
PLAN_1
  6
CONTINUOUS
 10
0.605843
 20
-3.107114
  0
VERTEX
  8
PLAN_1
  6
CONTINUOUS
 10
0.605843
 20
-3.260433
  0
SEQEND
  8
0
  0
POLYLINE
  8
PLAN_1
  6
CONTINUOUS
 66
     1
 40
0.003000
 41
0.003000
  0
VERTEX
  8
PLAN_1
  6
CONTINUOUS
 10
0.833748
 20
-3.288610
  0
VERTEX
  8
PLAN_1
  6
CONTINUOUS
 10
0.828776
 20
-3.288610
  0
VERTEX
  8
PLAN_1
  6
CONTINUOUS
 10
0.823803
 20
-3.287783
  0
VERTEX
  8
PLAN_1
  6
CONTINUOUS
 10
0.819244
 20
-3.286953
  0
VERTEX
  8
PLAN_1
  6
CONTINUOUS
 10
0.815102
 20
-3.286126
  0
VERTEX
  8
PLAN_1
  6
CONTINUOUS
 10
0.810957
 20
-3.284469
  0
VERTEX
  8
PLAN_1
  6
CONTINUOUS
 10
0.806815
 20
-3.282811
  0
VERTEX
  8
PLAN_1
  6
CONTINUOUS
 10
0.803087
 20
-3.280736
  0
VERTEX
  8
PLAN_1
  6
CONTINUOUS
 10
0.799772
 20
-3.278665
  0
VERTEX
  8
PLAN_1
  6
CONTINUOUS
 10
0.796457
 20
-3.276181
  0
VERTEX
  8
PLAN_1
  6
CONTINUOUS
 10
0.793555
 20
-3.273693
  0
VERTEX
  8
PLAN_1
  6
CONTINUOUS
 10
0.790654
 20
-3.270791
  0
VERTEX
  8
PLAN_1
  6
CONTINUOUS
 10
0.788165
 20
-3.267476
  0
VERTEX
  8
PLAN_1
  6
CONTINUOUS
 10
0.785681
 20
-3.264161
  0
VERTEX
  8
PLAN_1
  6
CONTINUOUS
 10
0.783193
 20
-3.260846
  0
VERTEX
  8
PLAN_1
  6
CONTINUOUS
 10
0.781122
 20
-3.257531
  0
VERTEX
  8
PLAN_1
  6
CONTINUOUS
 10
0.779465
 20
-3.253803
  0
VERTEX
  8
PLAN_1
  6
CONTINUOUS
 10
0.776150
 20
-3.245929
  0
VERTEX
  8
PLAN_1
  6
CONTINUOUS
 10
0.773248
 20
-3.238055
  0
VERTEX
  8
PLAN_1
  6
CONTINUOUS
 10
0.771177
 20
-3.229768
  0
VERTEX
  8
PLAN_1
  6
CONTINUOUS
 10
0.769520
 20
-3.221067
  0
VERTEX
  8
PLAN_1
  6
CONTINUOUS
 10
0.768276
 20
-3.212780
  0
VERTEX
  8
PLAN_1
  6
CONTINUOUS
 10
0.767449
 20
-3.204492
  0
VERTEX
  8
PLAN_1
  6
CONTINUOUS
 10
0.767035
 20
-3.196205
  0
VERTEX
  8
PLAN_1
  6
CONTINUOUS
 10
0.767035
 20
-3.188331
  0
VERTEX
  8
PLAN_1
  6
CONTINUOUS
 10
0.767035
 20
-3.180457
  0
VERTEX
  8
PLAN_1
  6
CONTINUOUS
 10
0.767449
 20
-3.172587
  0
VERTEX
  8
PLAN_1
  6
CONTINUOUS
 10
0.768276
 20
-3.164299
  0
VERTEX
  8
PLAN_1
  6
CONTINUOUS
 10
0.769520
 20
-3.155594
  0
VERTEX
  8
PLAN_1
  6
CONTINUOUS
 10
0.771177
 20
-3.147307
  0
VERTEX
  8
PLAN_1
  6
CONTINUOUS
 10
0.773248
 20
-3.139020
  0
VERTEX
  8
PLAN_1
  6
CONTINUOUS
 10
0.776150
 20
-3.130732
  0
VERTEX
  8
PLAN_1
  6
CONTINUOUS
 10
0.779465
 20
-3.123276
  0
VERTEX
  8
PLAN_1
  6
CONTINUOUS
 10
0.781122
 20
-3.119543
  0
VERTEX
  8
PLAN_1
  6
CONTINUOUS
 10
0.783193
 20
-3.115815
  0
VERTEX
  8
PLAN_1
  6
CONTINUOUS
 10
0.785681
 20
-3.112500
  0
VERTEX
  8
PLAN_1
  6
CONTINUOUS
 10
0.788165
 20
-3.109185
  0
VERTEX
  8
PLAN_1
  6
CONTINUOUS
 10
0.790654
 20
-3.106283
  0
VERTEX
  8
PLAN_1
  6
CONTINUOUS
 10
0.793555
 20
-3.103386
  0
VERTEX
  8
PLAN_1
  6
CONTINUOUS
 10
0.796457
 20
-3.100484
  0
VERTEX
  8
PLAN_1
  6
CONTINUOUS
 10
0.799772
 20
-3.097996
  0
VERTEX
  8
PLAN_1
  6
CONTINUOUS
 10
0.803087
 20
-3.095925
  0
VERTEX
  8
PLAN_1
  6
CONTINUOUS
 10
0.806815
 20
-3.093854
  0
VERTEX
  8
PLAN_1
  6
CONTINUOUS
 10
0.810957
 20
-3.092197
  0
VERTEX
  8
PLAN_1
  6
CONTINUOUS
 10
0.815102
 20
-3.090953
  0
VERTEX
  8
PLAN_1
  6
CONTINUOUS
 10
0.819244
 20
-3.089709
  0
VERTEX
  8
PLAN_1
  6
CONTINUOUS
 10
0.823803
 20
-3.088882
  0
VERTEX
  8
PLAN_1
  6
CONTINUOUS
 10
0.828776
 20
-3.088469
  0
VERTEX
  8
PLAN_1
  6
CONTINUOUS
 10
0.833748
 20
-3.088051
  0
VERTEX
  8
PLAN_1
  6
CONTINUOUS
 10
0.839134
 20
-3.088469
  0
VERTEX
  8
PLAN_1
  6
CONTINUOUS
 10
0.843693
 20
-3.088882
  0
VERTEX
  8
PLAN_1
  6
CONTINUOUS
 10
0.848665
 20
-3.089709
  0
VERTEX
  8
PLAN_1
  6
CONTINUOUS
 10
0.852811
 20
-3.090953
  0
VERTEX
  8
PLAN_1
  6
CONTINUOUS
 10
0.856953
 20
-3.092197
  0
VERTEX
  8
PLAN_1
  6
CONTINUOUS
 10
0.860685
 20
-3.093854
  0
VERTEX
  8
PLAN_1
  6
CONTINUOUS
 10
0.864413
 20
-3.095925
  0
VERTEX
  8
PLAN_1
  6
CONTINUOUS
 10
0.868142
 20
-3.097996
  0
VERTEX
  8
PLAN_1
  6
CONTINUOUS
 10
0.871043
 20
-3.100484
  0
VERTEX
  8
PLAN_1
  6
CONTINUOUS
 10
0.874358
 20
-3.103386
  0
VERTEX
  8
PLAN_1
  6
CONTINUOUS
 10
0.876843
 20
-3.106283
  0
VERTEX
  8
PLAN_1
  6
CONTINUOUS
 10
0.879744
 20
-3.109185
  0
VERTEX
  8
PLAN_1
  6
CONTINUOUS
 10
0.882232
 20
-3.112500
  0
VERTEX
  8
PLAN_1
  6
CONTINUOUS
 10
0.884303
 20
-3.115815
  0
VERTEX
  8
PLAN_1
  6
CONTINUOUS
 10
0.886374
 20
-3.119543
  0
VERTEX
  8
PLAN_1
  6
CONTINUOUS
 10
0.888445
 20
-3.123276
  0
VERTEX
  8
PLAN_1
  6
CONTINUOUS
 10
0.891760
 20
-3.130732
  0
VERTEX
  8
PLAN_1
  6
CONTINUOUS
 10
0.894248
 20
-3.139020
  0
VERTEX
  8
PLAN_1
  6
CONTINUOUS
 10
0.896732
 20
-3.147307
  0
VERTEX
  8
PLAN_1
  6
CONTINUOUS
 10
0.898390
 20
-3.155594
  0
VERTEX
  8
PLAN_1
  6
CONTINUOUS
 10
0.899220
 20
-3.164299
  0
VERTEX
  8
PLAN_1
  6
CONTINUOUS
 10
0.900047
 20
-3.172587
  0
VERTEX
  8
PLAN_1
  6
CONTINUOUS
 10
0.900465
 20
-3.180457
  0
VERTEX
  8
PLAN_1
  6
CONTINUOUS
 10
0.900878
 20
-3.188331
  0
VERTEX
  8
PLAN_1
  6
CONTINUOUS
 10
0.900465
 20
-3.196205
  0
VERTEX
  8
PLAN_1
  6
CONTINUOUS
 10
0.900047
 20
-3.204492
  0
VERTEX
  8
PLAN_1
  6
CONTINUOUS
 10
0.899220
 20
-3.212780
  0
VERTEX
  8
PLAN_1
  6
CONTINUOUS
 10
0.898390
 20
-3.221067
  0
VERTEX
  8
PLAN_1
  6
CONTINUOUS
 10
0.896732
 20
-3.229768
  0
VERTEX
  8
PLAN_1
  6
CONTINUOUS
 10
0.894248
 20
-3.238055
  0
VERTEX
  8
PLAN_1
  6
CONTINUOUS
 10
0.891760
 20
-3.245929
  0
VERTEX
  8
PLAN_1
  6
CONTINUOUS
 10
0.888445
 20
-3.253803
  0
VERTEX
  8
PLAN_1
  6
CONTINUOUS
 10
0.886374
 20
-3.257531
  0
VERTEX
  8
PLAN_1
  6
CONTINUOUS
 10
0.884303
 20
-3.260846
  0
VERTEX
  8
PLAN_1
  6
CONTINUOUS
 10
0.882232
 20
-3.264161
  0
VERTEX
  8
PLAN_1
  6
CONTINUOUS
 10
0.879744
 20
-3.267476
  0
VERTEX
  8
PLAN_1
  6
CONTINUOUS
 10
0.876843
 20
-3.270791
  0
VERTEX
  8
PLAN_1
  6
CONTINUOUS
 10
0.874358
 20
-3.273693
  0
VERTEX
  8
PLAN_1
  6
CONTINUOUS
 10
0.871043
 20
-3.276181
  0
VERTEX
  8
PLAN_1
  6
CONTINUOUS
 10
0.868142
 20
-3.278665
  0
VERTEX
  8
PLAN_1
  6
CONTINUOUS
 10
0.864413
 20
-3.280736
  0
VERTEX
  8
PLAN_1
  6
CONTINUOUS
 10
0.860685
 20
-3.282811
  0
VERTEX
  8
PLAN_1
  6
CONTINUOUS
 10
0.856953
 20
-3.284469
  0
VERTEX
  8
PLAN_1
  6
CONTINUOUS
 10
0.852811
 20
-3.286126
  0
VERTEX
  8
PLAN_1
  6
CONTINUOUS
 10
0.848665
 20
-3.286953
  0
VERTEX
  8
PLAN_1
  6
CONTINUOUS
 10
0.843693
 20
-3.287783
  0
VERTEX
  8
PLAN_1
  6
CONTINUOUS
 10
0.839134
 20
-3.288610
  0
VERTEX
  8
PLAN_1
  6
CONTINUOUS
 10
0.833748
 20
-3.288610
  0
SEQEND
  8
0
  0
POLYLINE
  8
PLAN_1
  6
CONTINUOUS
 66
     1
 40
0.003000
 41
0.003000
  0
VERTEX
  8
PLAN_1
  6
CONTINUOUS
 10
0.833748
 20
-3.110016
  0
VERTEX
  8
PLAN_1
  6
CONTINUOUS
 10
0.828776
 20
-3.110429
  0
VERTEX
  8
PLAN_1
  6
CONTINUOUS
 10
0.824217
 20
-3.111673
  0
VERTEX
  8
PLAN_1
  6
CONTINUOUS
 10
0.819661
 20
-3.113331
  0
VERTEX
  8
PLAN_1
  6
CONTINUOUS
 10
0.815516
 20
-3.115402
  0
VERTEX
  8
PLAN_1
  6
CONTINUOUS
 10
0.811787
 20
-3.118303
  0
VERTEX
  8
PLAN_1
  6
CONTINUOUS
 10
0.808472
 20
-3.122031
  0
VERTEX
  8
PLAN_1
  6
CONTINUOUS
 10
0.805571
 20
-3.126173
  0
VERTEX
  8
PLAN_1
  6
CONTINUOUS
 10
0.803087
 20
-3.131146
  0
VERTEX
  8
PLAN_1
  6
CONTINUOUS
 10
0.800598
 20
-3.136118
  0
VERTEX
  8
PLAN_1
  6
CONTINUOUS
 10
0.798528
 20
-3.142335
  0
VERTEX
  8
PLAN_1
  6
CONTINUOUS
 10
0.796870
 20
-3.148551
  0
VERTEX
  8
PLAN_1
  6
CONTINUOUS
 10
0.795626
 20
-3.155594
  0
VERTEX
  8
PLAN_1
  6
CONTINUOUS
 10
0.794382
 20
-3.163055
  0
VERTEX
  8
PLAN_1
  6
CONTINUOUS
 10
0.793555
 20
-3.170929
  0
VERTEX
  8
PLAN_1
  6
CONTINUOUS
 10
0.793138
 20
-3.179630
  0
VERTEX
  8
PLAN_1
  6
CONTINUOUS
 10
0.793138
 20
-3.188331
  0
VERTEX
  8
PLAN_1
  6
CONTINUOUS
 10
0.793138
 20
-3.197449
  0
VERTEX
  8
PLAN_1
  6
CONTINUOUS
 10
0.793555
 20
-3.205736
  0
VERTEX
  8
PLAN_1
  6
CONTINUOUS
 10
0.794382
 20
-3.213610
  0
VERTEX
  8
PLAN_1
  6
CONTINUOUS
 10
0.795626
 20
-3.221067
  0
VERTEX
  8
PLAN_1
  6
CONTINUOUS
 10
0.796870
 20
-3.228110
  0
VERTEX
  8
PLAN_1
  6
CONTINUOUS
 10
0.798528
 20
-3.234740
  0
VERTEX
  8
PLAN_1
  6
CONTINUOUS
 10
0.800598
 20
-3.240543
  0
VERTEX
  8
PLAN_1
  6
CONTINUOUS
 10
0.803087
 20
-3.245929
  0
VERTEX
  8
PLAN_1
  6
CONTINUOUS
 10
0.805571
 20
-3.250488
  0
VERTEX
  8
PLAN_1
  6
CONTINUOUS
 10
0.808472
 20
-3.254630
  0
VERTEX
  8
PLAN_1
  6
CONTINUOUS
 10
0.811787
 20
-3.258362
  0
VERTEX
  8
PLAN_1
  6
CONTINUOUS
 10
0.815516
 20
-3.261260
  0
VERTEX
  8
PLAN_1
  6
CONTINUOUS
 10
0.819661
 20
-3.263748
  0
VERTEX
  8
PLAN_1
  6
CONTINUOUS
 10
0.824217
 20
-3.265406
  0
VERTEX
  8
PLAN_1
  6
CONTINUOUS
 10
0.828776
 20
-3.266236
  0
VERTEX
  8
PLAN_1
  6
CONTINUOUS
 10
0.833748
 20
-3.266650
  0
VERTEX
  8
PLAN_1
  6
CONTINUOUS
 10
0.839134
 20
-3.266236
  0
VERTEX
  8
PLAN_1
  6
CONTINUOUS
 10
0.843693
 20
-3.265406
  0
VERTEX
  8
PLAN_1
  6
CONTINUOUS
 10
0.847839
 20
-3.263748
  0
VERTEX
  8
PLAN_1
  6
CONTINUOUS
 10
0.851980
 20
-3.261260
  0
VERTEX
  8
PLAN_1
  6
CONTINUOUS
 10
0.855713
 20
-3.258362
  0
VERTEX
  8
PLAN_1
  6
CONTINUOUS
 10
0.859028
 20
-3.254630
  0
VERTEX
  8
PLAN_1
  6
CONTINUOUS
 10
0.861925
 20
-3.250488
  0
VERTEX
  8
PLAN_1
  6
CONTINUOUS
 10
0.864827
 20
-3.245929
  0
VERTEX
  8
PLAN_1
  6
CONTINUOUS
 10
0.867315
 20
-3.240543
  0
VERTEX
  8
PLAN_1
  6
CONTINUOUS
 10
0.868972
 20
-3.234740
  0
VERTEX
  8
PLAN_1
  6
CONTINUOUS
 10
0.871043
 20
-3.228110
  0
VERTEX
  8
PLAN_1
  6
CONTINUOUS
 10
0.872287
 20
-3.221067
  0
VERTEX
  8
PLAN_1
  6
CONTINUOUS
 10
0.873114
 20
-3.213610
  0
VERTEX
  8
PLAN_1
  6
CONTINUOUS
 10
0.873945
 20
-3.205736
  0
VERTEX
  8
PLAN_1
  6
CONTINUOUS
 10
0.874358
 20
-3.197449
  0
VERTEX
  8
PLAN_1
  6
CONTINUOUS
 10
0.874772
 20
-3.188331
  0
VERTEX
  8
PLAN_1
  6
CONTINUOUS
 10
0.874358
 20
-3.179630
  0
VERTEX
  8
PLAN_1
  6
CONTINUOUS
 10
0.873945
 20
-3.170929
  0
VERTEX
  8
PLAN_1
  6
CONTINUOUS
 10
0.873114
 20
-3.163055
  0
VERTEX
  8
PLAN_1
  6
CONTINUOUS
 10
0.872287
 20
-3.155594
  0
VERTEX
  8
PLAN_1
  6
CONTINUOUS
 10
0.871043
 20
-3.148551
  0
VERTEX
  8
PLAN_1
  6
CONTINUOUS
 10
0.868972
 20
-3.142335
  0
VERTEX
  8
PLAN_1
  6
CONTINUOUS
 10
0.867315
 20
-3.136118
  0
VERTEX
  8
PLAN_1
  6
CONTINUOUS
 10
0.864827
 20
-3.131146
  0
VERTEX
  8
PLAN_1
  6
CONTINUOUS
 10
0.861925
 20
-3.126173
  0
VERTEX
  8
PLAN_1
  6
CONTINUOUS
 10
0.859028
 20
-3.122031
  0
VERTEX
  8
PLAN_1
  6
CONTINUOUS
 10
0.855713
 20
-3.118303
  0
VERTEX
  8
PLAN_1
  6
CONTINUOUS
 10
0.851980
 20
-3.115402
  0
VERTEX
  8
PLAN_1
  6
CONTINUOUS
 10
0.847839
 20
-3.113331
  0
VERTEX
  8
PLAN_1
  6
CONTINUOUS
 10
0.843693
 20
-3.111673
  0
VERTEX
  8
PLAN_1
  6
CONTINUOUS
 10
0.839134
 20
-3.110429
  0
VERTEX
  8
PLAN_1
  6
CONTINUOUS
 10
0.833748
 20
-3.110016
  0
SEQEND
  8
0
  0
POLYLINE
  8
PLAN_1
  6
CONTINUOUS
 66
     1
 40
0.003000
 41
0.003000
  0
VERTEX
  8
PLAN_1
  6
CONTINUOUS
 10
1.010689
 20
-3.283224
  0
VERTEX
  8
PLAN_1
  6
CONTINUOUS
 10
0.984583
 20
-3.283224
  0
VERTEX
  8
PLAN_1
  6
CONTINUOUS
 10
0.984583
 20
-3.144823
  0
VERTEX
  8
PLAN_1
  6
CONTINUOUS
 10
0.939000
 20
-3.144823
  0
VERTEX
  8
PLAN_1
  6
CONTINUOUS
 10
0.939000
 20
-3.125346
  0
VERTEX
  8
PLAN_1
  6
CONTINUOUS
 10
0.950189
 20
-3.124516
  0
VERTEX
  8
PLAN_1
  6
CONTINUOUS
 10
0.959720
 20
-3.123276
  0
VERTEX
  8
PLAN_1
  6
CONTINUOUS
 10
0.963862
 20
-3.122445
  0
VERTEX
  8
PLAN_1
  6
CONTINUOUS
 10
0.967591
 20
-3.121201
  0
VERTEX
  8
PLAN_1
  6
CONTINUOUS
 10
0.970906
 20
-3.119543
  0
VERTEX
  8
PLAN_1
  6
CONTINUOUS
 10
0.974224
 20
-3.117886
  0
VERTEX
  8
PLAN_1
  6
CONTINUOUS
 10
0.977122
 20
-3.115815
  0
VERTEX
  8
PLAN_1
  6
CONTINUOUS
 10
0.980024
 20
-3.113331
  0
VERTEX
  8
PLAN_1
  6
CONTINUOUS
 10
0.982512
 20
-3.110429
  0
VERTEX
  8
PLAN_1
  6
CONTINUOUS
 10
0.984583
 20
-3.107114
  0
VERTEX
  8
PLAN_1
  6
CONTINUOUS
 10
0.986654
 20
-3.103386
  0
VERTEX
  8
PLAN_1
  6
CONTINUOUS
 10
0.988311
 20
-3.098827
  0
VERTEX
  8
PLAN_1
  6
CONTINUOUS
 10
0.989969
 20
-3.093854
  0
VERTEX
  8
PLAN_1
  6
CONTINUOUS
 10
0.991626
 20
-3.088051
  0
VERTEX
  8
PLAN_1
  6
CONTINUOUS
 10
1.010689
 20
-3.088051
  0
VERTEX
  8
PLAN_1
  6
CONTINUOUS
 10
1.010689
 20
-3.283224
  0
SEQEND
  8
0
  0
SOLID
  8
PLAN_1
 10
1.065386
 20
-3.318031
 11
1.065386
 21
-3.304358
 12
1.219949
 22
-3.318031
 13
1.219949
 23
-3.304358
  0
POLYLINE
  8
PLAN_1
  6
CONTINUOUS
 66
     1
 40
0.003000
 41
0.003000
  0
VERTEX
  8
PLAN_1
  6
CONTINUOUS
 10
1.065386
 20
-3.318031
  0
VERTEX
  8
PLAN_1
  6
CONTINUOUS
 10
1.065386
 20
-3.304358
  0
VERTEX
  8
PLAN_1
  6
CONTINUOUS
 10
1.219949
 20
-3.304358
  0
VERTEX
  8
PLAN_1
  6
CONTINUOUS
 10
1.219949
 20
-3.318031
  0
VERTEX
  8
PLAN_1
  6
CONTINUOUS
 10
1.065386
 20
-3.318031
  0
SEQEND
  8
0
  0
POLYLINE
  8
PLAN_1
  6
CONTINUOUS
 66
     1
 40
0.003000
 41
0.003000
  0
VERTEX
  8
PLAN_1
  6
CONTINUOUS
 10
1.271331
 20
-3.283224
  0
VERTEX
  8
PLAN_1
  6
CONTINUOUS
 10
1.244398
 20
-3.283224
  0
VERTEX
  8
PLAN_1
  6
CONTINUOUS
 10
1.244398
 20
-3.083909
  0
VERTEX
  8
PLAN_1
  6
CONTINUOUS
 10
1.336390
 20
-3.083909
  0
VERTEX
  8
PLAN_1
  6
CONTINUOUS
 10
1.342602
 20
-3.084323
  0
VERTEX
  8
PLAN_1
  6
CONTINUOUS
 10
1.348819
 20
-3.084736
  0
VERTEX
  8
PLAN_1
  6
CONTINUOUS
 10
1.354622
 20
-3.085567
  0
VERTEX
  8
PLAN_1
  6
CONTINUOUS
 10
1.360421
 20
-3.086394
  0
VERTEX
  8
PLAN_1
  6
CONTINUOUS
 10
1.366224
 20
-3.088051
  0
VERTEX
  8
PLAN_1
  6
CONTINUOUS
 10
1.371610
 20
-3.089709
  0
VERTEX
  8
PLAN_1
  6
CONTINUOUS
 10
1.376583
 20
-3.092197
  0
VERTEX
  8
PLAN_1
  6
CONTINUOUS
 10
1.381555
 20
-3.095098
  0
VERTEX
  8
PLAN_1
  6
CONTINUOUS
 10
1.385697
 20
-3.098413
  0
VERTEX
  8
PLAN_1
  6
CONTINUOUS
 10
1.389843
 20
-3.102142
  0
VERTEX
  8
PLAN_1
  6
CONTINUOUS
 10
1.393157
 20
-3.106701
  0
VERTEX
  8
PLAN_1
  6
CONTINUOUS
 10
1.396472
 20
-3.111673
  0
VERTEX
  8
PLAN_1
  6
CONTINUOUS
 10
1.398543
 20
-3.117059
  0
VERTEX
  8
PLAN_1
  6
CONTINUOUS
 10
1.400618
 20
-3.123276
  0
VERTEX
  8
PLAN_1
  6
CONTINUOUS
 10
1.401445
 20
-3.129906
  0
VERTEX
  8
PLAN_1
  6
CONTINUOUS
 10
1.401858
 20
-3.137776
  0
VERTEX
  8
PLAN_1
  6
CONTINUOUS
 10
1.401858
 20
-3.142748
  0
VERTEX
  8
PLAN_1
  6
CONTINUOUS
 10
1.401445
 20
-3.147724
  0
VERTEX
  8
PLAN_1
  6
CONTINUOUS
 10
1.400618
 20
-3.152280
  0
VERTEX
  8
PLAN_1
  6
CONTINUOUS
 10
1.399374
 20
-3.156425
  0
VERTEX
  8
PLAN_1
  6
CONTINUOUS
 10
1.398130
 20
-3.160154
  0
VERTEX
  8
PLAN_1
  6
CONTINUOUS
 10
1.396472
 20
-3.163882
  0
VERTEX
  8
PLAN_1
  6
CONTINUOUS
 10
1.394815
 20
-3.166783
  0
VERTEX
  8
PLAN_1
  6
CONTINUOUS
 10
1.392744
 20
-3.169685
  0
VERTEX
  8
PLAN_1
  6
CONTINUOUS
 10
1.390673
 20
-3.172169
  0
VERTEX
  8
PLAN_1
  6
CONTINUOUS
 10
1.388598
 20
-3.174657
  0
VERTEX
  8
PLAN_1
  6
CONTINUOUS
 10
1.386114
 20
-3.176728
  0
VERTEX
  8
PLAN_1
  6
CONTINUOUS
 10
1.384039
 20
-3.178799
  0
VERTEX
  8
PLAN_1
  6
CONTINUOUS
 10
1.379067
 20
-3.182531
  0
VERTEX
  8
PLAN_1
  6
CONTINUOUS
 10
1.374094
 20
-3.185429
  0
VERTEX
  8
PLAN_1
  6
CONTINUOUS
 10
1.378240
 20
-3.187087
  0
VERTEX
  8
PLAN_1
  6
CONTINUOUS
 10
1.382382
 20
-3.189161
  0
VERTEX
  8
PLAN_1
  6
CONTINUOUS
 10
1.384457
 20
-3.190402
  0
VERTEX
  8
PLAN_1
  6
CONTINUOUS
 10
1.386528
 20
-3.192059
  0
VERTEX
  8
PLAN_1
  6
CONTINUOUS
 10
1.388185
 20
-3.193717
  0
VERTEX
  8
PLAN_1
  6
CONTINUOUS
 10
1.389843
 20
-3.195374
  0
VERTEX
  8
PLAN_1
  6
CONTINUOUS
 10
1.391500
 20
-3.197449
  0
VERTEX
  8
PLAN_1
  6
CONTINUOUS
 10
1.393157
 20
-3.199933
  0
VERTEX
  8
PLAN_1
  6
CONTINUOUS
 10
1.394402
 20
-3.202835
  0
VERTEX
  8
PLAN_1
  6
CONTINUOUS
 10
1.395228
 20
-3.206150
  0
VERTEX
  8
PLAN_1
  6
CONTINUOUS
 10
1.396472
 20
-3.209465
  0
VERTEX
  8
PLAN_1
  6
CONTINUOUS
 10
1.397303
 20
-3.213610
  0
VERTEX
  8
PLAN_1
  6
CONTINUOUS
 10
1.397717
 20
-3.217752
  0
VERTEX
  8
PLAN_1
  6
CONTINUOUS
 10
1.398130
 20
-3.222724
  0
VERTEX
  8
PLAN_1
  6
CONTINUOUS
 10
1.399787
 20
-3.258776
  0
VERTEX
  8
PLAN_1
  6
CONTINUOUS
 10
1.399787
 20
-3.262921
  0
VERTEX
  8
PLAN_1
  6
CONTINUOUS
 10
1.400201
 20
-3.266236
  0
VERTEX
  8
PLAN_1
  6
CONTINUOUS
 10
1.400618
 20
-3.268720
  0
VERTEX
  8
PLAN_1
  6
CONTINUOUS
 10
1.401858
 20
-3.271209
  0
VERTEX
  8
PLAN_1
  6
CONTINUOUS
 10
1.403102
 20
-3.273280
  0
VERTEX
  8
PLAN_1
  6
CONTINUOUS
 10
1.404760
 20
-3.275350
  0
VERTEX
  8
PLAN_1
  6
CONTINUOUS
 10
1.406831
 20
-3.277008
  0
VERTEX
  8
PLAN_1
  6
CONTINUOUS
 10
1.409732
 20
-3.279079
  0
VERTEX
  8
PLAN_1
  6
CONTINUOUS
 10
1.409732
 20
-3.283224
  0
VERTEX
  8
PLAN_1
  6
CONTINUOUS
 10
1.376583
 20
-3.283224
  0
VERTEX
  8
PLAN_1
  6
CONTINUOUS
 10
1.375339
 20
-3.277839
  0
VERTEX
  8
PLAN_1
  6
CONTINUOUS
 10
1.374094
 20
-3.271622
  0
VERTEX
  8
PLAN_1
  6
CONTINUOUS
 10
1.373268
 20
-3.264161
  0
VERTEX
  8
PLAN_1
  6
CONTINUOUS
 10
1.372854
 20
-3.256705
  0
VERTEX
  8
PLAN_1
  6
CONTINUOUS
 10
1.372437
 20
-3.249244
  0
VERTEX
  8
PLAN_1
  6
CONTINUOUS
 10
1.372024
 20
-3.242614
  0
VERTEX
  8
PLAN_1
  6
CONTINUOUS
 10
1.372024
 20
-3.237228
  0
VERTEX
  8
PLAN_1
  6
CONTINUOUS
 10
1.372024
 20
-3.233500
  0
VERTEX
  8
PLAN_1
  6
CONTINUOUS
 10
1.371610
 20
-3.227283
  0
VERTEX
  8
PLAN_1
  6
CONTINUOUS
 10
1.370780
 20
-3.221067
  0
VERTEX
  8
PLAN_1
  6
CONTINUOUS
 10
1.370366
 20
-3.217752
  0
VERTEX
  8
PLAN_1
  6
CONTINUOUS
 10
1.369122
 20
-3.214850
  0
VERTEX
  8
PLAN_1
  6
CONTINUOUS
 10
1.367882
 20
-3.211953
  0
VERTEX
  8
PLAN_1
  6
CONTINUOUS
 10
1.366224
 20
-3.209465
  0
VERTEX
  8
PLAN_1
  6
CONTINUOUS
 10
1.364150
 20
-3.206980
  0
VERTEX
  8
PLAN_1
  6
CONTINUOUS
 10
1.361665
 20
-3.204906
  0
VERTEX
  8
PLAN_1
  6
CONTINUOUS
 10
1.358764
 20
-3.202835
  0
VERTEX
  8
PLAN_1
  6
CONTINUOUS
 10
1.355449
 20
-3.201177
  0
VERTEX
  8
PLAN_1
  6
CONTINUOUS
 10
1.351720
 20
-3.199933
  0
VERTEX
  8
PLAN_1
  6
CONTINUOUS
 10
1.347161
 20
-3.198689
  0
VERTEX
  8
PLAN_1
  6
CONTINUOUS
 10
1.342189
 20
-3.198276
  0
VERTEX
  8
PLAN_1
  6
CONTINUOUS
 10
1.336390
 20
-3.197862
  0
VERTEX
  8
PLAN_1
  6
CONTINUOUS
 10
1.271331
 20
-3.197862
  0
VERTEX
  8
PLAN_1
  6
CONTINUOUS
 10
1.271331
 20
-3.283224
  0
SEQEND
  8
0
  0
POLYLINE
  8
PLAN_1
  6
CONTINUOUS
 66
     1
 40
0.003000
 41
0.003000
  0
VERTEX
  8
PLAN_1
  6
CONTINUOUS
 10
1.271331
 20
-3.174657
  0
VERTEX
  8
PLAN_1
  6
CONTINUOUS
 10
1.333488
 20
-3.174657
  0
VERTEX
  8
PLAN_1
  6
CONTINUOUS
 10
1.340945
 20
-3.174657
  0
VERTEX
  8
PLAN_1
  6
CONTINUOUS
 10
1.348406
 20
-3.173413
  0
VERTEX
  8
PLAN_1
  6
CONTINUOUS
 10
1.351720
 20
-3.172587
  0
VERTEX
  8
PLAN_1
  6
CONTINUOUS
 10
1.355035
 20
-3.171756
  0
VERTEX
  8
PLAN_1
  6
CONTINUOUS
 10
1.358350
 20
-3.170512
  0
VERTEX
  8
PLAN_1
  6
CONTINUOUS
 10
1.361252
 20
-3.168441
  0
VERTEX
  8
PLAN_1
  6
CONTINUOUS
 10
1.364150
 20
-3.166783
  0
VERTEX
  8
PLAN_1
  6
CONTINUOUS
 10
1.366638
 20
-3.164299
  0
VERTEX
  8
PLAN_1
  6
CONTINUOUS
 10
1.368709
 20
-3.161398
  0
VERTEX
  8
PLAN_1
  6
CONTINUOUS
 10
1.370780
 20
-3.158083
  0
VERTEX
  8
PLAN_1
  6
CONTINUOUS
 10
1.372024
 20
-3.154354
  0
VERTEX
  8
PLAN_1
  6
CONTINUOUS
 10
1.373268
 20
-3.150209
  0
VERTEX
  8
PLAN_1
  6
CONTINUOUS
 10
1.374094
 20
-3.145650
  0
VERTEX
  8
PLAN_1
  6
CONTINUOUS
 10
1.374094
 20
-3.140264
  0
VERTEX
  8
PLAN_1
  6
CONTINUOUS
 10
1.374094
 20
-3.134878
  0
VERTEX
  8
PLAN_1
  6
CONTINUOUS
 10
1.373268
 20
-3.130319
  0
VERTEX
  8
PLAN_1
  6
CONTINUOUS
 10
1.372024
 20
-3.125760
  0
VERTEX
  8
PLAN_1
  6
CONTINUOUS
 10
1.370366
 20
-3.122031
  0
VERTEX
  8
PLAN_1
  6
CONTINUOUS
 10
1.368709
 20
-3.119130
  0
VERTEX
  8
PLAN_1
  6
CONTINUOUS
 10
1.366224
 20
-3.116228
  0
VERTEX
  8
PLAN_1
  6
CONTINUOUS
 10
1.363736
 20
-3.114157
  0
VERTEX
  8
PLAN_1
  6
CONTINUOUS
 10
1.361252
 20
-3.112087
  0
VERTEX
  8
PLAN_1
  6
CONTINUOUS
 10
1.358350
 20
-3.110843
  0
VERTEX
  8
PLAN_1
  6
CONTINUOUS
 10
1.355449
 20
-3.109598
  0
VERTEX
  8
PLAN_1
  6
CONTINUOUS
 10
1.352547
 20
-3.108772
  0
VERTEX
  8
PLAN_1
  6
CONTINUOUS
 10
1.349650
 20
-3.107941
  0
VERTEX
  8
PLAN_1
  6
CONTINUOUS
 10
1.343846
 20
-3.107114
  0
VERTEX
  8
PLAN_1
  6
CONTINUOUS
 10
1.338461
 20
-3.107114
  0
VERTEX
  8
PLAN_1
  6
CONTINUOUS
 10
1.271331
 20
-3.107114
  0
VERTEX
  8
PLAN_1
  6
CONTINUOUS
 10
1.271331
 20
-3.174657
  0
SEQEND
  8
0
  0
SOLID
  8
PLAN_1
 10
1.473134
 20
-3.283224
 11
1.444539
 21
-3.283224
 12
1.473134
 22
-3.253803
 13
1.444539
 23
-3.253803
  0
POLYLINE
  8
PLAN_1
  6
CONTINUOUS
 66
     1
 40
0.003000
 41
0.003000
  0
VERTEX
  8
PLAN_1
  6
CONTINUOUS
 10
1.473134
 20
-3.283224
  0
VERTEX
  8
PLAN_1
  6
CONTINUOUS
 10
1.444539
 20
-3.283224
  0
VERTEX
  8
PLAN_1
  6
CONTINUOUS
 10
1.444539
 20
-3.253803
  0
VERTEX
  8
PLAN_1
  6
CONTINUOUS
 10
1.473134
 20
-3.253803
  0
VERTEX
  8
PLAN_1
  6
CONTINUOUS
 10
1.473134
 20
-3.283224
  0
SEQEND
  8
0
  0
POLYLINE
  8
PLAN_1
  6
CONTINUOUS
 66
     1
 40
0.003000
 41
0.003000
  0
VERTEX
  8
PLAN_1
  6
CONTINUOUS
 10
1.668303
 20
-3.283224
  0
VERTEX
  8
PLAN_1
  6
CONTINUOUS
 10
1.521201
 20
-3.283224
  0
VERTEX
  8
PLAN_1
  6
CONTINUOUS
 10
1.521201
 20
-3.083909
  0
VERTEX
  8
PLAN_1
  6
CONTINUOUS
 10
1.666646
 20
-3.083909
  0
VERTEX
  8
PLAN_1
  6
CONTINUOUS
 10
1.666646
 20
-3.107941
  0
VERTEX
  8
PLAN_1
  6
CONTINUOUS
 10
1.548134
 20
-3.107941
  0
VERTEX
  8
PLAN_1
  6
CONTINUOUS
 10
1.548134
 20
-3.168854
  0
VERTEX
  8
PLAN_1
  6
CONTINUOUS
 10
1.657531
 20
-3.168854
  0
VERTEX
  8
PLAN_1
  6
CONTINUOUS
 10
1.657531
 20
-3.192890
  0
VERTEX
  8
PLAN_1
  6
CONTINUOUS
 10
1.548134
 20
-3.192890
  0
VERTEX
  8
PLAN_1
  6
CONTINUOUS
 10
1.548134
 20
-3.259602
  0
VERTEX
  8
PLAN_1
  6
CONTINUOUS
 10
1.668303
 20
-3.259602
  0
VERTEX
  8
PLAN_1
  6
CONTINUOUS
 10
1.668303
 20
-3.283224
  0
SEQEND
  8
0
  0
POLYLINE
  8
PLAN_1
  6
CONTINUOUS
 66
     1
 40
0.003000
 41
0.003000
  0
VERTEX
  8
PLAN_1
  6
CONTINUOUS
 10
1.733362
 20
-3.283224
  0
VERTEX
  8
PLAN_1
  6
CONTINUOUS
 10
1.706425
 20
-3.283224
  0
VERTEX
  8
PLAN_1
  6
CONTINUOUS
 10
1.706425
 20
-3.083909
  0
VERTEX
  8
PLAN_1
  6
CONTINUOUS
 10
1.796346
 20
-3.083909
  0
VERTEX
  8
PLAN_1
  6
CONTINUOUS
 10
1.802976
 20
-3.084323
  0
VERTEX
  8
PLAN_1
  6
CONTINUOUS
 10
1.809193
 20
-3.085154
  0
VERTEX
  8
PLAN_1
  6
CONTINUOUS
 10
1.815409
 20
-3.086394
  0
VERTEX
  8
PLAN_1
  6
CONTINUOUS
 10
1.821209
 20
-3.088469
  0
VERTEX
  8
PLAN_1
  6
CONTINUOUS
 10
1.826181
 20
-3.090539
  0
VERTEX
  8
PLAN_1
  6
CONTINUOUS
 10
1.831154
 20
-3.093441
  0
VERTEX
  8
PLAN_1
  6
CONTINUOUS
 10
1.835713
 20
-3.096339
  0
VERTEX
  8
PLAN_1
  6
CONTINUOUS
 10
1.839441
 20
-3.100071
  0
VERTEX
  8
PLAN_1
  6
CONTINUOUS
 10
1.843169
 20
-3.103799
  0
VERTEX
  8
PLAN_1
  6
CONTINUOUS
 10
1.846484
 20
-3.108358
  0
VERTEX
  8
PLAN_1
  6
CONTINUOUS
 10
1.848972
 20
-3.112913
  0
VERTEX
  8
PLAN_1
  6
CONTINUOUS
 10
1.851457
 20
-3.117886
  0
VERTEX
  8
PLAN_1
  6
CONTINUOUS
 10
1.853114
 20
-3.122858
  0
VERTEX
  8
PLAN_1
  6
CONTINUOUS
 10
1.854358
 20
-3.128661
  0
VERTEX
  8
PLAN_1
  6
CONTINUOUS
 10
1.855189
 20
-3.134047
  0
VERTEX
  8
PLAN_1
  6
CONTINUOUS
 10
1.855189
 20
-3.140264
  0
VERTEX
  8
PLAN_1
  6
CONTINUOUS
 10
1.855189
 20
-3.145236
  0
VERTEX
  8
PLAN_1
  6
CONTINUOUS
 10
1.854772
 20
-3.150622
  0
VERTEX
  8
PLAN_1
  6
CONTINUOUS
 10
1.853531
 20
-3.156012
  0
VERTEX
  8
PLAN_1
  6
CONTINUOUS
 10
1.852287
 20
-3.160984
  0
VERTEX
  8
PLAN_1
  6
CONTINUOUS
 10
1.850217
 20
-3.165957
  0
VERTEX
  8
PLAN_1
  6
CONTINUOUS
 10
1.848142
 20
-3.170929
  0
VERTEX
  8
PLAN_1
  6
CONTINUOUS
 10
1.845244
 20
-3.175902
  0
VERTEX
  8
PLAN_1
  6
CONTINUOUS
 10
1.841929
 20
-3.180043
  0
VERTEX
  8
PLAN_1
  6
CONTINUOUS
 10
1.838197
 20
-3.184189
  0
VERTEX
  8
PLAN_1
  6
CONTINUOUS
 10
1.834055
 20
-3.187917
  0
VERTEX
  8
PLAN_1
  6
CONTINUOUS
 10
1.829083
 20
-3.191232
  0
VERTEX
  8
PLAN_1
  6
CONTINUOUS
 10
1.823697
 20
-3.193717
  0
VERTEX
  8
PLAN_1
  6
CONTINUOUS
 10
1.817894
 20
-3.196205
  0
VERTEX
  8
PLAN_1
  6
CONTINUOUS
 10
1.811264
 20
-3.197862
  0
VERTEX
  8
PLAN_1
  6
CONTINUOUS
 10
1.803807
 20
-3.198689
  0
VERTEX
  8
PLAN_1
  6
CONTINUOUS
 10
1.796346
 20
-3.199106
  0
VERTEX
  8
PLAN_1
  6
CONTINUOUS
 10
1.733362
 20
-3.199106
  0
VERTEX
  8
PLAN_1
  6
CONTINUOUS
 10
1.733362
 20
-3.283224
  0
SEQEND
  8
0
  0
POLYLINE
  8
PLAN_1
  6
CONTINUOUS
 66
     1
 40
0.003000
 41
0.003000
  0
VERTEX
  8
PLAN_1
  6
CONTINUOUS
 10
1.733362
 20
-3.176315
  0
VERTEX
  8
PLAN_1
  6
CONTINUOUS
 10
1.787228
 20
-3.176315
  0
VERTEX
  8
PLAN_1
  6
CONTINUOUS
 10
1.791374
 20
-3.175902
  0
VERTEX
  8
PLAN_1
  6
CONTINUOUS
 10
1.795516
 20
-3.175902
  0
VERTEX
  8
PLAN_1
  6
CONTINUOUS
 10
1.799661
 20
-3.175071
  0
VERTEX
  8
PLAN_1
  6
CONTINUOUS
 10
1.803390
 20
-3.174244
  0
VERTEX
  8
PLAN_1
  6
CONTINUOUS
 10
1.807122
 20
-3.173413
  0
VERTEX
  8
PLAN_1
  6
CONTINUOUS
 10
1.810437
 20
-3.172169
  0
VERTEX
  8
PLAN_1
  6
CONTINUOUS
 10
1.813752
 20
-3.170512
  0
VERTEX
  8
PLAN_1
  6
CONTINUOUS
 10
1.816236
 20
-3.168441
  0
VERTEX
  8
PLAN_1
  6
CONTINUOUS
 10
1.818724
 20
-3.165957
  0
VERTEX
  8
PLAN_1
  6
CONTINUOUS
 10
1.821209
 20
-3.163469
  0
VERTEX
  8
PLAN_1
  6
CONTINUOUS
 10
1.822866
 20
-3.160567
  0
VERTEX
  8
PLAN_1
  6
CONTINUOUS
 10
1.824524
 20
-3.157252
  0
VERTEX
  8
PLAN_1
  6
CONTINUOUS
 10
1.825768
 20
-3.153524
  0
VERTEX
  8
PLAN_1
  6
CONTINUOUS
 10
1.827012
 20
-3.149795
  0
VERTEX
  8
PLAN_1
  6
CONTINUOUS
 10
1.827425
 20
-3.145236
  0
VERTEX
  8
PLAN_1
  6
CONTINUOUS
 10
1.827425
 20
-3.140264
  0
VERTEX
  8
PLAN_1
  6
CONTINUOUS
 10
1.827425
 20
-3.135705
  0
VERTEX
  8
PLAN_1
  6
CONTINUOUS
 10
1.826594
 20
-3.131563
  0
VERTEX
  8
PLAN_1
  6
CONTINUOUS
 10
1.825768
 20
-3.127831
  0
VERTEX
  8
PLAN_1
  6
CONTINUOUS
 10
1.824524
 20
-3.124516
  0
VERTEX
  8
PLAN_1
  6
CONTINUOUS
 10
1.822866
 20
-3.121618
  0
VERTEX
  8
PLAN_1
  6
CONTINUOUS
 10
1.820795
 20
-3.118717
  0
VERTEX
  8
PLAN_1
  6
CONTINUOUS
 10
1.818724
 20
-3.116228
  0
VERTEX
  8
PLAN_1
  6
CONTINUOUS
 10
1.816236
 20
-3.114157
  0
VERTEX
  8
PLAN_1
  6
CONTINUOUS
 10
1.813335
 20
-3.112500
  0
VERTEX
  8
PLAN_1
  6
CONTINUOUS
 10
1.810437
 20
-3.110843
  0
VERTEX
  8
PLAN_1
  6
CONTINUOUS
 10
1.807122
 20
-3.109598
  0
VERTEX
  8
PLAN_1
  6
CONTINUOUS
 10
1.803807
 20
-3.108772
  0
VERTEX
  8
PLAN_1
  6
CONTINUOUS
 10
1.800075
 20
-3.107941
  0
VERTEX
  8
PLAN_1
  6
CONTINUOUS
 10
1.796346
 20
-3.107528
  0
VERTEX
  8
PLAN_1
  6
CONTINUOUS
 10
1.792201
 20
-3.107114
  0
VERTEX
  8
PLAN_1
  6
CONTINUOUS
 10
1.788059
 20
-3.107114
  0
VERTEX
  8
PLAN_1
  6
CONTINUOUS
 10
1.733362
 20
-3.107114
  0
VERTEX
  8
PLAN_1
  6
CONTINUOUS
 10
1.733362
 20
-3.176315
  0
SEQEND
  8
0
  0
POLYLINE
  8
PLAN_1
  6
CONTINUOUS
 66
     1
 40
0.003000
 41
0.003000
  0
VERTEX
  8
PLAN_1
  6
CONTINUOUS
 10
2.009335
 20
-3.142335
  0
VERTEX
  8
PLAN_1
  6
CONTINUOUS
 10
2.008508
 20
-3.136949
  0
VERTEX
  8
PLAN_1
  6
CONTINUOUS
 10
2.007677
 20
-3.131976
  0
VERTEX
  8
PLAN_1
  6
CONTINUOUS
 10
2.006020
 20
-3.127004
  0
VERTEX
  8
PLAN_1
  6
CONTINUOUS
 10
2.003949
 20
-3.122858
  0
VERTEX
  8
PLAN_1
  6
CONTINUOUS
 10
2.001465
 20
-3.119130
  0
VERTEX
  8
PLAN_1
  6
CONTINUOUS
 10
1.998976
 20
-3.115815
  0
VERTEX
  8
PLAN_1
  6
CONTINUOUS
 10
1.995661
 20
-3.112913
  0
VERTEX
  8
PLAN_1
  6
CONTINUOUS
 10
1.992346
 20
-3.110429
  0
VERTEX
  8
PLAN_1
  6
CONTINUOUS
 10
1.988618
 20
-3.108358
  0
VERTEX
  8
PLAN_1
  6
CONTINUOUS
 10
1.984890
 20
-3.106701
  0
VERTEX
  8
PLAN_1
  6
CONTINUOUS
 10
1.980744
 20
-3.105043
  0
VERTEX
  8
PLAN_1
  6
CONTINUOUS
 10
1.976598
 20
-3.103799
  0
VERTEX
  8
PLAN_1
  6
CONTINUOUS
 10
1.972457
 20
-3.102969
  0
VERTEX
  8
PLAN_1
  6
CONTINUOUS
 10
1.968311
 20
-3.102142
  0
VERTEX
  8
PLAN_1
  6
CONTINUOUS
 10
1.964169
 20
-3.102142
  0
VERTEX
  8
PLAN_1
  6
CONTINUOUS
 10
1.959610
 20
-3.101728
  0
VERTEX
  8
PLAN_1
  6
CONTINUOUS
 10
1.952980
 20
-3.102142
  0
VERTEX
  8
PLAN_1
  6
CONTINUOUS
 10
1.945524
 20
-3.102969
  0
VERTEX
  8
PLAN_1
  6
CONTINUOUS
 10
1.941791
 20
-3.103799
  0
VERTEX
  8
PLAN_1
  6
CONTINUOUS
 10
1.938063
 20
-3.105043
  0
VERTEX
  8
PLAN_1
  6
CONTINUOUS
 10
1.934335
 20
-3.106283
  0
VERTEX
  8
PLAN_1
  6
CONTINUOUS
 10
1.930606
 20
-3.107941
  0
VERTEX
  8
PLAN_1
  6
CONTINUOUS
 10
1.927291
 20
-3.110016
  0
VERTEX
  8
PLAN_1
  6
CONTINUOUS
 10
1.924390
 20
-3.112500
  0
VERTEX
  8
PLAN_1
  6
CONTINUOUS
 10
1.921488
 20
-3.115402
  0
VERTEX
  8
PLAN_1
  6
CONTINUOUS
 10
1.919000
 20
-3.118717
  0
VERTEX
  8
PLAN_1
  6
CONTINUOUS
 10
1.916929
 20
-3.122445
  0
VERTEX
  8
PLAN_1
  6
CONTINUOUS
 10
1.915685
 20
-3.126591
  0
VERTEX
  8
PLAN_1
  6
CONTINUOUS
 10
1.914445
 20
-3.131563
  0
VERTEX
  8
PLAN_1
  6
CONTINUOUS
 10
1.914445
 20
-3.136949
  0
VERTEX
  8
PLAN_1
  6
CONTINUOUS
 10
1.914445
 20
-3.139850
  0
VERTEX
  8
PLAN_1
  6
CONTINUOUS
 10
1.914858
 20
-3.142748
  0
VERTEX
  8
PLAN_1
  6
CONTINUOUS
 10
1.915272
 20
-3.145236
  0
VERTEX
  8
PLAN_1
  6
CONTINUOUS
 10
1.916516
 20
-3.147307
  0
VERTEX
  8
PLAN_1
  6
CONTINUOUS
 10
1.917343
 20
-3.149795
  0
VERTEX
  8
PLAN_1
  6
CONTINUOUS
 10
1.918587
 20
-3.151453
  0
VERTEX
  8
PLAN_1
  6
CONTINUOUS
 10
1.920244
 20
-3.153110
  0
VERTEX
  8
PLAN_1
  6
CONTINUOUS
 10
1.921902
 20
-3.154768
  0
VERTEX
  8
PLAN_1
  6
CONTINUOUS
 10
1.925217
 20
-3.157252
  0
VERTEX
  8
PLAN_1
  6
CONTINUOUS
 10
1.929362
 20
-3.159327
  0
VERTEX
  8
PLAN_1
  6
CONTINUOUS
 10
1.933504
 20
-3.160984
  0
VERTEX
  8
PLAN_1
  6
CONTINUOUS
 10
1.938063
 20
-3.162224
  0
VERTEX
  8
PLAN_1
  6
CONTINUOUS
 10
1.994835
 20
-3.175071
  0
VERTEX
  8
PLAN_1
  6
CONTINUOUS
 10
1.999390
 20
-3.176315
  0
VERTEX
  8
PLAN_1
  6
CONTINUOUS
 10
2.003949
 20
-3.177972
  0
VERTEX
  8
PLAN_1
  6
CONTINUOUS
 10
2.008508
 20
-3.179630
  0
VERTEX
  8
PLAN_1
  6
CONTINUOUS
 10
2.012650
 20
-3.181701
  0
VERTEX
  8
PLAN_1
  6
CONTINUOUS
 10
2.016795
 20
-3.183772
  0
VERTEX
  8
PLAN_1
  6
CONTINUOUS
 10
2.020524
 20
-3.186260
  0
VERTEX
  8
PLAN_1
  6
CONTINUOUS
 10
2.023839
 20
-3.189161
  0
VERTEX
  8
PLAN_1
  6
CONTINUOUS
 10
2.027154
 20
-3.192059
  0
VERTEX
  8
PLAN_1
  6
CONTINUOUS
 10
2.030055
 20
-3.195374
  0
VERTEX
  8
PLAN_1
  6
CONTINUOUS
 10
2.032539
 20
-3.199106
  0
VERTEX
  8
PLAN_1
  6
CONTINUOUS
 10
2.034614
 20
-3.203248
  0
VERTEX
  8
PLAN_1
  6
CONTINUOUS
 10
2.036685
 20
-3.207394
  0
VERTEX
  8
PLAN_1
  6
CONTINUOUS
 10
2.037929
 20
-3.212366
  0
VERTEX
  8
PLAN_1
  6
CONTINUOUS
 10
2.039169
 20
-3.217339
  0
VERTEX
  8
PLAN_1
  6
CONTINUOUS
 10
2.039587
 20
-3.222724
  0
VERTEX
  8
PLAN_1
  6
CONTINUOUS
 10
2.040000
 20
-3.228528
  0
VERTEX
  8
PLAN_1
  6
CONTINUOUS
 10
2.040000
 20
-3.232669
  0
VERTEX
  8
PLAN_1
  6
CONTINUOUS
 10
2.039587
 20
-3.236815
  0
VERTEX
  8
PLAN_1
  6
CONTINUOUS
 10
2.038756
 20
-3.240957
  0
VERTEX
  8
PLAN_1
  6
CONTINUOUS
 10
2.037929
 20
-3.244685
  0
VERTEX
  8
PLAN_1
  6
CONTINUOUS
 10
2.037098
 20
-3.248000
  0
VERTEX
  8
PLAN_1
  6
CONTINUOUS
 10
2.035854
 20
-3.251315
  0
VERTEX
  8
PLAN_1
  6
CONTINUOUS
 10
2.034197
 20
-3.254630
  0
VERTEX
  8
PLAN_1
  6
CONTINUOUS
 10
2.032539
 20
-3.257531
  0
VERTEX
  8
PLAN_1
  6
CONTINUOUS
 10
2.030882
 20
-3.260433
  0
VERTEX
  8
PLAN_1
  6
CONTINUOUS
 10
2.028811
 20
-3.263335
  0
VERTEX
  8
PLAN_1
  6
CONTINUOUS
 10
2.026740
 20
-3.265819
  0
VERTEX
  8
PLAN_1
  6
CONTINUOUS
 10
2.024252
 20
-3.268307
  0
VERTEX
  8
PLAN_1
  6
CONTINUOUS
 10
2.019280
 20
-3.272449
  0
VERTEX
  8
PLAN_1
  6
CONTINUOUS
 10
2.013894
 20
-3.276181
  0
VERTEX
  8
PLAN_1
  6
CONTINUOUS
 10
2.008094
 20
-3.279496
  0
VERTEX
  8
PLAN_1
  6
CONTINUOUS
 10
2.001878
 20
-3.281980
  0
VERTEX
  8
PLAN_1
  6
CONTINUOUS
 10
1.995248
 20
-3.284051
  0
VERTEX
  8
PLAN_1
  6
CONTINUOUS
 10
1.988618
 20
-3.285709
  0
VERTEX
  8
PLAN_1
  6
CONTINUOUS
 10
1.981988
 20
-3.286953
  0
VERTEX
  8
PLAN_1
  6
CONTINUOUS
 10
1.975358
 20
-3.287783
  0
VERTEX
  8
PLAN_1
  6
CONTINUOUS
 10
1.968311
 20
-3.288610
  0
VERTEX
  8
PLAN_1
  6
CONTINUOUS
 10
1.962098
 20
-3.288610
  0
VERTEX
  8
PLAN_1
  6
CONTINUOUS
 10
1.955469
 20
-3.288610
  0
VERTEX
  8
PLAN_1
  6
CONTINUOUS
 10
1.949252
 20
-3.288197
  0
VERTEX
  8
PLAN_1
  6
CONTINUOUS
 10
1.943449
 20
-3.287366
  0
VERTEX
  8
PLAN_1
  6
CONTINUOUS
 10
1.938476
 20
-3.286953
  0
VERTEX
  8
PLAN_1
  6
CONTINUOUS
 10
1.933504
 20
-3.285709
  0
VERTEX
  8
PLAN_1
  6
CONTINUOUS
 10
1.928949
 20
-3.284882
  0
VERTEX
  8
PLAN_1
  6
CONTINUOUS
 10
1.925217
 20
-3.283638
  0
VERTEX
  8
PLAN_1
  6
CONTINUOUS
 10
1.921488
 20
-3.281980
  0
VERTEX
  8
PLAN_1
  6
CONTINUOUS
 10
1.914858
 20
-3.279079
  0
VERTEX
  8
PLAN_1
  6
CONTINUOUS
 10
1.909886
 20
-3.275764
  0
VERTEX
  8
PLAN_1
  6
CONTINUOUS
 10
1.905327
 20
-3.272449
  0
VERTEX
  8
PLAN_1
  6
CONTINUOUS
 10
1.901598
 20
-3.269551
  0
VERTEX
  8
PLAN_1
  6
CONTINUOUS
 10
1.898697
 20
-3.266650
  0
VERTEX
  8
PLAN_1
  6
CONTINUOUS
 10
1.896213
 20
-3.263748
  0
VERTEX
  8
PLAN_1
  6
CONTINUOUS
 10
1.893724
 20
-3.260846
  0
VERTEX
  8
PLAN_1
  6
CONTINUOUS
 10
1.891654
 20
-3.257945
  0
VERTEX
  8
PLAN_1
  6
CONTINUOUS
 10
1.889583
 20
-3.254630
  0
VERTEX
  8
PLAN_1
  6
CONTINUOUS
 10
1.887925
 20
-3.251732
  0
VERTEX
  8
PLAN_1
  6
CONTINUOUS
 10
1.886681
 20
-3.248417
  0
VERTEX
  8
PLAN_1
  6
CONTINUOUS
 10
1.885437
 20
-3.245516
  0
VERTEX
  8
PLAN_1
  6
CONTINUOUS
 10
1.883366
 20
-3.238886
  0
VERTEX
  8
PLAN_1
  6
CONTINUOUS
 10
1.882122
 20
-3.232669
  0
VERTEX
  8
PLAN_1
  6
CONTINUOUS
 10
1.881709
 20
-3.226039
  0
VERTEX
  8
PLAN_1
  6
CONTINUOUS
 10
1.881709
 20
-3.218996
  0
VERTEX
  8
PLAN_1
  6
CONTINUOUS
 10
1.906571
 20
-3.218996
  0
VERTEX
  8
PLAN_1
  6
CONTINUOUS
 10
1.906984
 20
-3.225626
  0
VERTEX
  8
PLAN_1
  6
CONTINUOUS
 10
1.908228
 20
-3.231425
  0
VERTEX
  8
PLAN_1
  6
CONTINUOUS
 10
1.909472
 20
-3.236815
  0
VERTEX
  8
PLAN_1
  6
CONTINUOUS
 10
1.911957
 20
-3.241370
  0
VERTEX
  8
PLAN_1
  6
CONTINUOUS
 10
1.914445
 20
-3.245929
  0
VERTEX
  8
PLAN_1
  6
CONTINUOUS
 10
1.917343
 20
-3.249657
  0
VERTEX
  8
PLAN_1
  6
CONTINUOUS
 10
1.921075
 20
-3.252972
  0
VERTEX
  8
PLAN_1
  6
CONTINUOUS
 10
1.924803
 20
-3.255874
  0
VERTEX
  8
PLAN_1
  6
CONTINUOUS
 10
1.928949
 20
-3.258362
  0
VERTEX
  8
PLAN_1
  6
CONTINUOUS
 10
1.933091
 20
-3.260433
  0
VERTEX
  8
PLAN_1
  6
CONTINUOUS
 10
1.937650
 20
-3.262091
  0
VERTEX
  8
PLAN_1
  6
CONTINUOUS
 10
1.942209
 20
-3.263335
  0
VERTEX
  8
PLAN_1
  6
CONTINUOUS
 10
1.947181
 20
-3.264579
  0
VERTEX
  8
PLAN_1
  6
CONTINUOUS
 10
1.952154
 20
-3.264992
  0
VERTEX
  8
PLAN_1
  6
CONTINUOUS
 10
1.956709
 20
-3.265406
  0
VERTEX
  8
PLAN_1
  6
CONTINUOUS
 10
1.961681
 20
-3.265406
  0
VERTEX
  8
PLAN_1
  6
CONTINUOUS
 10
1.969555
 20
-3.265406
  0
VERTEX
  8
PLAN_1
  6
CONTINUOUS
 10
1.978256
 20
-3.264161
  0
VERTEX
  8
PLAN_1
  6
CONTINUOUS
 10
1.982402
 20
-3.263748
  0
VERTEX
  8
PLAN_1
  6
CONTINUOUS
 10
1.986961
 20
-3.262504
  0
VERTEX
  8
PLAN_1
  6
CONTINUOUS
 10
1.991102
 20
-3.261260
  0
VERTEX
  8
PLAN_1
  6
CONTINUOUS
 10
1.995248
 20
-3.259602
  0
VERTEX
  8
PLAN_1
  6
CONTINUOUS
 10
1.998976
 20
-3.257531
  0
VERTEX
  8
PLAN_1
  6
CONTINUOUS
 10
2.002705
 20
-3.255047
  0
VERTEX
  8
PLAN_1
  6
CONTINUOUS
 10
2.005606
 20
-3.252559
  0
VERTEX
  8
PLAN_1
  6
CONTINUOUS
 10
2.008508
 20
-3.249244
  0
VERTEX
  8
PLAN_1
  6
CONTINUOUS
 10
2.010579
 20
-3.245516
  0
VERTEX
  8
PLAN_1
  6
CONTINUOUS
 10
2.012650
 20
-3.241787
  0
VERTEX
  8
PLAN_1
  6
CONTINUOUS
 10
2.013480
 20
-3.237228
  0
VERTEX
  8
PLAN_1
  6
CONTINUOUS
 10
2.013894
 20
-3.231843
  0
VERTEX
  8
PLAN_1
  6
CONTINUOUS
 10
2.013894
 20
-3.228110
  0
VERTEX
  8
PLAN_1
  6
CONTINUOUS
 10
2.013480
 20
-3.224795
  0
VERTEX
  8
PLAN_1
  6
CONTINUOUS
 10
2.012650
 20
-3.221480
  0
VERTEX
  8
PLAN_1
  6
CONTINUOUS
 10
2.011823
 20
-3.218996
  0
VERTEX
  8
PLAN_1
  6
CONTINUOUS
 10
2.010579
 20
-3.216094
  0
VERTEX
  8
PLAN_1
  6
CONTINUOUS
 10
2.008921
 20
-3.213610
  0
VERTEX
  8
PLAN_1
  6
CONTINUOUS
 10
2.007264
 20
-3.211535
  0
VERTEX
  8
PLAN_1
  6
CONTINUOUS
 10
2.004780
 20
-3.209465
  0
VERTEX
  8
PLAN_1
  6
CONTINUOUS
 10
2.002291
 20
-3.207394
  0
VERTEX
  8
PLAN_1
  6
CONTINUOUS
 10
1.999390
 20
-3.205736
  0
VERTEX
  8
PLAN_1
  6
CONTINUOUS
 10
1.995661
 20
-3.204079
  0
VERTEX
  8
PLAN_1
  6
CONTINUOUS
 10
1.991933
 20
-3.202421
  0
VERTEX
  8
PLAN_1
  6
CONTINUOUS
 10
1.982815
 20
-3.199520
  0
VERTEX
  8
PLAN_1
  6
CONTINUOUS
 10
1.971626
 20
-3.196618
  0
VERTEX
  8
PLAN_1
  6
CONTINUOUS
 10
1.930606
 20
-3.187504
  0
VERTEX
  8
PLAN_1
  6
CONTINUOUS
 10
1.925217
 20
-3.185846
  0
VERTEX
  8
PLAN_1
  6
CONTINUOUS
 10
1.918587
 20
-3.183772
  0
VERTEX
  8
PLAN_1
  6
CONTINUOUS
 10
1.914858
 20
-3.182114
  0
VERTEX
  8
PLAN_1
  6
CONTINUOUS
 10
1.911543
 20
-3.180457
  0
VERTEX
  8
PLAN_1
  6
CONTINUOUS
 10
1.907815
 20
-3.178386
  0
VERTEX
  8
PLAN_1
  6
CONTINUOUS
 10
1.904500
 20
-3.175902
  0
VERTEX
  8
PLAN_1
  6
CONTINUOUS
 10
1.901185
 20
-3.173000
  0
VERTEX
  8
PLAN_1
  6
CONTINUOUS
 10
1.898283
 20
-3.169685
  0
VERTEX
  8
PLAN_1
  6
CONTINUOUS
 10
1.895382
 20
-3.165957
  0
VERTEX
  8
PLAN_1
  6
CONTINUOUS
 10
1.892898
 20
-3.161811
  0
VERTEX
  8
PLAN_1
  6
CONTINUOUS
 10
1.890823
 20
-3.157252
  0
VERTEX
  8
PLAN_1
  6
CONTINUOUS
 10
1.889583
 20
-3.152280
  0
VERTEX
  8
PLAN_1
  6
CONTINUOUS
 10
1.888339
 20
-3.146480
  0
VERTEX
  8
PLAN_1
  6
CONTINUOUS
 10
1.888339
 20
-3.140264
  0
VERTEX
  8
PLAN_1
  6
CONTINUOUS
 10
1.888339
 20
-3.134461
  0
VERTEX
  8
PLAN_1
  6
CONTINUOUS
 10
1.889165
 20
-3.128661
  0
VERTEX
  8
PLAN_1
  6
CONTINUOUS
 10
1.890409
 20
-3.123276
  0
VERTEX
  8
PLAN_1
  6
CONTINUOUS
 10
1.892067
 20
-3.117472
  0
VERTEX
  8
PLAN_1
  6
CONTINUOUS
 10
1.894138
 20
-3.112500
  0
VERTEX
  8
PLAN_1
  6
CONTINUOUS
 10
1.897039
 20
-3.107114
  0
VERTEX
  8
PLAN_1
  6
CONTINUOUS
 10
1.900354
 20
-3.102555
  0
VERTEX
  8
PLAN_1
  6
CONTINUOUS
 10
1.904500
 20
-3.097996
  0
VERTEX
  8
PLAN_1
  6
CONTINUOUS
 10
1.908642
 20
-3.093854
  0
VERTEX
  8
PLAN_1
  6
CONTINUOUS
 10
1.913614
 20
-3.090126
  0
VERTEX
  8
PLAN_1
  6
CONTINUOUS
 10
1.919417
 20
-3.086811
  0
VERTEX
  8
PLAN_1
  6
CONTINUOUS
 10
1.925634
 20
-3.083909
  0
VERTEX
  8
PLAN_1
  6
CONTINUOUS
 10
1.932677
 20
-3.081835
  0
VERTEX
  8
PLAN_1
  6
CONTINUOUS
 10
1.939720
 20
-3.080177
  0
VERTEX
  8
PLAN_1
  6
CONTINUOUS
 10
1.948008
 20
-3.079350
  0
VERTEX
  8
PLAN_1
  6
CONTINUOUS
 10
1.956709
 20
-3.078937
  0
VERTEX
  8
PLAN_1
  6
CONTINUOUS
 10
1.962925
 20
-3.078937
  0
VERTEX
  8
PLAN_1
  6
CONTINUOUS
 10
1.969142
 20
-3.079350
  0
VERTEX
  8
PLAN_1
  6
CONTINUOUS
 10
1.974528
 20
-3.079764
  0
VERTEX
  8
PLAN_1
  6
CONTINUOUS
 10
1.979913
 20
-3.080594
  0
VERTEX
  8
PLAN_1
  6
CONTINUOUS
 10
1.984890
 20
-3.081421
  0
VERTEX
  8
PLAN_1
  6
CONTINUOUS
 10
1.989862
 20
-3.082665
  0
VERTEX
  8
PLAN_1
  6
CONTINUOUS
 10
1.994004
 20
-3.084323
  0
VERTEX
  8
PLAN_1
  6
CONTINUOUS
 10
1.998150
 20
-3.085567
  0
VERTEX
  8
PLAN_1
  6
CONTINUOUS
 10
2.001878
 20
-3.087224
  0
VERTEX
  8
PLAN_1
  6
CONTINUOUS
 10
2.005193
 20
-3.089295
  0
VERTEX
  8
PLAN_1
  6
CONTINUOUS
 10
2.008508
 20
-3.090953
  0
VERTEX
  8
PLAN_1
  6
CONTINUOUS
 10
2.011823
 20
-3.093024
  0
VERTEX
  8
PLAN_1
  6
CONTINUOUS
 10
2.014307
 20
-3.095098
  0
VERTEX
  8
PLAN_1
  6
CONTINUOUS
 10
2.016795
 20
-3.097583
  0
VERTEX
  8
PLAN_1
  6
CONTINUOUS
 10
2.019280
 20
-3.100071
  0
VERTEX
  8
PLAN_1
  6
CONTINUOUS
 10
2.021354
 20
-3.102555
  0
VERTEX
  8
PLAN_1
  6
CONTINUOUS
 10
2.025083
 20
-3.107528
  0
VERTEX
  8
PLAN_1
  6
CONTINUOUS
 10
2.027567
 20
-3.112500
  0
VERTEX
  8
PLAN_1
  6
CONTINUOUS
 10
2.030055
 20
-3.117886
  0
VERTEX
  8
PLAN_1
  6
CONTINUOUS
 10
2.031713
 20
-3.123276
  0
VERTEX
  8
PLAN_1
  6
CONTINUOUS
 10
2.032957
 20
-3.128248
  0
VERTEX
  8
PLAN_1
  6
CONTINUOUS
 10
2.033783
 20
-3.133220
  0
VERTEX
  8
PLAN_1
  6
CONTINUOUS
 10
2.034197
 20
-3.138193
  0
VERTEX
  8
PLAN_1
  6
CONTINUOUS
 10
2.034614
 20
-3.142335
  0
VERTEX
  8
PLAN_1
  6
CONTINUOUS
 10
2.009335
 20
-3.142335
  0
SEQEND
  8
0
  0
POLYLINE
  8
PLAN_1
  6
CONTINUOUS
 66
     1
 40
0.004142
 41
0.004142
  0
VERTEX
  8
PLAN_1
  6
CONTINUOUS
 10
-0.756217
 20
1.645791
  0
VERTEX
  8
PLAN_1
  6
CONTINUOUS
 10
-0.516705
 20
1.645791
  0
SEQEND
  8
0
  0
POLYLINE
  8
PLAN_1
  6
CONTINUOUS
 66
     1
 40
0.004142
 41
0.004142
  0
VERTEX
  8
PLAN_1
  6
CONTINUOUS
 10
-1.909843
 20
1.647449
  0
VERTEX
  8
PLAN_1
  6
CONTINUOUS
 10
-1.670744
 20
1.647449
  0
SEQEND
  8
0
  0
POLYLINE
  8
PLAN_1
 62
     5
  6
CONTINUOUS
 66
     1
 40
0.003000
 41
0.003000
  0
VERTEX
  8
PLAN_1
 62
     5
  6
CONTINUOUS
 10
-2.044929
 20
1.189146
  0
VERTEX
  8
PLAN_1
 62
     5
  6
CONTINUOUS
 10
-2.044929
 20
1.197850
  0
SEQEND
  8
0
  0
POLYLINE
  8
PLAN_1
 62
     5
  6
CONTINUOUS
 66
     1
 40
0.003000
 41
0.003000
  0
VERTEX
  8
PLAN_1
 62
     5
  6
CONTINUOUS
 10
-2.044929
 20
1.206138
  0
VERTEX
  8
PLAN_1
 62
     5
  6
CONTINUOUS
 10
-2.044929
 20
1.214425
  0
SEQEND
  8
0
  0
POLYLINE
  8
PLAN_1
 62
     5
  6
CONTINUOUS
 66
     1
 40
0.003000
 41
0.003000
  0
VERTEX
  8
PLAN_1
 62
     5
  6
CONTINUOUS
 10
-2.044929
 20
1.222713
  0
VERTEX
  8
PLAN_1
 62
     5
  6
CONTINUOUS
 10
-2.044929
 20
1.231000
  0
SEQEND
  8
0
  0
POLYLINE
  8
PLAN_1
 62
     5
  6
CONTINUOUS
 66
     1
 40
0.003000
 41
0.003000
  0
VERTEX
  8
PLAN_1
 62
     5
  6
CONTINUOUS
 10
-2.044929
 20
1.239287
  0
VERTEX
  8
PLAN_1
 62
     5
  6
CONTINUOUS
 10
-2.044929
 20
1.247575
  0
SEQEND
  8
0
  0
POLYLINE
  8
PLAN_1
 62
     5
  6
CONTINUOUS
 66
     1
 40
0.003000
 41
0.003000
  0
VERTEX
  8
PLAN_1
 62
     5
  6
CONTINUOUS
 10
-2.044929
 20
1.255862
  0
VERTEX
  8
PLAN_1
 62
     5
  6
CONTINUOUS
 10
-2.044929
 20
1.264150
  0
SEQEND
  8
0
  0
POLYLINE
  8
PLAN_1
 62
     5
  6
CONTINUOUS
 66
     1
 40
0.003000
 41
0.003000
  0
VERTEX
  8
PLAN_1
 62
     5
  6
CONTINUOUS
 10
-2.044929
 20
1.272437
  0
VERTEX
  8
PLAN_1
 62
     5
  6
CONTINUOUS
 10
-2.044929
 20
1.281138
  0
SEQEND
  8
0
  0
POLYLINE
  8
PLAN_1
 62
     5
  6
CONTINUOUS
 66
     1
 40
0.003000
 41
0.003000
  0
VERTEX
  8
PLAN_1
 62
     5
  6
CONTINUOUS
 10
-2.044929
 20
1.289425
  0
VERTEX
  8
PLAN_1
 62
     5
  6
CONTINUOUS
 10
-2.044929
 20
1.297713
  0
SEQEND
  8
0
  0
POLYLINE
  8
PLAN_1
 62
     5
  6
CONTINUOUS
 66
     1
 40
0.003000
 41
0.003000
  0
VERTEX
  8
PLAN_1
 62
     5
  6
CONTINUOUS
 10
-2.044929
 20
1.306000
  0
VERTEX
  8
PLAN_1
 62
     5
  6
CONTINUOUS
 10
-2.044929
 20
1.314287
  0
SEQEND
  8
0
  0
POLYLINE
  8
PLAN_1
 62
     5
  6
CONTINUOUS
 66
     1
 40
0.003000
 41
0.003000
  0
VERTEX
  8
PLAN_1
 62
     5
  6
CONTINUOUS
 10
-2.044929
 20
1.322575
  0
VERTEX
  8
PLAN_1
 62
     5
  6
CONTINUOUS
 10
-2.044929
 20
1.330862
  0
SEQEND
  8
0
  0
POLYLINE
  8
PLAN_1
 62
     5
  6
CONTINUOUS
 66
     1
 40
0.003000
 41
0.003000
  0
VERTEX
  8
PLAN_1
 62
     5
  6
CONTINUOUS
 10
-2.044929
 20
1.339150
  0
VERTEX
  8
PLAN_1
 62
     5
  6
CONTINUOUS
 10
-2.044929
 20
1.347437
  0
SEQEND
  8
0
  0
POLYLINE
  8
PLAN_1
 62
     5
  6
CONTINUOUS
 66
     1
 40
0.003000
 41
0.003000
  0
VERTEX
  8
PLAN_1
 62
     5
  6
CONTINUOUS
 10
-2.044929
 20
1.355724
  0
VERTEX
  8
PLAN_1
 62
     5
  6
CONTINUOUS
 10
-2.044929
 20
1.364429
  0
SEQEND
  8
0
  0
POLYLINE
  8
PLAN_1
 62
     5
  6
CONTINUOUS
 66
     1
 40
0.003000
 41
0.003000
  0
VERTEX
  8
PLAN_1
 62
     5
  6
CONTINUOUS
 10
-2.044929
 20
1.372717
  0
VERTEX
  8
PLAN_1
 62
     5
  6
CONTINUOUS
 10
-2.044929
 20
1.381004
  0
SEQEND
  8
0
  0
POLYLINE
  8
PLAN_1
 62
     5
  6
CONTINUOUS
 66
     1
 40
0.003000
 41
0.003000
  0
VERTEX
  8
PLAN_1
 62
     5
  6
CONTINUOUS
 10
-2.044929
 20
1.389291
  0
VERTEX
  8
PLAN_1
 62
     5
  6
CONTINUOUS
 10
-2.044929
 20
1.397579
  0
SEQEND
  8
0
  0
POLYLINE
  8
PLAN_1
 62
     5
  6
CONTINUOUS
 66
     1
 40
0.003000
 41
0.003000
  0
VERTEX
  8
PLAN_1
 62
     5
  6
CONTINUOUS
 10
-2.044929
 20
1.405866
  0
VERTEX
  8
PLAN_1
 62
     5
  6
CONTINUOUS
 10
-2.044929
 20
1.414154
  0
SEQEND
  8
0
  0
POLYLINE
  8
PLAN_1
 62
     5
  6
CONTINUOUS
 66
     1
 40
0.003000
 41
0.003000
  0
VERTEX
  8
PLAN_1
 62
     5
  6
CONTINUOUS
 10
-2.044929
 20
1.422441
  0
VERTEX
  8
PLAN_1
 62
     5
  6
CONTINUOUS
 10
-2.044929
 20
1.430728
  0
SEQEND
  8
0
  0
POLYLINE
  8
PLAN_1
 62
     5
  6
CONTINUOUS
 66
     1
 40
0.003000
 41
0.003000
  0
VERTEX
  8
PLAN_1
 62
     5
  6
CONTINUOUS
 10
-2.044929
 20
1.439016
  0
VERTEX
  8
PLAN_1
 62
     5
  6
CONTINUOUS
 10
-2.044929
 20
1.447717
  0
SEQEND
  8
0
  0
POLYLINE
  8
PLAN_1
 62
     5
  6
CONTINUOUS
 66
     1
 40
0.003000
 41
0.003000
  0
VERTEX
  8
PLAN_1
 62
     5
  6
CONTINUOUS
 10
-2.044929
 20
1.456004
  0
VERTEX
  8
PLAN_1
 62
     5
  6
CONTINUOUS
 10
-2.036642
 20
1.456004
  0
SEQEND
  8
0
  0
POLYLINE
  8
PLAN_1
 62
     5
  6
CONTINUOUS
 66
     1
 40
0.003000
 41
0.003000
  0
VERTEX
  8
PLAN_1
 62
     5
  6
CONTINUOUS
 10
-2.028354
 20
1.456004
  0
VERTEX
  8
PLAN_1
 62
     5
  6
CONTINUOUS
 10
-2.020067
 20
1.456004
  0
SEQEND
  8
0
  0
POLYLINE
  8
PLAN_1
 62
     5
  6
CONTINUOUS
 66
     1
 40
0.003000
 41
0.003000
  0
VERTEX
  8
PLAN_1
 62
     5
  6
CONTINUOUS
 10
-2.011780
 20
1.456004
  0
VERTEX
  8
PLAN_1
 62
     5
  6
CONTINUOUS
 10
-2.003492
 20
1.456004
  0
SEQEND
  8
0
  0
POLYLINE
  8
PLAN_1
 62
     5
  6
CONTINUOUS
 66
     1
 40
0.003000
 41
0.003000
  0
VERTEX
  8
PLAN_1
 62
     5
  6
CONTINUOUS
 10
-1.995205
 20
1.456004
  0
VERTEX
  8
PLAN_1
 62
     5
  6
CONTINUOUS
 10
-1.986913
 20
1.456004
  0
SEQEND
  8
0
  0
POLYLINE
  8
PLAN_1
 62
     5
  6
CONTINUOUS
 66
     1
 40
0.003000
 41
0.003000
  0
VERTEX
  8
PLAN_1
 62
     5
  6
CONTINUOUS
 10
-1.978626
 20
1.456004
  0
VERTEX
  8
PLAN_1
 62
     5
  6
CONTINUOUS
 10
-1.969925
 20
1.456004
  0
SEQEND
  8
0
  0
POLYLINE
  8
PLAN_1
 62
     5
  6
CONTINUOUS
 66
     1
 40
0.003000
 41
0.003000
  0
VERTEX
  8
PLAN_1
 62
     5
  6
CONTINUOUS
 10
-1.961638
 20
1.456004
  0
VERTEX
  8
PLAN_1
 62
     5
  6
CONTINUOUS
 10
-1.953350
 20
1.456004
  0
SEQEND
  8
0
  0
POLYLINE
  8
PLAN_1
 62
     5
  6
CONTINUOUS
 66
     1
 40
0.003000
 41
0.003000
  0
VERTEX
  8
PLAN_1
 62
     5
  6
CONTINUOUS
 10
-1.945063
 20
1.456004
  0
VERTEX
  8
PLAN_1
 62
     5
  6
CONTINUOUS
 10
-1.936776
 20
1.456004
  0
SEQEND
  8
0
  0
POLYLINE
  8
PLAN_1
 62
     5
  6
CONTINUOUS
 66
     1
 40
0.003000
 41
0.003000
  0
VERTEX
  8
PLAN_1
 62
     5
  6
CONTINUOUS
 10
-1.928488
 20
1.456004
  0
VERTEX
  8
PLAN_1
 62
     5
  6
CONTINUOUS
 10
-1.920201
 20
1.456004
  0
SEQEND
  8
0
  0
POLYLINE
  8
PLAN_1
 62
     5
  6
CONTINUOUS
 66
     1
 40
0.003000
 41
0.003000
  0
VERTEX
  8
PLAN_1
 62
     5
  6
CONTINUOUS
 10
-1.911913
 20
1.456004
  0
VERTEX
  8
PLAN_1
 62
     5
  6
CONTINUOUS
 10
-1.903626
 20
1.456004
  0
SEQEND
  8
0
  0
POLYLINE
  8
PLAN_1
 62
     5
  6
CONTINUOUS
 66
     1
 40
0.003000
 41
0.003000
  0
VERTEX
  8
PLAN_1
 62
     5
  6
CONTINUOUS
 10
-1.895339
 20
1.456004
  0
VERTEX
  8
PLAN_1
 62
     5
  6
CONTINUOUS
 10
-1.886638
 20
1.456004
  0
SEQEND
  8
0
  0
POLYLINE
  8
PLAN_1
 62
     5
  6
CONTINUOUS
 66
     1
 40
0.003000
 41
0.003000
  0
VERTEX
  8
PLAN_1
 62
     5
  6
CONTINUOUS
 10
-1.878350
 20
1.456004
  0
VERTEX
  8
PLAN_1
 62
     5
  6
CONTINUOUS
 10
-1.870063
 20
1.456004
  0
SEQEND
  8
0
  0
POLYLINE
  8
PLAN_1
 62
     5
  6
CONTINUOUS
 66
     1
 40
0.003000
 41
0.003000
  0
VERTEX
  8
PLAN_1
 62
     5
  6
CONTINUOUS
 10
-1.861772
 20
1.456004
  0
VERTEX
  8
PLAN_1
 62
     5
  6
CONTINUOUS
 10
-1.853484
 20
1.456004
  0
SEQEND
  8
0
  0
POLYLINE
  8
PLAN_1
 62
     5
  6
CONTINUOUS
 66
     1
 40
0.003000
 41
0.003000
  0
VERTEX
  8
PLAN_1
 62
     5
  6
CONTINUOUS
 10
-1.845197
 20
1.456004
  0
VERTEX
  8
PLAN_1
 62
     5
  6
CONTINUOUS
 10
-1.836909
 20
1.456004
  0
SEQEND
  8
0
  0
POLYLINE
  8
PLAN_1
 62
     5
  6
CONTINUOUS
 66
     1
 40
0.003000
 41
0.003000
  0
VERTEX
  8
PLAN_1
 62
     5
  6
CONTINUOUS
 10
-1.828622
 20
1.456004
  0
VERTEX
  8
PLAN_1
 62
     5
  6
CONTINUOUS
 10
-1.820335
 20
1.456004
  0
SEQEND
  8
0
  0
POLYLINE
  8
PLAN_1
 62
     5
  6
CONTINUOUS
 66
     1
 40
0.003000
 41
0.003000
  0
VERTEX
  8
PLAN_1
 62
     5
  6
CONTINUOUS
 10
-1.812047
 20
1.456004
  0
VERTEX
  8
PLAN_1
 62
     5
  6
CONTINUOUS
 10
-1.803346
 20
1.456004
  0
SEQEND
  8
0
  0
POLYLINE
  8
PLAN_1
 62
     5
  6
CONTINUOUS
 66
     1
 40
0.003000
 41
0.003000
  0
VERTEX
  8
PLAN_1
 62
     5
  6
CONTINUOUS
 10
-1.798787
 20
1.459736
  0
VERTEX
  8
PLAN_1
 62
     5
  6
CONTINUOUS
 10
-1.798787
 20
1.468024
  0
SEQEND
  8
0
  0
POLYLINE
  8
PLAN_1
 62
     5
  6
CONTINUOUS
 66
     1
 40
0.003000
 41
0.003000
  0
VERTEX
  8
PLAN_1
 62
     5
  6
CONTINUOUS
 10
-1.798787
 20
1.476311
  0
VERTEX
  8
PLAN_1
 62
     5
  6
CONTINUOUS
 10
-1.798787
 20
1.484598
  0
SEQEND
  8
0
  0
POLYLINE
  8
PLAN_1
 62
     5
  6
CONTINUOUS
 66
     1
 40
0.003000
 41
0.003000
  0
VERTEX
  8
PLAN_1
 62
     5
  6
CONTINUOUS
 10
-1.798787
 20
1.492886
  0
VERTEX
  8
PLAN_1
 62
     5
  6
CONTINUOUS
 10
-1.798787
 20
1.501173
  0
SEQEND
  8
0
  0
POLYLINE
  8
PLAN_1
 62
     5
  6
CONTINUOUS
 66
     1
 40
0.003000
 41
0.003000
  0
VERTEX
  8
PLAN_1
 62
     5
  6
CONTINUOUS
 10
-1.798787
 20
1.509461
  0
VERTEX
  8
PLAN_1
 62
     5
  6
CONTINUOUS
 10
-1.798787
 20
1.517748
  0
SEQEND
  8
0
  0
POLYLINE
  8
PLAN_1
 62
     5
  6
CONTINUOUS
 66
     1
 40
0.003000
 41
0.003000
  0
VERTEX
  8
PLAN_1
 62
     5
  6
CONTINUOUS
 10
-1.798787
 20
1.526035
  0
VERTEX
  8
PLAN_1
 62
     5
  6
CONTINUOUS
 10
-1.798787
 20
1.534323
  0
SEQEND
  8
0
  0
POLYLINE
  8
PLAN_1
 62
     5
  6
CONTINUOUS
 66
     1
 40
0.003000
 41
0.003000
  0
VERTEX
  8
PLAN_1
 62
     5
  6
CONTINUOUS
 10
-1.798787
 20
1.543024
  0
VERTEX
  8
PLAN_1
 62
     5
  6
CONTINUOUS
 10
-1.798787
 20
1.551311
  0
SEQEND
  8
0
  0
POLYLINE
  8
PLAN_1
 62
     5
  6
CONTINUOUS
 66
     1
 40
0.003000
 41
0.003000
  0
VERTEX
  8
PLAN_1
 62
     5
  6
CONTINUOUS
 10
-1.798787
 20
1.559598
  0
VERTEX
  8
PLAN_1
 62
     5
  6
CONTINUOUS
 10
-1.798787
 20
1.567886
  0
SEQEND
  8
0
  0
POLYLINE
  8
PLAN_1
 62
     5
  6
CONTINUOUS
 66
     1
 40
0.003000
 41
0.003000
  0
VERTEX
  8
PLAN_1
 62
     5
  6
CONTINUOUS
 10
-1.798787
 20
1.576173
  0
VERTEX
  8
PLAN_1
 62
     5
  6
CONTINUOUS
 10
-1.798787
 20
1.584461
  0
SEQEND
  8
0
  0
POLYLINE
  8
PLAN_1
 62
     5
  6
CONTINUOUS
 66
     1
 40
0.003000
 41
0.003000
  0
VERTEX
  8
PLAN_1
 62
     5
  6
CONTINUOUS
 10
-1.798787
 20
1.592748
  0
VERTEX
  8
PLAN_1
 62
     5
  6
CONTINUOUS
 10
-1.798787
 20
1.601039
  0
SEQEND
  8
0
  0
POLYLINE
  8
PLAN_1
 62
     5
  6
CONTINUOUS
 66
     1
 40
0.003000
 41
0.003000
  0
VERTEX
  8
PLAN_1
 62
     5
  6
CONTINUOUS
 10
-1.798787
 20
1.609327
  0
VERTEX
  8
PLAN_1
 62
     5
  6
CONTINUOUS
 10
-1.798787
 20
1.617614
  0
SEQEND
  8
0
  0
POLYLINE
  8
PLAN_1
 62
     5
  6
CONTINUOUS
 66
     1
 40
0.003000
 41
0.003000
  0
VERTEX
  8
PLAN_1
 62
     5
  6
CONTINUOUS
 10
-1.798787
 20
1.626315
  0
VERTEX
  8
PLAN_1
 62
     5
  6
CONTINUOUS
 10
-1.798787
 20
1.634602
  0
SEQEND
  8
0
  0
POLYLINE
  8
PLAN_1
 62
     5
  6
CONTINUOUS
 66
     1
 40
0.003000
 41
0.003000
  0
VERTEX
  8
PLAN_1
 62
     5
  6
CONTINUOUS
 10
-1.798787
 20
1.642890
  0
VERTEX
  8
PLAN_1
 62
     5
  6
CONTINUOUS
 10
-1.798787
 20
1.651177
  0
SEQEND
  8
0
  0
POLYLINE
  8
PLAN_1
 62
     5
  6
CONTINUOUS
 66
     1
 40
0.003000
 41
0.003000
  0
VERTEX
  8
PLAN_1
 62
     5
  6
CONTINUOUS
 10
-1.798787
 20
1.659465
  0
VERTEX
  8
PLAN_1
 62
     5
  6
CONTINUOUS
 10
-1.798787
 20
1.667752
  0
SEQEND
  8
0
  0
POLYLINE
  8
PLAN_1
 62
     5
  6
CONTINUOUS
 66
     1
 40
0.003000
 41
0.003000
  0
VERTEX
  8
PLAN_1
 62
     5
  6
CONTINUOUS
 10
-1.798787
 20
1.676039
  0
VERTEX
  8
PLAN_1
 62
     5
  6
CONTINUOUS
 10
-1.798787
 20
1.684327
  0
SEQEND
  8
0
  0
POLYLINE
  8
PLAN_1
 62
     5
  6
CONTINUOUS
 66
     1
 40
0.003000
 41
0.003000
  0
VERTEX
  8
PLAN_1
 62
     5
  6
CONTINUOUS
 10
-1.798787
 20
1.692614
  0
VERTEX
  8
PLAN_1
 62
     5
  6
CONTINUOUS
 10
-1.798787
 20
1.700902
  0
SEQEND
  8
0
  0
POLYLINE
  8
PLAN_1
 62
     5
  6
CONTINUOUS
 66
     1
 40
0.003000
 41
0.003000
  0
VERTEX
  8
PLAN_1
 62
     5
  6
CONTINUOUS
 10
-1.798787
 20
1.709602
  0
VERTEX
  8
PLAN_1
 62
     5
  6
CONTINUOUS
 10
-1.798787
 20
1.717894
  0
SEQEND
  8
0
  0
POLYLINE
  8
PLAN_1
 62
     5
  6
CONTINUOUS
 66
     1
 40
0.003000
 41
0.003000
  0
VERTEX
  8
PLAN_1
 62
     5
  6
CONTINUOUS
 10
-1.798787
 20
1.726181
  0
VERTEX
  8
PLAN_1
 62
     5
  6
CONTINUOUS
 10
-1.798787
 20
1.734469
  0
SEQEND
  8
0
  0
POLYLINE
  8
PLAN_1
 62
     5
  6
CONTINUOUS
 66
     1
 40
0.003000
 41
0.003000
  0
VERTEX
  8
PLAN_1
 62
     5
  6
CONTINUOUS
 10
-1.798787
 20
1.742756
  0
VERTEX
  8
PLAN_1
 62
     5
  6
CONTINUOUS
 10
-1.798787
 20
1.751043
  0
SEQEND
  8
0
  0
POLYLINE
  8
PLAN_1
 62
     5
  6
CONTINUOUS
 66
     1
 40
0.003000
 41
0.003000
  0
VERTEX
  8
PLAN_1
 62
     5
  6
CONTINUOUS
 10
-1.798787
 20
1.759331
  0
VERTEX
  8
PLAN_1
 62
     5
  6
CONTINUOUS
 10
-1.798787
 20
1.767618
  0
SEQEND
  8
0
  0
POLYLINE
  8
PLAN_1
 62
     5
  6
CONTINUOUS
 66
     1
 40
0.003000
 41
0.003000
  0
VERTEX
  8
PLAN_1
 62
     5
  6
CONTINUOUS
 10
-1.798787
 20
1.775906
  0
VERTEX
  8
PLAN_1
 62
     5
  6
CONTINUOUS
 10
-1.798787
 20
1.784193
  0
SEQEND
  8
0
  0
POLYLINE
  8
PLAN_1
 62
     5
  6
CONTINUOUS
 66
     1
 40
0.003000
 41
0.003000
  0
VERTEX
  8
PLAN_1
 62
     5
  6
CONTINUOUS
 10
-1.798787
 20
1.792894
  0
VERTEX
  8
PLAN_1
 62
     5
  6
CONTINUOUS
 10
-1.798787
 20
1.801181
  0
SEQEND
  8
0
  0
POLYLINE
  8
PLAN_1
 62
     5
  6
CONTINUOUS
 66
     1
 40
0.003000
 41
0.003000
  0
VERTEX
  8
PLAN_1
 62
     5
  6
CONTINUOUS
 10
-1.798787
 20
1.809469
  0
VERTEX
  8
PLAN_1
 62
     5
  6
CONTINUOUS
 10
-1.798787
 20
1.817756
  0
SEQEND
  8
0
  0
POLYLINE
  8
PLAN_1
 62
     5
  6
CONTINUOUS
 66
     1
 40
0.003000
 41
0.003000
  0
VERTEX
  8
PLAN_1
 62
     5
  6
CONTINUOUS
 10
-1.799201
 20
1.826043
  0
VERTEX
  8
PLAN_1
 62
     5
  6
CONTINUOUS
 10
-1.799201
 20
1.834331
  0
SEQEND
  8
0
  0
POLYLINE
  8
PLAN_1
 62
     5
  6
CONTINUOUS
 66
     1
 40
0.003000
 41
0.003000
  0
VERTEX
  8
PLAN_1
 62
     5
  6
CONTINUOUS
 10
-1.793402
 20
1.836819
  0
VERTEX
  8
PLAN_1
 62
     5
  6
CONTINUOUS
 10
-1.785114
 20
1.836819
  0
SEQEND
  8
0
  0
POLYLINE
  8
PLAN_1
 62
     5
  6
CONTINUOUS
 66
     1
 40
0.003000
 41
0.003000
  0
VERTEX
  8
PLAN_1
 62
     5
  6
CONTINUOUS
 10
-1.776827
 20
1.836819
  0
VERTEX
  8
PLAN_1
 62
     5
  6
CONTINUOUS
 10
-1.768126
 20
1.836819
  0
SEQEND
  8
0
  0
POLYLINE
  8
PLAN_1
 62
     5
  6
CONTINUOUS
 66
     1
 40
0.003000
 41
0.003000
  0
VERTEX
  8
PLAN_1
 62
     5
  6
CONTINUOUS
 10
-1.759839
 20
1.836819
  0
VERTEX
  8
PLAN_1
 62
     5
  6
CONTINUOUS
 10
-1.751551
 20
1.836819
  0
SEQEND
  8
0
  0
POLYLINE
  8
PLAN_1
 62
     5
  6
CONTINUOUS
 66
     1
 40
0.003000
 41
0.003000
  0
VERTEX
  8
PLAN_1
 62
     5
  6
CONTINUOUS
 10
-1.743260
 20
1.836819
  0
VERTEX
  8
PLAN_1
 62
     5
  6
CONTINUOUS
 10
-1.734972
 20
1.836819
  0
SEQEND
  8
0
  0
POLYLINE
  8
PLAN_1
 62
     5
  6
CONTINUOUS
 66
     1
 40
0.003000
 41
0.003000
  0
VERTEX
  8
PLAN_1
 62
     5
  6
CONTINUOUS
 10
-1.726685
 20
1.836819
  0
VERTEX
  8
PLAN_1
 62
     5
  6
CONTINUOUS
 10
-1.718398
 20
1.836819
  0
SEQEND
  8
0
  0
POLYLINE
  8
PLAN_1
 62
     5
  6
CONTINUOUS
 66
     1
 40
0.003000
 41
0.003000
  0
VERTEX
  8
PLAN_1
 62
     5
  6
CONTINUOUS
 10
-1.710110
 20
1.836819
  0
VERTEX
  8
PLAN_1
 62
     5
  6
CONTINUOUS
 10
-1.701823
 20
1.836819
  0
SEQEND
  8
0
  0
POLYLINE
  8
PLAN_1
 62
     5
  6
CONTINUOUS
 66
     1
 40
0.003000
 41
0.003000
  0
VERTEX
  8
PLAN_1
 62
     5
  6
CONTINUOUS
 10
-1.693535
 20
1.836819
  0
VERTEX
  8
PLAN_1
 62
     5
  6
CONTINUOUS
 10
-1.684835
 20
1.836819
  0
SEQEND
  8
0
  0
POLYLINE
  8
PLAN_1
 62
     5
  6
CONTINUOUS
 66
     1
 40
0.003000
 41
0.003000
  0
VERTEX
  8
PLAN_1
 62
     5
  6
CONTINUOUS
 10
-1.676547
 20
1.836819
  0
VERTEX
  8
PLAN_1
 62
     5
  6
CONTINUOUS
 10
-1.668260
 20
1.836819
  0
SEQEND
  8
0
  0
POLYLINE
  8
PLAN_1
 62
     5
  6
CONTINUOUS
 66
     1
 40
0.003000
 41
0.003000
  0
VERTEX
  8
PLAN_1
 62
     5
  6
CONTINUOUS
 10
-1.659972
 20
1.836819
  0
VERTEX
  8
PLAN_1
 62
     5
  6
CONTINUOUS
 10
-1.651685
 20
1.836819
  0
SEQEND
  8
0
  0
POLYLINE
  8
PLAN_1
 62
     5
  6
CONTINUOUS
 66
     1
 40
0.003000
 41
0.003000
  0
VERTEX
  8
PLAN_1
 62
     5
  6
CONTINUOUS
 10
-1.643398
 20
1.836819
  0
VERTEX
  8
PLAN_1
 62
     5
  6
CONTINUOUS
 10
-1.635110
 20
1.836819
  0
SEQEND
  8
0
  0
POLYLINE
  8
PLAN_1
 62
     5
  6
CONTINUOUS
 66
     1
 40
0.003000
 41
0.003000
  0
VERTEX
  8
PLAN_1
 62
     5
  6
CONTINUOUS
 10
-1.626823
 20
1.836819
  0
VERTEX
  8
PLAN_1
 62
     5
  6
CONTINUOUS
 10
-1.618535
 20
1.836819
  0
SEQEND
  8
0
  0
POLYLINE
  8
PLAN_1
 62
     5
  6
CONTINUOUS
 66
     1
 40
0.003000
 41
0.003000
  0
VERTEX
  8
PLAN_1
 62
     5
  6
CONTINUOUS
 10
-1.610248
 20
1.836819
  0
VERTEX
  8
PLAN_1
 62
     5
  6
CONTINUOUS
 10
-1.601543
 20
1.836819
  0
SEQEND
  8
0
  0
POLYLINE
  8
PLAN_1
 62
     5
  6
CONTINUOUS
 66
     1
 40
0.003000
 41
0.003000
  0
VERTEX
  8
PLAN_1
 62
     5
  6
CONTINUOUS
 10
-1.593256
 20
1.836819
  0
VERTEX
  8
PLAN_1
 62
     5
  6
CONTINUOUS
 10
-1.584969
 20
1.836819
  0
SEQEND
  8
0
  0
POLYLINE
  8
PLAN_1
 62
     5
  6
CONTINUOUS
 66
     1
 40
0.003000
 41
0.003000
  0
VERTEX
  8
PLAN_1
 62
     5
  6
CONTINUOUS
 10
-1.576681
 20
1.836819
  0
VERTEX
  8
PLAN_1
 62
     5
  6
CONTINUOUS
 10
-1.568394
 20
1.836819
  0
SEQEND
  8
0
  0
POLYLINE
  8
PLAN_1
 62
     5
  6
CONTINUOUS
 66
     1
 40
0.003000
 41
0.003000
  0
VERTEX
  8
PLAN_1
 62
     5
  6
CONTINUOUS
 10
-1.560106
 20
1.836819
  0
VERTEX
  8
PLAN_1
 62
     5
  6
CONTINUOUS
 10
-1.551819
 20
1.836819
  0
SEQEND
  8
0
  0
POLYLINE
  8
PLAN_1
 62
     5
  6
CONTINUOUS
 66
     1
 40
0.003000
 41
0.003000
  0
VERTEX
  8
PLAN_1
 62
     5
  6
CONTINUOUS
 10
-1.543531
 20
1.836819
  0
VERTEX
  8
PLAN_1
 62
     5
  6
CONTINUOUS
 10
-1.535244
 20
1.836819
  0
SEQEND
  8
0
  0
POLYLINE
  8
PLAN_1
 62
     5
  6
CONTINUOUS
 66
     1
 40
0.003000
 41
0.003000
  0
VERTEX
  8
PLAN_1
 62
     5
  6
CONTINUOUS
 10
-1.526957
 20
1.836819
  0
VERTEX
  8
PLAN_1
 62
     5
  6
CONTINUOUS
 10
-1.518256
 20
1.836819
  0
SEQEND
  8
0
  0
POLYLINE
  8
PLAN_1
 62
     5
  6
CONTINUOUS
 66
     1
 40
0.003000
 41
0.003000
  0
VERTEX
  8
PLAN_1
 62
     5
  6
CONTINUOUS
 10
-1.509969
 20
1.836819
  0
VERTEX
  8
PLAN_1
 62
     5
  6
CONTINUOUS
 10
-1.501681
 20
1.836819
  0
SEQEND
  8
0
  0
POLYLINE
  8
PLAN_1
 62
     5
  6
CONTINUOUS
 66
     1
 40
0.003000
 41
0.003000
  0
VERTEX
  8
PLAN_1
 62
     5
  6
CONTINUOUS
 10
-1.493394
 20
1.836819
  0
VERTEX
  8
PLAN_1
 62
     5
  6
CONTINUOUS
 10
-1.485106
 20
1.836819
  0
SEQEND
  8
0
  0
POLYLINE
  8
PLAN_1
 62
     5
  6
CONTINUOUS
 66
     1
 40
0.003000
 41
0.003000
  0
VERTEX
  8
PLAN_1
 62
     5
  6
CONTINUOUS
 10
-1.476819
 20
1.836819
  0
VERTEX
  8
PLAN_1
 62
     5
  6
CONTINUOUS
 10
-1.468531
 20
1.836819
  0
SEQEND
  8
0
  0
POLYLINE
  8
PLAN_1
 62
     5
  6
CONTINUOUS
 66
     1
 40
0.003000
 41
0.003000
  0
VERTEX
  8
PLAN_1
 62
     5
  6
CONTINUOUS
 10
-1.460244
 20
1.836819
  0
VERTEX
  8
PLAN_1
 62
     5
  6
CONTINUOUS
 10
-1.451953
 20
1.836819
  0
SEQEND
  8
0
  0
POLYLINE
  8
PLAN_1
 62
     5
  6
CONTINUOUS
 66
     1
 40
0.003000
 41
0.003000
  0
VERTEX
  8
PLAN_1
 62
     5
  6
CONTINUOUS
 10
-1.443665
 20
1.836819
  0
VERTEX
  8
PLAN_1
 62
     5
  6
CONTINUOUS
 10
-1.435378
 20
1.836819
  0
SEQEND
  8
0
  0
POLYLINE
  8
PLAN_1
 62
     5
  6
CONTINUOUS
 66
     1
 40
0.003000
 41
0.003000
  0
VERTEX
  8
PLAN_1
 62
     5
  6
CONTINUOUS
 10
-1.426677
 20
1.836819
  0
VERTEX
  8
PLAN_1
 62
     5
  6
CONTINUOUS
 10
-1.418390
 20
1.836819
  0
SEQEND
  8
0
  0
POLYLINE
  8
PLAN_1
 62
     5
  6
CONTINUOUS
 66
     1
 40
0.003000
 41
0.003000
  0
VERTEX
  8
PLAN_1
 62
     5
  6
CONTINUOUS
 10
-1.410102
 20
1.836819
  0
VERTEX
  8
PLAN_1
 62
     5
  6
CONTINUOUS
 10
-1.401815
 20
1.836819
  0
SEQEND
  8
0
  0
POLYLINE
  8
PLAN_1
 62
     5
  6
CONTINUOUS
 66
     1
 40
0.003000
 41
0.003000
  0
VERTEX
  8
PLAN_1
 62
     5
  6
CONTINUOUS
 10
-1.393528
 20
1.836819
  0
VERTEX
  8
PLAN_1
 62
     5
  6
CONTINUOUS
 10
-1.385240
 20
1.836819
  0
SEQEND
  8
0
  0
POLYLINE
  8
PLAN_1
 62
     5
  6
CONTINUOUS
 66
     1
 40
0.003000
 41
0.003000
  0
VERTEX
  8
PLAN_1
 62
     5
  6
CONTINUOUS
 10
-1.376953
 20
1.836819
  0
VERTEX
  8
PLAN_1
 62
     5
  6
CONTINUOUS
 10
-1.368665
 20
1.836819
  0
SEQEND
  8
0
  0
POLYLINE
  8
PLAN_1
 62
     5
  6
CONTINUOUS
 66
     1
 40
0.003000
 41
0.003000
  0
VERTEX
  8
PLAN_1
 62
     5
  6
CONTINUOUS
 10
-1.360378
 20
1.836819
  0
VERTEX
  8
PLAN_1
 62
     5
  6
CONTINUOUS
 10
-1.352091
 20
1.836819
  0
SEQEND
  8
0
  0
POLYLINE
  8
PLAN_1
 62
     5
  6
CONTINUOUS
 66
     1
 40
0.003000
 41
0.003000
  0
VERTEX
  8
PLAN_1
 62
     5
  6
CONTINUOUS
 10
-1.343390
 20
1.836819
  0
VERTEX
  8
PLAN_1
 62
     5
  6
CONTINUOUS
 10
-1.335098
 20
1.836819
  0
SEQEND
  8
0
  0
POLYLINE
  8
PLAN_1
 62
     5
  6
CONTINUOUS
 66
     1
 40
0.003000
 41
0.003000
  0
VERTEX
  8
PLAN_1
 62
     5
  6
CONTINUOUS
 10
-1.326811
 20
1.836819
  0
VERTEX
  8
PLAN_1
 62
     5
  6
CONTINUOUS
 10
-1.318524
 20
1.836819
  0
SEQEND
  8
0
  0
POLYLINE
  8
PLAN_1
 62
     5
  6
CONTINUOUS
 66
     1
 40
0.003000
 41
0.003000
  0
VERTEX
  8
PLAN_1
 62
     5
  6
CONTINUOUS
 10
-1.310236
 20
1.836819
  0
VERTEX
  8
PLAN_1
 62
     5
  6
CONTINUOUS
 10
-1.301949
 20
1.836819
  0
SEQEND
  8
0
  0
POLYLINE
  8
PLAN_1
 62
     5
  6
CONTINUOUS
 66
     1
 40
0.003000
 41
0.003000
  0
VERTEX
  8
PLAN_1
 62
     5
  6
CONTINUOUS
 10
-1.293661
 20
1.836819
  0
VERTEX
  8
PLAN_1
 62
     5
  6
CONTINUOUS
 10
-1.285374
 20
1.836819
  0
SEQEND
  8
0
  0
POLYLINE
  8
PLAN_1
 62
     5
  6
CONTINUOUS
 66
     1
 40
0.003000
 41
0.003000
  0
VERTEX
  8
PLAN_1
 62
     5
  6
CONTINUOUS
 10
-1.277087
 20
1.836819
  0
VERTEX
  8
PLAN_1
 62
     5
  6
CONTINUOUS
 10
-1.268799
 20
1.836819
  0
SEQEND
  8
0
  0
POLYLINE
  8
PLAN_1
 62
     5
  6
CONTINUOUS
 66
     1
 40
0.003000
 41
0.003000
  0
VERTEX
  8
PLAN_1
 62
     5
  6
CONTINUOUS
 10
-1.260098
 20
1.836819
  0
VERTEX
  8
PLAN_1
 62
     5
  6
CONTINUOUS
 10
-1.251811
 20
1.836819
  0
SEQEND
  8
0
  0
POLYLINE
  8
PLAN_1
 62
     5
  6
CONTINUOUS
 66
     1
 40
0.003000
 41
0.003000
  0
VERTEX
  8
PLAN_1
 62
     5
  6
CONTINUOUS
 10
-1.243524
 20
1.836819
  0
VERTEX
  8
PLAN_1
 62
     5
  6
CONTINUOUS
 10
-1.235236
 20
1.836819
  0
SEQEND
  8
0
  0
POLYLINE
  8
PLAN_1
 62
     5
  6
CONTINUOUS
 66
     1
 40
0.003000
 41
0.003000
  0
VERTEX
  8
PLAN_1
 62
     5
  6
CONTINUOUS
 10
-1.226949
 20
1.836819
  0
VERTEX
  8
PLAN_1
 62
     5
  6
CONTINUOUS
 10
-1.218661
 20
1.836819
  0
SEQEND
  8
0
  0
POLYLINE
  8
PLAN_1
 62
     5
  6
CONTINUOUS
 66
     1
 40
0.003000
 41
0.003000
  0
VERTEX
  8
PLAN_1
 62
     5
  6
CONTINUOUS
 10
-1.210374
 20
1.836819
  0
VERTEX
  8
PLAN_1
 62
     5
  6
CONTINUOUS
 10
-1.202087
 20
1.836819
  0
SEQEND
  8
0
  0
POLYLINE
  8
PLAN_1
 62
     5
  6
CONTINUOUS
 66
     1
 40
0.003000
 41
0.003000
  0
VERTEX
  8
PLAN_1
 62
     5
  6
CONTINUOUS
 10
-1.193799
 20
1.836819
  0
VERTEX
  8
PLAN_1
 62
     5
  6
CONTINUOUS
 10
-1.185512
 20
1.836819
  0
SEQEND
  8
0
  0
POLYLINE
  8
PLAN_1
 62
     5
  6
CONTINUOUS
 66
     1
 40
0.003000
 41
0.003000
  0
VERTEX
  8
PLAN_1
 62
     5
  6
CONTINUOUS
 10
-1.176807
 20
1.836819
  0
VERTEX
  8
PLAN_1
 62
     5
  6
CONTINUOUS
 10
-1.168520
 20
1.836819
  0
SEQEND
  8
0
  0
POLYLINE
  8
PLAN_1
 62
     5
  6
CONTINUOUS
 66
     1
 40
0.003000
 41
0.003000
  0
VERTEX
  8
PLAN_1
 62
     5
  6
CONTINUOUS
 10
-1.160232
 20
1.836819
  0
VERTEX
  8
PLAN_1
 62
     5
  6
CONTINUOUS
 10
-1.151945
 20
1.836819
  0
SEQEND
  8
0
  0
POLYLINE
  8
PLAN_1
 62
     5
  6
CONTINUOUS
 66
     1
 40
0.003000
 41
0.003000
  0
VERTEX
  8
PLAN_1
 62
     5
  6
CONTINUOUS
 10
-1.143657
 20
1.836819
  0
VERTEX
  8
PLAN_1
 62
     5
  6
CONTINUOUS
 10
-1.135370
 20
1.836819
  0
SEQEND
  8
0
  0
POLYLINE
  8
PLAN_1
 62
     5
  6
CONTINUOUS
 66
     1
 40
0.003000
 41
0.003000
  0
VERTEX
  8
PLAN_1
 62
     5
  6
CONTINUOUS
 10
-1.127083
 20
1.836819
  0
VERTEX
  8
PLAN_1
 62
     5
  6
CONTINUOUS
 10
-1.118795
 20
1.836819
  0
SEQEND
  8
0
  0
POLYLINE
  8
PLAN_1
 62
     5
  6
CONTINUOUS
 66
     1
 40
0.003000
 41
0.003000
  0
VERTEX
  8
PLAN_1
 62
     5
  6
CONTINUOUS
 10
-1.110508
 20
1.836819
  0
VERTEX
  8
PLAN_1
 62
     5
  6
CONTINUOUS
 10
-1.102220
 20
1.836819
  0
SEQEND
  8
0
  0
POLYLINE
  8
PLAN_1
 62
     5
  6
CONTINUOUS
 66
     1
 40
0.003000
 41
0.003000
  0
VERTEX
  8
PLAN_1
 62
     5
  6
CONTINUOUS
 10
-1.093520
 20
1.836819
  0
VERTEX
  8
PLAN_1
 62
     5
  6
CONTINUOUS
 10
-1.085232
 20
1.836819
  0
SEQEND
  8
0
  0
POLYLINE
  8
PLAN_1
 62
     5
  6
CONTINUOUS
 66
     1
 40
0.003000
 41
0.003000
  0
VERTEX
  8
PLAN_1
 62
     5
  6
CONTINUOUS
 10
-1.076945
 20
1.836819
  0
VERTEX
  8
PLAN_1
 62
     5
  6
CONTINUOUS
 10
-1.068657
 20
1.836819
  0
SEQEND
  8
0
  0
POLYLINE
  8
PLAN_1
 62
     5
  6
CONTINUOUS
 66
     1
 40
0.003000
 41
0.003000
  0
VERTEX
  8
PLAN_1
 62
     5
  6
CONTINUOUS
 10
-1.060370
 20
1.836819
  0
VERTEX
  8
PLAN_1
 62
     5
  6
CONTINUOUS
 10
-1.052083
 20
1.836819
  0
SEQEND
  8
0
  0
POLYLINE
  8
PLAN_1
 62
     5
  6
CONTINUOUS
 66
     1
 40
0.003000
 41
0.003000
  0
VERTEX
  8
PLAN_1
 62
     5
  6
CONTINUOUS
 10
-1.043795
 20
1.836819
  0
VERTEX
  8
PLAN_1
 62
     5
  6
CONTINUOUS
 10
-1.035504
 20
1.836819
  0
SEQEND
  8
0
  0
POLYLINE
  8
PLAN_1
 62
     5
  6
CONTINUOUS
 66
     1
 40
0.003000
 41
0.003000
  0
VERTEX
  8
PLAN_1
 62
     5
  6
CONTINUOUS
 10
-1.027217
 20
1.836819
  0
VERTEX
  8
PLAN_1
 62
     5
  6
CONTINUOUS
 10
-1.018929
 20
1.836819
  0
SEQEND
  8
0
  0
POLYLINE
  8
PLAN_1
 62
     5
  6
CONTINUOUS
 66
     1
 40
0.003000
 41
0.003000
  0
VERTEX
  8
PLAN_1
 62
     5
  6
CONTINUOUS
 10
-1.010228
 20
1.836819
  0
VERTEX
  8
PLAN_1
 62
     5
  6
CONTINUOUS
 10
-1.001941
 20
1.836819
  0
SEQEND
  8
0
  0
POLYLINE
  8
PLAN_1
 62
     5
  6
CONTINUOUS
 66
     1
 40
0.003000
 41
0.003000
  0
VERTEX
  8
PLAN_1
 62
     5
  6
CONTINUOUS
 10
-0.993654
 20
1.836819
  0
VERTEX
  8
PLAN_1
 62
     5
  6
CONTINUOUS
 10
-0.985366
 20
1.836819
  0
SEQEND
  8
0
  0
POLYLINE
  8
PLAN_1
 62
     5
  6
CONTINUOUS
 66
     1
 40
0.003000
 41
0.003000
  0
VERTEX
  8
PLAN_1
 62
     5
  6
CONTINUOUS
 10
-0.977079
 20
1.836819
  0
VERTEX
  8
PLAN_1
 62
     5
  6
CONTINUOUS
 10
-0.968791
 20
1.836819
  0
SEQEND
  8
0
  0
POLYLINE
  8
PLAN_1
 62
     5
  6
CONTINUOUS
 66
     1
 40
0.003000
 41
0.003000
  0
VERTEX
  8
PLAN_1
 62
     5
  6
CONTINUOUS
 10
-0.960504
 20
1.836819
  0
VERTEX
  8
PLAN_1
 62
     5
  6
CONTINUOUS
 10
-0.952217
 20
1.836819
  0
SEQEND
  8
0
  0
POLYLINE
  8
PLAN_1
 62
     5
  6
CONTINUOUS
 66
     1
 40
0.003000
 41
0.003000
  0
VERTEX
  8
PLAN_1
 62
     5
  6
CONTINUOUS
 10
-0.943929
 20
1.836819
  0
VERTEX
  8
PLAN_1
 62
     5
  6
CONTINUOUS
 10
-0.935642
 20
1.836819
  0
SEQEND
  8
0
  0
POLYLINE
  8
PLAN_1
 62
     5
  6
CONTINUOUS
 66
     1
 40
0.003000
 41
0.003000
  0
VERTEX
  8
PLAN_1
 62
     5
  6
CONTINUOUS
 10
-0.926941
 20
1.836819
  0
VERTEX
  8
PLAN_1
 62
     5
  6
CONTINUOUS
 10
-0.918650
 20
1.836819
  0
SEQEND
  8
0
  0
POLYLINE
  8
PLAN_1
 62
     5
  6
CONTINUOUS
 66
     1
 40
0.003000
 41
0.003000
  0
VERTEX
  8
PLAN_1
 62
     5
  6
CONTINUOUS
 10
-0.910362
 20
1.836819
  0
VERTEX
  8
PLAN_1
 62
     5
  6
CONTINUOUS
 10
-0.902075
 20
1.836819
  0
SEQEND
  8
0
  0
POLYLINE
  8
PLAN_1
 62
     5
  6
CONTINUOUS
 66
     1
 40
0.003000
 41
0.003000
  0
VERTEX
  8
PLAN_1
 62
     5
  6
CONTINUOUS
 10
-0.893787
 20
1.836819
  0
VERTEX
  8
PLAN_1
 62
     5
  6
CONTINUOUS
 10
-0.885500
 20
1.836819
  0
SEQEND
  8
0
  0
POLYLINE
  8
PLAN_1
 62
     5
  6
CONTINUOUS
 66
     1
 40
0.003000
 41
0.003000
  0
VERTEX
  8
PLAN_1
 62
     5
  6
CONTINUOUS
 10
-0.877213
 20
1.836819
  0
VERTEX
  8
PLAN_1
 62
     5
  6
CONTINUOUS
 10
-0.868925
 20
1.836819
  0
SEQEND
  8
0
  0
POLYLINE
  8
PLAN_1
 62
     5
  6
CONTINUOUS
 66
     1
 40
0.003000
 41
0.003000
  0
VERTEX
  8
PLAN_1
 62
     5
  6
CONTINUOUS
 10
-0.860638
 20
1.836819
  0
VERTEX
  8
PLAN_1
 62
     5
  6
CONTINUOUS
 10
-0.852350
 20
1.836819
  0
SEQEND
  8
0
  0
POLYLINE
  8
PLAN_1
 62
     5
  6
CONTINUOUS
 66
     1
 40
0.003000
 41
0.003000
  0
VERTEX
  8
PLAN_1
 62
     5
  6
CONTINUOUS
 10
-0.844063
 20
1.836819
  0
VERTEX
  8
PLAN_1
 62
     5
  6
CONTINUOUS
 10
-0.835362
 20
1.836819
  0
SEQEND
  8
0
  0
POLYLINE
  8
PLAN_1
 62
     5
  6
CONTINUOUS
 66
     1
 40
0.003000
 41
0.003000
  0
VERTEX
  8
PLAN_1
 62
     5
  6
CONTINUOUS
 10
-0.827075
 20
1.836819
  0
VERTEX
  8
PLAN_1
 62
     5
  6
CONTINUOUS
 10
-0.818787
 20
1.836819
  0
SEQEND
  8
0
  0
POLYLINE
  8
PLAN_1
 62
     5
  6
CONTINUOUS
 66
     1
 40
0.003000
 41
0.003000
  0
VERTEX
  8
PLAN_1
 62
     5
  6
CONTINUOUS
 10
-0.810500
 20
1.836819
  0
VERTEX
  8
PLAN_1
 62
     5
  6
CONTINUOUS
 10
-0.802213
 20
1.836819
  0
SEQEND
  8
0
  0
POLYLINE
  8
PLAN_1
 62
     5
  6
CONTINUOUS
 66
     1
 40
0.003000
 41
0.003000
  0
VERTEX
  8
PLAN_1
 62
     5
  6
CONTINUOUS
 10
-0.793925
 20
1.836819
  0
VERTEX
  8
PLAN_1
 62
     5
  6
CONTINUOUS
 10
-0.785638
 20
1.836819
  0
SEQEND
  8
0
  0
POLYLINE
  8
PLAN_1
 62
     5
  6
CONTINUOUS
 66
     1
 40
0.003000
 41
0.003000
  0
VERTEX
  8
PLAN_1
 62
     5
  6
CONTINUOUS
 10
-0.777350
 20
1.836819
  0
VERTEX
  8
PLAN_1
 62
     5
  6
CONTINUOUS
 10
-0.769063
 20
1.836819
  0
SEQEND
  8
0
  0
POLYLINE
  8
PLAN_1
 62
     5
  6
CONTINUOUS
 66
     1
 40
0.003000
 41
0.003000
  0
VERTEX
  8
PLAN_1
 62
     5
  6
CONTINUOUS
 10
-0.760776
 20
1.836819
  0
VERTEX
  8
PLAN_1
 62
     5
  6
CONTINUOUS
 10
-0.752071
 20
1.836819
  0
SEQEND
  8
0
  0
POLYLINE
  8
PLAN_1
 62
     5
  6
CONTINUOUS
 66
     1
 40
0.003000
 41
0.003000
  0
VERTEX
  8
PLAN_1
 62
     5
  6
CONTINUOUS
 10
-0.743783
 20
1.836819
  0
VERTEX
  8
PLAN_1
 62
     5
  6
CONTINUOUS
 10
-0.735496
 20
1.836819
  0
SEQEND
  8
0
  0
POLYLINE
  8
PLAN_1
 62
     5
  6
CONTINUOUS
 66
     1
 40
0.003000
 41
0.003000
  0
VERTEX
  8
PLAN_1
 62
     5
  6
CONTINUOUS
 10
-0.727209
 20
1.836819
  0
VERTEX
  8
PLAN_1
 62
     5
  6
CONTINUOUS
 10
-0.718921
 20
1.836819
  0
SEQEND
  8
0
  0
POLYLINE
  8
PLAN_1
 62
     5
  6
CONTINUOUS
 66
     1
 40
0.003000
 41
0.003000
  0
VERTEX
  8
PLAN_1
 62
     5
  6
CONTINUOUS
 10
-0.710634
 20
1.836819
  0
VERTEX
  8
PLAN_1
 62
     5
  6
CONTINUOUS
 10
-0.702346
 20
1.836819
  0
SEQEND
  8
0
  0
POLYLINE
  8
PLAN_1
 62
     5
  6
CONTINUOUS
 66
     1
 40
0.003000
 41
0.003000
  0
VERTEX
  8
PLAN_1
 62
     5
  6
CONTINUOUS
 10
-0.694059
 20
1.836819
  0
VERTEX
  8
PLAN_1
 62
     5
  6
CONTINUOUS
 10
-0.685772
 20
1.836819
  0
SEQEND
  8
0
  0
POLYLINE
  8
PLAN_1
 62
     5
  6
CONTINUOUS
 66
     1
 40
0.003000
 41
0.003000
  0
VERTEX
  8
PLAN_1
 62
     5
  6
CONTINUOUS
 10
-0.677484
 20
1.836819
  0
VERTEX
  8
PLAN_1
 62
     5
  6
CONTINUOUS
 10
-0.668783
 20
1.836819
  0
SEQEND
  8
0
  0
POLYLINE
  8
PLAN_1
 62
     5
  6
CONTINUOUS
 66
     1
 40
0.003000
 41
0.003000
  0
VERTEX
  8
PLAN_1
 62
     5
  6
CONTINUOUS
 10
-0.660496
 20
1.836819
  0
VERTEX
  8
PLAN_1
 62
     5
  6
CONTINUOUS
 10
-0.652209
 20
1.836819
  0
SEQEND
  8
0
  0
POLYLINE
  8
PLAN_1
 62
     5
  6
CONTINUOUS
 66
     1
 40
0.003000
 41
0.003000
  0
VERTEX
  8
PLAN_1
 62
     5
  6
CONTINUOUS
 10
-0.650134
 20
1.831016
  0
VERTEX
  8
PLAN_1
 62
     5
  6
CONTINUOUS
 10
-0.650134
 20
1.822315
  0
SEQEND
  8
0
  0
POLYLINE
  8
PLAN_1
 62
     5
  6
CONTINUOUS
 66
     1
 40
0.003000
 41
0.003000
  0
VERTEX
  8
PLAN_1
 62
     5
  6
CONTINUOUS
 10
-0.650134
 20
1.814028
  0
VERTEX
  8
PLAN_1
 62
     5
  6
CONTINUOUS
 10
-0.650134
 20
1.805740
  0
SEQEND
  8
0
  0
POLYLINE
  8
PLAN_1
 62
     5
  6
CONTINUOUS
 66
     1
 40
0.003000
 41
0.003000
  0
VERTEX
  8
PLAN_1
 62
     5
  6
CONTINUOUS
 10
-0.650134
 20
1.797453
  0
VERTEX
  8
PLAN_1
 62
     5
  6
CONTINUOUS
 10
-0.650134
 20
1.789165
  0
SEQEND
  8
0
  0
POLYLINE
  8
PLAN_1
 62
     5
  6
CONTINUOUS
 66
     1
 40
0.003000
 41
0.003000
  0
VERTEX
  8
PLAN_1
 62
     5
  6
CONTINUOUS
 10
-0.650134
 20
1.780878
  0
VERTEX
  8
PLAN_1
 62
     5
  6
CONTINUOUS
 10
-0.650134
 20
1.772591
  0
SEQEND
  8
0
  0
POLYLINE
  8
PLAN_1
 62
     5
  6
CONTINUOUS
 66
     1
 40
0.003000
 41
0.003000
  0
VERTEX
  8
PLAN_1
 62
     5
  6
CONTINUOUS
 10
-0.650134
 20
1.764303
  0
VERTEX
  8
PLAN_1
 62
     5
  6
CONTINUOUS
 10
-0.650134
 20
1.756016
  0
SEQEND
  8
0
  0
POLYLINE
  8
PLAN_1
 62
     5
  6
CONTINUOUS
 66
     1
 40
0.003000
 41
0.003000
  0
VERTEX
  8
PLAN_1
 62
     5
  6
CONTINUOUS
 10
-0.650134
 20
1.747728
  0
VERTEX
  8
PLAN_1
 62
     5
  6
CONTINUOUS
 10
-0.650134
 20
1.739024
  0
SEQEND
  8
0
  0
POLYLINE
  8
PLAN_1
 62
     5
  6
CONTINUOUS
 66
     1
 40
0.003000
 41
0.003000
  0
VERTEX
  8
PLAN_1
 62
     5
  6
CONTINUOUS
 10
-0.650134
 20
1.730736
  0
VERTEX
  8
PLAN_1
 62
     5
  6
CONTINUOUS
 10
-0.650134
 20
1.722449
  0
SEQEND
  8
0
  0
POLYLINE
  8
PLAN_1
 62
     5
  6
CONTINUOUS
 66
     1
 40
0.003000
 41
0.003000
  0
VERTEX
  8
PLAN_1
 62
     5
  6
CONTINUOUS
 10
-0.650134
 20
1.714161
  0
VERTEX
  8
PLAN_1
 62
     5
  6
CONTINUOUS
 10
-0.650134
 20
1.705874
  0
SEQEND
  8
0
  0
POLYLINE
  8
PLAN_1
 62
     5
  6
CONTINUOUS
 66
     1
 40
0.003000
 41
0.003000
  0
VERTEX
  8
PLAN_1
 62
     5
  6
CONTINUOUS
 10
-0.650134
 20
1.697587
  0
VERTEX
  8
PLAN_1
 62
     5
  6
CONTINUOUS
 10
-0.650134
 20
1.689299
  0
SEQEND
  8
0
  0
POLYLINE
  8
PLAN_1
 62
     5
  6
CONTINUOUS
 66
     1
 40
0.003000
 41
0.003000
  0
VERTEX
  8
PLAN_1
 62
     5
  6
CONTINUOUS
 10
-0.650134
 20
1.681012
  0
VERTEX
  8
PLAN_1
 62
     5
  6
CONTINUOUS
 10
-0.650134
 20
1.672724
  0
SEQEND
  8
0
  0
POLYLINE
  8
PLAN_1
 62
     5
  6
CONTINUOUS
 66
     1
 40
0.003000
 41
0.003000
  0
VERTEX
  8
PLAN_1
 62
     5
  6
CONTINUOUS
 10
-0.650134
 20
1.664437
  0
VERTEX
  8
PLAN_1
 62
     5
  6
CONTINUOUS
 10
-0.650134
 20
1.655736
  0
SEQEND
  8
0
  0
POLYLINE
  8
PLAN_1
 62
     5
  6
CONTINUOUS
 66
     1
 40
0.003000
 41
0.003000
  0
VERTEX
  8
PLAN_1
 62
     5
  6
CONTINUOUS
 10
-0.650134
 20
1.647449
  0
VERTEX
  8
PLAN_1
 62
     5
  6
CONTINUOUS
 10
-0.650134
 20
1.639161
  0
SEQEND
  8
0
  0
POLYLINE
  8
PLAN_1
 62
     5
  6
CONTINUOUS
 66
     1
 40
0.003000
 41
0.003000
  0
VERTEX
  8
PLAN_1
 62
     5
  6
CONTINUOUS
 10
-0.650134
 20
1.630874
  0
VERTEX
  8
PLAN_1
 62
     5
  6
CONTINUOUS
 10
-0.650134
 20
1.622587
  0
SEQEND
  8
0
  0
POLYLINE
  8
PLAN_1
 62
     5
  6
CONTINUOUS
 66
     1
 40
0.003000
 41
0.003000
  0
VERTEX
  8
PLAN_1
 62
     5
  6
CONTINUOUS
 10
-0.650134
 20
1.614299
  0
VERTEX
  8
PLAN_1
 62
     5
  6
CONTINUOUS
 10
-0.650134
 20
1.606012
  0
SEQEND
  8
0
  0
POLYLINE
  8
PLAN_1
 62
     5
  6
CONTINUOUS
 66
     1
 40
0.003000
 41
0.003000
  0
VERTEX
  8
PLAN_1
 62
     5
  6
CONTINUOUS
 10
-0.650134
 20
1.597724
  0
VERTEX
  8
PLAN_1
 62
     5
  6
CONTINUOUS
 10
-0.650134
 20
1.589433
  0
SEQEND
  8
0
  0
POLYLINE
  8
PLAN_1
 62
     5
  6
CONTINUOUS
 66
     1
 40
0.003000
 41
0.003000
  0
VERTEX
  8
PLAN_1
 62
     5
  6
CONTINUOUS
 10
-0.650134
 20
1.581146
  0
VERTEX
  8
PLAN_1
 62
     5
  6
CONTINUOUS
 10
-0.650134
 20
1.572858
  0
SEQEND
  8
0
  0
POLYLINE
  8
PLAN_1
 62
     5
  6
CONTINUOUS
 66
     1
 40
0.003000
 41
0.003000
  0
VERTEX
  8
PLAN_1
 62
     5
  6
CONTINUOUS
 10
-0.650134
 20
1.564157
  0
VERTEX
  8
PLAN_1
 62
     5
  6
CONTINUOUS
 10
-0.650134
 20
1.555870
  0
SEQEND
  8
0
  0
POLYLINE
  8
PLAN_1
 62
     5
  6
CONTINUOUS
 66
     1
 40
0.003000
 41
0.003000
  0
VERTEX
  8
PLAN_1
 62
     5
  6
CONTINUOUS
 10
-0.650134
 20
1.547583
  0
VERTEX
  8
PLAN_1
 62
     5
  6
CONTINUOUS
 10
-0.650134
 20
1.539295
  0
SEQEND
  8
0
  0
POLYLINE
  8
PLAN_1
 62
     5
  6
CONTINUOUS
 66
     1
 40
0.003000
 41
0.003000
  0
VERTEX
  8
PLAN_1
 62
     5
  6
CONTINUOUS
 10
-0.650134
 20
1.531008
  0
VERTEX
  8
PLAN_1
 62
     5
  6
CONTINUOUS
 10
-0.650134
 20
1.522720
  0
SEQEND
  8
0
  0
POLYLINE
  8
PLAN_1
 62
     5
  6
CONTINUOUS
 66
     1
 40
0.003000
 41
0.003000
  0
VERTEX
  8
PLAN_1
 62
     5
  6
CONTINUOUS
 10
-0.650134
 20
1.514433
  0
VERTEX
  8
PLAN_1
 62
     5
  6
CONTINUOUS
 10
-0.650134
 20
1.506146
  0
SEQEND
  8
0
  0
POLYLINE
  8
PLAN_1
 62
     5
  6
CONTINUOUS
 66
     1
 40
0.003000
 41
0.003000
  0
VERTEX
  8
PLAN_1
 62
     5
  6
CONTINUOUS
 10
-0.650134
 20
1.497858
  0
VERTEX
  8
PLAN_1
 62
     5
  6
CONTINUOUS
 10
-0.650134
 20
1.489571
  0
SEQEND
  8
0
  0
POLYLINE
  8
PLAN_1
 62
     5
  6
CONTINUOUS
 66
     1
 40
0.003000
 41
0.003000
  0
VERTEX
  8
PLAN_1
 62
     5
  6
CONTINUOUS
 10
-0.650134
 20
1.480870
  0
VERTEX
  8
PLAN_1
 62
     5
  6
CONTINUOUS
 10
-0.650134
 20
1.472579
  0
SEQEND
  8
0
  0
POLYLINE
  8
PLAN_1
 62
     5
  6
CONTINUOUS
 66
     1
 40
0.003000
 41
0.003000
  0
VERTEX
  8
PLAN_1
 62
     5
  6
CONTINUOUS
 10
-0.650134
 20
1.464291
  0
VERTEX
  8
PLAN_1
 62
     5
  6
CONTINUOUS
 10
-0.650134
 20
1.456004
  0
SEQEND
  8
0
  0
POLYLINE
  8
PLAN_1
 62
     5
  6
CONTINUOUS
 66
     1
 40
0.003000
 41
0.003000
  0
VERTEX
  8
PLAN_1
 62
     5
  6
CONTINUOUS
 10
-0.650134
 20
1.447717
  0
VERTEX
  8
PLAN_1
 62
     5
  6
CONTINUOUS
 10
-0.650134
 20
1.439429
  0
SEQEND
  8
0
  0
POLYLINE
  8
PLAN_1
 62
     5
  6
CONTINUOUS
 66
     1
 40
0.003000
 41
0.003000
  0
VERTEX
  8
PLAN_1
 62
     5
  6
CONTINUOUS
 10
-0.650134
 20
1.431142
  0
VERTEX
  8
PLAN_1
 62
     5
  6
CONTINUOUS
 10
-0.650134
 20
1.422854
  0
SEQEND
  8
0
  0
POLYLINE
  8
PLAN_1
 62
     5
  6
CONTINUOUS
 66
     1
 40
0.003000
 41
0.003000
  0
VERTEX
  8
PLAN_1
 62
     5
  6
CONTINUOUS
 10
-0.650134
 20
1.414567
  0
VERTEX
  8
PLAN_1
 62
     5
  6
CONTINUOUS
 10
-0.650134
 20
1.406280
  0
SEQEND
  8
0
  0
POLYLINE
  8
PLAN_1
 62
     5
  6
CONTINUOUS
 66
     1
 40
0.003000
 41
0.003000
  0
VERTEX
  8
PLAN_1
 62
     5
  6
CONTINUOUS
 10
-0.650134
 20
1.397579
  0
VERTEX
  8
PLAN_1
 62
     5
  6
CONTINUOUS
 10
-0.650134
 20
1.389291
  0
SEQEND
  8
0
  0
POLYLINE
  8
PLAN_1
 62
     5
  6
CONTINUOUS
 66
     1
 40
0.003000
 41
0.003000
  0
VERTEX
  8
PLAN_1
 62
     5
  6
CONTINUOUS
 10
-0.650134
 20
1.381004
  0
VERTEX
  8
PLAN_1
 62
     5
  6
CONTINUOUS
 10
-0.650134
 20
1.372717
  0
SEQEND
  8
0
  0
POLYLINE
  8
PLAN_1
 62
     5
  6
CONTINUOUS
 66
     1
 40
0.003000
 41
0.003000
  0
VERTEX
  8
PLAN_1
 62
     5
  6
CONTINUOUS
 10
-0.650134
 20
1.364429
  0
VERTEX
  8
PLAN_1
 62
     5
  6
CONTINUOUS
 10
-0.650134
 20
1.356142
  0
SEQEND
  8
0
  0
POLYLINE
  8
PLAN_1
 62
     5
  6
CONTINUOUS
 66
     1
 40
0.003000
 41
0.003000
  0
VERTEX
  8
PLAN_1
 62
     5
  6
CONTINUOUS
 10
-0.650134
 20
1.347854
  0
VERTEX
  8
PLAN_1
 62
     5
  6
CONTINUOUS
 10
-0.650134
 20
1.339567
  0
SEQEND
  8
0
  0
POLYLINE
  8
PLAN_1
 62
     5
  6
CONTINUOUS
 66
     1
 40
0.003000
 41
0.003000
  0
VERTEX
  8
PLAN_1
 62
     5
  6
CONTINUOUS
 10
-0.650134
 20
1.331280
  0
VERTEX
  8
PLAN_1
 62
     5
  6
CONTINUOUS
 10
-0.650134
 20
1.322992
  0
SEQEND
  8
0
  0
POLYLINE
  8
PLAN_1
 62
     5
  6
CONTINUOUS
 66
     1
 40
0.003000
 41
0.003000
  0
VERTEX
  8
PLAN_1
 62
     5
  6
CONTINUOUS
 10
-0.650134
 20
1.314287
  0
VERTEX
  8
PLAN_1
 62
     5
  6
CONTINUOUS
 10
-0.650134
 20
1.306000
  0
SEQEND
  8
0
  0
POLYLINE
  8
PLAN_1
 62
     5
  6
CONTINUOUS
 66
     1
 40
0.003000
 41
0.003000
  0
VERTEX
  8
PLAN_1
 62
     5
  6
CONTINUOUS
 10
-0.650134
 20
1.297713
  0
VERTEX
  8
PLAN_1
 62
     5
  6
CONTINUOUS
 10
-0.650134
 20
1.289425
  0
SEQEND
  8
0
  0
POLYLINE
  8
PLAN_1
 62
     5
  6
CONTINUOUS
 66
     1
 40
0.003000
 41
0.003000
  0
VERTEX
  8
PLAN_1
 62
     5
  6
CONTINUOUS
 10
-0.650134
 20
1.281138
  0
VERTEX
  8
PLAN_1
 62
     5
  6
CONTINUOUS
 10
-0.650134
 20
1.272850
  0
SEQEND
  8
0
  0
POLYLINE
  8
PLAN_1
 62
     5
  6
CONTINUOUS
 66
     1
 40
0.003000
 41
0.003000
  0
VERTEX
  8
PLAN_1
 62
     5
  6
CONTINUOUS
 10
-0.650134
 20
1.264563
  0
VERTEX
  8
PLAN_1
 62
     5
  6
CONTINUOUS
 10
-0.650134
 20
1.256276
  0
SEQEND
  8
0
  0
POLYLINE
  8
PLAN_1
 62
     5
  6
CONTINUOUS
 66
     1
 40
0.003000
 41
0.003000
  0
VERTEX
  8
PLAN_1
 62
     5
  6
CONTINUOUS
 10
-0.650134
 20
1.247988
  0
VERTEX
  8
PLAN_1
 62
     5
  6
CONTINUOUS
 10
-0.650134
 20
1.239701
  0
SEQEND
  8
0
  0
POLYLINE
  8
PLAN_1
 62
     5
  6
CONTINUOUS
 66
     1
 40
0.003000
 41
0.003000
  0
VERTEX
  8
PLAN_1
 62
     5
  6
CONTINUOUS
 10
-0.650134
 20
1.231000
  0
VERTEX
  8
PLAN_1
 62
     5
  6
CONTINUOUS
 10
-0.650134
 20
1.222713
  0
SEQEND
  8
0
  0
POLYLINE
  8
PLAN_1
 62
     5
  6
CONTINUOUS
 66
     1
 40
0.003000
 41
0.003000
  0
VERTEX
  8
PLAN_1
 62
     5
  6
CONTINUOUS
 10
-0.650134
 20
1.214425
  0
VERTEX
  8
PLAN_1
 62
     5
  6
CONTINUOUS
 10
-0.650134
 20
1.206138
  0
SEQEND
  8
0
  0
POLYLINE
  8
PLAN_1
 62
     5
  6
CONTINUOUS
 66
     1
 40
0.003000
 41
0.003000
  0
VERTEX
  8
PLAN_1
 62
     5
  6
CONTINUOUS
 10
-0.650134
 20
1.197850
  0
VERTEX
  8
PLAN_1
 62
     5
  6
CONTINUOUS
 10
-0.650134
 20
1.191220
  0
SEQEND
  8
0
  0
POLYLINE
  8
PLAN_1
 62
     5
  6
CONTINUOUS
 66
     1
 40
0.003000
 41
0.003000
  0
VERTEX
  8
PLAN_1
 62
     5
  6
CONTINUOUS
 10
-0.650134
 20
1.197850
  0
VERTEX
  8
PLAN_1
 62
     5
  6
CONTINUOUS
 10
-0.650134
 20
1.191220
  0
SEQEND
  8
0
  0
POLYLINE
  8
PLAN_1
  6
CONTINUOUS
 66
     1
 40
0.008287
 41
0.008287
  0
VERTEX
  8
PLAN_1
  6
CONTINUOUS
 10
-0.824587
 20
1.790823
  0
VERTEX
  8
PLAN_1
  6
CONTINUOUS
 10
-0.824587
 20
1.836819
  0
VERTEX
  8
PLAN_1
  6
CONTINUOUS
 10
-1.737047
 20
1.836819
  0
VERTEX
  8
PLAN_1
  6
CONTINUOUS
 10
-1.737047
 20
1.790823
  0
VERTEX
  8
PLAN_1
  6
CONTINUOUS
 10
-0.824587
 20
1.790823
  0
SEQEND
  8
0
  0
POLYLINE
  8
PLAN_1
  6
CONTINUOUS
 66
     1
 40
0.008287
 41
0.008287
  0
VERTEX
  8
PLAN_1
  6
CONTINUOUS
 10
-1.682346
 20
1.538051
  0
VERTEX
  8
PLAN_1
  6
CONTINUOUS
 10
-1.645882
 20
1.501173
  0
VERTEX
  8
PLAN_1
  6
CONTINUOUS
 10
-0.912437
 20
1.501173
  0
VERTEX
  8
PLAN_1
  6
CONTINUOUS
 10
-0.875555
 20
1.538051
  0
VERTEX
  8
PLAN_1
  6
CONTINUOUS
 10
-0.875555
 20
1.790823
  0
VERTEX
  8
PLAN_1
  6
CONTINUOUS
 10
-1.682346
 20
1.790823
  0
VERTEX
  8
PLAN_1
  6
CONTINUOUS
 10
-1.682346
 20
1.538051
  0
SEQEND
  8
0
  0
POLYLINE
  8
PLAN_1
  6
CONTINUOUS
 66
     1
 40
0.008287
 41
0.008287
  0
VERTEX
  8
PLAN_1
  6
CONTINUOUS
 10
-1.596988
 20
1.501173
  0
VERTEX
  8
PLAN_1
  6
CONTINUOUS
 10
-1.549335
 20
1.319260
  0
VERTEX
  8
PLAN_1
  6
CONTINUOUS
 10
-1.016031
 20
1.319260
  0
VERTEX
  8
PLAN_1
  6
CONTINUOUS
 10
-0.955945
 20
1.501173
  0
VERTEX
  8
PLAN_1
  6
CONTINUOUS
 10
-1.596988
 20
1.501173
  0
SEQEND
  8
0
  0
POLYLINE
  8
PLAN_1
  6
CONTINUOUS
 66
     1
 40
0.005386
 41
0.005386
  0
VERTEX
  8
PLAN_1
  6
CONTINUOUS
 10
-1.554307
 20
1.498685
  0
VERTEX
  8
PLAN_1
  6
CONTINUOUS
 10
-1.508311
 20
1.319260
  0
SEQEND
  8
0
  0
POLYLINE
  8
PLAN_1
  6
CONTINUOUS
 66
     1
 40
0.005386
 41
0.005386
  0
VERTEX
  8
PLAN_1
  6
CONTINUOUS
 10
-1.523642
 20
1.498685
  0
VERTEX
  8
PLAN_1
  6
CONTINUOUS
 10
-1.477232
 20
1.319260
  0
SEQEND
  8
0
  0
POLYLINE
  8
PLAN_1
  6
CONTINUOUS
 66
     1
 40
0.005386
 41
0.005386
  0
VERTEX
  8
PLAN_1
  6
CONTINUOUS
 10
-1.016031
 20
1.500343
  0
VERTEX
  8
PLAN_1
  6
CONTINUOUS
 10
-1.062028
 20
1.320917
  0
SEQEND
  8
0
  0
POLYLINE
  8
PLAN_1
  6
CONTINUOUS
 66
     1
 40
0.005386
 41
0.005386
  0
VERTEX
  8
PLAN_1
  6
CONTINUOUS
 10
-1.046693
 20
1.500343
  0
VERTEX
  8
PLAN_1
  6
CONTINUOUS
 10
-1.092689
 20
1.320917
  0
SEQEND
  8
0
  0
POLYLINE
  8
PLAN_1
  6
CONTINUOUS
 66
     1
 40
0.008287
 41
0.008287
  0
VERTEX
  8
PLAN_1
  6
CONTINUOUS
 10
-0.919894
 20
2.249122
  0
VERTEX
  8
PLAN_1
  6
CONTINUOUS
 10
-0.919894
 20
2.324126
  0
SEQEND
  8
0
  0
POLYLINE
  8
PLAN_1
  6
CONTINUOUS
 66
     1
 40
0.008287
 41
0.008287
  0
VERTEX
  8
PLAN_1
  6
CONTINUOUS
 10
-0.919894
 20
2.324126
  0
VERTEX
  8
PLAN_1
  6
CONTINUOUS
 10
-0.925283
 20
2.331169
  0
VERTEX
  8
PLAN_1
  6
CONTINUOUS
 10
-0.929839
 20
2.337799
  0
VERTEX
  8
PLAN_1
  6
CONTINUOUS
 10
-0.933984
 20
2.344843
  0
VERTEX
  8
PLAN_1
  6
CONTINUOUS
 10
-0.938126
 20
2.351472
  0
VERTEX
  8
PLAN_1
  6
CONTINUOUS
 10
-0.944756
 20
2.363906
  0
VERTEX
  8
PLAN_1
  6
CONTINUOUS
 10
-0.950559
 20
2.375094
  0
VERTEX
  8
PLAN_1
  6
CONTINUOUS
 10
-0.954701
 20
2.384626
  0
VERTEX
  8
PLAN_1
  6
CONTINUOUS
 10
-0.958016
 20
2.392083
  0
VERTEX
  8
PLAN_1
  6
CONTINUOUS
 10
-0.959673
 20
2.397055
  0
VERTEX
  8
PLAN_1
  6
CONTINUOUS
 10
-0.960091
 20
2.398713
  0
SEQEND
  8
0
  0
POLYLINE
  8
PLAN_1
  6
CONTINUOUS
 66
     1
 40
0.008287
 41
0.008287
  0
VERTEX
  8
PLAN_1
  6
CONTINUOUS
 10
-0.960091
 20
2.398713
  0
VERTEX
  8
PLAN_1
  6
CONTINUOUS
 10
-1.008157
 20
2.782012
  0
VERTEX
  8
PLAN_1
  6
CONTINUOUS
 10
-1.548091
 20
2.782012
  0
VERTEX
  8
PLAN_1
  6
CONTINUOUS
 10
-1.597402
 20
2.400370
  0
SEQEND
  8
0
  0
POLYLINE
  8
PLAN_1
  6
CONTINUOUS
 66
     1
 40
0.008287
 41
0.008287
  0
VERTEX
  8
PLAN_1
  6
CONTINUOUS
 10
-1.597402
 20
2.400370
  0
VERTEX
  8
PLAN_1
  6
CONTINUOUS
 10
-1.598228
 20
2.398713
  0
VERTEX
  8
PLAN_1
  6
CONTINUOUS
 10
-1.599886
 20
2.393740
  0
VERTEX
  8
PLAN_1
  6
CONTINUOUS
 10
-1.602787
 20
2.386697
  0
VERTEX
  8
PLAN_1
  6
CONTINUOUS
 10
-1.606933
 20
2.377165
  0
VERTEX
  8
PLAN_1
  6
CONTINUOUS
 10
-1.612319
 20
2.365563
  0
VERTEX
  8
PLAN_1
  6
CONTINUOUS
 10
-1.618949
 20
2.353130
  0
VERTEX
  8
PLAN_1
  6
CONTINUOUS
 10
-1.622677
 20
2.346500
  0
VERTEX
  8
PLAN_1
  6
CONTINUOUS
 10
-1.627236
 20
2.339457
  0
VERTEX
  8
PLAN_1
  6
CONTINUOUS
 10
-1.631795
 20
2.332827
  0
VERTEX
  8
PLAN_1
  6
CONTINUOUS
 10
-1.636768
 20
2.325783
  0
SEQEND
  8
0
  0
POLYLINE
  8
PLAN_1
  6
CONTINUOUS
 66
     1
 40
0.008287
 41
0.008287
  0
VERTEX
  8
PLAN_1
  6
CONTINUOUS
 10
-1.636768
 20
2.325783
  0
VERTEX
  8
PLAN_1
  6
CONTINUOUS
 10
-1.636768
 20
2.249953
  0
SEQEND
  8
0
  0
POLYLINE
  8
PLAN_1
  6
CONTINUOUS
 66
     1
 40
0.008287
 41
0.008287
  0
VERTEX
  8
PLAN_1
  6
CONTINUOUS
 10
-1.501264
 20
2.190283
  0
VERTEX
  8
PLAN_1
  6
CONTINUOUS
 10
-1.051252
 20
2.190283
  0
SEQEND
  8
0
  0
POLYLINE
  8
PLAN_1
  6
CONTINUOUS
 66
     1
 40
0.008287
 41
0.008287
  0
VERTEX
  8
PLAN_1
  6
CONTINUOUS
 10
-0.754146
 20
1.836819
  0
VERTEX
  8
PLAN_1
  6
CONTINUOUS
 10
-0.754146
 20
2.112791
  0
VERTEX
  8
PLAN_1
  6
CONTINUOUS
 10
-1.801276
 20
2.112791
  0
VERTEX
  8
PLAN_1
  6
CONTINUOUS
 10
-1.801276
 20
1.836819
  0
VERTEX
  8
PLAN_1
  6
CONTINUOUS
 10
-0.754146
 20
1.836819
  0
SEQEND
  8
0
  0
POLYLINE
  8
PLAN_1
  6
CONTINUOUS
 66
     1
 40
0.007043
 41
0.007043
  0
VERTEX
  8
PLAN_1
  6
CONTINUOUS
 10
-1.642984
 20
2.218461
  0
VERTEX
  8
PLAN_1
  6
CONTINUOUS
 10
-1.700583
 20
2.218461
  0
VERTEX
  8
PLAN_1
  6
CONTINUOUS
 10
-1.700583
 20
2.248295
  0
VERTEX
  8
PLAN_1
  6
CONTINUOUS
 10
-1.800858
 20
2.248295
  0
VERTEX
  8
PLAN_1
  6
CONTINUOUS
 10
-1.800858
 20
2.190283
  0
VERTEX
  8
PLAN_1
  6
CONTINUOUS
 10
-1.537732
 20
2.190283
  0
VERTEX
  8
PLAN_1
  6
CONTINUOUS
 10
-1.537732
 20
2.248295
  0
VERTEX
  8
PLAN_1
  6
CONTINUOUS
 10
-1.642984
 20
2.248295
  0
VERTEX
  8
PLAN_1
  6
CONTINUOUS
 10
-1.642984
 20
2.218461
  0
SEQEND
  8
0
  0
POLYLINE
  8
PLAN_1
  6
CONTINUOUS
 66
     1
 40
0.007043
 41
0.007043
  0
VERTEX
  8
PLAN_1
  6
CONTINUOUS
 10
-0.854839
 20
2.218461
  0
VERTEX
  8
PLAN_1
  6
CONTINUOUS
 10
-0.915752
 20
2.218461
  0
VERTEX
  8
PLAN_1
  6
CONTINUOUS
 10
-0.915752
 20
2.248295
  0
VERTEX
  8
PLAN_1
  6
CONTINUOUS
 10
-1.016031
 20
2.248295
  0
VERTEX
  8
PLAN_1
  6
CONTINUOUS
 10
-1.016031
 20
2.190283
  0
VERTEX
  8
PLAN_1
  6
CONTINUOUS
 10
-0.754146
 20
2.190283
  0
VERTEX
  8
PLAN_1
  6
CONTINUOUS
 10
-0.754146
 20
2.248295
  0
VERTEX
  8
PLAN_1
  6
CONTINUOUS
 10
-0.854839
 20
2.248295
  0
VERTEX
  8
PLAN_1
  6
CONTINUOUS
 10
-0.854839
 20
2.218461
  0
SEQEND
  8
0
  0
POLYLINE
  8
PLAN_1
  6
CONTINUOUS
 66
     1
 40
0.008287
 41
0.008287
  0
VERTEX
  8
PLAN_1
  6
CONTINUOUS
 10
-1.501264
 20
2.190283
  0
VERTEX
  8
PLAN_1
  6
CONTINUOUS
 10
-1.801276
 20
2.190283
  0
VERTEX
  8
PLAN_1
  6
CONTINUOUS
 10
-1.801276
 20
2.112791
  0
VERTEX
  8
PLAN_1
  6
CONTINUOUS
 10
-0.754146
 20
2.112791
  0
VERTEX
  8
PLAN_1
  6
CONTINUOUS
 10
-0.754146
 20
2.190283
  0
VERTEX
  8
PLAN_1
  6
CONTINUOUS
 10
-1.051252
 20
2.190283
  0
VERTEX
  8
PLAN_1
  6
CONTINUOUS
 10
-1.051252
 20
2.249122
  0
VERTEX
  8
PLAN_1
  6
CONTINUOUS
 10
-1.501264
 20
2.249122
  0
VERTEX
  8
PLAN_1
  6
CONTINUOUS
 10
-1.501264
 20
2.190283
  0
SEQEND
  8
0
  0
POLYLINE
  8
PLAN_1
  6
CONTINUOUS
 66
     1
 40
0.008287
 41
0.008287
  0
VERTEX
  8
PLAN_1
  6
CONTINUOUS
 10
-1.087717
 20
3.014476
  0
VERTEX
  8
PLAN_1
  6
CONTINUOUS
 10
-1.087717
 20
2.782012
  0
VERTEX
  8
PLAN_1
  6
CONTINUOUS
 10
-1.475161
 20
2.782012
  0
VERTEX
  8
PLAN_1
  6
CONTINUOUS
 10
-1.475161
 20
3.014476
  0
SEQEND
  8
0
  0
POLYLINE
  8
PLAN_1
  6
CONTINUOUS
 66
     1
 40
0.008287
 41
0.008287
  0
VERTEX
  8
PLAN_1
  6
CONTINUOUS
 10
-1.475161
 20
3.014476
  0
VERTEX
  8
PLAN_1
  6
CONTINUOUS
 10
-1.467287
 20
3.018209
  0
VERTEX
  8
PLAN_1
  6
CONTINUOUS
 10
-1.444496
 20
3.027736
  0
VERTEX
  8
PLAN_1
  6
CONTINUOUS
 10
-1.427921
 20
3.033539
  0
VERTEX
  8
PLAN_1
  6
CONTINUOUS
 10
-1.408445
 20
3.039756
  0
VERTEX
  8
PLAN_1
  6
CONTINUOUS
 10
-1.397673
 20
3.042654
  0
VERTEX
  8
PLAN_1
  6
CONTINUOUS
 10
-1.386067
 20
3.045142
  0
VERTEX
  8
PLAN_1
  6
CONTINUOUS
 10
-1.374051
 20
3.048043
  0
VERTEX
  8
PLAN_1
  6
CONTINUOUS
 10
-1.360791
 20
3.050114
  0
VERTEX
  8
PLAN_1
  6
CONTINUOUS
 10
-1.347531
 20
3.052185
  0
VERTEX
  8
PLAN_1
  6
CONTINUOUS
 10
-1.333441
 20
3.054256
  0
VERTEX
  8
PLAN_1
  6
CONTINUOUS
 10
-1.318524
 20
3.055500
  0
VERTEX
  8
PLAN_1
  6
CONTINUOUS
 10
-1.303606
 20
3.056331
  0
VERTEX
  8
PLAN_1
  6
CONTINUOUS
 10
-1.287862
 20
3.056744
  0
VERTEX
  8
PLAN_1
  6
CONTINUOUS
 10
-1.271701
 20
3.056744
  0
VERTEX
  8
PLAN_1
  6
CONTINUOUS
 10
-1.254713
 20
3.055913
  0
VERTEX
  8
PLAN_1
  6
CONTINUOUS
 10
-1.237720
 20
3.054673
  0
VERTEX
  8
PLAN_1
  6
CONTINUOUS
 10
-1.220319
 20
3.052598
  0
VERTEX
  8
PLAN_1
  6
CONTINUOUS
 10
-1.202087
 20
3.050114
  0
VERTEX
  8
PLAN_1
  6
CONTINUOUS
 10
-1.183854
 20
3.046386
  0
VERTEX
  8
PLAN_1
  6
CONTINUOUS
 10
-1.165205
 20
3.041827
  0
VERTEX
  8
PLAN_1
  6
CONTINUOUS
 10
-1.146146
 20
3.036441
  0
VERTEX
  8
PLAN_1
  6
CONTINUOUS
 10
-1.127083
 20
3.030224
  0
VERTEX
  8
PLAN_1
  6
CONTINUOUS
 10
-1.107606
 20
3.022764
  0
VERTEX
  8
PLAN_1
  6
CONTINUOUS
 10
-1.087717
 20
3.014476
  0
SEQEND
  8
0
  0
POLYLINE
  8
PLAN_1
  6
CONTINUOUS
 66
     1
 40
0.005386
 41
0.005386
  0
VERTEX
  8
PLAN_1
  6
CONTINUOUS
 10
-1.472673
 20
3.010748
  0
VERTEX
  8
PLAN_1
  6
CONTINUOUS
 10
-1.093102
 20
3.010748
  0
SEQEND
  8
0
  0
POLYLINE
  8
PLAN_1
  6
CONTINUOUS
 66
     1
 40
0.005386
 41
0.005386
  0
VERTEX
  8
PLAN_1
  6
CONTINUOUS
 10
-1.682346
 20
1.538051
  0
VERTEX
  8
PLAN_1
  6
CONTINUOUS
 10
-0.875555
 20
1.538051
  0
SEQEND
  8
0
  0
POLYLINE
  8
PLAN_1
 62
     2
  6
CONTINUOUS
 66
     1
 40
0.004142
 41
0.004142
  0
VERTEX
  8
PLAN_1
 62
     2
  6
CONTINUOUS
 10
-1.248083
 20
3.215449
  0
VERTEX
  8
PLAN_1
 62
     2
  6
CONTINUOUS
 10
-0.677071
 20
3.215449
  0
SEQEND
  8
0
  0
SOLID
  8
PLAN_1
 62
     2
 10
-0.647650
 20
3.215449
 11
-0.706906
 21
3.231197
 12
-0.647650
 22
3.215449
 13
-0.706906
 23
3.199705
  0
POLYLINE
  8
PLAN_1
 62
     2
  6
CONTINUOUS
 66
     1
 40
0.003000
 41
0.003000
  0
VERTEX
  8
PLAN_1
 62
     2
  6
CONTINUOUS
 10
-0.647650
 20
3.215449
  0
VERTEX
  8
PLAN_1
 62
     2
  6
CONTINUOUS
 10
-0.706906
 20
3.231197
  0
VERTEX
  8
PLAN_1
 62
     2
  6
CONTINUOUS
 10
-0.706906
 20
3.199705
  0
VERTEX
  8
PLAN_1
 62
     2
  6
CONTINUOUS
 10
-0.647650
 20
3.215449
  0
SEQEND
  8
0
  0
SOLID
  8
PLAN_1
 62
     2
 10
-1.277504
 20
3.215449
 11
-1.218661
 21
3.231197
 12
-1.277504
 22
3.215449
 13
-1.218661
 23
3.199705
  0
POLYLINE
  8
PLAN_1
 62
     2
  6
CONTINUOUS
 66
     1
 40
0.003000
 41
0.003000
  0
VERTEX
  8
PLAN_1
 62
     2
  6
CONTINUOUS
 10
-1.277504
 20
3.215449
  0
VERTEX
  8
PLAN_1
 62
     2
  6
CONTINUOUS
 10
-1.218661
 20
3.231197
  0
VERTEX
  8
PLAN_1
 62
     2
  6
CONTINUOUS
 10
-1.218661
 20
3.199705
  0
VERTEX
  8
PLAN_1
 62
     2
  6
CONTINUOUS
 10
-1.277504
 20
3.215449
  0
SEQEND
  8
0
  0
POLYLINE
  8
PLAN_1
 62
     2
  6
CONTINUOUS
 66
     1
 40
0.003000
 41
0.003000
  0
VERTEX
  8
PLAN_1
 62
     2
  6
CONTINUOUS
 10
-0.983295
 20
3.239071
  0
VERTEX
  8
PLAN_1
 62
     2
  6
CONTINUOUS
 10
-0.992827
 20
3.239071
  0
VERTEX
  8
PLAN_1
 62
     2
  6
CONTINUOUS
 10
-0.992827
 20
3.290866
  0
VERTEX
  8
PLAN_1
 62
     2
  6
CONTINUOUS
 10
-1.010228
 20
3.290866
  0
VERTEX
  8
PLAN_1
 62
     2
  6
CONTINUOUS
 10
-1.010228
 20
3.297909
  0
VERTEX
  8
PLAN_1
 62
     2
  6
CONTINUOUS
 10
-1.006087
 20
3.298327
  0
VERTEX
  8
PLAN_1
 62
     2
  6
CONTINUOUS
 10
-1.002354
 20
3.298740
  0
VERTEX
  8
PLAN_1
 62
     2
  6
CONTINUOUS
 10
-0.999457
 20
3.299567
  0
VERTEX
  8
PLAN_1
 62
     2
  6
CONTINUOUS
 10
-0.996969
 20
3.300811
  0
VERTEX
  8
PLAN_1
 62
     2
  6
CONTINUOUS
 10
-0.994898
 20
3.302469
  0
VERTEX
  8
PLAN_1
 62
     2
  6
CONTINUOUS
 10
-0.992827
 20
3.304957
  0
VERTEX
  8
PLAN_1
 62
     2
  6
CONTINUOUS
 10
-0.991583
 20
3.307854
  0
VERTEX
  8
PLAN_1
 62
     2
  6
CONTINUOUS
 10
-0.990339
 20
3.312000
  0
VERTEX
  8
PLAN_1
 62
     2
  6
CONTINUOUS
 10
-0.983295
 20
3.312000
  0
VERTEX
  8
PLAN_1
 62
     2
  6
CONTINUOUS
 10
-0.983295
 20
3.239071
  0
SEQEND
  8
0
  0
POLYLINE
  8
PLAN_1
 62
     2
  6
CONTINUOUS
 66
     1
 40
0.003000
 41
0.003000
  0
VERTEX
  8
PLAN_1
 62
     2
  6
CONTINUOUS
 10
-0.919480
 20
3.292524
  0
VERTEX
  8
PLAN_1
 62
     2
  6
CONTINUOUS
 10
-0.919894
 20
3.295012
  0
VERTEX
  8
PLAN_1
 62
     2
  6
CONTINUOUS
 10
-0.920724
 20
3.297083
  0
VERTEX
  8
PLAN_1
 62
     2
  6
CONTINUOUS
 10
-0.921551
 20
3.298740
  0
VERTEX
  8
PLAN_1
 62
     2
  6
CONTINUOUS
 10
-0.923209
 20
3.300398
  0
VERTEX
  8
PLAN_1
 62
     2
  6
CONTINUOUS
 10
-0.924866
 20
3.302055
  0
VERTEX
  8
PLAN_1
 62
     2
  6
CONTINUOUS
 10
-0.926941
 20
3.302882
  0
VERTEX
  8
PLAN_1
 62
     2
  6
CONTINUOUS
 10
-0.929012
 20
3.303713
  0
VERTEX
  8
PLAN_1
 62
     2
  6
CONTINUOUS
 10
-0.931913
 20
3.303713
  0
VERTEX
  8
PLAN_1
 62
     2
  6
CONTINUOUS
 10
-0.934398
 20
3.303713
  0
VERTEX
  8
PLAN_1
 62
     2
  6
CONTINUOUS
 10
-0.936886
 20
3.302882
  0
VERTEX
  8
PLAN_1
 62
     2
  6
CONTINUOUS
 10
-0.938957
 20
3.302055
  0
VERTEX
  8
PLAN_1
 62
     2
  6
CONTINUOUS
 10
-0.940614
 20
3.300811
  0
VERTEX
  8
PLAN_1
 62
     2
  6
CONTINUOUS
 10
-0.942272
 20
3.299154
  0
VERTEX
  8
PLAN_1
 62
     2
  6
CONTINUOUS
 10
-0.943516
 20
3.297083
  0
VERTEX
  8
PLAN_1
 62
     2
  6
CONTINUOUS
 10
-0.944756
 20
3.295425
  0
VERTEX
  8
PLAN_1
 62
     2
  6
CONTINUOUS
 10
-0.946000
 20
3.292937
  0
VERTEX
  8
PLAN_1
 62
     2
  6
CONTINUOUS
 10
-0.947657
 20
3.288795
  0
VERTEX
  8
PLAN_1
 62
     2
  6
CONTINUOUS
 10
-0.948488
 20
3.284236
  0
VERTEX
  8
PLAN_1
 62
     2
  6
CONTINUOUS
 10
-0.948902
 20
3.280094
  0
VERTEX
  8
PLAN_1
 62
     2
  6
CONTINUOUS
 10
-0.949315
 20
3.276780
  0
VERTEX
  8
PLAN_1
 62
     2
  6
CONTINUOUS
 10
-0.948902
 20
3.276362
  0
VERTEX
  8
PLAN_1
 62
     2
  6
CONTINUOUS
 10
-0.948071
 20
3.278020
  0
VERTEX
  8
PLAN_1
 62
     2
  6
CONTINUOUS
 10
-0.946831
 20
3.279677
  0
VERTEX
  8
PLAN_1
 62
     2
  6
CONTINUOUS
 10
-0.945173
 20
3.280921
  0
VERTEX
  8
PLAN_1
 62
     2
  6
CONTINUOUS
 10
-0.943098
 20
3.282579
  0
VERTEX
  8
PLAN_1
 62
     2
  6
CONTINUOUS
 10
-0.941028
 20
3.283823
  0
VERTEX
  8
PLAN_1
 62
     2
  6
CONTINUOUS
 10
-0.938126
 20
3.284650
  0
VERTEX
  8
PLAN_1
 62
     2
  6
CONTINUOUS
 10
-0.935228
 20
3.285067
  0
VERTEX
  8
PLAN_1
 62
     2
  6
CONTINUOUS
 10
-0.931496
 20
3.285480
  0
VERTEX
  8
PLAN_1
 62
     2
  6
CONTINUOUS
 10
-0.928181
 20
3.285067
  0
VERTEX
  8
PLAN_1
 62
     2
  6
CONTINUOUS
 10
-0.924453
 20
3.284236
  0
VERTEX
  8
PLAN_1
 62
     2
  6
CONTINUOUS
 10
-0.920307
 20
3.282579
  0
VERTEX
  8
PLAN_1
 62
     2
  6
CONTINUOUS
 10
-0.916992
 20
3.280508
  0
VERTEX
  8
PLAN_1
 62
     2
  6
CONTINUOUS
 10
-0.915335
 20
3.278850
  0
VERTEX
  8
PLAN_1
 62
     2
  6
CONTINUOUS
 10
-0.913677
 20
3.277193
  0
VERTEX
  8
PLAN_1
 62
     2
  6
CONTINUOUS
 10
-0.912437
 20
3.275535
  0
VERTEX
  8
PLAN_1
 62
     2
  6
CONTINUOUS
 10
-0.911193
 20
3.273465
  0
VERTEX
  8
PLAN_1
 62
     2
  6
CONTINUOUS
 10
-0.909949
 20
3.270976
  0
VERTEX
  8
PLAN_1
 62
     2
  6
CONTINUOUS
 10
-0.909535
 20
3.268492
  0
VERTEX
  8
PLAN_1
 62
     2
  6
CONTINUOUS
 10
-0.909122
 20
3.265591
  0
VERTEX
  8
PLAN_1
 62
     2
  6
CONTINUOUS
 10
-0.908705
 20
3.262276
  0
VERTEX
  8
PLAN_1
 62
     2
  6
CONTINUOUS
 10
-0.908705
 20
3.259374
  0
VERTEX
  8
PLAN_1
 62
     2
  6
CONTINUOUS
 10
-0.909122
 20
3.256890
  0
VERTEX
  8
PLAN_1
 62
     2
  6
CONTINUOUS
 10
-0.909535
 20
3.254815
  0
VERTEX
  8
PLAN_1
 62
     2
  6
CONTINUOUS
 10
-0.910362
 20
3.252331
  0
VERTEX
  8
PLAN_1
 62
     2
  6
CONTINUOUS
 10
-0.911193
 20
3.250256
  0
VERTEX
  8
PLAN_1
 62
     2
  6
CONTINUOUS
 10
-0.912437
 20
3.248185
  0
VERTEX
  8
PLAN_1
 62
     2
  6
CONTINUOUS
 10
-0.914094
 20
3.246114
  0
VERTEX
  8
PLAN_1
 62
     2
  6
CONTINUOUS
 10
-0.915752
 20
3.244043
  0
VERTEX
  8
PLAN_1
 62
     2
  6
CONTINUOUS
 10
-0.917409
 20
3.242386
  0
VERTEX
  8
PLAN_1
 62
     2
  6
CONTINUOUS
 10
-0.918650
 20
3.241142
  0
VERTEX
  8
PLAN_1
 62
     2
  6
CONTINUOUS
 10
-0.920724
 20
3.239898
  0
VERTEX
  8
PLAN_1
 62
     2
  6
CONTINUOUS
 10
-0.922795
 20
3.238654
  0
VERTEX
  8
PLAN_1
 62
     2
  6
CONTINUOUS
 10
-0.924866
 20
3.237827
  0
VERTEX
  8
PLAN_1
 62
     2
  6
CONTINUOUS
 10
-0.927768
 20
3.237413
  0
VERTEX
  8
PLAN_1
 62
     2
  6
CONTINUOUS
 10
-0.930669
 20
3.236996
  0
VERTEX
  8
PLAN_1
 62
     2
  6
CONTINUOUS
 10
-0.934398
 20
3.236996
  0
VERTEX
  8
PLAN_1
 62
     2
  6
CONTINUOUS
 10
-0.936469
 20
3.236996
  0
VERTEX
  8
PLAN_1
 62
     2
  6
CONTINUOUS
 10
-0.938957
 20
3.237413
  0
VERTEX
  8
PLAN_1
 62
     2
  6
CONTINUOUS
 10
-0.941441
 20
3.238240
  0
VERTEX
  8
PLAN_1
 62
     2
  6
CONTINUOUS
 10
-0.943929
 20
3.239071
  0
VERTEX
  8
PLAN_1
 62
     2
  6
CONTINUOUS
 10
-0.946413
 20
3.240728
  0
VERTEX
  8
PLAN_1
 62
     2
  6
CONTINUOUS
 10
-0.948902
 20
3.242386
  0
VERTEX
  8
PLAN_1
 62
     2
  6
CONTINUOUS
 10
-0.950972
 20
3.244870
  0
VERTEX
  8
PLAN_1
 62
     2
  6
CONTINUOUS
 10
-0.953043
 20
3.247358
  0
VERTEX
  8
PLAN_1
 62
     2
  6
CONTINUOUS
 10
-0.954701
 20
3.250256
  0
VERTEX
  8
PLAN_1
 62
     2
  6
CONTINUOUS
 10
-0.955945
 20
3.253157
  0
VERTEX
  8
PLAN_1
 62
     2
  6
CONTINUOUS
 10
-0.956776
 20
3.256059
  0
VERTEX
  8
PLAN_1
 62
     2
  6
CONTINUOUS
 10
-0.957602
 20
3.259374
  0
VERTEX
  8
PLAN_1
 62
     2
  6
CONTINUOUS
 10
-0.958016
 20
3.262276
  0
VERTEX
  8
PLAN_1
 62
     2
  6
CONTINUOUS
 10
-0.958433
 20
3.266004
  0
VERTEX
  8
PLAN_1
 62
     2
  6
CONTINUOUS
 10
-0.958846
 20
3.269319
  0
VERTEX
  8
PLAN_1
 62
     2
  6
CONTINUOUS
 10
-0.958846
 20
3.273047
  0
VERTEX
  8
PLAN_1
 62
     2
  6
CONTINUOUS
 10
-0.958433
 20
3.279264
  0
VERTEX
  8
PLAN_1
 62
     2
  6
CONTINUOUS
 10
-0.957602
 20
3.285894
  0
VERTEX
  8
PLAN_1
 62
     2
  6
CONTINUOUS
 10
-0.956776
 20
3.289209
  0
VERTEX
  8
PLAN_1
 62
     2
  6
CONTINUOUS
 10
-0.955945
 20
3.292110
  0
VERTEX
  8
PLAN_1
 62
     2
  6
CONTINUOUS
 10
-0.954701
 20
3.295425
  0
VERTEX
  8
PLAN_1
 62
     2
  6
CONTINUOUS
 10
-0.953461
 20
3.298327
  0
VERTEX
  8
PLAN_1
 62
     2
  6
CONTINUOUS
 10
-0.951803
 20
3.301224
  0
VERTEX
  8
PLAN_1
 62
     2
  6
CONTINUOUS
 10
-0.949728
 20
3.303713
  0
VERTEX
  8
PLAN_1
 62
     2
  6
CONTINUOUS
 10
-0.947657
 20
3.306197
  0
VERTEX
  8
PLAN_1
 62
     2
  6
CONTINUOUS
 10
-0.945173
 20
3.308272
  0
VERTEX
  8
PLAN_1
 62
     2
  6
CONTINUOUS
 10
-0.942272
 20
3.309929
  0
VERTEX
  8
PLAN_1
 62
     2
  6
CONTINUOUS
 10
-0.938957
 20
3.311169
  0
VERTEX
  8
PLAN_1
 62
     2
  6
CONTINUOUS
 10
-0.935642
 20
3.311587
  0
VERTEX
  8
PLAN_1
 62
     2
  6
CONTINUOUS
 10
-0.931496
 20
3.312000
  0
VERTEX
  8
PLAN_1
 62
     2
  6
CONTINUOUS
 10
-0.928181
 20
3.311587
  0
VERTEX
  8
PLAN_1
 62
     2
  6
CONTINUOUS
 10
-0.924866
 20
3.311169
  0
VERTEX
  8
PLAN_1
 62
     2
  6
CONTINUOUS
 10
-0.921551
 20
3.309929
  0
VERTEX
  8
PLAN_1
 62
     2
  6
CONTINUOUS
 10
-0.918236
 20
3.307854
  0
VERTEX
  8
PLAN_1
 62
     2
  6
CONTINUOUS
 10
-0.916579
 20
3.306614
  0
VERTEX
  8
PLAN_1
 62
     2
  6
CONTINUOUS
 10
-0.915335
 20
3.305370
  0
VERTEX
  8
PLAN_1
 62
     2
  6
CONTINUOUS
 10
-0.914094
 20
3.303713
  0
VERTEX
  8
PLAN_1
 62
     2
  6
CONTINUOUS
 10
-0.912850
 20
3.302055
  0
VERTEX
  8
PLAN_1
 62
     2
  6
CONTINUOUS
 10
-0.912020
 20
3.299984
  0
VERTEX
  8
PLAN_1
 62
     2
  6
CONTINUOUS
 10
-0.911193
 20
3.297496
  0
VERTEX
  8
PLAN_1
 62
     2
  6
CONTINUOUS
 10
-0.910780
 20
3.295012
  0
VERTEX
  8
PLAN_1
 62
     2
  6
CONTINUOUS
 10
-0.910362
 20
3.292524
  0
VERTEX
  8
PLAN_1
 62
     2
  6
CONTINUOUS
 10
-0.919480
 20
3.292524
  0
SEQEND
  8
0
  0
POLYLINE
  8
PLAN_1
 62
     2
  6
CONTINUOUS
 66
     1
 40
0.003000
 41
0.003000
  0
VERTEX
  8
PLAN_1
 62
     2
  6
CONTINUOUS
 10
-0.932740
 20
3.245283
  0
VERTEX
  8
PLAN_1
 62
     2
  6
CONTINUOUS
 10
-0.929425
 20
3.245283
  0
VERTEX
  8
PLAN_1
 62
     2
  6
CONTINUOUS
 10
-0.926524
 20
3.246528
  0
VERTEX
  8
PLAN_1
 62
     2
  6
CONTINUOUS
 10
-0.924039
 20
3.247772
  0
VERTEX
  8
PLAN_1
 62
     2
  6
CONTINUOUS
 10
-0.921969
 20
3.249843
  0
VERTEX
  8
PLAN_1
 62
     2
  6
CONTINUOUS
 10
-0.920307
 20
3.252331
  0
VERTEX
  8
PLAN_1
 62
     2
  6
CONTINUOUS
 10
-0.919067
 20
3.255232
  0
VERTEX
  8
PLAN_1
 62
     2
  6
CONTINUOUS
 10
-0.918650
 20
3.258130
  0
VERTEX
  8
PLAN_1
 62
     2
  6
CONTINUOUS
 10
-0.918236
 20
3.261862
  0
VERTEX
  8
PLAN_1
 62
     2
  6
CONTINUOUS
 10
-0.918236
 20
3.264346
  0
VERTEX
  8
PLAN_1
 62
     2
  6
CONTINUOUS
 10
-0.919067
 20
3.266835
  0
VERTEX
  8
PLAN_1
 62
     2
  6
CONTINUOUS
 10
-0.919894
 20
3.269732
  0
VERTEX
  8
PLAN_1
 62
     2
  6
CONTINUOUS
 10
-0.921551
 20
3.271807
  0
VERTEX
  8
PLAN_1
 62
     2
  6
CONTINUOUS
 10
-0.923209
 20
3.273878
  0
VERTEX
  8
PLAN_1
 62
     2
  6
CONTINUOUS
 10
-0.926110
 20
3.275949
  0
VERTEX
  8
PLAN_1
 62
     2
  6
CONTINUOUS
 10
-0.929012
 20
3.276780
  0
VERTEX
  8
PLAN_1
 62
     2
  6
CONTINUOUS
 10
-0.933154
 20
3.277193
  0
VERTEX
  8
PLAN_1
 62
     2
  6
CONTINUOUS
 10
-0.936469
 20
3.276780
  0
VERTEX
  8
PLAN_1
 62
     2
  6
CONTINUOUS
 10
-0.939783
 20
3.275949
  0
VERTEX
  8
PLAN_1
 62
     2
  6
CONTINUOUS
 10
-0.942272
 20
3.274291
  0
VERTEX
  8
PLAN_1
 62
     2
  6
CONTINUOUS
 10
-0.944343
 20
3.272634
  0
VERTEX
  8
PLAN_1
 62
     2
  6
CONTINUOUS
 10
-0.946000
 20
3.270150
  0
VERTEX
  8
PLAN_1
 62
     2
  6
CONTINUOUS
 10
-0.947244
 20
3.267661
  0
VERTEX
  8
PLAN_1
 62
     2
  6
CONTINUOUS
 10
-0.947657
 20
3.264346
  0
VERTEX
  8
PLAN_1
 62
     2
  6
CONTINUOUS
 10
-0.948071
 20
3.261445
  0
VERTEX
  8
PLAN_1
 62
     2
  6
CONTINUOUS
 10
-0.947657
 20
3.258547
  0
VERTEX
  8
PLAN_1
 62
     2
  6
CONTINUOUS
 10
-0.947244
 20
3.255646
  0
VERTEX
  8
PLAN_1
 62
     2
  6
CONTINUOUS
 10
-0.946000
 20
3.252744
  0
VERTEX
  8
PLAN_1
 62
     2
  6
CONTINUOUS
 10
-0.944343
 20
3.250256
  0
VERTEX
  8
PLAN_1
 62
     2
  6
CONTINUOUS
 10
-0.942272
 20
3.248185
  0
VERTEX
  8
PLAN_1
 62
     2
  6
CONTINUOUS
 10
-0.939370
 20
3.246528
  0
VERTEX
  8
PLAN_1
 62
     2
  6
CONTINUOUS
 10
-0.936469
 20
3.245283
  0
VERTEX
  8
PLAN_1
 62
     2
  6
CONTINUOUS
 10
-0.932740
 20
3.245283
  0
SEQEND
  8
0
  0
POLYLINE
  8
PLAN_1
 62
     2
  6
CONTINUOUS
 66
     1
 40
0.004142
 41
0.004142
  0
VERTEX
  8
PLAN_1
 62
     2
  6
CONTINUOUS
 10
-1.279161
 20
3.081193
  0
VERTEX
  8
PLAN_1
 62
     2
  6
CONTINUOUS
 10
-1.279161
 20
3.239071
  0
SEQEND
  8
0
  0
POLYLINE
  8
PLAN_1
 62
     2
  6
CONTINUOUS
 66
     1
 40
0.004142
 41
0.004142
  0
VERTEX
  8
PLAN_1
 62
     2
  6
CONTINUOUS
 10
-0.650134
 20
1.860437
  0
VERTEX
  8
PLAN_1
 62
     2
  6
CONTINUOUS
 10
-0.650134
 20
3.239071
  0
SEQEND
  8
0
  0
ENDSEC
  0
EOF
