  0
SECTION
  2
HEADER
  9
$ACADVER
  1
AC1006
  9
$EXTMIN
 10
-1.939327
 20
-3.474969
  9
$EXTMAX
 10
1.941000
 20
3.474000
  9
$LTSCALE
 40
0.000394
  9
$PDMODE
 70
    35
  9
$PDSIZE
 40
0.000315
  0
ENDSEC
  0
SECTION
  2
TABLES
  0
TABLE
  2
LTYPE
 70
     9
  0
LTYPE
  2
CONTINUOUS
 70
    64
  3
Solid line
 72
    65
 73
     0
 40
0.000000
  0
LTYPE
  2
DASHED
 70
    64
  3
__ __ __ __ __ __ __ __ __ __ __ __ __ __ __
 72
    65
 73
     2
 40
0.000003
 49
0.000002
 49
-0.000001
  0
LTYPE
  2
HIDDEN
 70
    64
  3
 _ _ _ _ _ _ _ _ _ _ _ _ _ _ _ _ _ _ _ _ _ _
 72
    65
 73
     2
 40
0.000001
 49
0.000001
 49
-0.000000
  0
LTYPE
  2
CENTER
 70
    64
  3
____ _ ____ _ ____ _ ____ _ ____ _ ____ _ ____
 72
    65
 73
     4
 40
0.000008
 49
0.000005
 49
-0.000001
 49
0.000001
 49
-0.000001
  0
LTYPE
  2
PHANTOM
 70
    64
  3
_____ _ _ _____ _ _ _____ _ _ _____ _ _ ____
 72
    65
 73
     6
 40
0.000010
 49
0.000005
 49
-0.000001
 49
0.000001
 49
-0.000001
 49
0.000001
 49
-0.000001
  0
LTYPE
  2
DOT
 70
    64
  3
...............................................
 72
    65
 73
     2
 40
0.000001
 49
0.000000
 49
-0.000001
  0
LTYPE
  2
DASHDOT
 70
    64
  3
__ . __ . __ . __ . __ . __ . __ . __ . __ . __
 72
    65
 73
     4
 40
0.000004
 49
0.000002
 49
-0.000001
 49
0.000000
 49
-0.000001
  0
LTYPE
  2
BORDER
 70
    64
  3
__ __ . __ __ . __ __ . __ __ . __ __ . __ __
 72
    65
 73
     6
 40
0.000007
 49
0.000002
 49
-0.000001
 49
0.000002
 49
-0.000001
 49
0.000000
 49
-0.000001
  0
LTYPE
  2
DIVIDE
 70
    64
  3
__ . . __ . . __ . . __ . . __ . . __ . . __
 72
    65
 73
     6
 40
0.000005
 49
0.000002
 49
-0.000001
 49
0.000000
 49
-0.000001
 49
0.000000
 49
-0.000001
  0
LTYPE
  2
DOTDOT
 70
    64
  3
 . .  . .  . .  . .  . .  . . 
 72
    65
 73
     5
 40
0.000002
 49
-0.000001
 49
0.000000
 49
-0.000001
 49
0.000000
 49
-0.000001
  0
ENDTAB
  0
TABLE
  2
STYLE
 70
     0
  0
ENDTAB
  0
TABLE
  2
LAYER
 70
     3
  0
LAYER
  2
FOREGROUND
 70
    64
 62
     7
  6
CONTINUOUS
  0
LAYER
  2
BACKGROUND
 70
    65
 62
    -7
  6
CONTINUOUS
  0
LAYER
  2
PLAN_1
 70
    64
 62
     7
  6
CONTINUOUS
  0
ENDTAB
  0
ENDSEC
  0
SECTION
  2
ENTITIES
  0
POLYLINE
  8
PLAN_1
  6
CONTINUOUS
 66
     1
 40
0.003000
 41
0.003000
  0
VERTEX
  8
PLAN_1
  6
CONTINUOUS
 10
0.080846
 20
-3.469760
  0
VERTEX
  8
PLAN_1
  6
CONTINUOUS
 10
-0.075937
 20
-3.469760
  0
VERTEX
  8
PLAN_1
  6
CONTINUOUS
 10
-0.075937
 20
-3.447173
  0
VERTEX
  8
PLAN_1
  6
CONTINUOUS
 10
0.046102
 20
-3.294295
  0
VERTEX
  8
PLAN_1
  6
CONTINUOUS
 10
-0.066819
 20
-3.294295
  0
VERTEX
  8
PLAN_1
  6
CONTINUOUS
 10
-0.066819
 20
-3.270409
  0
VERTEX
  8
PLAN_1
  6
CONTINUOUS
 10
0.080846
 20
-3.270409
  0
VERTEX
  8
PLAN_1
  6
CONTINUOUS
 10
0.080846
 20
-3.293862
  0
VERTEX
  8
PLAN_1
  6
CONTINUOUS
 10
-0.042063
 20
-3.445870
  0
VERTEX
  8
PLAN_1
  6
CONTINUOUS
 10
0.080846
 20
-3.445870
  0
VERTEX
  8
PLAN_1
  6
CONTINUOUS
 10
0.080846
 20
-3.469760
  0
SEQEND
  8
0
  0
POLYLINE
  8
PLAN_1
  6
CONTINUOUS
 66
     1
 40
0.003000
 41
0.003000
  0
VERTEX
  8
PLAN_1
  6
CONTINUOUS
 10
0.248055
 20
-3.330346
  0
VERTEX
  8
PLAN_1
  6
CONTINUOUS
 10
0.246319
 20
-3.324264
  0
VERTEX
  8
PLAN_1
  6
CONTINUOUS
 10
0.244150
 20
-3.318618
  0
VERTEX
  8
PLAN_1
  6
CONTINUOUS
 10
0.241976
 20
-3.313406
  0
VERTEX
  8
PLAN_1
  6
CONTINUOUS
 10
0.238937
 20
-3.309063
  0
VERTEX
  8
PLAN_1
  6
CONTINUOUS
 10
0.235898
 20
-3.305154
  0
VERTEX
  8
PLAN_1
  6
CONTINUOUS
 10
0.232421
 20
-3.302114
  0
VERTEX
  8
PLAN_1
  6
CONTINUOUS
 10
0.228512
 20
-3.299075
  0
VERTEX
  8
PLAN_1
  6
CONTINUOUS
 10
0.224602
 20
-3.296469
  0
VERTEX
  8
PLAN_1
  6
CONTINUOUS
 10
0.220697
 20
-3.294732
  0
VERTEX
  8
PLAN_1
  6
CONTINUOUS
 10
0.216354
 20
-3.292996
  0
VERTEX
  8
PLAN_1
  6
CONTINUOUS
 10
0.212445
 20
-3.291693
  0
VERTEX
  8
PLAN_1
  6
CONTINUOUS
 10
0.208102
 20
-3.290390
  0
VERTEX
  8
PLAN_1
  6
CONTINUOUS
 10
0.199850
 20
-3.289520
  0
VERTEX
  8
PLAN_1
  6
CONTINUOUS
 10
0.192465
 20
-3.289087
  0
VERTEX
  8
PLAN_1
  6
CONTINUOUS
 10
0.185516
 20
-3.289520
  0
VERTEX
  8
PLAN_1
  6
CONTINUOUS
 10
0.179000
 20
-3.290390
  0
VERTEX
  8
PLAN_1
  6
CONTINUOUS
 10
0.172921
 20
-3.291693
  0
VERTEX
  8
PLAN_1
  6
CONTINUOUS
 10
0.166843
 20
-3.293862
  0
VERTEX
  8
PLAN_1
  6
CONTINUOUS
 10
0.161197
 20
-3.296902
  0
VERTEX
  8
PLAN_1
  6
CONTINUOUS
 10
0.155984
 20
-3.300378
  0
VERTEX
  8
PLAN_1
  6
CONTINUOUS
 10
0.150772
 20
-3.304287
  0
VERTEX
  8
PLAN_1
  6
CONTINUOUS
 10
0.146429
 20
-3.309063
  0
VERTEX
  8
PLAN_1
  6
CONTINUOUS
 10
0.142087
 20
-3.314276
  0
VERTEX
  8
PLAN_1
  6
CONTINUOUS
 10
0.138177
 20
-3.319921
  0
VERTEX
  8
PLAN_1
  6
CONTINUOUS
 10
0.135138
 20
-3.326437
  0
VERTEX
  8
PLAN_1
  6
CONTINUOUS
 10
0.132094
 20
-3.333819
  0
VERTEX
  8
PLAN_1
  6
CONTINUOUS
 10
0.129925
 20
-3.341205
  0
VERTEX
  8
PLAN_1
  6
CONTINUOUS
 10
0.128622
 20
-3.349890
  0
VERTEX
  8
PLAN_1
  6
CONTINUOUS
 10
0.127319
 20
-3.358575
  0
VERTEX
  8
PLAN_1
  6
CONTINUOUS
 10
0.127319
 20
-3.368130
  0
VERTEX
  8
PLAN_1
  6
CONTINUOUS
 10
0.127319
 20
-3.376815
  0
VERTEX
  8
PLAN_1
  6
CONTINUOUS
 10
0.127752
 20
-3.385067
  0
VERTEX
  8
PLAN_1
  6
CONTINUOUS
 10
0.129055
 20
-3.393319
  0
VERTEX
  8
PLAN_1
  6
CONTINUOUS
 10
0.130358
 20
-3.400705
  0
VERTEX
  8
PLAN_1
  6
CONTINUOUS
 10
0.132531
 20
-3.408087
  0
VERTEX
  8
PLAN_1
  6
CONTINUOUS
 10
0.135138
 20
-3.415035
  0
VERTEX
  8
PLAN_1
  6
CONTINUOUS
 10
0.138177
 20
-3.421551
  0
VERTEX
  8
PLAN_1
  6
CONTINUOUS
 10
0.141650
 20
-3.427197
  0
VERTEX
  8
PLAN_1
  6
CONTINUOUS
 10
0.145992
 20
-3.432409
  0
VERTEX
  8
PLAN_1
  6
CONTINUOUS
 10
0.150772
 20
-3.437185
  0
VERTEX
  8
PLAN_1
  6
CONTINUOUS
 10
0.153378
 20
-3.439358
  0
VERTEX
  8
PLAN_1
  6
CONTINUOUS
 10
0.155984
 20
-3.441528
  0
VERTEX
  8
PLAN_1
  6
CONTINUOUS
 10
0.159024
 20
-3.443268
  0
VERTEX
  8
PLAN_1
  6
CONTINUOUS
 10
0.162063
 20
-3.444567
  0
VERTEX
  8
PLAN_1
  6
CONTINUOUS
 10
0.165102
 20
-3.446307
  0
VERTEX
  8
PLAN_1
  6
CONTINUOUS
 10
0.168579
 20
-3.447610
  0
VERTEX
  8
PLAN_1
  6
CONTINUOUS
 10
0.172488
 20
-3.448476
  0
VERTEX
  8
PLAN_1
  6
CONTINUOUS
 10
0.175961
 20
-3.449346
  0
VERTEX
  8
PLAN_1
  6
CONTINUOUS
 10
0.180303
 20
-3.450217
  0
VERTEX
  8
PLAN_1
  6
CONTINUOUS
 10
0.184213
 20
-3.450650
  0
VERTEX
  8
PLAN_1
  6
CONTINUOUS
 10
0.188555
 20
-3.451083
  0
VERTEX
  8
PLAN_1
  6
CONTINUOUS
 10
0.193335
 20
-3.451083
  0
VERTEX
  8
PLAN_1
  6
CONTINUOUS
 10
0.196807
 20
-3.451083
  0
VERTEX
  8
PLAN_1
  6
CONTINUOUS
 10
0.200283
 20
-3.450650
  0
VERTEX
  8
PLAN_1
  6
CONTINUOUS
 10
0.204193
 20
-3.450217
  0
VERTEX
  8
PLAN_1
  6
CONTINUOUS
 10
0.208102
 20
-3.448913
  0
VERTEX
  8
PLAN_1
  6
CONTINUOUS
 10
0.212445
 20
-3.447610
  0
VERTEX
  8
PLAN_1
  6
CONTINUOUS
 10
0.216354
 20
-3.445870
  0
VERTEX
  8
PLAN_1
  6
CONTINUOUS
 10
0.220697
 20
-3.443701
  0
VERTEX
  8
PLAN_1
  6
CONTINUOUS
 10
0.224602
 20
-3.441094
  0
VERTEX
  8
PLAN_1
  6
CONTINUOUS
 10
0.228949
 20
-3.438055
  0
VERTEX
  8
PLAN_1
  6
CONTINUOUS
 10
0.232854
 20
-3.434146
  0
VERTEX
  8
PLAN_1
  6
CONTINUOUS
 10
0.236331
 20
-3.429803
  0
VERTEX
  8
PLAN_1
  6
CONTINUOUS
 10
0.239807
 20
-3.424591
  0
VERTEX
  8
PLAN_1
  6
CONTINUOUS
 10
0.242846
 20
-3.418512
  0
VERTEX
  8
PLAN_1
  6
CONTINUOUS
 10
0.245886
 20
-3.411996
  0
VERTEX
  8
PLAN_1
  6
CONTINUOUS
 10
0.248055
 20
-3.404610
  0
VERTEX
  8
PLAN_1
  6
CONTINUOUS
 10
0.250228
 20
-3.396358
  0
VERTEX
  8
PLAN_1
  6
CONTINUOUS
 10
0.276287
 20
-3.396358
  0
VERTEX
  8
PLAN_1
  6
CONTINUOUS
 10
0.274984
 20
-3.403311
  0
VERTEX
  8
PLAN_1
  6
CONTINUOUS
 10
0.273681
 20
-3.409823
  0
VERTEX
  8
PLAN_1
  6
CONTINUOUS
 10
0.271945
 20
-3.415906
  0
VERTEX
  8
PLAN_1
  6
CONTINUOUS
 10
0.269772
 20
-3.421551
  0
VERTEX
  8
PLAN_1
  6
CONTINUOUS
 10
0.267602
 20
-3.426764
  0
VERTEX
  8
PLAN_1
  6
CONTINUOUS
 10
0.265429
 20
-3.431539
  0
VERTEX
  8
PLAN_1
  6
CONTINUOUS
 10
0.262823
 20
-3.436315
  0
VERTEX
  8
PLAN_1
  6
CONTINUOUS
 10
0.259783
 20
-3.440224
  0
VERTEX
  8
PLAN_1
  6
CONTINUOUS
 10
0.257177
 20
-3.444567
  0
VERTEX
  8
PLAN_1
  6
CONTINUOUS
 10
0.254138
 20
-3.448043
  0
VERTEX
  8
PLAN_1
  6
CONTINUOUS
 10
0.251098
 20
-3.451516
  0
VERTEX
  8
PLAN_1
  6
CONTINUOUS
 10
0.247622
 20
-3.454559
  0
VERTEX
  8
PLAN_1
  6
CONTINUOUS
 10
0.244150
 20
-3.457165
  0
VERTEX
  8
PLAN_1
  6
CONTINUOUS
 10
0.241106
 20
-3.459768
  0
VERTEX
  8
PLAN_1
  6
CONTINUOUS
 10
0.237634
 20
-3.461941
  0
VERTEX
  8
PLAN_1
  6
CONTINUOUS
 10
0.234157
 20
-3.464114
  0
VERTEX
  8
PLAN_1
  6
CONTINUOUS
 10
0.227209
 20
-3.467154
  0
VERTEX
  8
PLAN_1
  6
CONTINUOUS
 10
0.220260
 20
-3.469760
  0
VERTEX
  8
PLAN_1
  6
CONTINUOUS
 10
0.213748
 20
-3.471929
  0
VERTEX
  8
PLAN_1
  6
CONTINUOUS
 10
0.207232
 20
-3.473232
  0
VERTEX
  8
PLAN_1
  6
CONTINUOUS
 10
0.196807
 20
-3.474535
  0
VERTEX
  8
PLAN_1
  6
CONTINUOUS
 10
0.188992
 20
-3.474969
  0
VERTEX
  8
PLAN_1
  6
CONTINUOUS
 10
0.180740
 20
-3.474535
  0
VERTEX
  8
PLAN_1
  6
CONTINUOUS
 10
0.172051
 20
-3.473669
  0
VERTEX
  8
PLAN_1
  6
CONTINUOUS
 10
0.163799
 20
-3.471929
  0
VERTEX
  8
PLAN_1
  6
CONTINUOUS
 10
0.155984
 20
-3.469323
  0
VERTEX
  8
PLAN_1
  6
CONTINUOUS
 10
0.152075
 20
-3.467587
  0
VERTEX
  8
PLAN_1
  6
CONTINUOUS
 10
0.148165
 20
-3.465850
  0
VERTEX
  8
PLAN_1
  6
CONTINUOUS
 10
0.144256
 20
-3.463677
  0
VERTEX
  8
PLAN_1
  6
CONTINUOUS
 10
0.140783
 20
-3.461508
  0
VERTEX
  8
PLAN_1
  6
CONTINUOUS
 10
0.137307
 20
-3.459335
  0
VERTEX
  8
PLAN_1
  6
CONTINUOUS
 10
0.133835
 20
-3.456728
  0
VERTEX
  8
PLAN_1
  6
CONTINUOUS
 10
0.130358
 20
-3.453689
  0
VERTEX
  8
PLAN_1
  6
CONTINUOUS
 10
0.127319
 20
-3.450650
  0
VERTEX
  8
PLAN_1
  6
CONTINUOUS
 10
0.124280
 20
-3.447610
  0
VERTEX
  8
PLAN_1
  6
CONTINUOUS
 10
0.121240
 20
-3.443701
  0
VERTEX
  8
PLAN_1
  6
CONTINUOUS
 10
0.118634
 20
-3.440224
  0
VERTEX
  8
PLAN_1
  6
CONTINUOUS
 10
0.116028
 20
-3.436315
  0
VERTEX
  8
PLAN_1
  6
CONTINUOUS
 10
0.113421
 20
-3.431972
  0
VERTEX
  8
PLAN_1
  6
CONTINUOUS
 10
0.111248
 20
-3.427630
  0
VERTEX
  8
PLAN_1
  6
CONTINUOUS
 10
0.109079
 20
-3.422854
  0
VERTEX
  8
PLAN_1
  6
CONTINUOUS
 10
0.106906
 20
-3.417642
  0
VERTEX
  8
PLAN_1
  6
CONTINUOUS
 10
0.105169
 20
-3.412862
  0
VERTEX
  8
PLAN_1
  6
CONTINUOUS
 10
0.103866
 20
-3.407217
  0
VERTEX
  8
PLAN_1
  6
CONTINUOUS
 10
0.102563
 20
-3.401571
  0
VERTEX
  8
PLAN_1
  6
CONTINUOUS
 10
0.101260
 20
-3.395492
  0
VERTEX
  8
PLAN_1
  6
CONTINUOUS
 10
0.100390
 20
-3.389409
  0
VERTEX
  8
PLAN_1
  6
CONTINUOUS
 10
0.099957
 20
-3.382898
  0
VERTEX
  8
PLAN_1
  6
CONTINUOUS
 10
0.099524
 20
-3.375949
  0
VERTEX
  8
PLAN_1
  6
CONTINUOUS
 10
0.099524
 20
-3.369000
  0
VERTEX
  8
PLAN_1
  6
CONTINUOUS
 10
0.099957
 20
-3.357705
  0
VERTEX
  8
PLAN_1
  6
CONTINUOUS
 10
0.100827
 20
-3.346850
  0
VERTEX
  8
PLAN_1
  6
CONTINUOUS
 10
0.101693
 20
-3.341638
  0
VERTEX
  8
PLAN_1
  6
CONTINUOUS
 10
0.102996
 20
-3.336425
  0
VERTEX
  8
PLAN_1
  6
CONTINUOUS
 10
0.104299
 20
-3.331650
  0
VERTEX
  8
PLAN_1
  6
CONTINUOUS
 10
0.105602
 20
-3.326870
  0
VERTEX
  8
PLAN_1
  6
CONTINUOUS
 10
0.107339
 20
-3.322094
  0
VERTEX
  8
PLAN_1
  6
CONTINUOUS
 10
0.109079
 20
-3.317752
  0
VERTEX
  8
PLAN_1
  6
CONTINUOUS
 10
0.111248
 20
-3.313406
  0
VERTEX
  8
PLAN_1
  6
CONTINUOUS
 10
0.113421
 20
-3.309063
  0
VERTEX
  8
PLAN_1
  6
CONTINUOUS
 10
0.116028
 20
-3.305154
  0
VERTEX
  8
PLAN_1
  6
CONTINUOUS
 10
0.118634
 20
-3.301248
  0
VERTEX
  8
PLAN_1
  6
CONTINUOUS
 10
0.121240
 20
-3.297772
  0
VERTEX
  8
PLAN_1
  6
CONTINUOUS
 10
0.124280
 20
-3.293862
  0
VERTEX
  8
PLAN_1
  6
CONTINUOUS
 10
0.127319
 20
-3.290823
  0
VERTEX
  8
PLAN_1
  6
CONTINUOUS
 10
0.130358
 20
-3.287783
  0
VERTEX
  8
PLAN_1
  6
CONTINUOUS
 10
0.133835
 20
-3.284744
  0
VERTEX
  8
PLAN_1
  6
CONTINUOUS
 10
0.137307
 20
-3.281701
  0
VERTEX
  8
PLAN_1
  6
CONTINUOUS
 10
0.141217
 20
-3.279094
  0
VERTEX
  8
PLAN_1
  6
CONTINUOUS
 10
0.145126
 20
-3.276925
  0
VERTEX
  8
PLAN_1
  6
CONTINUOUS
 10
0.149035
 20
-3.274752
  0
VERTEX
  8
PLAN_1
  6
CONTINUOUS
 10
0.153378
 20
-3.272583
  0
VERTEX
  8
PLAN_1
  6
CONTINUOUS
 10
0.157720
 20
-3.270843
  0
VERTEX
  8
PLAN_1
  6
CONTINUOUS
 10
0.162063
 20
-3.269543
  0
VERTEX
  8
PLAN_1
  6
CONTINUOUS
 10
0.166843
 20
-3.268240
  0
VERTEX
  8
PLAN_1
  6
CONTINUOUS
 10
0.171618
 20
-3.266937
  0
VERTEX
  8
PLAN_1
  6
CONTINUOUS
 10
0.176831
 20
-3.266500
  0
VERTEX
  8
PLAN_1
  6
CONTINUOUS
 10
0.181606
 20
-3.265634
  0
VERTEX
  8
PLAN_1
  6
CONTINUOUS
 10
0.186819
 20
-3.265197
  0
VERTEX
  8
PLAN_1
  6
CONTINUOUS
 10
0.192465
 20
-3.265197
  0
VERTEX
  8
PLAN_1
  6
CONTINUOUS
 10
0.201587
 20
-3.265634
  0
VERTEX
  8
PLAN_1
  6
CONTINUOUS
 10
0.210272
 20
-3.266500
  0
VERTEX
  8
PLAN_1
  6
CONTINUOUS
 10
0.218524
 20
-3.268240
  0
VERTEX
  8
PLAN_1
  6
CONTINUOUS
 10
0.226343
 20
-3.270843
  0
VERTEX
  8
PLAN_1
  6
CONTINUOUS
 10
0.233291
 20
-3.273449
  0
VERTEX
  8
PLAN_1
  6
CONTINUOUS
 10
0.239807
 20
-3.276925
  0
VERTEX
  8
PLAN_1
  6
CONTINUOUS
 10
0.245886
 20
-3.280835
  0
VERTEX
  8
PLAN_1
  6
CONTINUOUS
 10
0.251098
 20
-3.285177
  0
VERTEX
  8
PLAN_1
  6
CONTINUOUS
 10
0.255874
 20
-3.289953
  0
VERTEX
  8
PLAN_1
  6
CONTINUOUS
 10
0.260217
 20
-3.295165
  0
VERTEX
  8
PLAN_1
  6
CONTINUOUS
 10
0.263693
 20
-3.300378
  0
VERTEX
  8
PLAN_1
  6
CONTINUOUS
 10
0.267165
 20
-3.306024
  0
VERTEX
  8
PLAN_1
  6
CONTINUOUS
 10
0.269772
 20
-3.312102
  0
VERTEX
  8
PLAN_1
  6
CONTINUOUS
 10
0.271512
 20
-3.318185
  0
VERTEX
  8
PLAN_1
  6
CONTINUOUS
 10
0.273248
 20
-3.324264
  0
VERTEX
  8
PLAN_1
  6
CONTINUOUS
 10
0.274114
 20
-3.330346
  0
VERTEX
  8
PLAN_1
  6
CONTINUOUS
 10
0.248055
 20
-3.330346
  0
SEQEND
  8
0
  0
POLYLINE
  8
PLAN_1
  6
CONTINUOUS
 66
     1
 40
0.003000
 41
0.003000
  0
VERTEX
  8
PLAN_1
  6
CONTINUOUS
 10
0.335787
 20
-3.469760
  0
VERTEX
  8
PLAN_1
  6
CONTINUOUS
 10
0.308862
 20
-3.469760
  0
VERTEX
  8
PLAN_1
  6
CONTINUOUS
 10
0.308862
 20
-3.270409
  0
VERTEX
  8
PLAN_1
  6
CONTINUOUS
 10
0.335787
 20
-3.270409
  0
VERTEX
  8
PLAN_1
  6
CONTINUOUS
 10
0.335787
 20
-3.366827
  0
VERTEX
  8
PLAN_1
  6
CONTINUOUS
 10
0.432205
 20
-3.270409
  0
VERTEX
  8
PLAN_1
  6
CONTINUOUS
 10
0.469555
 20
-3.270409
  0
VERTEX
  8
PLAN_1
  6
CONTINUOUS
 10
0.386602
 20
-3.350756
  0
VERTEX
  8
PLAN_1
  6
CONTINUOUS
 10
0.471728
 20
-3.469760
  0
VERTEX
  8
PLAN_1
  6
CONTINUOUS
 10
0.436547
 20
-3.469760
  0
VERTEX
  8
PLAN_1
  6
CONTINUOUS
 10
0.367059
 20
-3.369866
  0
VERTEX
  8
PLAN_1
  6
CONTINUOUS
 10
0.335787
 20
-3.399835
  0
VERTEX
  8
PLAN_1
  6
CONTINUOUS
 10
0.335787
 20
-3.469760
  0
SEQEND
  8
0
  0
POLYLINE
  8
PLAN_1
  6
CONTINUOUS
 66
     1
 40
0.003000
 41
0.003000
  0
VERTEX
  8
PLAN_1
  6
CONTINUOUS
 10
0.643713
 20
-3.469760
  0
VERTEX
  8
PLAN_1
  6
CONTINUOUS
 10
0.496484
 20
-3.469760
  0
VERTEX
  8
PLAN_1
  6
CONTINUOUS
 10
0.496484
 20
-3.270409
  0
VERTEX
  8
PLAN_1
  6
CONTINUOUS
 10
0.641976
 20
-3.270409
  0
VERTEX
  8
PLAN_1
  6
CONTINUOUS
 10
0.641976
 20
-3.294295
  0
VERTEX
  8
PLAN_1
  6
CONTINUOUS
 10
0.523409
 20
-3.294295
  0
VERTEX
  8
PLAN_1
  6
CONTINUOUS
 10
0.523409
 20
-3.355535
  0
VERTEX
  8
PLAN_1
  6
CONTINUOUS
 10
0.632858
 20
-3.355535
  0
VERTEX
  8
PLAN_1
  6
CONTINUOUS
 10
0.632858
 20
-3.379421
  0
VERTEX
  8
PLAN_1
  6
CONTINUOUS
 10
0.523409
 20
-3.379421
  0
VERTEX
  8
PLAN_1
  6
CONTINUOUS
 10
0.523409
 20
-3.445870
  0
VERTEX
  8
PLAN_1
  6
CONTINUOUS
 10
0.643713
 20
-3.445870
  0
VERTEX
  8
PLAN_1
  6
CONTINUOUS
 10
0.643713
 20
-3.469760
  0
SEQEND
  8
0
  0
POLYLINE
  8
PLAN_1
  6
CONTINUOUS
 66
     1
 40
0.003000
 41
0.003000
  0
VERTEX
  8
PLAN_1
  6
CONTINUOUS
 10
0.773575
 20
-3.326437
  0
VERTEX
  8
PLAN_1
  6
CONTINUOUS
 10
0.772272
 20
-3.320354
  0
VERTEX
  8
PLAN_1
  6
CONTINUOUS
 10
0.770098
 20
-3.314709
  0
VERTEX
  8
PLAN_1
  6
CONTINUOUS
 10
0.768795
 20
-3.312102
  0
VERTEX
  8
PLAN_1
  6
CONTINUOUS
 10
0.767492
 20
-3.309500
  0
VERTEX
  8
PLAN_1
  6
CONTINUOUS
 10
0.765756
 20
-3.307327
  0
VERTEX
  8
PLAN_1
  6
CONTINUOUS
 10
0.763583
 20
-3.305154
  0
VERTEX
  8
PLAN_1
  6
CONTINUOUS
 10
0.761413
 20
-3.302984
  0
VERTEX
  8
PLAN_1
  6
CONTINUOUS
 10
0.759240
 20
-3.301681
  0
VERTEX
  8
PLAN_1
  6
CONTINUOUS
 10
0.756634
 20
-3.299945
  0
VERTEX
  8
PLAN_1
  6
CONTINUOUS
 10
0.754028
 20
-3.298642
  0
VERTEX
  8
PLAN_1
  6
CONTINUOUS
 10
0.750988
 20
-3.297772
  0
VERTEX
  8
PLAN_1
  6
CONTINUOUS
 10
0.747516
 20
-3.297339
  0
VERTEX
  8
PLAN_1
  6
CONTINUOUS
 10
0.744039
 20
-3.296902
  0
VERTEX
  8
PLAN_1
  6
CONTINUOUS
 10
0.740130
 20
-3.296469
  0
VERTEX
  8
PLAN_1
  6
CONTINUOUS
 10
0.736657
 20
-3.296902
  0
VERTEX
  8
PLAN_1
  6
CONTINUOUS
 10
0.733181
 20
-3.297339
  0
VERTEX
  8
PLAN_1
  6
CONTINUOUS
 10
0.730142
 20
-3.297772
  0
VERTEX
  8
PLAN_1
  6
CONTINUOUS
 10
0.727102
 20
-3.298642
  0
VERTEX
  8
PLAN_1
  6
CONTINUOUS
 10
0.724496
 20
-3.299945
  0
VERTEX
  8
PLAN_1
  6
CONTINUOUS
 10
0.721457
 20
-3.301248
  0
VERTEX
  8
PLAN_1
  6
CONTINUOUS
 10
0.719283
 20
-3.302984
  0
VERTEX
  8
PLAN_1
  6
CONTINUOUS
 10
0.716677
 20
-3.304720
  0
VERTEX
  8
PLAN_1
  6
CONTINUOUS
 10
0.712335
 20
-3.309063
  0
VERTEX
  8
PLAN_1
  6
CONTINUOUS
 10
0.708425
 20
-3.313843
  0
VERTEX
  8
PLAN_1
  6
CONTINUOUS
 10
0.705386
 20
-3.319051
  0
VERTEX
  8
PLAN_1
  6
CONTINUOUS
 10
0.702780
 20
-3.324701
  0
VERTEX
  8
PLAN_1
  6
CONTINUOUS
 10
0.700173
 20
-3.330780
  0
VERTEX
  8
PLAN_1
  6
CONTINUOUS
 10
0.698437
 20
-3.336858
  0
VERTEX
  8
PLAN_1
  6
CONTINUOUS
 10
0.696701
 20
-3.342941
  0
VERTEX
  8
PLAN_1
  6
CONTINUOUS
 10
0.695831
 20
-3.348587
  0
VERTEX
  8
PLAN_1
  6
CONTINUOUS
 10
0.694094
 20
-3.359878
  0
VERTEX
  8
PLAN_1
  6
CONTINUOUS
 10
0.693661
 20
-3.368563
  0
VERTEX
  8
PLAN_1
  6
CONTINUOUS
 10
0.694528
 20
-3.369433
  0
VERTEX
  8
PLAN_1
  6
CONTINUOUS
 10
0.697134
 20
-3.365091
  0
VERTEX
  8
PLAN_1
  6
CONTINUOUS
 10
0.700610
 20
-3.361181
  0
VERTEX
  8
PLAN_1
  6
CONTINUOUS
 10
0.704516
 20
-3.357272
  0
VERTEX
  8
PLAN_1
  6
CONTINUOUS
 10
0.709728
 20
-3.353362
  0
VERTEX
  8
PLAN_1
  6
CONTINUOUS
 10
0.712768
 20
-3.351626
  0
VERTEX
  8
PLAN_1
  6
CONTINUOUS
 10
0.715811
 20
-3.350323
  0
VERTEX
  8
PLAN_1
  6
CONTINUOUS
 10
0.719283
 20
-3.348587
  0
VERTEX
  8
PLAN_1
  6
CONTINUOUS
 10
0.723193
 20
-3.347717
  0
VERTEX
  8
PLAN_1
  6
CONTINUOUS
 10
0.727102
 20
-3.346850
  0
VERTEX
  8
PLAN_1
  6
CONTINUOUS
 10
0.731445
 20
-3.345980
  0
VERTEX
  8
PLAN_1
  6
CONTINUOUS
 10
0.735787
 20
-3.345547
  0
VERTEX
  8
PLAN_1
  6
CONTINUOUS
 10
0.740567
 20
-3.345547
  0
VERTEX
  8
PLAN_1
  6
CONTINUOUS
 10
0.745343
 20
-3.345547
  0
VERTEX
  8
PLAN_1
  6
CONTINUOUS
 10
0.750122
 20
-3.345980
  0
VERTEX
  8
PLAN_1
  6
CONTINUOUS
 10
0.755331
 20
-3.347283
  0
VERTEX
  8
PLAN_1
  6
CONTINUOUS
 10
0.760110
 20
-3.348587
  0
VERTEX
  8
PLAN_1
  6
CONTINUOUS
 10
0.765323
 20
-3.350323
  0
VERTEX
  8
PLAN_1
  6
CONTINUOUS
 10
0.770531
 20
-3.352496
  0
VERTEX
  8
PLAN_1
  6
CONTINUOUS
 10
0.775311
 20
-3.355535
  0
VERTEX
  8
PLAN_1
  6
CONTINUOUS
 10
0.780087
 20
-3.359008
  0
VERTEX
  8
PLAN_1
  6
CONTINUOUS
 10
0.784429
 20
-3.362917
  0
VERTEX
  8
PLAN_1
  6
CONTINUOUS
 10
0.788776
 20
-3.367260
  0
VERTEX
  8
PLAN_1
  6
CONTINUOUS
 10
0.792248
 20
-3.372472
  0
VERTEX
  8
PLAN_1
  6
CONTINUOUS
 10
0.795724
 20
-3.378118
  0
VERTEX
  8
PLAN_1
  6
CONTINUOUS
 10
0.798327
 20
-3.384201
  0
VERTEX
  8
PLAN_1
  6
CONTINUOUS
 10
0.800067
 20
-3.391150
  0
VERTEX
  8
PLAN_1
  6
CONTINUOUS
 10
0.800933
 20
-3.395059
  0
VERTEX
  8
PLAN_1
  6
CONTINUOUS
 10
0.801370
 20
-3.398965
  0
VERTEX
  8
PLAN_1
  6
CONTINUOUS
 10
0.801803
 20
-3.402874
  0
VERTEX
  8
PLAN_1
  6
CONTINUOUS
 10
0.801803
 20
-3.407217
  0
VERTEX
  8
PLAN_1
  6
CONTINUOUS
 10
0.801370
 20
-3.414602
  0
VERTEX
  8
PLAN_1
  6
CONTINUOUS
 10
0.800500
 20
-3.421114
  0
VERTEX
  8
PLAN_1
  6
CONTINUOUS
 10
0.799197
 20
-3.427630
  0
VERTEX
  8
PLAN_1
  6
CONTINUOUS
 10
0.797461
 20
-3.433713
  0
VERTEX
  8
PLAN_1
  6
CONTINUOUS
 10
0.794854
 20
-3.439791
  0
VERTEX
  8
PLAN_1
  6
CONTINUOUS
 10
0.791815
 20
-3.445004
  0
VERTEX
  8
PLAN_1
  6
CONTINUOUS
 10
0.787906
 20
-3.450650
  0
VERTEX
  8
PLAN_1
  6
CONTINUOUS
 10
0.783126
 20
-3.456295
  0
VERTEX
  8
PLAN_1
  6
CONTINUOUS
 10
0.779220
 20
-3.460205
  0
VERTEX
  8
PLAN_1
  6
CONTINUOUS
 10
0.774874
 20
-3.463677
  0
VERTEX
  8
PLAN_1
  6
CONTINUOUS
 10
0.770098
 20
-3.467154
  0
VERTEX
  8
PLAN_1
  6
CONTINUOUS
 10
0.764886
 20
-3.469760
  0
VERTEX
  8
PLAN_1
  6
CONTINUOUS
 10
0.758807
 20
-3.471929
  0
VERTEX
  8
PLAN_1
  6
CONTINUOUS
 10
0.751421
 20
-3.473669
  0
VERTEX
  8
PLAN_1
  6
CONTINUOUS
 10
0.743169
 20
-3.474535
  0
VERTEX
  8
PLAN_1
  6
CONTINUOUS
 10
0.733618
 20
-3.474969
  0
VERTEX
  8
PLAN_1
  6
CONTINUOUS
 10
0.727969
 20
-3.474535
  0
VERTEX
  8
PLAN_1
  6
CONTINUOUS
 10
0.721457
 20
-3.473669
  0
VERTEX
  8
PLAN_1
  6
CONTINUOUS
 10
0.714941
 20
-3.471929
  0
VERTEX
  8
PLAN_1
  6
CONTINUOUS
 10
0.708425
 20
-3.468890
  0
VERTEX
  8
PLAN_1
  6
CONTINUOUS
 10
0.704953
 20
-3.467154
  0
VERTEX
  8
PLAN_1
  6
CONTINUOUS
 10
0.701476
 20
-3.464980
  0
VERTEX
  8
PLAN_1
  6
CONTINUOUS
 10
0.698437
 20
-3.462811
  0
VERTEX
  8
PLAN_1
  6
CONTINUOUS
 10
0.694965
 20
-3.460205
  0
VERTEX
  8
PLAN_1
  6
CONTINUOUS
 10
0.691921
 20
-3.457165
  0
VERTEX
  8
PLAN_1
  6
CONTINUOUS
 10
0.688882
 20
-3.454122
  0
VERTEX
  8
PLAN_1
  6
CONTINUOUS
 10
0.686276
 20
-3.450650
  0
VERTEX
  8
PLAN_1
  6
CONTINUOUS
 10
0.683669
 20
-3.446740
  0
VERTEX
  8
PLAN_1
  6
CONTINUOUS
 10
0.679327
 20
-3.439358
  0
VERTEX
  8
PLAN_1
  6
CONTINUOUS
 10
0.676287
 20
-3.431972
  0
VERTEX
  8
PLAN_1
  6
CONTINUOUS
 10
0.673681
 20
-3.423720
  0
VERTEX
  8
PLAN_1
  6
CONTINUOUS
 10
0.671512
 20
-3.415469
  0
VERTEX
  8
PLAN_1
  6
CONTINUOUS
 10
0.670209
 20
-3.406783
  0
VERTEX
  8
PLAN_1
  6
CONTINUOUS
 10
0.669339
 20
-3.397661
  0
VERTEX
  8
PLAN_1
  6
CONTINUOUS
 10
0.668906
 20
-3.388543
  0
VERTEX
  8
PLAN_1
  6
CONTINUOUS
 10
0.668469
 20
-3.378988
  0
VERTEX
  8
PLAN_1
  6
CONTINUOUS
 10
0.668906
 20
-3.370736
  0
VERTEX
  8
PLAN_1
  6
CONTINUOUS
 10
0.669339
 20
-3.362051
  0
VERTEX
  8
PLAN_1
  6
CONTINUOUS
 10
0.670209
 20
-3.353362
  0
VERTEX
  8
PLAN_1
  6
CONTINUOUS
 10
0.671512
 20
-3.344677
  0
VERTEX
  8
PLAN_1
  6
CONTINUOUS
 10
0.673681
 20
-3.335992
  0
VERTEX
  8
PLAN_1
  6
CONTINUOUS
 10
0.675854
 20
-3.327303
  0
VERTEX
  8
PLAN_1
  6
CONTINUOUS
 10
0.678894
 20
-3.318618
  0
VERTEX
  8
PLAN_1
  6
CONTINUOUS
 10
0.682803
 20
-3.310799
  0
VERTEX
  8
PLAN_1
  6
CONTINUOUS
 10
0.684972
 20
-3.306894
  0
VERTEX
  8
PLAN_1
  6
CONTINUOUS
 10
0.687146
 20
-3.303417
  0
VERTEX
  8
PLAN_1
  6
CONTINUOUS
 10
0.689752
 20
-3.299945
  0
VERTEX
  8
PLAN_1
  6
CONTINUOUS
 10
0.692358
 20
-3.296469
  0
VERTEX
  8
PLAN_1
  6
CONTINUOUS
 10
0.694965
 20
-3.292996
  0
VERTEX
  8
PLAN_1
  6
CONTINUOUS
 10
0.698004
 20
-3.290390
  0
VERTEX
  8
PLAN_1
  6
CONTINUOUS
 10
0.701476
 20
-3.287346
  0
VERTEX
  8
PLAN_1
  6
CONTINUOUS
 10
0.704953
 20
-3.284744
  0
VERTEX
  8
PLAN_1
  6
CONTINUOUS
 10
0.708425
 20
-3.282571
  0
VERTEX
  8
PLAN_1
  6
CONTINUOUS
 10
0.712335
 20
-3.280398
  0
VERTEX
  8
PLAN_1
  6
CONTINUOUS
 10
0.716677
 20
-3.278661
  0
VERTEX
  8
PLAN_1
  6
CONTINUOUS
 10
0.721020
 20
-3.277358
  0
VERTEX
  8
PLAN_1
  6
CONTINUOUS
 10
0.725366
 20
-3.276055
  0
VERTEX
  8
PLAN_1
  6
CONTINUOUS
 10
0.730142
 20
-3.275189
  0
VERTEX
  8
PLAN_1
  6
CONTINUOUS
 10
0.735354
 20
-3.274752
  0
VERTEX
  8
PLAN_1
  6
CONTINUOUS
 10
0.740567
 20
-3.274752
  0
VERTEX
  8
PLAN_1
  6
CONTINUOUS
 10
0.744909
 20
-3.274752
  0
VERTEX
  8
PLAN_1
  6
CONTINUOUS
 10
0.749685
 20
-3.275189
  0
VERTEX
  8
PLAN_1
  6
CONTINUOUS
 10
0.754028
 20
-3.276055
  0
VERTEX
  8
PLAN_1
  6
CONTINUOUS
 10
0.758807
 20
-3.277358
  0
VERTEX
  8
PLAN_1
  6
CONTINUOUS
 10
0.763150
 20
-3.278661
  0
VERTEX
  8
PLAN_1
  6
CONTINUOUS
 10
0.767925
 20
-3.280398
  0
VERTEX
  8
PLAN_1
  6
CONTINUOUS
 10
0.772272
 20
-3.283004
  0
VERTEX
  8
PLAN_1
  6
CONTINUOUS
 10
0.776614
 20
-3.285610
  0
VERTEX
  8
PLAN_1
  6
CONTINUOUS
 10
0.780524
 20
-3.289087
  0
VERTEX
  8
PLAN_1
  6
CONTINUOUS
 10
0.784429
 20
-3.292559
  0
VERTEX
  8
PLAN_1
  6
CONTINUOUS
 10
0.787906
 20
-3.296902
  0
VERTEX
  8
PLAN_1
  6
CONTINUOUS
 10
0.790945
 20
-3.301681
  0
VERTEX
  8
PLAN_1
  6
CONTINUOUS
 10
0.793118
 20
-3.306894
  0
VERTEX
  8
PLAN_1
  6
CONTINUOUS
 10
0.795287
 20
-3.312972
  0
VERTEX
  8
PLAN_1
  6
CONTINUOUS
 10
0.796591
 20
-3.319488
  0
VERTEX
  8
PLAN_1
  6
CONTINUOUS
 10
0.797461
 20
-3.326437
  0
VERTEX
  8
PLAN_1
  6
CONTINUOUS
 10
0.773575
 20
-3.326437
  0
SEQEND
  8
0
  0
POLYLINE
  8
PLAN_1
  6
CONTINUOUS
 66
     1
 40
0.003000
 41
0.003000
  0
VERTEX
  8
PLAN_1
  6
CONTINUOUS
 10
0.738394
 20
-3.453256
  0
VERTEX
  8
PLAN_1
  6
CONTINUOUS
 10
0.742303
 20
-3.452819
  0
VERTEX
  8
PLAN_1
  6
CONTINUOUS
 10
0.746646
 20
-3.452386
  0
VERTEX
  8
PLAN_1
  6
CONTINUOUS
 10
0.750555
 20
-3.451083
  0
VERTEX
  8
PLAN_1
  6
CONTINUOUS
 10
0.754028
 20
-3.449780
  0
VERTEX
  8
PLAN_1
  6
CONTINUOUS
 10
0.757504
 20
-3.448043
  0
VERTEX
  8
PLAN_1
  6
CONTINUOUS
 10
0.760543
 20
-3.445870
  0
VERTEX
  8
PLAN_1
  6
CONTINUOUS
 10
0.763583
 20
-3.443268
  0
VERTEX
  8
PLAN_1
  6
CONTINUOUS
 10
0.766189
 20
-3.440661
  0
VERTEX
  8
PLAN_1
  6
CONTINUOUS
 10
0.768362
 20
-3.437618
  0
VERTEX
  8
PLAN_1
  6
CONTINUOUS
 10
0.770531
 20
-3.434146
  0
VERTEX
  8
PLAN_1
  6
CONTINUOUS
 10
0.772272
 20
-3.430236
  0
VERTEX
  8
PLAN_1
  6
CONTINUOUS
 10
0.773575
 20
-3.426327
  0
VERTEX
  8
PLAN_1
  6
CONTINUOUS
 10
0.774874
 20
-3.422417
  0
VERTEX
  8
PLAN_1
  6
CONTINUOUS
 10
0.775744
 20
-3.418075
  0
VERTEX
  8
PLAN_1
  6
CONTINUOUS
 10
0.776177
 20
-3.413299
  0
VERTEX
  8
PLAN_1
  6
CONTINUOUS
 10
0.776614
 20
-3.408520
  0
VERTEX
  8
PLAN_1
  6
CONTINUOUS
 10
0.776177
 20
-3.405047
  0
VERTEX
  8
PLAN_1
  6
CONTINUOUS
 10
0.776177
 20
-3.401571
  0
VERTEX
  8
PLAN_1
  6
CONTINUOUS
 10
0.775311
 20
-3.398098
  0
VERTEX
  8
PLAN_1
  6
CONTINUOUS
 10
0.774441
 20
-3.394622
  0
VERTEX
  8
PLAN_1
  6
CONTINUOUS
 10
0.773575
 20
-3.391150
  0
VERTEX
  8
PLAN_1
  6
CONTINUOUS
 10
0.771835
 20
-3.387673
  0
VERTEX
  8
PLAN_1
  6
CONTINUOUS
 10
0.770098
 20
-3.384634
  0
VERTEX
  8
PLAN_1
  6
CONTINUOUS
 10
0.767925
 20
-3.381594
  0
VERTEX
  8
PLAN_1
  6
CONTINUOUS
 10
0.765756
 20
-3.378555
  0
VERTEX
  8
PLAN_1
  6
CONTINUOUS
 10
0.762717
 20
-3.375949
  0
VERTEX
  8
PLAN_1
  6
CONTINUOUS
 10
0.759673
 20
-3.373343
  0
VERTEX
  8
PLAN_1
  6
CONTINUOUS
 10
0.756201
 20
-3.371169
  0
VERTEX
  8
PLAN_1
  6
CONTINUOUS
 10
0.751858
 20
-3.369433
  0
VERTEX
  8
PLAN_1
  6
CONTINUOUS
 10
0.747516
 20
-3.368563
  0
VERTEX
  8
PLAN_1
  6
CONTINUOUS
 10
0.742303
 20
-3.367697
  0
VERTEX
  8
PLAN_1
  6
CONTINUOUS
 10
0.737091
 20
-3.367260
  0
VERTEX
  8
PLAN_1
  6
CONTINUOUS
 10
0.732315
 20
-3.367697
  0
VERTEX
  8
PLAN_1
  6
CONTINUOUS
 10
0.727535
 20
-3.368130
  0
VERTEX
  8
PLAN_1
  6
CONTINUOUS
 10
0.723193
 20
-3.369433
  0
VERTEX
  8
PLAN_1
  6
CONTINUOUS
 10
0.719283
 20
-3.370736
  0
VERTEX
  8
PLAN_1
  6
CONTINUOUS
 10
0.715811
 20
-3.372472
  0
VERTEX
  8
PLAN_1
  6
CONTINUOUS
 10
0.712768
 20
-3.374646
  0
VERTEX
  8
PLAN_1
  6
CONTINUOUS
 10
0.709728
 20
-3.377252
  0
VERTEX
  8
PLAN_1
  6
CONTINUOUS
 10
0.707122
 20
-3.379858
  0
VERTEX
  8
PLAN_1
  6
CONTINUOUS
 10
0.704516
 20
-3.382898
  0
VERTEX
  8
PLAN_1
  6
CONTINUOUS
 10
0.702780
 20
-3.386370
  0
VERTEX
  8
PLAN_1
  6
CONTINUOUS
 10
0.701043
 20
-3.389846
  0
VERTEX
  8
PLAN_1
  6
CONTINUOUS
 10
0.699740
 20
-3.393319
  0
VERTEX
  8
PLAN_1
  6
CONTINUOUS
 10
0.698437
 20
-3.397228
  0
VERTEX
  8
PLAN_1
  6
CONTINUOUS
 10
0.697567
 20
-3.401138
  0
VERTEX
  8
PLAN_1
  6
CONTINUOUS
 10
0.697134
 20
-3.405480
  0
VERTEX
  8
PLAN_1
  6
CONTINUOUS
 10
0.697134
 20
-3.409823
  0
VERTEX
  8
PLAN_1
  6
CONTINUOUS
 10
0.697134
 20
-3.413732
  0
VERTEX
  8
PLAN_1
  6
CONTINUOUS
 10
0.697567
 20
-3.417642
  0
VERTEX
  8
PLAN_1
  6
CONTINUOUS
 10
0.698437
 20
-3.421551
  0
VERTEX
  8
PLAN_1
  6
CONTINUOUS
 10
0.699307
 20
-3.425461
  0
VERTEX
  8
PLAN_1
  6
CONTINUOUS
 10
0.701043
 20
-3.428933
  0
VERTEX
  8
PLAN_1
  6
CONTINUOUS
 10
0.702780
 20
-3.432409
  0
VERTEX
  8
PLAN_1
  6
CONTINUOUS
 10
0.704516
 20
-3.435882
  0
VERTEX
  8
PLAN_1
  6
CONTINUOUS
 10
0.707122
 20
-3.439358
  0
VERTEX
  8
PLAN_1
  6
CONTINUOUS
 10
0.709728
 20
-3.441965
  0
VERTEX
  8
PLAN_1
  6
CONTINUOUS
 10
0.712768
 20
-3.445004
  0
VERTEX
  8
PLAN_1
  6
CONTINUOUS
 10
0.715811
 20
-3.447173
  0
VERTEX
  8
PLAN_1
  6
CONTINUOUS
 10
0.719717
 20
-3.449346
  0
VERTEX
  8
PLAN_1
  6
CONTINUOUS
 10
0.723626
 20
-3.450650
  0
VERTEX
  8
PLAN_1
  6
CONTINUOUS
 10
0.728406
 20
-3.451953
  0
VERTEX
  8
PLAN_1
  6
CONTINUOUS
 10
0.733181
 20
-3.452819
  0
VERTEX
  8
PLAN_1
  6
CONTINUOUS
 10
0.738394
 20
-3.453256
  0
SEQEND
  8
0
  0
POLYLINE
  8
PLAN_1
  6
CONTINUOUS
 66
     1
 40
0.003000
 41
0.003000
  0
VERTEX
  8
PLAN_1
  6
CONTINUOUS
 10
0.912118
 20
-3.469760
  0
VERTEX
  8
PLAN_1
  6
CONTINUOUS
 10
0.886059
 20
-3.469760
  0
VERTEX
  8
PLAN_1
  6
CONTINUOUS
 10
0.886059
 20
-3.331213
  0
VERTEX
  8
PLAN_1
  6
CONTINUOUS
 10
0.840457
 20
-3.331213
  0
VERTEX
  8
PLAN_1
  6
CONTINUOUS
 10
0.840457
 20
-3.311669
  0
VERTEX
  8
PLAN_1
  6
CONTINUOUS
 10
0.851315
 20
-3.310799
  0
VERTEX
  8
PLAN_1
  6
CONTINUOUS
 10
0.860870
 20
-3.309500
  0
VERTEX
  8
PLAN_1
  6
CONTINUOUS
 10
0.864780
 20
-3.308630
  0
VERTEX
  8
PLAN_1
  6
CONTINUOUS
 10
0.868685
 20
-3.307327
  0
VERTEX
  8
PLAN_1
  6
CONTINUOUS
 10
0.872161
 20
-3.306024
  0
VERTEX
  8
PLAN_1
  6
CONTINUOUS
 10
0.875638
 20
-3.304287
  0
VERTEX
  8
PLAN_1
  6
CONTINUOUS
 10
0.878677
 20
-3.302114
  0
VERTEX
  8
PLAN_1
  6
CONTINUOUS
 10
0.881283
 20
-3.299945
  0
VERTEX
  8
PLAN_1
  6
CONTINUOUS
 10
0.883453
 20
-3.296902
  0
VERTEX
  8
PLAN_1
  6
CONTINUOUS
 10
0.885626
 20
-3.293429
  0
VERTEX
  8
PLAN_1
  6
CONTINUOUS
 10
0.887795
 20
-3.289520
  0
VERTEX
  8
PLAN_1
  6
CONTINUOUS
 10
0.889535
 20
-3.285177
  0
VERTEX
  8
PLAN_1
  6
CONTINUOUS
 10
0.891272
 20
-3.280398
  0
VERTEX
  8
PLAN_1
  6
CONTINUOUS
 10
0.893008
 20
-3.274752
  0
VERTEX
  8
PLAN_1
  6
CONTINUOUS
 10
0.912118
 20
-3.274752
  0
VERTEX
  8
PLAN_1
  6
CONTINUOUS
 10
0.912118
 20
-3.469760
  0
SEQEND
  8
0
  0
POLYLINE
  8
PLAN_1
  6
CONTINUOUS
 66
     1
 40
0.003000
 41
0.003000
  0
VERTEX
  8
PLAN_1
  6
CONTINUOUS
 10
0.978134
 20
-3.341638
  0
VERTEX
  8
PLAN_1
  6
CONTINUOUS
 10
0.978567
 20
-3.334689
  0
VERTEX
  8
PLAN_1
  6
CONTINUOUS
 10
0.979437
 20
-3.328606
  0
VERTEX
  8
PLAN_1
  6
CONTINUOUS
 10
0.980740
 20
-3.322094
  0
VERTEX
  8
PLAN_1
  6
CONTINUOUS
 10
0.982476
 20
-3.316012
  0
VERTEX
  8
PLAN_1
  6
CONTINUOUS
 10
0.984650
 20
-3.310366
  0
VERTEX
  8
PLAN_1
  6
CONTINUOUS
 10
0.987252
 20
-3.304720
  0
VERTEX
  8
PLAN_1
  6
CONTINUOUS
 10
0.990728
 20
-3.299508
  0
VERTEX
  8
PLAN_1
  6
CONTINUOUS
 10
0.994205
 20
-3.294732
  0
VERTEX
  8
PLAN_1
  6
CONTINUOUS
 10
0.998547
 20
-3.290390
  0
VERTEX
  8
PLAN_1
  6
CONTINUOUS
 10
1.003323
 20
-3.286480
  0
VERTEX
  8
PLAN_1
  6
CONTINUOUS
 10
1.008102
 20
-3.283004
  0
VERTEX
  8
PLAN_1
  6
CONTINUOUS
 10
1.013748
 20
-3.279965
  0
VERTEX
  8
PLAN_1
  6
CONTINUOUS
 10
1.019827
 20
-3.277795
  0
VERTEX
  8
PLAN_1
  6
CONTINUOUS
 10
1.026343
 20
-3.276055
  0
VERTEX
  8
PLAN_1
  6
CONTINUOUS
 10
1.033724
 20
-3.275189
  0
VERTEX
  8
PLAN_1
  6
CONTINUOUS
 10
1.041110
 20
-3.274752
  0
VERTEX
  8
PLAN_1
  6
CONTINUOUS
 10
1.046756
 20
-3.274752
  0
VERTEX
  8
PLAN_1
  6
CONTINUOUS
 10
1.051965
 20
-3.275189
  0
VERTEX
  8
PLAN_1
  6
CONTINUOUS
 10
1.057177
 20
-3.276055
  0
VERTEX
  8
PLAN_1
  6
CONTINUOUS
 10
1.061957
 20
-3.277358
  0
VERTEX
  8
PLAN_1
  6
CONTINUOUS
 10
1.066299
 20
-3.278661
  0
VERTEX
  8
PLAN_1
  6
CONTINUOUS
 10
1.070209
 20
-3.280398
  0
VERTEX
  8
PLAN_1
  6
CONTINUOUS
 10
1.074114
 20
-3.282138
  0
VERTEX
  8
PLAN_1
  6
CONTINUOUS
 10
1.078024
 20
-3.284307
  0
VERTEX
  8
PLAN_1
  6
CONTINUOUS
 10
1.081500
 20
-3.286480
  0
VERTEX
  8
PLAN_1
  6
CONTINUOUS
 10
1.084539
 20
-3.289087
  0
VERTEX
  8
PLAN_1
  6
CONTINUOUS
 10
1.087146
 20
-3.292126
  0
VERTEX
  8
PLAN_1
  6
CONTINUOUS
 10
1.089752
 20
-3.294732
  0
VERTEX
  8
PLAN_1
  6
CONTINUOUS
 10
1.092358
 20
-3.297772
  0
VERTEX
  8
PLAN_1
  6
CONTINUOUS
 10
1.094528
 20
-3.301248
  0
VERTEX
  8
PLAN_1
  6
CONTINUOUS
 10
1.096701
 20
-3.304720
  0
VERTEX
  8
PLAN_1
  6
CONTINUOUS
 10
1.098437
 20
-3.308197
  0
VERTEX
  8
PLAN_1
  6
CONTINUOUS
 10
1.101476
 20
-3.315146
  0
VERTEX
  8
PLAN_1
  6
CONTINUOUS
 10
1.104083
 20
-3.322528
  0
VERTEX
  8
PLAN_1
  6
CONTINUOUS
 10
1.105819
 20
-3.329909
  0
VERTEX
  8
PLAN_1
  6
CONTINUOUS
 10
1.107559
 20
-3.337728
  0
VERTEX
  8
PLAN_1
  6
CONTINUOUS
 10
1.108425
 20
-3.345110
  0
VERTEX
  8
PLAN_1
  6
CONTINUOUS
 10
1.108862
 20
-3.352059
  0
VERTEX
  8
PLAN_1
  6
CONTINUOUS
 10
1.109295
 20
-3.359008
  0
VERTEX
  8
PLAN_1
  6
CONTINUOUS
 10
1.109295
 20
-3.365091
  0
VERTEX
  8
PLAN_1
  6
CONTINUOUS
 10
1.108862
 20
-3.375949
  0
VERTEX
  8
PLAN_1
  6
CONTINUOUS
 10
1.107559
 20
-3.391150
  0
VERTEX
  8
PLAN_1
  6
CONTINUOUS
 10
1.106256
 20
-3.399835
  0
VERTEX
  8
PLAN_1
  6
CONTINUOUS
 10
1.104516
 20
-3.408957
  0
VERTEX
  8
PLAN_1
  6
CONTINUOUS
 10
1.102346
 20
-3.418512
  0
VERTEX
  8
PLAN_1
  6
CONTINUOUS
 10
1.099307
 20
-3.427630
  0
VERTEX
  8
PLAN_1
  6
CONTINUOUS
 10
1.097134
 20
-3.432409
  0
VERTEX
  8
PLAN_1
  6
CONTINUOUS
 10
1.095398
 20
-3.437185
  0
VERTEX
  8
PLAN_1
  6
CONTINUOUS
 10
1.092791
 20
-3.441528
  0
VERTEX
  8
PLAN_1
  6
CONTINUOUS
 10
1.090618
 20
-3.445870
  0
VERTEX
  8
PLAN_1
  6
CONTINUOUS
 10
1.087579
 20
-3.449780
  0
VERTEX
  8
PLAN_1
  6
CONTINUOUS
 10
1.084539
 20
-3.453689
  0
VERTEX
  8
PLAN_1
  6
CONTINUOUS
 10
1.081500
 20
-3.457165
  0
VERTEX
  8
PLAN_1
  6
CONTINUOUS
 10
1.078024
 20
-3.460638
  0
VERTEX
  8
PLAN_1
  6
CONTINUOUS
 10
1.074114
 20
-3.463677
  0
VERTEX
  8
PLAN_1
  6
CONTINUOUS
 10
1.070209
 20
-3.466720
  0
VERTEX
  8
PLAN_1
  6
CONTINUOUS
 10
1.065429
 20
-3.468890
  0
VERTEX
  8
PLAN_1
  6
CONTINUOUS
 10
1.060654
 20
-3.471063
  0
VERTEX
  8
PLAN_1
  6
CONTINUOUS
 10
1.055874
 20
-3.472799
  0
VERTEX
  8
PLAN_1
  6
CONTINUOUS
 10
1.050228
 20
-3.474102
  0
VERTEX
  8
PLAN_1
  6
CONTINUOUS
 10
1.044583
 20
-3.474535
  0
VERTEX
  8
PLAN_1
  6
CONTINUOUS
 10
1.038504
 20
-3.474969
  0
VERTEX
  8
PLAN_1
  6
CONTINUOUS
 10
1.030252
 20
-3.474535
  0
VERTEX
  8
PLAN_1
  6
CONTINUOUS
 10
1.022866
 20
-3.473669
  0
VERTEX
  8
PLAN_1
  6
CONTINUOUS
 10
1.016354
 20
-3.471929
  0
VERTEX
  8
PLAN_1
  6
CONTINUOUS
 10
1.010272
 20
-3.469323
  0
VERTEX
  8
PLAN_1
  6
CONTINUOUS
 10
1.004626
 20
-3.466720
  0
VERTEX
  8
PLAN_1
  6
CONTINUOUS
 10
1.000283
 20
-3.463244
  0
VERTEX
  8
PLAN_1
  6
CONTINUOUS
 10
0.995941
 20
-3.459768
  0
VERTEX
  8
PLAN_1
  6
CONTINUOUS
 10
0.992465
 20
-3.455862
  0
VERTEX
  8
PLAN_1
  6
CONTINUOUS
 10
0.989425
 20
-3.451953
  0
VERTEX
  8
PLAN_1
  6
CONTINUOUS
 10
0.986819
 20
-3.447610
  0
VERTEX
  8
PLAN_1
  6
CONTINUOUS
 10
0.984650
 20
-3.443268
  0
VERTEX
  8
PLAN_1
  6
CONTINUOUS
 10
0.983346
 20
-3.438921
  0
VERTEX
  8
PLAN_1
  6
CONTINUOUS
 10
0.982043
 20
-3.434579
  0
VERTEX
  8
PLAN_1
  6
CONTINUOUS
 10
0.981173
 20
-3.430669
  0
VERTEX
  8
PLAN_1
  6
CONTINUOUS
 10
0.980740
 20
-3.426327
  0
VERTEX
  8
PLAN_1
  6
CONTINUOUS
 10
0.980740
 20
-3.422854
  0
VERTEX
  8
PLAN_1
  6
CONTINUOUS
 10
1.005059
 20
-3.422854
  0
VERTEX
  8
PLAN_1
  6
CONTINUOUS
 10
1.005496
 20
-3.426327
  0
VERTEX
  8
PLAN_1
  6
CONTINUOUS
 10
1.005929
 20
-3.429803
  0
VERTEX
  8
PLAN_1
  6
CONTINUOUS
 10
1.006799
 20
-3.433276
  0
VERTEX
  8
PLAN_1
  6
CONTINUOUS
 10
1.008102
 20
-3.436315
  0
VERTEX
  8
PLAN_1
  6
CONTINUOUS
 10
1.009406
 20
-3.438921
  0
VERTEX
  8
PLAN_1
  6
CONTINUOUS
 10
1.010705
 20
-3.441528
  0
VERTEX
  8
PLAN_1
  6
CONTINUOUS
 10
1.012445
 20
-3.444134
  0
VERTEX
  8
PLAN_1
  6
CONTINUOUS
 10
1.014614
 20
-3.446307
  0
VERTEX
  8
PLAN_1
  6
CONTINUOUS
 10
1.016787
 20
-3.448043
  0
VERTEX
  8
PLAN_1
  6
CONTINUOUS
 10
1.018957
 20
-3.449780
  0
VERTEX
  8
PLAN_1
  6
CONTINUOUS
 10
1.021563
 20
-3.451083
  0
VERTEX
  8
PLAN_1
  6
CONTINUOUS
 10
1.024606
 20
-3.452386
  0
VERTEX
  8
PLAN_1
  6
CONTINUOUS
 10
1.027646
 20
-3.453256
  0
VERTEX
  8
PLAN_1
  6
CONTINUOUS
 10
1.030685
 20
-3.454122
  0
VERTEX
  8
PLAN_1
  6
CONTINUOUS
 10
1.034157
 20
-3.454559
  0
VERTEX
  8
PLAN_1
  6
CONTINUOUS
 10
1.038067
 20
-3.454559
  0
VERTEX
  8
PLAN_1
  6
CONTINUOUS
 10
1.042846
 20
-3.454559
  0
VERTEX
  8
PLAN_1
  6
CONTINUOUS
 10
1.047189
 20
-3.453689
  0
VERTEX
  8
PLAN_1
  6
CONTINUOUS
 10
1.051531
 20
-3.452386
  0
VERTEX
  8
PLAN_1
  6
CONTINUOUS
 10
1.055874
 20
-3.450217
  0
VERTEX
  8
PLAN_1
  6
CONTINUOUS
 10
1.059350
 20
-3.448043
  0
VERTEX
  8
PLAN_1
  6
CONTINUOUS
 10
1.062823
 20
-3.445004
  0
VERTEX
  8
PLAN_1
  6
CONTINUOUS
 10
1.066299
 20
-3.441528
  0
VERTEX
  8
PLAN_1
  6
CONTINUOUS
 10
1.069339
 20
-3.437185
  0
VERTEX
  8
PLAN_1
  6
CONTINUOUS
 10
1.071945
 20
-3.432409
  0
VERTEX
  8
PLAN_1
  6
CONTINUOUS
 10
1.074551
 20
-3.427197
  0
VERTEX
  8
PLAN_1
  6
CONTINUOUS
 10
1.076720
 20
-3.421114
  0
VERTEX
  8
PLAN_1
  6
CONTINUOUS
 10
1.078894
 20
-3.414602
  0
VERTEX
  8
PLAN_1
  6
CONTINUOUS
 10
1.080630
 20
-3.407217
  0
VERTEX
  8
PLAN_1
  6
CONTINUOUS
 10
1.082366
 20
-3.399402
  0
VERTEX
  8
PLAN_1
  6
CONTINUOUS
 10
1.083669
 20
-3.390713
  0
VERTEX
  8
PLAN_1
  6
CONTINUOUS
 10
1.084972
 20
-3.381594
  0
VERTEX
  8
PLAN_1
  6
CONTINUOUS
 10
1.084539
 20
-3.381157
  0
VERTEX
  8
PLAN_1
  6
CONTINUOUS
 10
1.082803
 20
-3.383764
  0
VERTEX
  8
PLAN_1
  6
CONTINUOUS
 10
1.081063
 20
-3.386370
  0
VERTEX
  8
PLAN_1
  6
CONTINUOUS
 10
1.078894
 20
-3.388976
  0
VERTEX
  8
PLAN_1
  6
CONTINUOUS
 10
1.076720
 20
-3.391150
  0
VERTEX
  8
PLAN_1
  6
CONTINUOUS
 10
1.074551
 20
-3.393319
  0
VERTEX
  8
PLAN_1
  6
CONTINUOUS
 10
1.071945
 20
-3.395059
  0
VERTEX
  8
PLAN_1
  6
CONTINUOUS
 10
1.068906
 20
-3.396795
  0
VERTEX
  8
PLAN_1
  6
CONTINUOUS
 10
1.065862
 20
-3.398531
  0
VERTEX
  8
PLAN_1
  6
CONTINUOUS
 10
1.059783
 20
-3.401138
  0
VERTEX
  8
PLAN_1
  6
CONTINUOUS
 10
1.053268
 20
-3.402874
  0
VERTEX
  8
PLAN_1
  6
CONTINUOUS
 10
1.046319
 20
-3.404177
  0
VERTEX
  8
PLAN_1
  6
CONTINUOUS
 10
1.039807
 20
-3.404610
  0
VERTEX
  8
PLAN_1
  6
CONTINUOUS
 10
1.032858
 20
-3.404177
  0
VERTEX
  8
PLAN_1
  6
CONTINUOUS
 10
1.026776
 20
-3.403311
  0
VERTEX
  8
PLAN_1
  6
CONTINUOUS
 10
1.020697
 20
-3.402008
  0
VERTEX
  8
PLAN_1
  6
CONTINUOUS
 10
1.015051
 20
-3.400268
  0
VERTEX
  8
PLAN_1
  6
CONTINUOUS
 10
1.009406
 20
-3.397661
  0
VERTEX
  8
PLAN_1
  6
CONTINUOUS
 10
1.004193
 20
-3.394622
  0
VERTEX
  8
PLAN_1
  6
CONTINUOUS
 10
0.999850
 20
-3.391583
  0
VERTEX
  8
PLAN_1
  6
CONTINUOUS
 10
0.995504
 20
-3.387673
  0
VERTEX
  8
PLAN_1
  6
CONTINUOUS
 10
0.991598
 20
-3.383331
  0
VERTEX
  8
PLAN_1
  6
CONTINUOUS
 10
0.988122
 20
-3.378555
  0
VERTEX
  8
PLAN_1
  6
CONTINUOUS
 10
0.985083
 20
-3.373343
  0
VERTEX
  8
PLAN_1
  6
CONTINUOUS
 10
0.982909
 20
-3.367697
  0
VERTEX
  8
PLAN_1
  6
CONTINUOUS
 10
0.980740
 20
-3.361614
  0
VERTEX
  8
PLAN_1
  6
CONTINUOUS
 10
0.979437
 20
-3.355535
  0
VERTEX
  8
PLAN_1
  6
CONTINUOUS
 10
0.978567
 20
-3.348587
  0
VERTEX
  8
PLAN_1
  6
CONTINUOUS
 10
0.978134
 20
-3.341638
  0
SEQEND
  8
0
  0
POLYLINE
  8
PLAN_1
  6
CONTINUOUS
 66
     1
 40
0.003000
 41
0.003000
  0
VERTEX
  8
PLAN_1
  6
CONTINUOUS
 10
1.080630
 20
-3.338161
  0
VERTEX
  8
PLAN_1
  6
CONTINUOUS
 10
1.080630
 20
-3.334252
  0
VERTEX
  8
PLAN_1
  6
CONTINUOUS
 10
1.080197
 20
-3.329909
  0
VERTEX
  8
PLAN_1
  6
CONTINUOUS
 10
1.079327
 20
-3.326000
  0
VERTEX
  8
PLAN_1
  6
CONTINUOUS
 10
1.078461
 20
-3.322094
  0
VERTEX
  8
PLAN_1
  6
CONTINUOUS
 10
1.077157
 20
-3.318618
  0
VERTEX
  8
PLAN_1
  6
CONTINUOUS
 10
1.075854
 20
-3.315146
  0
VERTEX
  8
PLAN_1
  6
CONTINUOUS
 10
1.073681
 20
-3.312102
  0
VERTEX
  8
PLAN_1
  6
CONTINUOUS
 10
1.071512
 20
-3.309063
  0
VERTEX
  8
PLAN_1
  6
CONTINUOUS
 10
1.068906
 20
-3.306457
  0
VERTEX
  8
PLAN_1
  6
CONTINUOUS
 10
1.066299
 20
-3.303850
  0
VERTEX
  8
PLAN_1
  6
CONTINUOUS
 10
1.062823
 20
-3.301681
  0
VERTEX
  8
PLAN_1
  6
CONTINUOUS
 10
1.059350
 20
-3.299945
  0
VERTEX
  8
PLAN_1
  6
CONTINUOUS
 10
1.055441
 20
-3.298642
  0
VERTEX
  8
PLAN_1
  6
CONTINUOUS
 10
1.051098
 20
-3.297339
  0
VERTEX
  8
PLAN_1
  6
CONTINUOUS
 10
1.046319
 20
-3.296902
  0
VERTEX
  8
PLAN_1
  6
CONTINUOUS
 10
1.041110
 20
-3.296469
  0
VERTEX
  8
PLAN_1
  6
CONTINUOUS
 10
1.037201
 20
-3.296902
  0
VERTEX
  8
PLAN_1
  6
CONTINUOUS
 10
1.033291
 20
-3.297339
  0
VERTEX
  8
PLAN_1
  6
CONTINUOUS
 10
1.029382
 20
-3.298205
  0
VERTEX
  8
PLAN_1
  6
CONTINUOUS
 10
1.025906
 20
-3.299945
  0
VERTEX
  8
PLAN_1
  6
CONTINUOUS
 10
1.022433
 20
-3.301681
  0
VERTEX
  8
PLAN_1
  6
CONTINUOUS
 10
1.019394
 20
-3.303417
  0
VERTEX
  8
PLAN_1
  6
CONTINUOUS
 10
1.016354
 20
-3.306024
  0
VERTEX
  8
PLAN_1
  6
CONTINUOUS
 10
1.013748
 20
-3.308630
  0
VERTEX
  8
PLAN_1
  6
CONTINUOUS
 10
1.011575
 20
-3.311669
  0
VERTEX
  8
PLAN_1
  6
CONTINUOUS
 10
1.009406
 20
-3.315146
  0
VERTEX
  8
PLAN_1
  6
CONTINUOUS
 10
1.007665
 20
-3.318618
  0
VERTEX
  8
PLAN_1
  6
CONTINUOUS
 10
1.006362
 20
-3.322528
  0
VERTEX
  8
PLAN_1
  6
CONTINUOUS
 10
1.005059
 20
-3.326870
  0
VERTEX
  8
PLAN_1
  6
CONTINUOUS
 10
1.004193
 20
-3.331213
  0
VERTEX
  8
PLAN_1
  6
CONTINUOUS
 10
1.003756
 20
-3.335555
  0
VERTEX
  8
PLAN_1
  6
CONTINUOUS
 10
1.003756
 20
-3.340335
  0
VERTEX
  8
PLAN_1
  6
CONTINUOUS
 10
1.003756
 20
-3.346850
  0
VERTEX
  8
PLAN_1
  6
CONTINUOUS
 10
1.004626
 20
-3.352929
  0
VERTEX
  8
PLAN_1
  6
CONTINUOUS
 10
1.005929
 20
-3.358142
  0
VERTEX
  8
PLAN_1
  6
CONTINUOUS
 10
1.007665
 20
-3.362917
  0
VERTEX
  8
PLAN_1
  6
CONTINUOUS
 10
1.009406
 20
-3.366827
  0
VERTEX
  8
PLAN_1
  6
CONTINUOUS
 10
1.012008
 20
-3.370303
  0
VERTEX
  8
PLAN_1
  6
CONTINUOUS
 10
1.014614
 20
-3.372906
  0
VERTEX
  8
PLAN_1
  6
CONTINUOUS
 10
1.017220
 20
-3.375512
  0
VERTEX
  8
PLAN_1
  6
CONTINUOUS
 10
1.020260
 20
-3.377685
  0
VERTEX
  8
PLAN_1
  6
CONTINUOUS
 10
1.023303
 20
-3.378988
  0
VERTEX
  8
PLAN_1
  6
CONTINUOUS
 10
1.026776
 20
-3.380291
  0
VERTEX
  8
PLAN_1
  6
CONTINUOUS
 10
1.030252
 20
-3.381157
  0
VERTEX
  8
PLAN_1
  6
CONTINUOUS
 10
1.036764
 20
-3.382461
  0
VERTEX
  8
PLAN_1
  6
CONTINUOUS
 10
1.043280
 20
-3.382461
  0
VERTEX
  8
PLAN_1
  6
CONTINUOUS
 10
1.048492
 20
-3.382028
  0
VERTEX
  8
PLAN_1
  6
CONTINUOUS
 10
1.054571
 20
-3.381157
  0
VERTEX
  8
PLAN_1
  6
CONTINUOUS
 10
1.057610
 20
-3.379858
  0
VERTEX
  8
PLAN_1
  6
CONTINUOUS
 10
1.060654
 20
-3.378555
  0
VERTEX
  8
PLAN_1
  6
CONTINUOUS
 10
1.063693
 20
-3.376815
  0
VERTEX
  8
PLAN_1
  6
CONTINUOUS
 10
1.066732
 20
-3.374646
  0
VERTEX
  8
PLAN_1
  6
CONTINUOUS
 10
1.069772
 20
-3.372039
  0
VERTEX
  8
PLAN_1
  6
CONTINUOUS
 10
1.072378
 20
-3.369000
  0
VERTEX
  8
PLAN_1
  6
CONTINUOUS
 10
1.074551
 20
-3.365524
  0
VERTEX
  8
PLAN_1
  6
CONTINUOUS
 10
1.076720
 20
-3.361181
  0
VERTEX
  8
PLAN_1
  6
CONTINUOUS
 10
1.078461
 20
-3.356406
  0
VERTEX
  8
PLAN_1
  6
CONTINUOUS
 10
1.079764
 20
-3.351193
  0
VERTEX
  8
PLAN_1
  6
CONTINUOUS
 10
1.080630
 20
-3.345110
  0
VERTEX
  8
PLAN_1
  6
CONTINUOUS
 10
1.080630
 20
-3.338161
  0
SEQEND
  8
0
  0
POLYLINE
  8
PLAN_1
  6
CONTINUOUS
 66
     1
 40
0.003000
 41
0.003000
  0
VERTEX
  8
PLAN_1
  6
CONTINUOUS
 10
1.172272
 20
-3.469760
  0
VERTEX
  8
PLAN_1
  6
CONTINUOUS
 10
1.145343
 20
-3.469760
  0
VERTEX
  8
PLAN_1
  6
CONTINUOUS
 10
1.145343
 20
-3.270409
  0
VERTEX
  8
PLAN_1
  6
CONTINUOUS
 10
1.237417
 20
-3.270409
  0
VERTEX
  8
PLAN_1
  6
CONTINUOUS
 10
1.243496
 20
-3.270409
  0
VERTEX
  8
PLAN_1
  6
CONTINUOUS
 10
1.249579
 20
-3.270843
  0
VERTEX
  8
PLAN_1
  6
CONTINUOUS
 10
1.255657
 20
-3.271713
  0
VERTEX
  8
PLAN_1
  6
CONTINUOUS
 10
1.261736
 20
-3.273016
  0
VERTEX
  8
PLAN_1
  6
CONTINUOUS
 10
1.267386
 20
-3.274319
  0
VERTEX
  8
PLAN_1
  6
CONTINUOUS
 10
1.272594
 20
-3.276492
  0
VERTEX
  8
PLAN_1
  6
CONTINUOUS
 10
1.277807
 20
-3.278661
  0
VERTEX
  8
PLAN_1
  6
CONTINUOUS
 10
1.282587
 20
-3.281268
  0
VERTEX
  8
PLAN_1
  6
CONTINUOUS
 10
1.286929
 20
-3.284744
  0
VERTEX
  8
PLAN_1
  6
CONTINUOUS
 10
1.290839
 20
-3.288650
  0
VERTEX
  8
PLAN_1
  6
CONTINUOUS
 10
1.294311
 20
-3.292996
  0
VERTEX
  8
PLAN_1
  6
CONTINUOUS
 10
1.297350
 20
-3.297772
  0
VERTEX
  8
PLAN_1
  6
CONTINUOUS
 10
1.299957
 20
-3.303417
  0
VERTEX
  8
PLAN_1
  6
CONTINUOUS
 10
1.301693
 20
-3.309500
  0
VERTEX
  8
PLAN_1
  6
CONTINUOUS
 10
1.302563
 20
-3.316449
  0
VERTEX
  8
PLAN_1
  6
CONTINUOUS
 10
1.302996
 20
-3.323831
  0
VERTEX
  8
PLAN_1
  6
CONTINUOUS
 10
1.302996
 20
-3.329476
  0
VERTEX
  8
PLAN_1
  6
CONTINUOUS
 10
1.302563
 20
-3.334252
  0
VERTEX
  8
PLAN_1
  6
CONTINUOUS
 10
1.301693
 20
-3.338598
  0
VERTEX
  8
PLAN_1
  6
CONTINUOUS
 10
1.300394
 20
-3.342941
  0
VERTEX
  8
PLAN_1
  6
CONTINUOUS
 10
1.299091
 20
-3.346413
  0
VERTEX
  8
PLAN_1
  6
CONTINUOUS
 10
1.297787
 20
-3.349890
  0
VERTEX
  8
PLAN_1
  6
CONTINUOUS
 10
1.296047
 20
-3.353362
  0
VERTEX
  8
PLAN_1
  6
CONTINUOUS
 10
1.293878
 20
-3.355969
  0
VERTEX
  8
PLAN_1
  6
CONTINUOUS
 10
1.291705
 20
-3.358575
  0
VERTEX
  8
PLAN_1
  6
CONTINUOUS
 10
1.289535
 20
-3.361181
  0
VERTEX
  8
PLAN_1
  6
CONTINUOUS
 10
1.287362
 20
-3.363354
  0
VERTEX
  8
PLAN_1
  6
CONTINUOUS
 10
1.285189
 20
-3.365091
  0
VERTEX
  8
PLAN_1
  6
CONTINUOUS
 10
1.279980
 20
-3.368563
  0
VERTEX
  8
PLAN_1
  6
CONTINUOUS
 10
1.275201
 20
-3.371606
  0
VERTEX
  8
PLAN_1
  6
CONTINUOUS
 10
1.279543
 20
-3.373776
  0
VERTEX
  8
PLAN_1
  6
CONTINUOUS
 10
1.283453
 20
-3.375512
  0
VERTEX
  8
PLAN_1
  6
CONTINUOUS
 10
1.287362
 20
-3.378555
  0
VERTEX
  8
PLAN_1
  6
CONTINUOUS
 10
1.291272
 20
-3.382028
  0
VERTEX
  8
PLAN_1
  6
CONTINUOUS
 10
1.292575
 20
-3.383764
  0
VERTEX
  8
PLAN_1
  6
CONTINUOUS
 10
1.294311
 20
-3.386370
  0
VERTEX
  8
PLAN_1
  6
CONTINUOUS
 10
1.295614
 20
-3.388976
  0
VERTEX
  8
PLAN_1
  6
CONTINUOUS
 10
1.296484
 20
-3.392453
  0
VERTEX
  8
PLAN_1
  6
CONTINUOUS
 10
1.297350
 20
-3.395925
  0
VERTEX
  8
PLAN_1
  6
CONTINUOUS
 10
1.298220
 20
-3.399835
  0
VERTEX
  8
PLAN_1
  6
CONTINUOUS
 10
1.298654
 20
-3.404177
  0
VERTEX
  8
PLAN_1
  6
CONTINUOUS
 10
1.299091
 20
-3.409390
  0
VERTEX
  8
PLAN_1
  6
CONTINUOUS
 10
1.300827
 20
-3.445437
  0
VERTEX
  8
PLAN_1
  6
CONTINUOUS
 10
1.300827
 20
-3.449346
  0
VERTEX
  8
PLAN_1
  6
CONTINUOUS
 10
1.301260
 20
-3.452386
  0
VERTEX
  8
PLAN_1
  6
CONTINUOUS
 10
1.301693
 20
-3.455425
  0
VERTEX
  8
PLAN_1
  6
CONTINUOUS
 10
1.302996
 20
-3.457598
  0
VERTEX
  8
PLAN_1
  6
CONTINUOUS
 10
1.303866
 20
-3.459768
  0
VERTEX
  8
PLAN_1
  6
CONTINUOUS
 10
1.305602
 20
-3.461508
  0
VERTEX
  8
PLAN_1
  6
CONTINUOUS
 10
1.308209
 20
-3.463677
  0
VERTEX
  8
PLAN_1
  6
CONTINUOUS
 10
1.310815
 20
-3.465417
  0
VERTEX
  8
PLAN_1
  6
CONTINUOUS
 10
1.310815
 20
-3.469760
  0
VERTEX
  8
PLAN_1
  6
CONTINUOUS
 10
1.277807
 20
-3.469760
  0
VERTEX
  8
PLAN_1
  6
CONTINUOUS
 10
1.276504
 20
-3.464547
  0
VERTEX
  8
PLAN_1
  6
CONTINUOUS
 10
1.275638
 20
-3.457598
  0
VERTEX
  8
PLAN_1
  6
CONTINUOUS
 10
1.274768
 20
-3.450650
  0
VERTEX
  8
PLAN_1
  6
CONTINUOUS
 10
1.273898
 20
-3.442831
  0
VERTEX
  8
PLAN_1
  6
CONTINUOUS
 10
1.273465
 20
-3.435449
  0
VERTEX
  8
PLAN_1
  6
CONTINUOUS
 10
1.273465
 20
-3.428933
  0
VERTEX
  8
PLAN_1
  6
CONTINUOUS
 10
1.273031
 20
-3.423720
  0
VERTEX
  8
PLAN_1
  6
CONTINUOUS
 10
1.273031
 20
-3.419815
  0
VERTEX
  8
PLAN_1
  6
CONTINUOUS
 10
1.273031
 20
-3.413732
  0
VERTEX
  8
PLAN_1
  6
CONTINUOUS
 10
1.272161
 20
-3.407217
  0
VERTEX
  8
PLAN_1
  6
CONTINUOUS
 10
1.271291
 20
-3.404177
  0
VERTEX
  8
PLAN_1
  6
CONTINUOUS
 10
1.270425
 20
-3.401138
  0
VERTEX
  8
PLAN_1
  6
CONTINUOUS
 10
1.269122
 20
-3.398531
  0
VERTEX
  8
PLAN_1
  6
CONTINUOUS
 10
1.267386
 20
-3.395925
  0
VERTEX
  8
PLAN_1
  6
CONTINUOUS
 10
1.265213
 20
-3.393319
  0
VERTEX
  8
PLAN_1
  6
CONTINUOUS
 10
1.263039
 20
-3.391150
  0
VERTEX
  8
PLAN_1
  6
CONTINUOUS
 10
1.260000
 20
-3.388976
  0
VERTEX
  8
PLAN_1
  6
CONTINUOUS
 10
1.256528
 20
-3.387673
  0
VERTEX
  8
PLAN_1
  6
CONTINUOUS
 10
1.252618
 20
-3.385937
  0
VERTEX
  8
PLAN_1
  6
CONTINUOUS
 10
1.248276
 20
-3.385067
  0
VERTEX
  8
PLAN_1
  6
CONTINUOUS
 10
1.243063
 20
-3.384634
  0
VERTEX
  8
PLAN_1
  6
CONTINUOUS
 10
1.237417
 20
-3.384201
  0
VERTEX
  8
PLAN_1
  6
CONTINUOUS
 10
1.172272
 20
-3.384201
  0
VERTEX
  8
PLAN_1
  6
CONTINUOUS
 10
1.172272
 20
-3.469760
  0
SEQEND
  8
0
  0
POLYLINE
  8
PLAN_1
  6
CONTINUOUS
 66
     1
 40
0.003000
 41
0.003000
  0
VERTEX
  8
PLAN_1
  6
CONTINUOUS
 10
1.172272
 20
-3.361181
  0
VERTEX
  8
PLAN_1
  6
CONTINUOUS
 10
1.234811
 20
-3.361181
  0
VERTEX
  8
PLAN_1
  6
CONTINUOUS
 10
1.242193
 20
-3.360748
  0
VERTEX
  8
PLAN_1
  6
CONTINUOUS
 10
1.249579
 20
-3.359878
  0
VERTEX
  8
PLAN_1
  6
CONTINUOUS
 10
1.253051
 20
-3.359008
  0
VERTEX
  8
PLAN_1
  6
CONTINUOUS
 10
1.256091
 20
-3.358142
  0
VERTEX
  8
PLAN_1
  6
CONTINUOUS
 10
1.259567
 20
-3.356839
  0
VERTEX
  8
PLAN_1
  6
CONTINUOUS
 10
1.262606
 20
-3.355102
  0
VERTEX
  8
PLAN_1
  6
CONTINUOUS
 10
1.265213
 20
-3.352929
  0
VERTEX
  8
PLAN_1
  6
CONTINUOUS
 10
1.267819
 20
-3.350756
  0
VERTEX
  8
PLAN_1
  6
CONTINUOUS
 10
1.269988
 20
-3.347717
  0
VERTEX
  8
PLAN_1
  6
CONTINUOUS
 10
1.271728
 20
-3.344677
  0
VERTEX
  8
PLAN_1
  6
CONTINUOUS
 10
1.273031
 20
-3.340768
  0
VERTEX
  8
PLAN_1
  6
CONTINUOUS
 10
1.274335
 20
-3.336858
  0
VERTEX
  8
PLAN_1
  6
CONTINUOUS
 10
1.275201
 20
-3.332083
  0
VERTEX
  8
PLAN_1
  6
CONTINUOUS
 10
1.275201
 20
-3.326870
  0
VERTEX
  8
PLAN_1
  6
CONTINUOUS
 10
1.275201
 20
-3.321224
  0
VERTEX
  8
PLAN_1
  6
CONTINUOUS
 10
1.274335
 20
-3.316449
  0
VERTEX
  8
PLAN_1
  6
CONTINUOUS
 10
1.273031
 20
-3.312102
  0
VERTEX
  8
PLAN_1
  6
CONTINUOUS
 10
1.271728
 20
-3.308630
  0
VERTEX
  8
PLAN_1
  6
CONTINUOUS
 10
1.269555
 20
-3.305591
  0
VERTEX
  8
PLAN_1
  6
CONTINUOUS
 10
1.267386
 20
-3.302547
  0
VERTEX
  8
PLAN_1
  6
CONTINUOUS
 10
1.265213
 20
-3.300378
  0
VERTEX
  8
PLAN_1
  6
CONTINUOUS
 10
1.262606
 20
-3.298642
  0
VERTEX
  8
PLAN_1
  6
CONTINUOUS
 10
1.259567
 20
-3.296902
  0
VERTEX
  8
PLAN_1
  6
CONTINUOUS
 10
1.256528
 20
-3.296035
  0
VERTEX
  8
PLAN_1
  6
CONTINUOUS
 10
1.253488
 20
-3.295165
  0
VERTEX
  8
PLAN_1
  6
CONTINUOUS
 10
1.250882
 20
-3.294295
  0
VERTEX
  8
PLAN_1
  6
CONTINUOUS
 10
1.244799
 20
-3.293862
  0
VERTEX
  8
PLAN_1
  6
CONTINUOUS
 10
1.239587
 20
-3.293429
  0
VERTEX
  8
PLAN_1
  6
CONTINUOUS
 10
1.172272
 20
-3.293429
  0
VERTEX
  8
PLAN_1
  6
CONTINUOUS
 10
1.172272
 20
-3.361181
  0
SEQEND
  8
0
  0
SOLID
  8
PLAN_1
 10
1.374657
 20
-3.469760
 11
1.345559
 21
-3.469760
 12
1.374657
 22
-3.440224
 13
1.345559
 23
-3.440224
  0
POLYLINE
  8
PLAN_1
  6
CONTINUOUS
 66
     1
 40
0.003000
 41
0.003000
  0
VERTEX
  8
PLAN_1
  6
CONTINUOUS
 10
1.374657
 20
-3.469760
  0
VERTEX
  8
PLAN_1
  6
CONTINUOUS
 10
1.345559
 20
-3.469760
  0
VERTEX
  8
PLAN_1
  6
CONTINUOUS
 10
1.345559
 20
-3.440224
  0
VERTEX
  8
PLAN_1
  6
CONTINUOUS
 10
1.374657
 20
-3.440224
  0
VERTEX
  8
PLAN_1
  6
CONTINUOUS
 10
1.374657
 20
-3.469760
  0
SEQEND
  8
0
  0
POLYLINE
  8
PLAN_1
  6
CONTINUOUS
 66
     1
 40
0.003000
 41
0.003000
  0
VERTEX
  8
PLAN_1
  6
CONTINUOUS
 10
1.569665
 20
-3.469760
  0
VERTEX
  8
PLAN_1
  6
CONTINUOUS
 10
1.422433
 20
-3.469760
  0
VERTEX
  8
PLAN_1
  6
CONTINUOUS
 10
1.422433
 20
-3.270409
  0
VERTEX
  8
PLAN_1
  6
CONTINUOUS
 10
1.567492
 20
-3.270409
  0
VERTEX
  8
PLAN_1
  6
CONTINUOUS
 10
1.567492
 20
-3.294295
  0
VERTEX
  8
PLAN_1
  6
CONTINUOUS
 10
1.449362
 20
-3.294295
  0
VERTEX
  8
PLAN_1
  6
CONTINUOUS
 10
1.449362
 20
-3.355535
  0
VERTEX
  8
PLAN_1
  6
CONTINUOUS
 10
1.558374
 20
-3.355535
  0
VERTEX
  8
PLAN_1
  6
CONTINUOUS
 10
1.558374
 20
-3.379421
  0
VERTEX
  8
PLAN_1
  6
CONTINUOUS
 10
1.449362
 20
-3.379421
  0
VERTEX
  8
PLAN_1
  6
CONTINUOUS
 10
1.449362
 20
-3.445870
  0
VERTEX
  8
PLAN_1
  6
CONTINUOUS
 10
1.569665
 20
-3.445870
  0
VERTEX
  8
PLAN_1
  6
CONTINUOUS
 10
1.569665
 20
-3.469760
  0
SEQEND
  8
0
  0
POLYLINE
  8
PLAN_1
  6
CONTINUOUS
 66
     1
 40
0.003000
 41
0.003000
  0
VERTEX
  8
PLAN_1
  6
CONTINUOUS
 10
1.634378
 20
-3.469760
  0
VERTEX
  8
PLAN_1
  6
CONTINUOUS
 10
1.607449
 20
-3.469760
  0
VERTEX
  8
PLAN_1
  6
CONTINUOUS
 10
1.607449
 20
-3.270409
  0
VERTEX
  8
PLAN_1
  6
CONTINUOUS
 10
1.697350
 20
-3.270409
  0
VERTEX
  8
PLAN_1
  6
CONTINUOUS
 10
1.703866
 20
-3.270843
  0
VERTEX
  8
PLAN_1
  6
CONTINUOUS
 10
1.710382
 20
-3.271713
  0
VERTEX
  8
PLAN_1
  6
CONTINUOUS
 10
1.716461
 20
-3.273016
  0
VERTEX
  8
PLAN_1
  6
CONTINUOUS
 10
1.722106
 20
-3.274752
  0
VERTEX
  8
PLAN_1
  6
CONTINUOUS
 10
1.727319
 20
-3.276925
  0
VERTEX
  8
PLAN_1
  6
CONTINUOUS
 10
1.732098
 20
-3.279531
  0
VERTEX
  8
PLAN_1
  6
CONTINUOUS
 10
1.736441
 20
-3.283004
  0
VERTEX
  8
PLAN_1
  6
CONTINUOUS
 10
1.740783
 20
-3.286480
  0
VERTEX
  8
PLAN_1
  6
CONTINUOUS
 10
1.744256
 20
-3.290390
  0
VERTEX
  8
PLAN_1
  6
CONTINUOUS
 10
1.747299
 20
-3.294732
  0
VERTEX
  8
PLAN_1
  6
CONTINUOUS
 10
1.749902
 20
-3.299075
  0
VERTEX
  8
PLAN_1
  6
CONTINUOUS
 10
1.752508
 20
-3.304287
  0
VERTEX
  8
PLAN_1
  6
CONTINUOUS
 10
1.754248
 20
-3.309500
  0
VERTEX
  8
PLAN_1
  6
CONTINUOUS
 10
1.755551
 20
-3.314709
  0
VERTEX
  8
PLAN_1
  6
CONTINUOUS
 10
1.755984
 20
-3.320791
  0
VERTEX
  8
PLAN_1
  6
CONTINUOUS
 10
1.756417
 20
-3.326437
  0
VERTEX
  8
PLAN_1
  6
CONTINUOUS
 10
1.755984
 20
-3.331650
  0
VERTEX
  8
PLAN_1
  6
CONTINUOUS
 10
1.755551
 20
-3.336858
  0
VERTEX
  8
PLAN_1
  6
CONTINUOUS
 10
1.754681
 20
-3.342071
  0
VERTEX
  8
PLAN_1
  6
CONTINUOUS
 10
1.753378
 20
-3.347283
  0
VERTEX
  8
PLAN_1
  6
CONTINUOUS
 10
1.751205
 20
-3.352496
  0
VERTEX
  8
PLAN_1
  6
CONTINUOUS
 10
1.749035
 20
-3.357272
  0
VERTEX
  8
PLAN_1
  6
CONTINUOUS
 10
1.746429
 20
-3.362051
  0
VERTEX
  8
PLAN_1
  6
CONTINUOUS
 10
1.742953
 20
-3.366394
  0
VERTEX
  8
PLAN_1
  6
CONTINUOUS
 10
1.739480
 20
-3.370736
  0
VERTEX
  8
PLAN_1
  6
CONTINUOUS
 10
1.735138
 20
-3.374209
  0
VERTEX
  8
PLAN_1
  6
CONTINUOUS
 10
1.730358
 20
-3.377685
  0
VERTEX
  8
PLAN_1
  6
CONTINUOUS
 10
1.724713
 20
-3.380291
  0
VERTEX
  8
PLAN_1
  6
CONTINUOUS
 10
1.718634
 20
-3.382461
  0
VERTEX
  8
PLAN_1
  6
CONTINUOUS
 10
1.712118
 20
-3.384201
  0
VERTEX
  8
PLAN_1
  6
CONTINUOUS
 10
1.705169
 20
-3.385067
  0
VERTEX
  8
PLAN_1
  6
CONTINUOUS
 10
1.697350
 20
-3.385504
  0
VERTEX
  8
PLAN_1
  6
CONTINUOUS
 10
1.634378
 20
-3.385504
  0
VERTEX
  8
PLAN_1
  6
CONTINUOUS
 10
1.634378
 20
-3.469760
  0
SEQEND
  8
0
  0
POLYLINE
  8
PLAN_1
  6
CONTINUOUS
 66
     1
 40
0.003000
 41
0.003000
  0
VERTEX
  8
PLAN_1
  6
CONTINUOUS
 10
1.634378
 20
-3.362484
  0
VERTEX
  8
PLAN_1
  6
CONTINUOUS
 10
1.688232
 20
-3.362484
  0
VERTEX
  8
PLAN_1
  6
CONTINUOUS
 10
1.692575
 20
-3.362484
  0
VERTEX
  8
PLAN_1
  6
CONTINUOUS
 10
1.696917
 20
-3.362051
  0
VERTEX
  8
PLAN_1
  6
CONTINUOUS
 10
1.700827
 20
-3.361614
  0
VERTEX
  8
PLAN_1
  6
CONTINUOUS
 10
1.704736
 20
-3.360748
  0
VERTEX
  8
PLAN_1
  6
CONTINUOUS
 10
1.708209
 20
-3.359878
  0
VERTEX
  8
PLAN_1
  6
CONTINUOUS
 10
1.711685
 20
-3.358142
  0
VERTEX
  8
PLAN_1
  6
CONTINUOUS
 10
1.714724
 20
-3.356839
  0
VERTEX
  8
PLAN_1
  6
CONTINUOUS
 10
1.717331
 20
-3.354665
  0
VERTEX
  8
PLAN_1
  6
CONTINUOUS
 10
1.719937
 20
-3.352496
  0
VERTEX
  8
PLAN_1
  6
CONTINUOUS
 10
1.722106
 20
-3.349890
  0
VERTEX
  8
PLAN_1
  6
CONTINUOUS
 10
1.724280
 20
-3.346850
  0
VERTEX
  8
PLAN_1
  6
CONTINUOUS
 10
1.725583
 20
-3.343807
  0
VERTEX
  8
PLAN_1
  6
CONTINUOUS
 10
1.726886
 20
-3.339902
  0
VERTEX
  8
PLAN_1
  6
CONTINUOUS
 10
1.727752
 20
-3.335992
  0
VERTEX
  8
PLAN_1
  6
CONTINUOUS
 10
1.728622
 20
-3.331650
  0
VERTEX
  8
PLAN_1
  6
CONTINUOUS
 10
1.728622
 20
-3.326870
  0
VERTEX
  8
PLAN_1
  6
CONTINUOUS
 10
1.728622
 20
-3.322094
  0
VERTEX
  8
PLAN_1
  6
CONTINUOUS
 10
1.727752
 20
-3.318185
  0
VERTEX
  8
PLAN_1
  6
CONTINUOUS
 10
1.726886
 20
-3.314276
  0
VERTEX
  8
PLAN_1
  6
CONTINUOUS
 10
1.725583
 20
-3.310799
  0
VERTEX
  8
PLAN_1
  6
CONTINUOUS
 10
1.723846
 20
-3.307760
  0
VERTEX
  8
PLAN_1
  6
CONTINUOUS
 10
1.722106
 20
-3.305154
  0
VERTEX
  8
PLAN_1
  6
CONTINUOUS
 10
1.719937
 20
-3.302547
  0
VERTEX
  8
PLAN_1
  6
CONTINUOUS
 10
1.717331
 20
-3.300811
  0
VERTEX
  8
PLAN_1
  6
CONTINUOUS
 10
1.714291
 20
-3.299075
  0
VERTEX
  8
PLAN_1
  6
CONTINUOUS
 10
1.711248
 20
-3.297339
  0
VERTEX
  8
PLAN_1
  6
CONTINUOUS
 10
1.708209
 20
-3.296035
  0
VERTEX
  8
PLAN_1
  6
CONTINUOUS
 10
1.704736
 20
-3.295165
  0
VERTEX
  8
PLAN_1
  6
CONTINUOUS
 10
1.701260
 20
-3.294295
  0
VERTEX
  8
PLAN_1
  6
CONTINUOUS
 10
1.697350
 20
-3.293862
  0
VERTEX
  8
PLAN_1
  6
CONTINUOUS
 10
1.693445
 20
-3.293429
  0
VERTEX
  8
PLAN_1
  6
CONTINUOUS
 10
1.689098
 20
-3.293429
  0
VERTEX
  8
PLAN_1
  6
CONTINUOUS
 10
1.634378
 20
-3.293429
  0
VERTEX
  8
PLAN_1
  6
CONTINUOUS
 10
1.634378
 20
-3.362484
  0
SEQEND
  8
0
  0
POLYLINE
  8
PLAN_1
  6
CONTINUOUS
 66
     1
 40
0.003000
 41
0.003000
  0
VERTEX
  8
PLAN_1
  6
CONTINUOUS
 10
1.910165
 20
-3.328606
  0
VERTEX
  8
PLAN_1
  6
CONTINUOUS
 10
1.909728
 20
-3.323398
  0
VERTEX
  8
PLAN_1
  6
CONTINUOUS
 10
1.908425
 20
-3.318185
  0
VERTEX
  8
PLAN_1
  6
CONTINUOUS
 10
1.907122
 20
-3.313406
  0
VERTEX
  8
PLAN_1
  6
CONTINUOUS
 10
1.904953
 20
-3.309500
  0
VERTEX
  8
PLAN_1
  6
CONTINUOUS
 10
1.902780
 20
-3.305591
  0
VERTEX
  8
PLAN_1
  6
CONTINUOUS
 10
1.899740
 20
-3.302547
  0
VERTEX
  8
PLAN_1
  6
CONTINUOUS
 10
1.896701
 20
-3.299508
  0
VERTEX
  8
PLAN_1
  6
CONTINUOUS
 10
1.893224
 20
-3.296902
  0
VERTEX
  8
PLAN_1
  6
CONTINUOUS
 10
1.889752
 20
-3.294732
  0
VERTEX
  8
PLAN_1
  6
CONTINUOUS
 10
1.885843
 20
-3.292996
  0
VERTEX
  8
PLAN_1
  6
CONTINUOUS
 10
1.881933
 20
-3.291256
  0
VERTEX
  8
PLAN_1
  6
CONTINUOUS
 10
1.877591
 20
-3.290390
  0
VERTEX
  8
PLAN_1
  6
CONTINUOUS
 10
1.873681
 20
-3.289520
  0
VERTEX
  8
PLAN_1
  6
CONTINUOUS
 10
1.869339
 20
-3.288650
  0
VERTEX
  8
PLAN_1
  6
CONTINUOUS
 10
1.864996
 20
-3.288217
  0
VERTEX
  8
PLAN_1
  6
CONTINUOUS
 10
1.860654
 20
-3.288217
  0
VERTEX
  8
PLAN_1
  6
CONTINUOUS
 10
1.854138
 20
-3.288650
  0
VERTEX
  8
PLAN_1
  6
CONTINUOUS
 10
1.846756
 20
-3.289520
  0
VERTEX
  8
PLAN_1
  6
CONTINUOUS
 10
1.842846
 20
-3.290390
  0
VERTEX
  8
PLAN_1
  6
CONTINUOUS
 10
1.838937
 20
-3.291256
  0
VERTEX
  8
PLAN_1
  6
CONTINUOUS
 10
1.835461
 20
-3.292559
  0
VERTEX
  8
PLAN_1
  6
CONTINUOUS
 10
1.831555
 20
-3.294295
  0
VERTEX
  8
PLAN_1
  6
CONTINUOUS
 10
1.828512
 20
-3.296469
  0
VERTEX
  8
PLAN_1
  6
CONTINUOUS
 10
1.825039
 20
-3.298642
  0
VERTEX
  8
PLAN_1
  6
CONTINUOUS
 10
1.822433
 20
-3.301681
  0
VERTEX
  8
PLAN_1
  6
CONTINUOUS
 10
1.819827
 20
-3.305154
  0
VERTEX
  8
PLAN_1
  6
CONTINUOUS
 10
1.818091
 20
-3.308630
  0
VERTEX
  8
PLAN_1
  6
CONTINUOUS
 10
1.816354
 20
-3.312972
  0
VERTEX
  8
PLAN_1
  6
CONTINUOUS
 10
1.815484
 20
-3.317752
  0
VERTEX
  8
PLAN_1
  6
CONTINUOUS
 10
1.815484
 20
-3.322961
  0
VERTEX
  8
PLAN_1
  6
CONTINUOUS
 10
1.815484
 20
-3.326437
  0
VERTEX
  8
PLAN_1
  6
CONTINUOUS
 10
1.815917
 20
-3.329043
  0
VERTEX
  8
PLAN_1
  6
CONTINUOUS
 10
1.816354
 20
-3.331650
  0
VERTEX
  8
PLAN_1
  6
CONTINUOUS
 10
1.817220
 20
-3.333819
  0
VERTEX
  8
PLAN_1
  6
CONTINUOUS
 10
1.818524
 20
-3.335992
  0
VERTEX
  8
PLAN_1
  6
CONTINUOUS
 10
1.819827
 20
-3.337728
  0
VERTEX
  8
PLAN_1
  6
CONTINUOUS
 10
1.821130
 20
-3.339465
  0
VERTEX
  8
PLAN_1
  6
CONTINUOUS
 10
1.822866
 20
-3.341205
  0
VERTEX
  8
PLAN_1
  6
CONTINUOUS
 10
1.826343
 20
-3.343807
  0
VERTEX
  8
PLAN_1
  6
CONTINUOUS
 10
1.830252
 20
-3.345547
  0
VERTEX
  8
PLAN_1
  6
CONTINUOUS
 10
1.834594
 20
-3.347283
  0
VERTEX
  8
PLAN_1
  6
CONTINUOUS
 10
1.838937
 20
-3.348587
  0
VERTEX
  8
PLAN_1
  6
CONTINUOUS
 10
1.895831
 20
-3.361614
  0
VERTEX
  8
PLAN_1
  6
CONTINUOUS
 10
1.900610
 20
-3.362917
  0
VERTEX
  8
PLAN_1
  6
CONTINUOUS
 10
1.904953
 20
-3.364220
  0
VERTEX
  8
PLAN_1
  6
CONTINUOUS
 10
1.909728
 20
-3.365957
  0
VERTEX
  8
PLAN_1
  6
CONTINUOUS
 10
1.913638
 20
-3.368130
  0
VERTEX
  8
PLAN_1
  6
CONTINUOUS
 10
1.917547
 20
-3.370303
  0
VERTEX
  8
PLAN_1
  6
CONTINUOUS
 10
1.921457
 20
-3.372472
  0
VERTEX
  8
PLAN_1
  6
CONTINUOUS
 10
1.924929
 20
-3.375512
  0
VERTEX
  8
PLAN_1
  6
CONTINUOUS
 10
1.927972
 20
-3.378555
  0
VERTEX
  8
PLAN_1
  6
CONTINUOUS
 10
1.931012
 20
-3.382028
  0
VERTEX
  8
PLAN_1
  6
CONTINUOUS
 10
1.933618
 20
-3.385504
  0
VERTEX
  8
PLAN_1
  6
CONTINUOUS
 10
1.935787
 20
-3.389409
  0
VERTEX
  8
PLAN_1
  6
CONTINUOUS
 10
1.937524
 20
-3.393756
  0
VERTEX
  8
PLAN_1
  6
CONTINUOUS
 10
1.938827
 20
-3.398531
  0
VERTEX
  8
PLAN_1
  6
CONTINUOUS
 10
1.940130
 20
-3.403744
  0
VERTEX
  8
PLAN_1
  6
CONTINUOUS
 10
1.940567
 20
-3.408957
  0
VERTEX
  8
PLAN_1
  6
CONTINUOUS
 10
1.941000
 20
-3.414602
  0
VERTEX
  8
PLAN_1
  6
CONTINUOUS
 10
1.941000
 20
-3.418945
  0
VERTEX
  8
PLAN_1
  6
CONTINUOUS
 10
1.940567
 20
-3.423287
  0
VERTEX
  8
PLAN_1
  6
CONTINUOUS
 10
1.939697
 20
-3.427197
  0
VERTEX
  8
PLAN_1
  6
CONTINUOUS
 10
1.938827
 20
-3.430669
  0
VERTEX
  8
PLAN_1
  6
CONTINUOUS
 10
1.937961
 20
-3.434579
  0
VERTEX
  8
PLAN_1
  6
CONTINUOUS
 10
1.936657
 20
-3.437618
  0
VERTEX
  8
PLAN_1
  6
CONTINUOUS
 10
1.935354
 20
-3.441094
  0
VERTEX
  8
PLAN_1
  6
CONTINUOUS
 10
1.933618
 20
-3.444134
  0
VERTEX
  8
PLAN_1
  6
CONTINUOUS
 10
1.931878
 20
-3.446740
  0
VERTEX
  8
PLAN_1
  6
CONTINUOUS
 10
1.929709
 20
-3.449780
  0
VERTEX
  8
PLAN_1
  6
CONTINUOUS
 10
1.927535
 20
-3.452386
  0
VERTEX
  8
PLAN_1
  6
CONTINUOUS
 10
1.925366
 20
-3.454559
  0
VERTEX
  8
PLAN_1
  6
CONTINUOUS
 10
1.920154
 20
-3.458902
  0
VERTEX
  8
PLAN_1
  6
CONTINUOUS
 10
1.914941
 20
-3.462374
  0
VERTEX
  8
PLAN_1
  6
CONTINUOUS
 10
1.908862
 20
-3.465850
  0
VERTEX
  8
PLAN_1
  6
CONTINUOUS
 10
1.902780
 20
-3.468457
  0
VERTEX
  8
PLAN_1
  6
CONTINUOUS
 10
1.896268
 20
-3.470626
  0
VERTEX
  8
PLAN_1
  6
CONTINUOUS
 10
1.889752
 20
-3.472366
  0
VERTEX
  8
PLAN_1
  6
CONTINUOUS
 10
1.882803
 20
-3.473669
  0
VERTEX
  8
PLAN_1
  6
CONTINUOUS
 10
1.876287
 20
-3.474535
  0
VERTEX
  8
PLAN_1
  6
CONTINUOUS
 10
1.869339
 20
-3.474969
  0
VERTEX
  8
PLAN_1
  6
CONTINUOUS
 10
1.862823
 20
-3.474969
  0
VERTEX
  8
PLAN_1
  6
CONTINUOUS
 10
1.856311
 20
-3.474969
  0
VERTEX
  8
PLAN_1
  6
CONTINUOUS
 10
1.850228
 20
-3.474535
  0
VERTEX
  8
PLAN_1
  6
CONTINUOUS
 10
1.844583
 20
-3.474102
  0
VERTEX
  8
PLAN_1
  6
CONTINUOUS
 10
1.839370
 20
-3.473232
  0
VERTEX
  8
PLAN_1
  6
CONTINUOUS
 10
1.834594
 20
-3.472366
  0
VERTEX
  8
PLAN_1
  6
CONTINUOUS
 10
1.830252
 20
-3.471063
  0
VERTEX
  8
PLAN_1
  6
CONTINUOUS
 10
1.825909
 20
-3.469760
  0
VERTEX
  8
PLAN_1
  6
CONTINUOUS
 10
1.822433
 20
-3.468457
  0
VERTEX
  8
PLAN_1
  6
CONTINUOUS
 10
1.815917
 20
-3.465417
  0
VERTEX
  8
PLAN_1
  6
CONTINUOUS
 10
1.810709
 20
-3.462374
  0
VERTEX
  8
PLAN_1
  6
CONTINUOUS
 10
1.806362
 20
-3.458902
  0
VERTEX
  8
PLAN_1
  6
CONTINUOUS
 10
1.802890
 20
-3.455862
  0
VERTEX
  8
PLAN_1
  6
CONTINUOUS
 10
1.799850
 20
-3.452819
  0
VERTEX
  8
PLAN_1
  6
CONTINUOUS
 10
1.797244
 20
-3.450217
  0
VERTEX
  8
PLAN_1
  6
CONTINUOUS
 10
1.794638
 20
-3.447173
  0
VERTEX
  8
PLAN_1
  6
CONTINUOUS
 10
1.792465
 20
-3.444134
  0
VERTEX
  8
PLAN_1
  6
CONTINUOUS
 10
1.790728
 20
-3.441094
  0
VERTEX
  8
PLAN_1
  6
CONTINUOUS
 10
1.788992
 20
-3.438055
  0
VERTEX
  8
PLAN_1
  6
CONTINUOUS
 10
1.787689
 20
-3.435016
  0
VERTEX
  8
PLAN_1
  6
CONTINUOUS
 10
1.786386
 20
-3.431972
  0
VERTEX
  8
PLAN_1
  6
CONTINUOUS
 10
1.784650
 20
-3.425461
  0
VERTEX
  8
PLAN_1
  6
CONTINUOUS
 10
1.783346
 20
-3.418945
  0
VERTEX
  8
PLAN_1
  6
CONTINUOUS
 10
1.782909
 20
-3.411996
  0
VERTEX
  8
PLAN_1
  6
CONTINUOUS
 10
1.782476
 20
-3.405480
  0
VERTEX
  8
PLAN_1
  6
CONTINUOUS
 10
1.807665
 20
-3.405480
  0
VERTEX
  8
PLAN_1
  6
CONTINUOUS
 10
1.808102
 20
-3.411996
  0
VERTEX
  8
PLAN_1
  6
CONTINUOUS
 10
1.808969
 20
-3.417642
  0
VERTEX
  8
PLAN_1
  6
CONTINUOUS
 10
1.810709
 20
-3.422854
  0
VERTEX
  8
PLAN_1
  6
CONTINUOUS
 10
1.812878
 20
-3.427630
  0
VERTEX
  8
PLAN_1
  6
CONTINUOUS
 10
1.815484
 20
-3.431972
  0
VERTEX
  8
PLAN_1
  6
CONTINUOUS
 10
1.818524
 20
-3.435882
  0
VERTEX
  8
PLAN_1
  6
CONTINUOUS
 10
1.822000
 20
-3.439358
  0
VERTEX
  8
PLAN_1
  6
CONTINUOUS
 10
1.825909
 20
-3.441965
  0
VERTEX
  8
PLAN_1
  6
CONTINUOUS
 10
1.829815
 20
-3.444567
  0
VERTEX
  8
PLAN_1
  6
CONTINUOUS
 10
1.834161
 20
-3.446740
  0
VERTEX
  8
PLAN_1
  6
CONTINUOUS
 10
1.838504
 20
-3.448476
  0
VERTEX
  8
PLAN_1
  6
CONTINUOUS
 10
1.843280
 20
-3.449780
  0
VERTEX
  8
PLAN_1
  6
CONTINUOUS
 10
1.848059
 20
-3.450650
  0
VERTEX
  8
PLAN_1
  6
CONTINUOUS
 10
1.853268
 20
-3.451516
  0
VERTEX
  8
PLAN_1
  6
CONTINUOUS
 10
1.858047
 20
-3.451953
  0
VERTEX
  8
PLAN_1
  6
CONTINUOUS
 10
1.862823
 20
-3.451953
  0
VERTEX
  8
PLAN_1
  6
CONTINUOUS
 10
1.870642
 20
-3.451516
  0
VERTEX
  8
PLAN_1
  6
CONTINUOUS
 10
1.878894
 20
-3.450650
  0
VERTEX
  8
PLAN_1
  6
CONTINUOUS
 10
1.883236
 20
-3.449780
  0
VERTEX
  8
PLAN_1
  6
CONTINUOUS
 10
1.887579
 20
-3.448913
  0
VERTEX
  8
PLAN_1
  6
CONTINUOUS
 10
1.891921
 20
-3.447610
  0
VERTEX
  8
PLAN_1
  6
CONTINUOUS
 10
1.896268
 20
-3.445870
  0
VERTEX
  8
PLAN_1
  6
CONTINUOUS
 10
1.900173
 20
-3.443701
  0
VERTEX
  8
PLAN_1
  6
CONTINUOUS
 10
1.903650
 20
-3.441528
  0
VERTEX
  8
PLAN_1
  6
CONTINUOUS
 10
1.906689
 20
-3.438921
  0
VERTEX
  8
PLAN_1
  6
CONTINUOUS
 10
1.909295
 20
-3.435882
  0
VERTEX
  8
PLAN_1
  6
CONTINUOUS
 10
1.911902
 20
-3.431972
  0
VERTEX
  8
PLAN_1
  6
CONTINUOUS
 10
1.913638
 20
-3.428063
  0
VERTEX
  8
PLAN_1
  6
CONTINUOUS
 10
1.914508
 20
-3.423287
  0
VERTEX
  8
PLAN_1
  6
CONTINUOUS
 10
1.914941
 20
-3.418512
  0
VERTEX
  8
PLAN_1
  6
CONTINUOUS
 10
1.914941
 20
-3.414602
  0
VERTEX
  8
PLAN_1
  6
CONTINUOUS
 10
1.914508
 20
-3.411126
  0
VERTEX
  8
PLAN_1
  6
CONTINUOUS
 10
1.913638
 20
-3.408087
  0
VERTEX
  8
PLAN_1
  6
CONTINUOUS
 10
1.912772
 20
-3.405047
  0
VERTEX
  8
PLAN_1
  6
CONTINUOUS
 10
1.911469
 20
-3.402441
  0
VERTEX
  8
PLAN_1
  6
CONTINUOUS
 10
1.910165
 20
-3.400268
  0
VERTEX
  8
PLAN_1
  6
CONTINUOUS
 10
1.908425
 20
-3.398098
  0
VERTEX
  8
PLAN_1
  6
CONTINUOUS
 10
1.905819
 20
-3.395925
  0
VERTEX
  8
PLAN_1
  6
CONTINUOUS
 10
1.903217
 20
-3.393756
  0
VERTEX
  8
PLAN_1
  6
CONTINUOUS
 10
1.900173
 20
-3.392016
  0
VERTEX
  8
PLAN_1
  6
CONTINUOUS
 10
1.896701
 20
-3.390713
  0
VERTEX
  8
PLAN_1
  6
CONTINUOUS
 10
1.892791
 20
-3.388976
  0
VERTEX
  8
PLAN_1
  6
CONTINUOUS
 10
1.883669
 20
-3.385937
  0
VERTEX
  8
PLAN_1
  6
CONTINUOUS
 10
1.872378
 20
-3.383331
  0
VERTEX
  8
PLAN_1
  6
CONTINUOUS
 10
1.831555
 20
-3.373776
  0
VERTEX
  8
PLAN_1
  6
CONTINUOUS
 10
1.825909
 20
-3.372039
  0
VERTEX
  8
PLAN_1
  6
CONTINUOUS
 10
1.819394
 20
-3.369866
  0
VERTEX
  8
PLAN_1
  6
CONTINUOUS
 10
1.815917
 20
-3.368563
  0
VERTEX
  8
PLAN_1
  6
CONTINUOUS
 10
1.812445
 20
-3.366827
  0
VERTEX
  8
PLAN_1
  6
CONTINUOUS
 10
1.808969
 20
-3.364657
  0
VERTEX
  8
PLAN_1
  6
CONTINUOUS
 10
1.805496
 20
-3.362051
  0
VERTEX
  8
PLAN_1
  6
CONTINUOUS
 10
1.802457
 20
-3.359445
  0
VERTEX
  8
PLAN_1
  6
CONTINUOUS
 10
1.799413
 20
-3.355969
  0
VERTEX
  8
PLAN_1
  6
CONTINUOUS
 10
1.796374
 20
-3.352496
  0
VERTEX
  8
PLAN_1
  6
CONTINUOUS
 10
1.794205
 20
-3.348154
  0
VERTEX
  8
PLAN_1
  6
CONTINUOUS
 10
1.792031
 20
-3.343807
  0
VERTEX
  8
PLAN_1
  6
CONTINUOUS
 10
1.790295
 20
-3.338598
  0
VERTEX
  8
PLAN_1
  6
CONTINUOUS
 10
1.789425
 20
-3.332953
  0
VERTEX
  8
PLAN_1
  6
CONTINUOUS
 10
1.789425
 20
-3.326870
  0
VERTEX
  8
PLAN_1
  6
CONTINUOUS
 10
1.789425
 20
-3.320791
  0
VERTEX
  8
PLAN_1
  6
CONTINUOUS
 10
1.790295
 20
-3.315146
  0
VERTEX
  8
PLAN_1
  6
CONTINUOUS
 10
1.791598
 20
-3.309500
  0
VERTEX
  8
PLAN_1
  6
CONTINUOUS
 10
1.793335
 20
-3.303850
  0
VERTEX
  8
PLAN_1
  6
CONTINUOUS
 10
1.795508
 20
-3.298642
  0
VERTEX
  8
PLAN_1
  6
CONTINUOUS
 10
1.798110
 20
-3.293429
  0
VERTEX
  8
PLAN_1
  6
CONTINUOUS
 10
1.801587
 20
-3.288650
  0
VERTEX
  8
PLAN_1
  6
CONTINUOUS
 10
1.805496
 20
-3.284307
  0
VERTEX
  8
PLAN_1
  6
CONTINUOUS
 10
1.809839
 20
-3.280398
  0
VERTEX
  8
PLAN_1
  6
CONTINUOUS
 10
1.815051
 20
-3.276492
  0
VERTEX
  8
PLAN_1
  6
CONTINUOUS
 10
1.820260
 20
-3.273016
  0
VERTEX
  8
PLAN_1
  6
CONTINUOUS
 10
1.826776
 20
-3.270409
  0
VERTEX
  8
PLAN_1
  6
CONTINUOUS
 10
1.833291
 20
-3.268240
  0
VERTEX
  8
PLAN_1
  6
CONTINUOUS
 10
1.841110
 20
-3.266500
  0
VERTEX
  8
PLAN_1
  6
CONTINUOUS
 10
1.848925
 20
-3.265634
  0
VERTEX
  8
PLAN_1
  6
CONTINUOUS
 10
1.857614
 20
-3.265197
  0
VERTEX
  8
PLAN_1
  6
CONTINUOUS
 10
1.864126
 20
-3.265197
  0
VERTEX
  8
PLAN_1
  6
CONTINUOUS
 10
1.870209
 20
-3.265634
  0
VERTEX
  8
PLAN_1
  6
CONTINUOUS
 10
1.875854
 20
-3.266067
  0
VERTEX
  8
PLAN_1
  6
CONTINUOUS
 10
1.881067
 20
-3.266937
  0
VERTEX
  8
PLAN_1
  6
CONTINUOUS
 10
1.885843
 20
-3.267803
  0
VERTEX
  8
PLAN_1
  6
CONTINUOUS
 10
1.890618
 20
-3.269106
  0
VERTEX
  8
PLAN_1
  6
CONTINUOUS
 10
1.894965
 20
-3.270409
  0
VERTEX
  8
PLAN_1
  6
CONTINUOUS
 10
1.899307
 20
-3.272146
  0
VERTEX
  8
PLAN_1
  6
CONTINUOUS
 10
1.902780
 20
-3.273886
  0
VERTEX
  8
PLAN_1
  6
CONTINUOUS
 10
1.906256
 20
-3.275622
  0
VERTEX
  8
PLAN_1
  6
CONTINUOUS
 10
1.909728
 20
-3.277358
  0
VERTEX
  8
PLAN_1
  6
CONTINUOUS
 10
1.912772
 20
-3.279531
  0
VERTEX
  8
PLAN_1
  6
CONTINUOUS
 10
1.917980
 20
-3.283874
  0
VERTEX
  8
PLAN_1
  6
CONTINUOUS
 10
1.922323
 20
-3.288650
  0
VERTEX
  8
PLAN_1
  6
CONTINUOUS
 10
1.925799
 20
-3.293862
  0
VERTEX
  8
PLAN_1
  6
CONTINUOUS
 10
1.928839
 20
-3.299075
  0
VERTEX
  8
PLAN_1
  6
CONTINUOUS
 10
1.931012
 20
-3.304287
  0
VERTEX
  8
PLAN_1
  6
CONTINUOUS
 10
1.932748
 20
-3.309500
  0
VERTEX
  8
PLAN_1
  6
CONTINUOUS
 10
1.933618
 20
-3.314709
  0
VERTEX
  8
PLAN_1
  6
CONTINUOUS
 10
1.934484
 20
-3.319921
  0
VERTEX
  8
PLAN_1
  6
CONTINUOUS
 10
1.935354
 20
-3.324264
  0
VERTEX
  8
PLAN_1
  6
CONTINUOUS
 10
1.935354
 20
-3.328606
  0
VERTEX
  8
PLAN_1
  6
CONTINUOUS
 10
1.910165
 20
-3.328606
  0
SEQEND
  8
0
  0
POLYLINE
  8
PLAN_1
  6
CONTINUOUS
 66
     1
 40
0.008248
 41
0.008248
  0
VERTEX
  8
PLAN_1
  6
CONTINUOUS
 10
-0.493744
 20
1.506571
  0
VERTEX
  8
PLAN_1
  6
CONTINUOUS
 10
-0.493744
 20
2.373457
  0
VERTEX
  8
PLAN_1
  6
CONTINUOUS
 10
-1.774528
 20
2.373457
  0
VERTEX
  8
PLAN_1
  6
CONTINUOUS
 10
-1.774528
 20
1.506571
  0
VERTEX
  8
PLAN_1
  6
CONTINUOUS
 10
-0.493744
 20
1.506571
  0
SEQEND
  8
0
  0
POLYLINE
  8
PLAN_1
  6
CONTINUOUS
 66
     1
 40
0.008248
 41
0.008248
  0
VERTEX
  8
PLAN_1
  6
CONTINUOUS
 10
-0.928492
 20
1.097453
  0
VERTEX
  8
PLAN_1
  6
CONTINUOUS
 10
-0.928492
 20
1.142622
  0
VERTEX
  8
PLAN_1
  6
CONTINUOUS
 10
-1.319370
 20
1.142622
  0
VERTEX
  8
PLAN_1
  6
CONTINUOUS
 10
-1.319370
 20
1.097453
  0
VERTEX
  8
PLAN_1
  6
CONTINUOUS
 10
-0.928492
 20
1.097453
  0
SEQEND
  8
0
  0
POLYLINE
  8
PLAN_1
  6
CONTINUOUS
 66
     1
 40
0.008248
 41
0.008248
  0
VERTEX
  8
PLAN_1
  6
CONTINUOUS
 10
-0.597980
 20
1.481819
  0
VERTEX
  8
PLAN_1
  6
CONTINUOUS
 10
-0.597980
 20
1.506571
  0
VERTEX
  8
PLAN_1
  6
CONTINUOUS
 10
-1.649445
 20
1.506571
  0
VERTEX
  8
PLAN_1
  6
CONTINUOUS
 10
-1.649445
 20
1.481819
  0
VERTEX
  8
PLAN_1
  6
CONTINUOUS
 10
-0.597980
 20
1.481819
  0
SEQEND
  8
0
  0
POLYLINE
  8
PLAN_1
  6
CONTINUOUS
 66
     1
 40
0.008248
 41
0.008248
  0
VERTEX
  8
PLAN_1
  6
CONTINUOUS
 10
-0.829902
 20
1.142622
  0
VERTEX
  8
PLAN_1
  6
CONTINUOUS
 10
-0.829902
 20
1.481819
  0
VERTEX
  8
PLAN_1
  6
CONTINUOUS
 10
-1.437067
 20
1.481819
  0
VERTEX
  8
PLAN_1
  6
CONTINUOUS
 10
-1.437067
 20
1.142622
  0
VERTEX
  8
PLAN_1
  6
CONTINUOUS
 10
-0.829902
 20
1.142622
  0
SEQEND
  8
0
  0
POLYLINE
  8
PLAN_1
 62
     5
  6
CONTINUOUS
 66
     1
 40
0.003000
 41
0.003000
  0
VERTEX
  8
PLAN_1
 62
     5
  6
CONTINUOUS
 10
-1.937827
 20
0.819492
  0
VERTEX
  8
PLAN_1
 62
     5
  6
CONTINUOUS
 10
-1.937827
 20
0.827744
  0
SEQEND
  8
0
  0
POLYLINE
  8
PLAN_1
 62
     5
  6
CONTINUOUS
 66
     1
 40
0.003000
 41
0.003000
  0
VERTEX
  8
PLAN_1
 62
     5
  6
CONTINUOUS
 10
-1.937827
 20
0.835996
  0
VERTEX
  8
PLAN_1
 62
     5
  6
CONTINUOUS
 10
-1.937827
 20
0.844685
  0
SEQEND
  8
0
  0
POLYLINE
  8
PLAN_1
 62
     5
  6
CONTINUOUS
 66
     1
 40
0.003000
 41
0.003000
  0
VERTEX
  8
PLAN_1
 62
     5
  6
CONTINUOUS
 10
-1.937827
 20
0.852937
  0
VERTEX
  8
PLAN_1
 62
     5
  6
CONTINUOUS
 10
-1.937827
 20
0.861189
  0
SEQEND
  8
0
  0
POLYLINE
  8
PLAN_1
 62
     5
  6
CONTINUOUS
 66
     1
 40
0.003000
 41
0.003000
  0
VERTEX
  8
PLAN_1
 62
     5
  6
CONTINUOUS
 10
-1.937827
 20
0.869441
  0
VERTEX
  8
PLAN_1
 62
     5
  6
CONTINUOUS
 10
-1.937827
 20
0.877689
  0
SEQEND
  8
0
  0
POLYLINE
  8
PLAN_1
 62
     5
  6
CONTINUOUS
 66
     1
 40
0.003000
 41
0.003000
  0
VERTEX
  8
PLAN_1
 62
     5
  6
CONTINUOUS
 10
-1.937827
 20
0.886378
  0
VERTEX
  8
PLAN_1
 62
     5
  6
CONTINUOUS
 10
-1.937827
 20
0.894630
  0
SEQEND
  8
0
  0
POLYLINE
  8
PLAN_1
 62
     5
  6
CONTINUOUS
 66
     1
 40
0.003000
 41
0.003000
  0
VERTEX
  8
PLAN_1
 62
     5
  6
CONTINUOUS
 10
-1.937827
 20
0.902882
  0
VERTEX
  8
PLAN_1
 62
     5
  6
CONTINUOUS
 10
-1.937827
 20
0.911134
  0
SEQEND
  8
0
  0
POLYLINE
  8
PLAN_1
 62
     5
  6
CONTINUOUS
 66
     1
 40
0.003000
 41
0.003000
  0
VERTEX
  8
PLAN_1
 62
     5
  6
CONTINUOUS
 10
-1.937827
 20
0.919386
  0
VERTEX
  8
PLAN_1
 62
     5
  6
CONTINUOUS
 10
-1.937827
 20
0.927638
  0
SEQEND
  8
0
  0
POLYLINE
  8
PLAN_1
 62
     5
  6
CONTINUOUS
 66
     1
 40
0.003000
 41
0.003000
  0
VERTEX
  8
PLAN_1
 62
     5
  6
CONTINUOUS
 10
-1.937827
 20
0.936323
  0
VERTEX
  8
PLAN_1
 62
     5
  6
CONTINUOUS
 10
-1.937827
 20
0.944575
  0
SEQEND
  8
0
  0
POLYLINE
  8
PLAN_1
 62
     5
  6
CONTINUOUS
 66
     1
 40
0.003000
 41
0.003000
  0
VERTEX
  8
PLAN_1
 62
     5
  6
CONTINUOUS
 10
-1.937827
 20
0.952827
  0
VERTEX
  8
PLAN_1
 62
     5
  6
CONTINUOUS
 10
-1.937827
 20
0.961079
  0
SEQEND
  8
0
  0
POLYLINE
  8
PLAN_1
 62
     5
  6
CONTINUOUS
 66
     1
 40
0.003000
 41
0.003000
  0
VERTEX
  8
PLAN_1
 62
     5
  6
CONTINUOUS
 10
-1.937827
 20
0.969331
  0
VERTEX
  8
PLAN_1
 62
     5
  6
CONTINUOUS
 10
-1.937827
 20
0.977583
  0
SEQEND
  8
0
  0
POLYLINE
  8
PLAN_1
 62
     5
  6
CONTINUOUS
 66
     1
 40
0.003000
 41
0.003000
  0
VERTEX
  8
PLAN_1
 62
     5
  6
CONTINUOUS
 10
-1.937827
 20
0.986268
  0
VERTEX
  8
PLAN_1
 62
     5
  6
CONTINUOUS
 10
-1.937827
 20
0.994520
  0
SEQEND
  8
0
  0
POLYLINE
  8
PLAN_1
 62
     5
  6
CONTINUOUS
 66
     1
 40
0.003000
 41
0.003000
  0
VERTEX
  8
PLAN_1
 62
     5
  6
CONTINUOUS
 10
-1.937827
 20
1.002772
  0
VERTEX
  8
PLAN_1
 62
     5
  6
CONTINUOUS
 10
-1.937827
 20
1.011024
  0
SEQEND
  8
0
  0
POLYLINE
  8
PLAN_1
 62
     5
  6
CONTINUOUS
 66
     1
 40
0.003000
 41
0.003000
  0
VERTEX
  8
PLAN_1
 62
     5
  6
CONTINUOUS
 10
-1.937827
 20
1.019276
  0
VERTEX
  8
PLAN_1
 62
     5
  6
CONTINUOUS
 10
-1.937827
 20
1.027528
  0
SEQEND
  8
0
  0
POLYLINE
  8
PLAN_1
 62
     5
  6
CONTINUOUS
 66
     1
 40
0.003000
 41
0.003000
  0
VERTEX
  8
PLAN_1
 62
     5
  6
CONTINUOUS
 10
-1.937827
 20
1.036213
  0
VERTEX
  8
PLAN_1
 62
     5
  6
CONTINUOUS
 10
-1.937827
 20
1.044465
  0
SEQEND
  8
0
  0
POLYLINE
  8
PLAN_1
 62
     5
  6
CONTINUOUS
 66
     1
 40
0.003000
 41
0.003000
  0
VERTEX
  8
PLAN_1
 62
     5
  6
CONTINUOUS
 10
-1.937827
 20
1.052717
  0
VERTEX
  8
PLAN_1
 62
     5
  6
CONTINUOUS
 10
-1.937827
 20
1.060969
  0
SEQEND
  8
0
  0
POLYLINE
  8
PLAN_1
 62
     5
  6
CONTINUOUS
 66
     1
 40
0.003000
 41
0.003000
  0
VERTEX
  8
PLAN_1
 62
     5
  6
CONTINUOUS
 10
-1.937827
 20
1.069220
  0
VERTEX
  8
PLAN_1
 62
     5
  6
CONTINUOUS
 10
-1.937827
 20
1.077909
  0
SEQEND
  8
0
  0
POLYLINE
  8
PLAN_1
 62
     5
  6
CONTINUOUS
 66
     1
 40
0.003000
 41
0.003000
  0
VERTEX
  8
PLAN_1
 62
     5
  6
CONTINUOUS
 10
-1.937827
 20
1.086161
  0
VERTEX
  8
PLAN_1
 62
     5
  6
CONTINUOUS
 10
-1.937827
 20
1.094413
  0
SEQEND
  8
0
  0
POLYLINE
  8
PLAN_1
 62
     5
  6
CONTINUOUS
 66
     1
 40
0.003000
 41
0.003000
  0
VERTEX
  8
PLAN_1
 62
     5
  6
CONTINUOUS
 10
-1.937827
 20
1.102665
  0
VERTEX
  8
PLAN_1
 62
     5
  6
CONTINUOUS
 10
-1.937827
 20
1.110917
  0
SEQEND
  8
0
  0
POLYLINE
  8
PLAN_1
 62
     5
  6
CONTINUOUS
 66
     1
 40
0.003000
 41
0.003000
  0
VERTEX
  8
PLAN_1
 62
     5
  6
CONTINUOUS
 10
-1.937827
 20
1.119169
  0
VERTEX
  8
PLAN_1
 62
     5
  6
CONTINUOUS
 10
-1.937827
 20
1.127854
  0
SEQEND
  8
0
  0
POLYLINE
  8
PLAN_1
 62
     5
  6
CONTINUOUS
 66
     1
 40
0.003000
 41
0.003000
  0
VERTEX
  8
PLAN_1
 62
     5
  6
CONTINUOUS
 10
-1.937827
 20
1.136106
  0
VERTEX
  8
PLAN_1
 62
     5
  6
CONTINUOUS
 10
-1.937827
 20
1.144358
  0
SEQEND
  8
0
  0
POLYLINE
  8
PLAN_1
 62
     5
  6
CONTINUOUS
 66
     1
 40
0.003000
 41
0.003000
  0
VERTEX
  8
PLAN_1
 62
     5
  6
CONTINUOUS
 10
-1.937827
 20
1.152610
  0
VERTEX
  8
PLAN_1
 62
     5
  6
CONTINUOUS
 10
-1.937827
 20
1.160862
  0
SEQEND
  8
0
  0
POLYLINE
  8
PLAN_1
 62
     5
  6
CONTINUOUS
 66
     1
 40
0.003000
 41
0.003000
  0
VERTEX
  8
PLAN_1
 62
     5
  6
CONTINUOUS
 10
-1.937827
 20
1.169114
  0
VERTEX
  8
PLAN_1
 62
     5
  6
CONTINUOUS
 10
-1.937827
 20
1.177799
  0
SEQEND
  8
0
  0
POLYLINE
  8
PLAN_1
 62
     5
  6
CONTINUOUS
 66
     1
 40
0.003000
 41
0.003000
  0
VERTEX
  8
PLAN_1
 62
     5
  6
CONTINUOUS
 10
-1.937827
 20
1.186051
  0
VERTEX
  8
PLAN_1
 62
     5
  6
CONTINUOUS
 10
-1.937827
 20
1.194303
  0
SEQEND
  8
0
  0
POLYLINE
  8
PLAN_1
 62
     5
  6
CONTINUOUS
 66
     1
 40
0.003000
 41
0.003000
  0
VERTEX
  8
PLAN_1
 62
     5
  6
CONTINUOUS
 10
-1.937827
 20
1.202555
  0
VERTEX
  8
PLAN_1
 62
     5
  6
CONTINUOUS
 10
-1.937827
 20
1.210807
  0
SEQEND
  8
0
  0
POLYLINE
  8
PLAN_1
 62
     5
  6
CONTINUOUS
 66
     1
 40
0.003000
 41
0.003000
  0
VERTEX
  8
PLAN_1
 62
     5
  6
CONTINUOUS
 10
-1.937827
 20
1.219059
  0
VERTEX
  8
PLAN_1
 62
     5
  6
CONTINUOUS
 10
-1.937827
 20
1.227744
  0
SEQEND
  8
0
  0
POLYLINE
  8
PLAN_1
 62
     5
  6
CONTINUOUS
 66
     1
 40
0.003000
 41
0.003000
  0
VERTEX
  8
PLAN_1
 62
     5
  6
CONTINUOUS
 10
-1.937827
 20
1.235996
  0
VERTEX
  8
PLAN_1
 62
     5
  6
CONTINUOUS
 10
-1.937827
 20
1.244248
  0
SEQEND
  8
0
  0
POLYLINE
  8
PLAN_1
 62
     5
  6
CONTINUOUS
 66
     1
 40
0.003000
 41
0.003000
  0
VERTEX
  8
PLAN_1
 62
     5
  6
CONTINUOUS
 10
-1.937827
 20
1.252500
  0
VERTEX
  8
PLAN_1
 62
     5
  6
CONTINUOUS
 10
-1.937827
 20
1.260752
  0
SEQEND
  8
0
  0
POLYLINE
  8
PLAN_1
 62
     5
  6
CONTINUOUS
 66
     1
 40
0.003000
 41
0.003000
  0
VERTEX
  8
PLAN_1
 62
     5
  6
CONTINUOUS
 10
-1.937827
 20
1.269004
  0
VERTEX
  8
PLAN_1
 62
     5
  6
CONTINUOUS
 10
-1.937827
 20
1.277693
  0
SEQEND
  8
0
  0
POLYLINE
  8
PLAN_1
 62
     5
  6
CONTINUOUS
 66
     1
 40
0.003000
 41
0.003000
  0
VERTEX
  8
PLAN_1
 62
     5
  6
CONTINUOUS
 10
-1.937827
 20
1.285945
  0
VERTEX
  8
PLAN_1
 62
     5
  6
CONTINUOUS
 10
-1.937827
 20
1.294193
  0
SEQEND
  8
0
  0
POLYLINE
  8
PLAN_1
 62
     5
  6
CONTINUOUS
 66
     1
 40
0.003000
 41
0.003000
  0
VERTEX
  8
PLAN_1
 62
     5
  6
CONTINUOUS
 10
-1.937827
 20
1.302445
  0
VERTEX
  8
PLAN_1
 62
     5
  6
CONTINUOUS
 10
-1.937827
 20
1.310697
  0
SEQEND
  8
0
  0
POLYLINE
  8
PLAN_1
 62
     5
  6
CONTINUOUS
 66
     1
 40
0.003000
 41
0.003000
  0
VERTEX
  8
PLAN_1
 62
     5
  6
CONTINUOUS
 10
-1.937827
 20
1.319386
  0
VERTEX
  8
PLAN_1
 62
     5
  6
CONTINUOUS
 10
-1.937827
 20
1.327638
  0
SEQEND
  8
0
  0
POLYLINE
  8
PLAN_1
 62
     5
  6
CONTINUOUS
 66
     1
 40
0.003000
 41
0.003000
  0
VERTEX
  8
PLAN_1
 62
     5
  6
CONTINUOUS
 10
-1.937827
 20
1.335890
  0
VERTEX
  8
PLAN_1
 62
     5
  6
CONTINUOUS
 10
-1.937827
 20
1.344142
  0
SEQEND
  8
0
  0
POLYLINE
  8
PLAN_1
 62
     5
  6
CONTINUOUS
 66
     1
 40
0.003000
 41
0.003000
  0
VERTEX
  8
PLAN_1
 62
     5
  6
CONTINUOUS
 10
-1.937827
 20
1.352394
  0
VERTEX
  8
PLAN_1
 62
     5
  6
CONTINUOUS
 10
-1.937827
 20
1.360646
  0
SEQEND
  8
0
  0
POLYLINE
  8
PLAN_1
 62
     5
  6
CONTINUOUS
 66
     1
 40
0.003000
 41
0.003000
  0
VERTEX
  8
PLAN_1
 62
     5
  6
CONTINUOUS
 10
-1.937827
 20
1.369331
  0
VERTEX
  8
PLAN_1
 62
     5
  6
CONTINUOUS
 10
-1.937827
 20
1.377583
  0
SEQEND
  8
0
  0
POLYLINE
  8
PLAN_1
 62
     5
  6
CONTINUOUS
 66
     1
 40
0.003000
 41
0.003000
  0
VERTEX
  8
PLAN_1
 62
     5
  6
CONTINUOUS
 10
-1.937827
 20
1.385835
  0
VERTEX
  8
PLAN_1
 62
     5
  6
CONTINUOUS
 10
-1.937827
 20
1.394087
  0
SEQEND
  8
0
  0
POLYLINE
  8
PLAN_1
 62
     5
  6
CONTINUOUS
 66
     1
 40
0.003000
 41
0.003000
  0
VERTEX
  8
PLAN_1
 62
     5
  6
CONTINUOUS
 10
-1.937827
 20
1.402339
  0
VERTEX
  8
PLAN_1
 62
     5
  6
CONTINUOUS
 10
-1.937827
 20
1.410591
  0
SEQEND
  8
0
  0
POLYLINE
  8
PLAN_1
 62
     5
  6
CONTINUOUS
 66
     1
 40
0.003000
 41
0.003000
  0
VERTEX
  8
PLAN_1
 62
     5
  6
CONTINUOUS
 10
-1.937827
 20
1.419276
  0
VERTEX
  8
PLAN_1
 62
     5
  6
CONTINUOUS
 10
-1.937827
 20
1.427528
  0
SEQEND
  8
0
  0
POLYLINE
  8
PLAN_1
 62
     5
  6
CONTINUOUS
 66
     1
 40
0.003000
 41
0.003000
  0
VERTEX
  8
PLAN_1
 62
     5
  6
CONTINUOUS
 10
-1.937827
 20
1.435780
  0
VERTEX
  8
PLAN_1
 62
     5
  6
CONTINUOUS
 10
-1.937827
 20
1.444031
  0
SEQEND
  8
0
  0
POLYLINE
  8
PLAN_1
 62
     5
  6
CONTINUOUS
 66
     1
 40
0.003000
 41
0.003000
  0
VERTEX
  8
PLAN_1
 62
     5
  6
CONTINUOUS
 10
-1.937827
 20
1.452283
  0
VERTEX
  8
PLAN_1
 62
     5
  6
CONTINUOUS
 10
-1.937827
 20
1.460535
  0
SEQEND
  8
0
  0
POLYLINE
  8
PLAN_1
 62
     5
  6
CONTINUOUS
 66
     1
 40
0.003000
 41
0.003000
  0
VERTEX
  8
PLAN_1
 62
     5
  6
CONTINUOUS
 10
-1.937827
 20
1.469220
  0
VERTEX
  8
PLAN_1
 62
     5
  6
CONTINUOUS
 10
-1.937827
 20
1.477472
  0
SEQEND
  8
0
  0
POLYLINE
  8
PLAN_1
 62
     5
  6
CONTINUOUS
 66
     1
 40
0.003000
 41
0.003000
  0
VERTEX
  8
PLAN_1
 62
     5
  6
CONTINUOUS
 10
-1.937827
 20
1.485724
  0
VERTEX
  8
PLAN_1
 62
     5
  6
CONTINUOUS
 10
-1.937827
 20
1.493976
  0
SEQEND
  8
0
  0
POLYLINE
  8
PLAN_1
 62
     5
  6
CONTINUOUS
 66
     1
 40
0.003000
 41
0.003000
  0
VERTEX
  8
PLAN_1
 62
     5
  6
CONTINUOUS
 10
-1.937827
 20
1.502228
  0
VERTEX
  8
PLAN_1
 62
     5
  6
CONTINUOUS
 10
-1.937827
 20
1.506571
  0
VERTEX
  8
PLAN_1
 62
     5
  6
CONTINUOUS
 10
-1.933921
 20
1.506571
  0
SEQEND
  8
0
  0
POLYLINE
  8
PLAN_1
 62
     5
  6
CONTINUOUS
 66
     1
 40
0.003000
 41
0.003000
  0
VERTEX
  8
PLAN_1
 62
     5
  6
CONTINUOUS
 10
-1.925232
 20
1.506571
  0
VERTEX
  8
PLAN_1
 62
     5
  6
CONTINUOUS
 10
-1.916980
 20
1.506571
  0
SEQEND
  8
0
  0
POLYLINE
  8
PLAN_1
 62
     5
  6
CONTINUOUS
 66
     1
 40
0.003000
 41
0.003000
  0
VERTEX
  8
PLAN_1
 62
     5
  6
CONTINUOUS
 10
-1.908728
 20
1.506571
  0
VERTEX
  8
PLAN_1
 62
     5
  6
CONTINUOUS
 10
-1.900476
 20
1.506571
  0
SEQEND
  8
0
  0
POLYLINE
  8
PLAN_1
 62
     5
  6
CONTINUOUS
 66
     1
 40
0.003000
 41
0.003000
  0
VERTEX
  8
PLAN_1
 62
     5
  6
CONTINUOUS
 10
-1.892224
 20
1.506571
  0
VERTEX
  8
PLAN_1
 62
     5
  6
CONTINUOUS
 10
-1.883972
 20
1.506571
  0
SEQEND
  8
0
  0
POLYLINE
  8
PLAN_1
 62
     5
  6
CONTINUOUS
 66
     1
 40
0.003000
 41
0.003000
  0
VERTEX
  8
PLAN_1
 62
     5
  6
CONTINUOUS
 10
-1.875287
 20
1.506571
  0
VERTEX
  8
PLAN_1
 62
     5
  6
CONTINUOUS
 10
-1.867035
 20
1.506571
  0
SEQEND
  8
0
  0
POLYLINE
  8
PLAN_1
 62
     5
  6
CONTINUOUS
 66
     1
 40
0.003000
 41
0.003000
  0
VERTEX
  8
PLAN_1
 62
     5
  6
CONTINUOUS
 10
-1.858783
 20
1.506571
  0
VERTEX
  8
PLAN_1
 62
     5
  6
CONTINUOUS
 10
-1.850531
 20
1.506571
  0
SEQEND
  8
0
  0
POLYLINE
  8
PLAN_1
 62
     5
  6
CONTINUOUS
 66
     1
 40
0.003000
 41
0.003000
  0
VERTEX
  8
PLAN_1
 62
     5
  6
CONTINUOUS
 10
-1.842280
 20
1.506571
  0
VERTEX
  8
PLAN_1
 62
     5
  6
CONTINUOUS
 10
-1.834028
 20
1.506571
  0
SEQEND
  8
0
  0
POLYLINE
  8
PLAN_1
 62
     5
  6
CONTINUOUS
 66
     1
 40
0.003000
 41
0.003000
  0
VERTEX
  8
PLAN_1
 62
     5
  6
CONTINUOUS
 10
-1.825343
 20
1.506571
  0
VERTEX
  8
PLAN_1
 62
     5
  6
CONTINUOUS
 10
-1.817091
 20
1.506571
  0
SEQEND
  8
0
  0
POLYLINE
  8
PLAN_1
 62
     5
  6
CONTINUOUS
 66
     1
 40
0.003000
 41
0.003000
  0
VERTEX
  8
PLAN_1
 62
     5
  6
CONTINUOUS
 10
-1.808839
 20
1.506571
  0
VERTEX
  8
PLAN_1
 62
     5
  6
CONTINUOUS
 10
-1.800587
 20
1.506571
  0
SEQEND
  8
0
  0
POLYLINE
  8
PLAN_1
 62
     5
  6
CONTINUOUS
 66
     1
 40
0.003000
 41
0.003000
  0
VERTEX
  8
PLAN_1
 62
     5
  6
CONTINUOUS
 10
-1.792335
 20
1.506571
  0
VERTEX
  8
PLAN_1
 62
     5
  6
CONTINUOUS
 10
-1.784083
 20
1.506571
  0
SEQEND
  8
0
  0
POLYLINE
  8
PLAN_1
 62
     5
  6
CONTINUOUS
 66
     1
 40
0.003000
 41
0.003000
  0
VERTEX
  8
PLAN_1
 62
     5
  6
CONTINUOUS
 10
-1.775398
 20
1.506571
  0
VERTEX
  8
PLAN_1
 62
     5
  6
CONTINUOUS
 10
-1.767146
 20
1.506571
  0
SEQEND
  8
0
  0
POLYLINE
  8
PLAN_1
 62
     5
  6
CONTINUOUS
 66
     1
 40
0.003000
 41
0.003000
  0
VERTEX
  8
PLAN_1
 62
     5
  6
CONTINUOUS
 10
-1.758894
 20
1.506571
  0
VERTEX
  8
PLAN_1
 62
     5
  6
CONTINUOUS
 10
-1.750642
 20
1.506571
  0
SEQEND
  8
0
  0
POLYLINE
  8
PLAN_1
 62
     5
  6
CONTINUOUS
 66
     1
 40
0.003000
 41
0.003000
  0
VERTEX
  8
PLAN_1
 62
     5
  6
CONTINUOUS
 10
-1.742390
 20
1.506571
  0
VERTEX
  8
PLAN_1
 62
     5
  6
CONTINUOUS
 10
-1.734138
 20
1.506571
  0
SEQEND
  8
0
  0
POLYLINE
  8
PLAN_1
 62
     5
  6
CONTINUOUS
 66
     1
 40
0.003000
 41
0.003000
  0
VERTEX
  8
PLAN_1
 62
     5
  6
CONTINUOUS
 10
-1.725449
 20
1.506571
  0
VERTEX
  8
PLAN_1
 62
     5
  6
CONTINUOUS
 10
-1.717197
 20
1.506571
  0
SEQEND
  8
0
  0
POLYLINE
  8
PLAN_1
 62
     5
  6
CONTINUOUS
 66
     1
 40
0.003000
 41
0.003000
  0
VERTEX
  8
PLAN_1
 62
     5
  6
CONTINUOUS
 10
-1.708945
 20
1.506571
  0
VERTEX
  8
PLAN_1
 62
     5
  6
CONTINUOUS
 10
-1.700693
 20
1.506571
  0
SEQEND
  8
0
  0
POLYLINE
  8
PLAN_1
 62
     5
  6
CONTINUOUS
 66
     1
 40
0.003000
 41
0.003000
  0
VERTEX
  8
PLAN_1
 62
     5
  6
CONTINUOUS
 10
-1.692445
 20
1.506571
  0
VERTEX
  8
PLAN_1
 62
     5
  6
CONTINUOUS
 10
-1.683756
 20
1.506571
  0
SEQEND
  8
0
  0
POLYLINE
  8
PLAN_1
 62
     5
  6
CONTINUOUS
 66
     1
 40
0.003000
 41
0.003000
  0
VERTEX
  8
PLAN_1
 62
     5
  6
CONTINUOUS
 10
-1.675504
 20
1.506571
  0
VERTEX
  8
PLAN_1
 62
     5
  6
CONTINUOUS
 10
-1.667252
 20
1.506571
  0
SEQEND
  8
0
  0
POLYLINE
  8
PLAN_1
 62
     5
  6
CONTINUOUS
 66
     1
 40
0.003000
 41
0.003000
  0
VERTEX
  8
PLAN_1
 62
     5
  6
CONTINUOUS
 10
-1.659000
 20
1.506571
  0
VERTEX
  8
PLAN_1
 62
     5
  6
CONTINUOUS
 10
-1.650748
 20
1.506571
  0
SEQEND
  8
0
  0
POLYLINE
  8
PLAN_1
 62
     5
  6
CONTINUOUS
 66
     1
 40
0.003000
 41
0.003000
  0
VERTEX
  8
PLAN_1
 62
     5
  6
CONTINUOUS
 10
-1.642496
 20
1.506571
  0
VERTEX
  8
PLAN_1
 62
     5
  6
CONTINUOUS
 10
-1.633811
 20
1.506571
  0
SEQEND
  8
0
  0
POLYLINE
  8
PLAN_1
 62
     5
  6
CONTINUOUS
 66
     1
 40
0.003000
 41
0.003000
  0
VERTEX
  8
PLAN_1
 62
     5
  6
CONTINUOUS
 10
-1.625559
 20
1.506571
  0
VERTEX
  8
PLAN_1
 62
     5
  6
CONTINUOUS
 10
-1.617307
 20
1.506571
  0
SEQEND
  8
0
  0
POLYLINE
  8
PLAN_1
 62
     5
  6
CONTINUOUS
 66
     1
 40
0.003000
 41
0.003000
  0
VERTEX
  8
PLAN_1
 62
     5
  6
CONTINUOUS
 10
-1.609055
 20
1.506571
  0
VERTEX
  8
PLAN_1
 62
     5
  6
CONTINUOUS
 10
-1.600803
 20
1.506571
  0
SEQEND
  8
0
  0
POLYLINE
  8
PLAN_1
 62
     5
  6
CONTINUOUS
 66
     1
 40
0.003000
 41
0.003000
  0
VERTEX
  8
PLAN_1
 62
     5
  6
CONTINUOUS
 10
-1.592551
 20
1.506571
  0
VERTEX
  8
PLAN_1
 62
     5
  6
CONTINUOUS
 10
-1.583866
 20
1.506571
  0
SEQEND
  8
0
  0
POLYLINE
  8
PLAN_1
 62
     5
  6
CONTINUOUS
 66
     1
 40
0.003000
 41
0.003000
  0
VERTEX
  8
PLAN_1
 62
     5
  6
CONTINUOUS
 10
-1.575614
 20
1.506571
  0
VERTEX
  8
PLAN_1
 62
     5
  6
CONTINUOUS
 10
-1.567362
 20
1.506571
  0
SEQEND
  8
0
  0
POLYLINE
  8
PLAN_1
 62
     5
  6
CONTINUOUS
 66
     1
 40
0.003000
 41
0.003000
  0
VERTEX
  8
PLAN_1
 62
     5
  6
CONTINUOUS
 10
-1.559110
 20
1.506571
  0
VERTEX
  8
PLAN_1
 62
     5
  6
CONTINUOUS
 10
-1.550858
 20
1.506571
  0
SEQEND
  8
0
  0
POLYLINE
  8
PLAN_1
 62
     5
  6
CONTINUOUS
 66
     1
 40
0.003000
 41
0.003000
  0
VERTEX
  8
PLAN_1
 62
     5
  6
CONTINUOUS
 10
-1.542606
 20
1.506571
  0
VERTEX
  8
PLAN_1
 62
     5
  6
CONTINUOUS
 10
-1.533921
 20
1.506571
  0
SEQEND
  8
0
  0
POLYLINE
  8
PLAN_1
 62
     5
  6
CONTINUOUS
 66
     1
 40
0.003000
 41
0.003000
  0
VERTEX
  8
PLAN_1
 62
     5
  6
CONTINUOUS
 10
-1.525669
 20
1.506571
  0
VERTEX
  8
PLAN_1
 62
     5
  6
CONTINUOUS
 10
-1.517417
 20
1.506571
  0
SEQEND
  8
0
  0
POLYLINE
  8
PLAN_1
 62
     5
  6
CONTINUOUS
 66
     1
 40
0.003000
 41
0.003000
  0
VERTEX
  8
PLAN_1
 62
     5
  6
CONTINUOUS
 10
-1.509165
 20
1.506571
  0
VERTEX
  8
PLAN_1
 62
     5
  6
CONTINUOUS
 10
-1.500913
 20
1.506571
  0
SEQEND
  8
0
  0
POLYLINE
  8
PLAN_1
 62
     5
  6
CONTINUOUS
 66
     1
 40
0.003000
 41
0.003000
  0
VERTEX
  8
PLAN_1
 62
     5
  6
CONTINUOUS
 10
-1.492661
 20
1.506571
  0
VERTEX
  8
PLAN_1
 62
     5
  6
CONTINUOUS
 10
-1.483972
 20
1.506571
  0
SEQEND
  8
0
  0
POLYLINE
  8
PLAN_1
 62
     5
  6
CONTINUOUS
 66
     1
 40
0.003000
 41
0.003000
  0
VERTEX
  8
PLAN_1
 62
     5
  6
CONTINUOUS
 10
-1.475720
 20
1.506571
  0
VERTEX
  8
PLAN_1
 62
     5
  6
CONTINUOUS
 10
-1.467469
 20
1.506571
  0
SEQEND
  8
0
  0
POLYLINE
  8
PLAN_1
 62
     5
  6
CONTINUOUS
 66
     1
 40
0.003000
 41
0.003000
  0
VERTEX
  8
PLAN_1
 62
     5
  6
CONTINUOUS
 10
-1.459217
 20
1.506571
  0
VERTEX
  8
PLAN_1
 62
     5
  6
CONTINUOUS
 10
-1.450965
 20
1.506571
  0
SEQEND
  8
0
  0
POLYLINE
  8
PLAN_1
 62
     5
  6
CONTINUOUS
 66
     1
 40
0.003000
 41
0.003000
  0
VERTEX
  8
PLAN_1
 62
     5
  6
CONTINUOUS
 10
-1.442280
 20
1.506571
  0
VERTEX
  8
PLAN_1
 62
     5
  6
CONTINUOUS
 10
-1.434028
 20
1.506571
  0
SEQEND
  8
0
  0
POLYLINE
  8
PLAN_1
 62
     5
  6
CONTINUOUS
 66
     1
 40
0.003000
 41
0.003000
  0
VERTEX
  8
PLAN_1
 62
     5
  6
CONTINUOUS
 10
-1.425776
 20
1.506571
  0
VERTEX
  8
PLAN_1
 62
     5
  6
CONTINUOUS
 10
-1.417524
 20
1.506571
  0
SEQEND
  8
0
  0
POLYLINE
  8
PLAN_1
 62
     5
  6
CONTINUOUS
 66
     1
 40
0.003000
 41
0.003000
  0
VERTEX
  8
PLAN_1
 62
     5
  6
CONTINUOUS
 10
-1.409272
 20
1.506571
  0
VERTEX
  8
PLAN_1
 62
     5
  6
CONTINUOUS
 10
-1.401020
 20
1.506571
  0
SEQEND
  8
0
  0
POLYLINE
  8
PLAN_1
 62
     5
  6
CONTINUOUS
 66
     1
 40
0.003000
 41
0.003000
  0
VERTEX
  8
PLAN_1
 62
     5
  6
CONTINUOUS
 10
-1.392335
 20
1.506571
  0
VERTEX
  8
PLAN_1
 62
     5
  6
CONTINUOUS
 10
-1.384083
 20
1.506571
  0
SEQEND
  8
0
  0
POLYLINE
  8
PLAN_1
 62
     5
  6
CONTINUOUS
 66
     1
 40
0.003000
 41
0.003000
  0
VERTEX
  8
PLAN_1
 62
     5
  6
CONTINUOUS
 10
-1.375831
 20
1.506571
  0
VERTEX
  8
PLAN_1
 62
     5
  6
CONTINUOUS
 10
-1.367579
 20
1.506571
  0
SEQEND
  8
0
  0
POLYLINE
  8
PLAN_1
 62
     5
  6
CONTINUOUS
 66
     1
 40
0.003000
 41
0.003000
  0
VERTEX
  8
PLAN_1
 62
     5
  6
CONTINUOUS
 10
-1.359327
 20
1.506571
  0
VERTEX
  8
PLAN_1
 62
     5
  6
CONTINUOUS
 10
-1.351075
 20
1.506571
  0
SEQEND
  8
0
  0
POLYLINE
  8
PLAN_1
 62
     5
  6
CONTINUOUS
 66
     1
 40
0.003000
 41
0.003000
  0
VERTEX
  8
PLAN_1
 62
     5
  6
CONTINUOUS
 10
-1.342390
 20
1.506571
  0
VERTEX
  8
PLAN_1
 62
     5
  6
CONTINUOUS
 10
-1.334138
 20
1.506571
  0
SEQEND
  8
0
  0
POLYLINE
  8
PLAN_1
 62
     5
  6
CONTINUOUS
 66
     1
 40
0.003000
 41
0.003000
  0
VERTEX
  8
PLAN_1
 62
     5
  6
CONTINUOUS
 10
-1.325886
 20
1.506571
  0
VERTEX
  8
PLAN_1
 62
     5
  6
CONTINUOUS
 10
-1.317634
 20
1.506571
  0
SEQEND
  8
0
  0
POLYLINE
  8
PLAN_1
 62
     5
  6
CONTINUOUS
 66
     1
 40
0.003000
 41
0.003000
  0
VERTEX
  8
PLAN_1
 62
     5
  6
CONTINUOUS
 10
-1.309382
 20
1.506571
  0
VERTEX
  8
PLAN_1
 62
     5
  6
CONTINUOUS
 10
-1.301130
 20
1.506571
  0
SEQEND
  8
0
  0
POLYLINE
  8
PLAN_1
 62
     5
  6
CONTINUOUS
 66
     1
 40
0.003000
 41
0.003000
  0
VERTEX
  8
PLAN_1
 62
     5
  6
CONTINUOUS
 10
-1.292441
 20
1.506571
  0
VERTEX
  8
PLAN_1
 62
     5
  6
CONTINUOUS
 10
-1.284189
 20
1.506571
  0
SEQEND
  8
0
  0
POLYLINE
  8
PLAN_1
 62
     5
  6
CONTINUOUS
 66
     1
 40
0.003000
 41
0.003000
  0
VERTEX
  8
PLAN_1
 62
     5
  6
CONTINUOUS
 10
-1.275941
 20
1.506571
  0
VERTEX
  8
PLAN_1
 62
     5
  6
CONTINUOUS
 10
-1.267689
 20
1.506571
  0
SEQEND
  8
0
  0
POLYLINE
  8
PLAN_1
 62
     5
  6
CONTINUOUS
 66
     1
 40
0.003000
 41
0.003000
  0
VERTEX
  8
PLAN_1
 62
     5
  6
CONTINUOUS
 10
-1.259437
 20
1.506571
  0
VERTEX
  8
PLAN_1
 62
     5
  6
CONTINUOUS
 10
-1.251185
 20
1.506571
  0
SEQEND
  8
0
  0
POLYLINE
  8
PLAN_1
 62
     5
  6
CONTINUOUS
 66
     1
 40
0.003000
 41
0.003000
  0
VERTEX
  8
PLAN_1
 62
     5
  6
CONTINUOUS
 10
-1.242496
 20
1.506571
  0
VERTEX
  8
PLAN_1
 62
     5
  6
CONTINUOUS
 10
-1.234244
 20
1.506571
  0
SEQEND
  8
0
  0
POLYLINE
  8
PLAN_1
 62
     5
  6
CONTINUOUS
 66
     1
 40
0.003000
 41
0.003000
  0
VERTEX
  8
PLAN_1
 62
     5
  6
CONTINUOUS
 10
-1.225992
 20
1.506571
  0
VERTEX
  8
PLAN_1
 62
     5
  6
CONTINUOUS
 10
-1.217740
 20
1.506571
  0
SEQEND
  8
0
  0
POLYLINE
  8
PLAN_1
 62
     5
  6
CONTINUOUS
 66
     1
 40
0.003000
 41
0.003000
  0
VERTEX
  8
PLAN_1
 62
     5
  6
CONTINUOUS
 10
-1.209488
 20
1.506571
  0
VERTEX
  8
PLAN_1
 62
     5
  6
CONTINUOUS
 10
-1.201236
 20
1.506571
  0
SEQEND
  8
0
  0
POLYLINE
  8
PLAN_1
 62
     5
  6
CONTINUOUS
 66
     1
 40
0.003000
 41
0.003000
  0
VERTEX
  8
PLAN_1
 62
     5
  6
CONTINUOUS
 10
-1.192551
 20
1.506571
  0
VERTEX
  8
PLAN_1
 62
     5
  6
CONTINUOUS
 10
-1.184299
 20
1.506571
  0
SEQEND
  8
0
  0
POLYLINE
  8
PLAN_1
 62
     5
  6
CONTINUOUS
 66
     1
 40
0.003000
 41
0.003000
  0
VERTEX
  8
PLAN_1
 62
     5
  6
CONTINUOUS
 10
-1.176047
 20
1.506571
  0
VERTEX
  8
PLAN_1
 62
     5
  6
CONTINUOUS
 10
-1.167795
 20
1.506571
  0
SEQEND
  8
0
  0
POLYLINE
  8
PLAN_1
 62
     5
  6
CONTINUOUS
 66
     1
 40
0.003000
 41
0.003000
  0
VERTEX
  8
PLAN_1
 62
     5
  6
CONTINUOUS
 10
-1.159543
 20
1.506571
  0
VERTEX
  8
PLAN_1
 62
     5
  6
CONTINUOUS
 10
-1.150858
 20
1.506571
  0
SEQEND
  8
0
  0
POLYLINE
  8
PLAN_1
 62
     5
  6
CONTINUOUS
 66
     1
 40
0.003000
 41
0.003000
  0
VERTEX
  8
PLAN_1
 62
     5
  6
CONTINUOUS
 10
-1.142606
 20
1.506571
  0
VERTEX
  8
PLAN_1
 62
     5
  6
CONTINUOUS
 10
-1.134354
 20
1.506571
  0
SEQEND
  8
0
  0
POLYLINE
  8
PLAN_1
 62
     5
  6
CONTINUOUS
 66
     1
 40
0.003000
 41
0.003000
  0
VERTEX
  8
PLAN_1
 62
     5
  6
CONTINUOUS
 10
-1.126102
 20
1.506571
  0
VERTEX
  8
PLAN_1
 62
     5
  6
CONTINUOUS
 10
-1.117850
 20
1.506571
  0
SEQEND
  8
0
  0
POLYLINE
  8
PLAN_1
 62
     5
  6
CONTINUOUS
 66
     1
 40
0.003000
 41
0.003000
  0
VERTEX
  8
PLAN_1
 62
     5
  6
CONTINUOUS
 10
-1.109598
 20
1.506571
  0
VERTEX
  8
PLAN_1
 62
     5
  6
CONTINUOUS
 10
-1.100913
 20
1.506571
  0
SEQEND
  8
0
  0
POLYLINE
  8
PLAN_1
 62
     5
  6
CONTINUOUS
 66
     1
 40
0.003000
 41
0.003000
  0
VERTEX
  8
PLAN_1
 62
     5
  6
CONTINUOUS
 10
-1.092661
 20
1.506571
  0
VERTEX
  8
PLAN_1
 62
     5
  6
CONTINUOUS
 10
-1.084409
 20
1.506571
  0
SEQEND
  8
0
  0
POLYLINE
  8
PLAN_1
 62
     5
  6
CONTINUOUS
 66
     1
 40
0.003000
 41
0.003000
  0
VERTEX
  8
PLAN_1
 62
     5
  6
CONTINUOUS
 10
-1.076157
 20
1.506571
  0
VERTEX
  8
PLAN_1
 62
     5
  6
CONTINUOUS
 10
-1.067906
 20
1.506571
  0
SEQEND
  8
0
  0
POLYLINE
  8
PLAN_1
 62
     5
  6
CONTINUOUS
 66
     1
 40
0.003000
 41
0.003000
  0
VERTEX
  8
PLAN_1
 62
     5
  6
CONTINUOUS
 10
-1.059654
 20
1.506571
  0
VERTEX
  8
PLAN_1
 62
     5
  6
CONTINUOUS
 10
-1.050965
 20
1.506571
  0
SEQEND
  8
0
  0
POLYLINE
  8
PLAN_1
 62
     5
  6
CONTINUOUS
 66
     1
 40
0.003000
 41
0.003000
  0
VERTEX
  8
PLAN_1
 62
     5
  6
CONTINUOUS
 10
-1.042713
 20
1.506571
  0
VERTEX
  8
PLAN_1
 62
     5
  6
CONTINUOUS
 10
-1.034461
 20
1.506571
  0
SEQEND
  8
0
  0
POLYLINE
  8
PLAN_1
 62
     5
  6
CONTINUOUS
 66
     1
 40
0.003000
 41
0.003000
  0
VERTEX
  8
PLAN_1
 62
     5
  6
CONTINUOUS
 10
-1.026209
 20
1.506571
  0
VERTEX
  8
PLAN_1
 62
     5
  6
CONTINUOUS
 10
-1.017957
 20
1.506571
  0
SEQEND
  8
0
  0
POLYLINE
  8
PLAN_1
 62
     5
  6
CONTINUOUS
 66
     1
 40
0.003000
 41
0.003000
  0
VERTEX
  8
PLAN_1
 62
     5
  6
CONTINUOUS
 10
-1.009705
 20
1.506571
  0
VERTEX
  8
PLAN_1
 62
     5
  6
CONTINUOUS
 10
-1.001020
 20
1.506571
  0
SEQEND
  8
0
  0
POLYLINE
  8
PLAN_1
 62
     5
  6
CONTINUOUS
 66
     1
 40
0.003000
 41
0.003000
  0
VERTEX
  8
PLAN_1
 62
     5
  6
CONTINUOUS
 10
-0.992768
 20
1.506571
  0
VERTEX
  8
PLAN_1
 62
     5
  6
CONTINUOUS
 10
-0.984516
 20
1.506571
  0
SEQEND
  8
0
  0
POLYLINE
  8
PLAN_1
 62
     5
  6
CONTINUOUS
 66
     1
 40
0.003000
 41
0.003000
  0
VERTEX
  8
PLAN_1
 62
     5
  6
CONTINUOUS
 10
-0.976264
 20
1.506571
  0
VERTEX
  8
PLAN_1
 62
     5
  6
CONTINUOUS
 10
-0.968012
 20
1.506571
  0
SEQEND
  8
0
  0
POLYLINE
  8
PLAN_1
 62
     5
  6
CONTINUOUS
 66
     1
 40
0.003000
 41
0.003000
  0
VERTEX
  8
PLAN_1
 62
     5
  6
CONTINUOUS
 10
-0.959760
 20
1.506571
  0
VERTEX
  8
PLAN_1
 62
     5
  6
CONTINUOUS
 10
-0.951075
 20
1.506571
  0
SEQEND
  8
0
  0
POLYLINE
  8
PLAN_1
 62
     5
  6
CONTINUOUS
 66
     1
 40
0.003000
 41
0.003000
  0
VERTEX
  8
PLAN_1
 62
     5
  6
CONTINUOUS
 10
-0.942823
 20
1.506571
  0
VERTEX
  8
PLAN_1
 62
     5
  6
CONTINUOUS
 10
-0.934571
 20
1.506571
  0
SEQEND
  8
0
  0
POLYLINE
  8
PLAN_1
 62
     5
  6
CONTINUOUS
 66
     1
 40
0.003000
 41
0.003000
  0
VERTEX
  8
PLAN_1
 62
     5
  6
CONTINUOUS
 10
-0.926319
 20
1.506571
  0
VERTEX
  8
PLAN_1
 62
     5
  6
CONTINUOUS
 10
-0.918067
 20
1.506571
  0
SEQEND
  8
0
  0
POLYLINE
  8
PLAN_1
 62
     5
  6
CONTINUOUS
 66
     1
 40
0.003000
 41
0.003000
  0
VERTEX
  8
PLAN_1
 62
     5
  6
CONTINUOUS
 10
-0.909382
 20
1.506571
  0
VERTEX
  8
PLAN_1
 62
     5
  6
CONTINUOUS
 10
-0.901130
 20
1.506571
  0
SEQEND
  8
0
  0
POLYLINE
  8
PLAN_1
 62
     5
  6
CONTINUOUS
 66
     1
 40
0.003000
 41
0.003000
  0
VERTEX
  8
PLAN_1
 62
     5
  6
CONTINUOUS
 10
-0.892878
 20
1.506571
  0
VERTEX
  8
PLAN_1
 62
     5
  6
CONTINUOUS
 10
-0.884626
 20
1.506571
  0
SEQEND
  8
0
  0
POLYLINE
  8
PLAN_1
 62
     5
  6
CONTINUOUS
 66
     1
 40
0.003000
 41
0.003000
  0
VERTEX
  8
PLAN_1
 62
     5
  6
CONTINUOUS
 10
-0.876374
 20
1.506571
  0
VERTEX
  8
PLAN_1
 62
     5
  6
CONTINUOUS
 10
-0.868122
 20
1.506571
  0
SEQEND
  8
0
  0
POLYLINE
  8
PLAN_1
 62
     5
  6
CONTINUOUS
 66
     1
 40
0.003000
 41
0.003000
  0
VERTEX
  8
PLAN_1
 62
     5
  6
CONTINUOUS
 10
-0.859437
 20
1.506571
  0
VERTEX
  8
PLAN_1
 62
     5
  6
CONTINUOUS
 10
-0.851185
 20
1.506571
  0
SEQEND
  8
0
  0
POLYLINE
  8
PLAN_1
 62
     5
  6
CONTINUOUS
 66
     1
 40
0.003000
 41
0.003000
  0
VERTEX
  8
PLAN_1
 62
     5
  6
CONTINUOUS
 10
-0.842933
 20
1.506571
  0
VERTEX
  8
PLAN_1
 62
     5
  6
CONTINUOUS
 10
-0.834681
 20
1.506571
  0
SEQEND
  8
0
  0
POLYLINE
  8
PLAN_1
 62
     5
  6
CONTINUOUS
 66
     1
 40
0.003000
 41
0.003000
  0
VERTEX
  8
PLAN_1
 62
     5
  6
CONTINUOUS
 10
-0.826429
 20
1.506571
  0
VERTEX
  8
PLAN_1
 62
     5
  6
CONTINUOUS
 10
-0.818177
 20
1.506571
  0
SEQEND
  8
0
  0
POLYLINE
  8
PLAN_1
 62
     5
  6
CONTINUOUS
 66
     1
 40
0.003000
 41
0.003000
  0
VERTEX
  8
PLAN_1
 62
     5
  6
CONTINUOUS
 10
-0.809488
 20
1.506571
  0
VERTEX
  8
PLAN_1
 62
     5
  6
CONTINUOUS
 10
-0.801236
 20
1.506571
  0
SEQEND
  8
0
  0
POLYLINE
  8
PLAN_1
 62
     5
  6
CONTINUOUS
 66
     1
 40
0.003000
 41
0.003000
  0
VERTEX
  8
PLAN_1
 62
     5
  6
CONTINUOUS
 10
-0.792984
 20
1.506571
  0
VERTEX
  8
PLAN_1
 62
     5
  6
CONTINUOUS
 10
-0.784732
 20
1.506571
  0
SEQEND
  8
0
  0
POLYLINE
  8
PLAN_1
 62
     5
  6
CONTINUOUS
 66
     1
 40
0.003000
 41
0.003000
  0
VERTEX
  8
PLAN_1
 62
     5
  6
CONTINUOUS
 10
-0.776480
 20
1.506571
  0
VERTEX
  8
PLAN_1
 62
     5
  6
CONTINUOUS
 10
-0.768228
 20
1.506571
  0
SEQEND
  8
0
  0
POLYLINE
  8
PLAN_1
 62
     5
  6
CONTINUOUS
 66
     1
 40
0.003000
 41
0.003000
  0
VERTEX
  8
PLAN_1
 62
     5
  6
CONTINUOUS
 10
-0.759543
 20
1.506571
  0
VERTEX
  8
PLAN_1
 62
     5
  6
CONTINUOUS
 10
-0.751291
 20
1.506571
  0
SEQEND
  8
0
  0
POLYLINE
  8
PLAN_1
 62
     5
  6
CONTINUOUS
 66
     1
 40
0.003000
 41
0.003000
  0
VERTEX
  8
PLAN_1
 62
     5
  6
CONTINUOUS
 10
-0.743039
 20
1.506571
  0
VERTEX
  8
PLAN_1
 62
     5
  6
CONTINUOUS
 10
-0.734787
 20
1.506571
  0
SEQEND
  8
0
  0
POLYLINE
  8
PLAN_1
 62
     5
  6
CONTINUOUS
 66
     1
 40
0.003000
 41
0.003000
  0
VERTEX
  8
PLAN_1
 62
     5
  6
CONTINUOUS
 10
-0.726535
 20
1.506571
  0
VERTEX
  8
PLAN_1
 62
     5
  6
CONTINUOUS
 10
-0.718283
 20
1.506571
  0
SEQEND
  8
0
  0
POLYLINE
  8
PLAN_1
 62
     5
  6
CONTINUOUS
 66
     1
 40
0.003000
 41
0.003000
  0
VERTEX
  8
PLAN_1
 62
     5
  6
CONTINUOUS
 10
-0.709598
 20
1.506571
  0
VERTEX
  8
PLAN_1
 62
     5
  6
CONTINUOUS
 10
-0.701346
 20
1.506571
  0
SEQEND
  8
0
  0
POLYLINE
  8
PLAN_1
 62
     5
  6
CONTINUOUS
 66
     1
 40
0.003000
 41
0.003000
  0
VERTEX
  8
PLAN_1
 62
     5
  6
CONTINUOUS
 10
-0.693094
 20
1.506571
  0
VERTEX
  8
PLAN_1
 62
     5
  6
CONTINUOUS
 10
-0.684843
 20
1.506571
  0
SEQEND
  8
0
  0
POLYLINE
  8
PLAN_1
 62
     5
  6
CONTINUOUS
 66
     1
 40
0.003000
 41
0.003000
  0
VERTEX
  8
PLAN_1
 62
     5
  6
CONTINUOUS
 10
-0.676591
 20
1.506571
  0
VERTEX
  8
PLAN_1
 62
     5
  6
CONTINUOUS
 10
-0.668339
 20
1.506571
  0
SEQEND
  8
0
  0
POLYLINE
  8
PLAN_1
 62
     5
  6
CONTINUOUS
 66
     1
 40
0.003000
 41
0.003000
  0
VERTEX
  8
PLAN_1
 62
     5
  6
CONTINUOUS
 10
-0.659654
 20
1.506571
  0
VERTEX
  8
PLAN_1
 62
     5
  6
CONTINUOUS
 10
-0.651402
 20
1.506571
  0
SEQEND
  8
0
  0
POLYLINE
  8
PLAN_1
 62
     5
  6
CONTINUOUS
 66
     1
 40
0.003000
 41
0.003000
  0
VERTEX
  8
PLAN_1
 62
     5
  6
CONTINUOUS
 10
-0.643150
 20
1.506571
  0
VERTEX
  8
PLAN_1
 62
     5
  6
CONTINUOUS
 10
-0.634898
 20
1.506571
  0
SEQEND
  8
0
  0
POLYLINE
  8
PLAN_1
 62
     5
  6
CONTINUOUS
 66
     1
 40
0.003000
 41
0.003000
  0
VERTEX
  8
PLAN_1
 62
     5
  6
CONTINUOUS
 10
-0.626646
 20
1.506571
  0
VERTEX
  8
PLAN_1
 62
     5
  6
CONTINUOUS
 10
-0.617957
 20
1.506571
  0
SEQEND
  8
0
  0
POLYLINE
  8
PLAN_1
 62
     5
  6
CONTINUOUS
 66
     1
 40
0.003000
 41
0.003000
  0
VERTEX
  8
PLAN_1
 62
     5
  6
CONTINUOUS
 10
-0.609705
 20
1.506571
  0
VERTEX
  8
PLAN_1
 62
     5
  6
CONTINUOUS
 10
-0.601453
 20
1.506571
  0
SEQEND
  8
0
  0
POLYLINE
  8
PLAN_1
 62
     5
  6
CONTINUOUS
 66
     1
 40
0.003000
 41
0.003000
  0
VERTEX
  8
PLAN_1
 62
     5
  6
CONTINUOUS
 10
-0.593201
 20
1.506571
  0
VERTEX
  8
PLAN_1
 62
     5
  6
CONTINUOUS
 10
-0.584949
 20
1.506571
  0
SEQEND
  8
0
  0
POLYLINE
  8
PLAN_1
 62
     5
  6
CONTINUOUS
 66
     1
 40
0.003000
 41
0.003000
  0
VERTEX
  8
PLAN_1
 62
     5
  6
CONTINUOUS
 10
-0.576701
 20
1.506571
  0
VERTEX
  8
PLAN_1
 62
     5
  6
CONTINUOUS
 10
-0.568012
 20
1.506571
  0
SEQEND
  8
0
  0
POLYLINE
  8
PLAN_1
 62
     5
  6
CONTINUOUS
 66
     1
 40
0.003000
 41
0.003000
  0
VERTEX
  8
PLAN_1
 62
     5
  6
CONTINUOUS
 10
-0.559760
 20
1.506571
  0
VERTEX
  8
PLAN_1
 62
     5
  6
CONTINUOUS
 10
-0.551508
 20
1.506571
  0
SEQEND
  8
0
  0
POLYLINE
  8
PLAN_1
 62
     5
  6
CONTINUOUS
 66
     1
 40
0.003000
 41
0.003000
  0
VERTEX
  8
PLAN_1
 62
     5
  6
CONTINUOUS
 10
-0.543256
 20
1.506571
  0
VERTEX
  8
PLAN_1
 62
     5
  6
CONTINUOUS
 10
-0.535004
 20
1.506571
  0
SEQEND
  8
0
  0
POLYLINE
  8
PLAN_1
 62
     5
  6
CONTINUOUS
 66
     1
 40
0.003000
 41
0.003000
  0
VERTEX
  8
PLAN_1
 62
     5
  6
CONTINUOUS
 10
-0.526752
 20
1.506571
  0
VERTEX
  8
PLAN_1
 62
     5
  6
CONTINUOUS
 10
-0.518067
 20
1.506571
  0
SEQEND
  8
0
  0
POLYLINE
  8
PLAN_1
 62
     5
  6
CONTINUOUS
 66
     1
 40
0.003000
 41
0.003000
  0
VERTEX
  8
PLAN_1
 62
     5
  6
CONTINUOUS
 10
-0.509815
 20
1.506571
  0
VERTEX
  8
PLAN_1
 62
     5
  6
CONTINUOUS
 10
-0.501563
 20
1.506571
  0
SEQEND
  8
0
  0
POLYLINE
  8
PLAN_1
 62
     5
  6
CONTINUOUS
 66
     1
 40
0.003000
 41
0.003000
  0
VERTEX
  8
PLAN_1
 62
     5
  6
CONTINUOUS
 10
-0.495047
 20
1.504835
  0
VERTEX
  8
PLAN_1
 62
     5
  6
CONTINUOUS
 10
-0.495047
 20
1.496583
  0
SEQEND
  8
0
  0
POLYLINE
  8
PLAN_1
 62
     5
  6
CONTINUOUS
 66
     1
 40
0.003000
 41
0.003000
  0
VERTEX
  8
PLAN_1
 62
     5
  6
CONTINUOUS
 10
-0.495047
 20
1.487898
  0
VERTEX
  8
PLAN_1
 62
     5
  6
CONTINUOUS
 10
-0.495047
 20
1.479646
  0
SEQEND
  8
0
  0
POLYLINE
  8
PLAN_1
 62
     5
  6
CONTINUOUS
 66
     1
 40
0.003000
 41
0.003000
  0
VERTEX
  8
PLAN_1
 62
     5
  6
CONTINUOUS
 10
-0.495047
 20
1.471394
  0
VERTEX
  8
PLAN_1
 62
     5
  6
CONTINUOUS
 10
-0.495047
 20
1.463142
  0
SEQEND
  8
0
  0
POLYLINE
  8
PLAN_1
 62
     5
  6
CONTINUOUS
 66
     1
 40
0.003000
 41
0.003000
  0
VERTEX
  8
PLAN_1
 62
     5
  6
CONTINUOUS
 10
-0.495047
 20
1.454890
  0
VERTEX
  8
PLAN_1
 62
     5
  6
CONTINUOUS
 10
-0.495047
 20
1.446205
  0
SEQEND
  8
0
  0
POLYLINE
  8
PLAN_1
 62
     5
  6
CONTINUOUS
 66
     1
 40
0.003000
 41
0.003000
  0
VERTEX
  8
PLAN_1
 62
     5
  6
CONTINUOUS
 10
-0.495047
 20
1.437953
  0
VERTEX
  8
PLAN_1
 62
     5
  6
CONTINUOUS
 10
-0.495047
 20
1.429701
  0
SEQEND
  8
0
  0
POLYLINE
  8
PLAN_1
 62
     5
  6
CONTINUOUS
 66
     1
 40
0.003000
 41
0.003000
  0
VERTEX
  8
PLAN_1
 62
     5
  6
CONTINUOUS
 10
-0.495047
 20
1.421449
  0
VERTEX
  8
PLAN_1
 62
     5
  6
CONTINUOUS
 10
-0.495047
 20
1.413197
  0
SEQEND
  8
0
  0
POLYLINE
  8
PLAN_1
 62
     5
  6
CONTINUOUS
 66
     1
 40
0.003000
 41
0.003000
  0
VERTEX
  8
PLAN_1
 62
     5
  6
CONTINUOUS
 10
-0.495047
 20
1.404945
  0
VERTEX
  8
PLAN_1
 62
     5
  6
CONTINUOUS
 10
-0.495047
 20
1.396256
  0
SEQEND
  8
0
  0
POLYLINE
  8
PLAN_1
 62
     5
  6
CONTINUOUS
 66
     1
 40
0.003000
 41
0.003000
  0
VERTEX
  8
PLAN_1
 62
     5
  6
CONTINUOUS
 10
-0.495047
 20
1.388008
  0
VERTEX
  8
PLAN_1
 62
     5
  6
CONTINUOUS
 10
-0.495047
 20
1.379756
  0
SEQEND
  8
0
  0
POLYLINE
  8
PLAN_1
 62
     5
  6
CONTINUOUS
 66
     1
 40
0.003000
 41
0.003000
  0
VERTEX
  8
PLAN_1
 62
     5
  6
CONTINUOUS
 10
-0.495047
 20
1.371504
  0
VERTEX
  8
PLAN_1
 62
     5
  6
CONTINUOUS
 10
-0.495047
 20
1.366291
  0
VERTEX
  8
PLAN_1
 62
     5
  6
CONTINUOUS
 10
-0.492008
 20
1.366291
  0
SEQEND
  8
0
  0
POLYLINE
  8
PLAN_1
 62
     5
  6
CONTINUOUS
 66
     1
 40
0.003000
 41
0.003000
  0
VERTEX
  8
PLAN_1
 62
     5
  6
CONTINUOUS
 10
-0.483756
 20
1.366291
  0
VERTEX
  8
PLAN_1
 62
     5
  6
CONTINUOUS
 10
-0.475071
 20
1.366291
  0
SEQEND
  8
0
  0
POLYLINE
  8
PLAN_1
 62
     5
  6
CONTINUOUS
 66
     1
 40
0.003000
 41
0.003000
  0
VERTEX
  8
PLAN_1
 62
     5
  6
CONTINUOUS
 10
-0.466819
 20
1.366291
  0
VERTEX
  8
PLAN_1
 62
     5
  6
CONTINUOUS
 10
-0.458567
 20
1.366291
  0
SEQEND
  8
0
  0
POLYLINE
  8
PLAN_1
 62
     5
  6
CONTINUOUS
 66
     1
 40
0.003000
 41
0.003000
  0
VERTEX
  8
PLAN_1
 62
     5
  6
CONTINUOUS
 10
-0.456831
 20
1.359776
  0
VERTEX
  8
PLAN_1
 62
     5
  6
CONTINUOUS
 10
-0.456831
 20
1.351524
  0
SEQEND
  8
0
  0
POLYLINE
  8
PLAN_1
 62
     5
  6
CONTINUOUS
 66
     1
 40
0.003000
 41
0.003000
  0
VERTEX
  8
PLAN_1
 62
     5
  6
CONTINUOUS
 10
-0.456831
 20
1.343272
  0
VERTEX
  8
PLAN_1
 62
     5
  6
CONTINUOUS
 10
-0.456831
 20
1.335020
  0
SEQEND
  8
0
  0
POLYLINE
  8
PLAN_1
 62
     5
  6
CONTINUOUS
 66
     1
 40
0.003000
 41
0.003000
  0
VERTEX
  8
PLAN_1
 62
     5
  6
CONTINUOUS
 10
-0.456831
 20
1.326768
  0
VERTEX
  8
PLAN_1
 62
     5
  6
CONTINUOUS
 10
-0.456831
 20
1.318083
  0
SEQEND
  8
0
  0
POLYLINE
  8
PLAN_1
 62
     5
  6
CONTINUOUS
 66
     1
 40
0.003000
 41
0.003000
  0
VERTEX
  8
PLAN_1
 62
     5
  6
CONTINUOUS
 10
-0.456831
 20
1.309831
  0
VERTEX
  8
PLAN_1
 62
     5
  6
CONTINUOUS
 10
-0.456831
 20
1.301579
  0
SEQEND
  8
0
  0
POLYLINE
  8
PLAN_1
 62
     5
  6
CONTINUOUS
 66
     1
 40
0.003000
 41
0.003000
  0
VERTEX
  8
PLAN_1
 62
     5
  6
CONTINUOUS
 10
-0.456831
 20
1.293327
  0
VERTEX
  8
PLAN_1
 62
     5
  6
CONTINUOUS
 10
-0.456831
 20
1.285075
  0
SEQEND
  8
0
  0
POLYLINE
  8
PLAN_1
 62
     5
  6
CONTINUOUS
 66
     1
 40
0.003000
 41
0.003000
  0
VERTEX
  8
PLAN_1
 62
     5
  6
CONTINUOUS
 10
-0.456831
 20
1.276823
  0
VERTEX
  8
PLAN_1
 62
     5
  6
CONTINUOUS
 10
-0.456831
 20
1.268138
  0
SEQEND
  8
0
  0
POLYLINE
  8
PLAN_1
 62
     5
  6
CONTINUOUS
 66
     1
 40
0.003000
 41
0.003000
  0
VERTEX
  8
PLAN_1
 62
     5
  6
CONTINUOUS
 10
-0.456831
 20
1.259886
  0
VERTEX
  8
PLAN_1
 62
     5
  6
CONTINUOUS
 10
-0.456831
 20
1.251634
  0
SEQEND
  8
0
  0
POLYLINE
  8
PLAN_1
 62
     5
  6
CONTINUOUS
 66
     1
 40
0.003000
 41
0.003000
  0
VERTEX
  8
PLAN_1
 62
     5
  6
CONTINUOUS
 10
-0.456831
 20
1.243382
  0
VERTEX
  8
PLAN_1
 62
     5
  6
CONTINUOUS
 10
-0.456831
 20
1.235130
  0
SEQEND
  8
0
  0
POLYLINE
  8
PLAN_1
 62
     5
  6
CONTINUOUS
 66
     1
 40
0.003000
 41
0.003000
  0
VERTEX
  8
PLAN_1
 62
     5
  6
CONTINUOUS
 10
-0.456831
 20
1.226878
  0
VERTEX
  8
PLAN_1
 62
     5
  6
CONTINUOUS
 10
-0.456831
 20
1.218189
  0
SEQEND
  8
0
  0
POLYLINE
  8
PLAN_1
 62
     5
  6
CONTINUOUS
 66
     1
 40
0.003000
 41
0.003000
  0
VERTEX
  8
PLAN_1
 62
     5
  6
CONTINUOUS
 10
-0.456831
 20
1.209937
  0
VERTEX
  8
PLAN_1
 62
     5
  6
CONTINUOUS
 10
-0.456831
 20
1.201685
  0
SEQEND
  8
0
  0
POLYLINE
  8
PLAN_1
 62
     5
  6
CONTINUOUS
 66
     1
 40
0.003000
 41
0.003000
  0
VERTEX
  8
PLAN_1
 62
     5
  6
CONTINUOUS
 10
-0.456831
 20
1.193433
  0
VERTEX
  8
PLAN_1
 62
     5
  6
CONTINUOUS
 10
-0.456831
 20
1.185181
  0
SEQEND
  8
0
  0
POLYLINE
  8
PLAN_1
 62
     5
  6
CONTINUOUS
 66
     1
 40
0.003000
 41
0.003000
  0
VERTEX
  8
PLAN_1
 62
     5
  6
CONTINUOUS
 10
-0.456831
 20
1.176929
  0
VERTEX
  8
PLAN_1
 62
     5
  6
CONTINUOUS
 10
-0.456831
 20
1.168244
  0
SEQEND
  8
0
  0
POLYLINE
  8
PLAN_1
 62
     5
  6
CONTINUOUS
 66
     1
 40
0.003000
 41
0.003000
  0
VERTEX
  8
PLAN_1
 62
     5
  6
CONTINUOUS
 10
-0.456831
 20
1.159992
  0
VERTEX
  8
PLAN_1
 62
     5
  6
CONTINUOUS
 10
-0.456831
 20
1.151740
  0
SEQEND
  8
0
  0
POLYLINE
  8
PLAN_1
 62
     5
  6
CONTINUOUS
 66
     1
 40
0.003000
 41
0.003000
  0
VERTEX
  8
PLAN_1
 62
     5
  6
CONTINUOUS
 10
-0.456831
 20
1.143488
  0
VERTEX
  8
PLAN_1
 62
     5
  6
CONTINUOUS
 10
-0.456831
 20
1.135236
  0
SEQEND
  8
0
  0
POLYLINE
  8
PLAN_1
 62
     5
  6
CONTINUOUS
 66
     1
 40
0.003000
 41
0.003000
  0
VERTEX
  8
PLAN_1
 62
     5
  6
CONTINUOUS
 10
-0.456831
 20
1.126984
  0
VERTEX
  8
PLAN_1
 62
     5
  6
CONTINUOUS
 10
-0.456831
 20
1.118299
  0
SEQEND
  8
0
  0
POLYLINE
  8
PLAN_1
 62
     5
  6
CONTINUOUS
 66
     1
 40
0.003000
 41
0.003000
  0
VERTEX
  8
PLAN_1
 62
     5
  6
CONTINUOUS
 10
-0.456831
 20
1.110047
  0
VERTEX
  8
PLAN_1
 62
     5
  6
CONTINUOUS
 10
-0.456831
 20
1.101795
  0
SEQEND
  8
0
  0
POLYLINE
  8
PLAN_1
 62
     5
  6
CONTINUOUS
 66
     1
 40
0.003000
 41
0.003000
  0
VERTEX
  8
PLAN_1
 62
     5
  6
CONTINUOUS
 10
-0.456831
 20
1.093543
  0
VERTEX
  8
PLAN_1
 62
     5
  6
CONTINUOUS
 10
-0.456831
 20
1.087028
  0
VERTEX
  8
PLAN_1
 62
     5
  6
CONTINUOUS
 10
-0.458567
 20
1.087028
  0
SEQEND
  8
0
  0
POLYLINE
  8
PLAN_1
 62
     5
  6
CONTINUOUS
 66
     1
 40
0.003000
 41
0.003000
  0
VERTEX
  8
PLAN_1
 62
     5
  6
CONTINUOUS
 10
-0.466819
 20
1.087028
  0
VERTEX
  8
PLAN_1
 62
     5
  6
CONTINUOUS
 10
-0.475071
 20
1.087028
  0
SEQEND
  8
0
  0
POLYLINE
  8
PLAN_1
 62
     5
  6
CONTINUOUS
 66
     1
 40
0.003000
 41
0.003000
  0
VERTEX
  8
PLAN_1
 62
     5
  6
CONTINUOUS
 10
-0.483323
 20
1.087028
  0
VERTEX
  8
PLAN_1
 62
     5
  6
CONTINUOUS
 10
-0.491575
 20
1.087028
  0
SEQEND
  8
0
  0
POLYLINE
  8
PLAN_1
 62
     5
  6
CONTINUOUS
 66
     1
 40
0.003000
 41
0.003000
  0
VERTEX
  8
PLAN_1
 62
     5
  6
CONTINUOUS
 10
-0.495047
 20
1.081815
  0
VERTEX
  8
PLAN_1
 62
     5
  6
CONTINUOUS
 10
-0.495047
 20
1.073567
  0
SEQEND
  8
0
  0
POLYLINE
  8
PLAN_1
 62
     5
  6
CONTINUOUS
 66
     1
 40
0.003000
 41
0.003000
  0
VERTEX
  8
PLAN_1
 62
     5
  6
CONTINUOUS
 10
-0.495047
 20
1.065315
  0
VERTEX
  8
PLAN_1
 62
     5
  6
CONTINUOUS
 10
-0.495047
 20
1.057063
  0
SEQEND
  8
0
  0
POLYLINE
  8
PLAN_1
 62
     5
  6
CONTINUOUS
 66
     1
 40
0.003000
 41
0.003000
  0
VERTEX
  8
PLAN_1
 62
     5
  6
CONTINUOUS
 10
-0.495047
 20
1.048811
  0
VERTEX
  8
PLAN_1
 62
     5
  6
CONTINUOUS
 10
-0.495047
 20
1.040122
  0
SEQEND
  8
0
  0
POLYLINE
  8
PLAN_1
 62
     5
  6
CONTINUOUS
 66
     1
 40
0.003000
 41
0.003000
  0
VERTEX
  8
PLAN_1
 62
     5
  6
CONTINUOUS
 10
-0.495047
 20
1.031870
  0
VERTEX
  8
PLAN_1
 62
     5
  6
CONTINUOUS
 10
-0.495047
 20
1.023618
  0
SEQEND
  8
0
  0
POLYLINE
  8
PLAN_1
 62
     5
  6
CONTINUOUS
 66
     1
 40
0.003000
 41
0.003000
  0
VERTEX
  8
PLAN_1
 62
     5
  6
CONTINUOUS
 10
-0.495047
 20
1.015366
  0
VERTEX
  8
PLAN_1
 62
     5
  6
CONTINUOUS
 10
-0.495047
 20
1.007114
  0
SEQEND
  8
0
  0
POLYLINE
  8
PLAN_1
 62
     5
  6
CONTINUOUS
 66
     1
 40
0.003000
 41
0.003000
  0
VERTEX
  8
PLAN_1
 62
     5
  6
CONTINUOUS
 10
-0.495047
 20
0.998862
  0
VERTEX
  8
PLAN_1
 62
     5
  6
CONTINUOUS
 10
-0.495047
 20
0.990177
  0
SEQEND
  8
0
  0
POLYLINE
  8
PLAN_1
 62
     5
  6
CONTINUOUS
 66
     1
 40
0.003000
 41
0.003000
  0
VERTEX
  8
PLAN_1
 62
     5
  6
CONTINUOUS
 10
-0.495047
 20
0.981925
  0
VERTEX
  8
PLAN_1
 62
     5
  6
CONTINUOUS
 10
-0.495047
 20
0.973673
  0
SEQEND
  8
0
  0
POLYLINE
  8
PLAN_1
 62
     5
  6
CONTINUOUS
 66
     1
 40
0.003000
 41
0.003000
  0
VERTEX
  8
PLAN_1
 62
     5
  6
CONTINUOUS
 10
-0.495047
 20
0.965421
  0
VERTEX
  8
PLAN_1
 62
     5
  6
CONTINUOUS
 10
-0.495047
 20
0.957169
  0
SEQEND
  8
0
  0
POLYLINE
  8
PLAN_1
 62
     5
  6
CONTINUOUS
 66
     1
 40
0.003000
 41
0.003000
  0
VERTEX
  8
PLAN_1
 62
     5
  6
CONTINUOUS
 10
-0.495047
 20
0.948917
  0
VERTEX
  8
PLAN_1
 62
     5
  6
CONTINUOUS
 10
-0.495047
 20
0.940232
  0
SEQEND
  8
0
  0
POLYLINE
  8
PLAN_1
 62
     5
  6
CONTINUOUS
 66
     1
 40
0.003000
 41
0.003000
  0
VERTEX
  8
PLAN_1
 62
     5
  6
CONTINUOUS
 10
-0.495047
 20
0.931980
  0
VERTEX
  8
PLAN_1
 62
     5
  6
CONTINUOUS
 10
-0.495047
 20
0.923728
  0
SEQEND
  8
0
  0
POLYLINE
  8
PLAN_1
 62
     5
  6
CONTINUOUS
 66
     1
 40
0.003000
 41
0.003000
  0
VERTEX
  8
PLAN_1
 62
     5
  6
CONTINUOUS
 10
-0.495047
 20
0.915476
  0
VERTEX
  8
PLAN_1
 62
     5
  6
CONTINUOUS
 10
-0.495047
 20
0.907224
  0
SEQEND
  8
0
  0
POLYLINE
  8
PLAN_1
 62
     5
  6
CONTINUOUS
 66
     1
 40
0.003000
 41
0.003000
  0
VERTEX
  8
PLAN_1
 62
     5
  6
CONTINUOUS
 10
-0.495047
 20
0.898539
  0
VERTEX
  8
PLAN_1
 62
     5
  6
CONTINUOUS
 10
-0.495047
 20
0.890287
  0
SEQEND
  8
0
  0
POLYLINE
  8
PLAN_1
 62
     5
  6
CONTINUOUS
 66
     1
 40
0.003000
 41
0.003000
  0
VERTEX
  8
PLAN_1
 62
     5
  6
CONTINUOUS
 10
-0.495047
 20
0.882035
  0
VERTEX
  8
PLAN_1
 62
     5
  6
CONTINUOUS
 10
-0.495047
 20
0.873783
  0
SEQEND
  8
0
  0
POLYLINE
  8
PLAN_1
 62
     5
  6
CONTINUOUS
 66
     1
 40
0.003000
 41
0.003000
  0
VERTEX
  8
PLAN_1
 62
     5
  6
CONTINUOUS
 10
-0.495047
 20
0.865531
  0
VERTEX
  8
PLAN_1
 62
     5
  6
CONTINUOUS
 10
-0.495047
 20
0.857280
  0
SEQEND
  8
0
  0
POLYLINE
  8
PLAN_1
 62
     5
  6
CONTINUOUS
 66
     1
 40
0.003000
 41
0.003000
  0
VERTEX
  8
PLAN_1
 62
     5
  6
CONTINUOUS
 10
-0.495047
 20
0.848591
  0
VERTEX
  8
PLAN_1
 62
     5
  6
CONTINUOUS
 10
-0.495047
 20
0.840339
  0
SEQEND
  8
0
  0
POLYLINE
  8
PLAN_1
 62
     5
  6
CONTINUOUS
 66
     1
 40
0.003000
 41
0.003000
  0
VERTEX
  8
PLAN_1
 62
     5
  6
CONTINUOUS
 10
-0.495047
 20
0.832087
  0
VERTEX
  8
PLAN_1
 62
     5
  6
CONTINUOUS
 10
-0.495047
 20
0.823835
  0
SEQEND
  8
0
  0
POLYLINE
  8
PLAN_1
  6
CONTINUOUS
 66
     1
 40
0.008248
 41
0.008248
  0
VERTEX
  8
PLAN_1
  6
CONTINUOUS
 10
-1.437067
 20
1.506571
  0
VERTEX
  8
PLAN_1
  6
CONTINUOUS
 10
-1.437067
 20
1.694630
  0
VERTEX
  8
PLAN_1
  6
CONTINUOUS
 10
-1.778870
 20
1.694630
  0
SEQEND
  8
0
  0
POLYLINE
  8
PLAN_1
  6
CONTINUOUS
 66
     1
 40
0.008248
 41
0.008248
  0
VERTEX
  8
PLAN_1
  6
CONTINUOUS
 10
-0.492878
 20
1.694630
  0
VERTEX
  8
PLAN_1
  6
CONTINUOUS
 10
-0.816004
 20
1.694630
  0
VERTEX
  8
PLAN_1
  6
CONTINUOUS
 10
-0.816004
 20
1.506571
  0
SEQEND
  8
0
  0
POLYLINE
  8
PLAN_1
  6
CONTINUOUS
 66
     1
 40
0.008248
 41
0.008248
  0
VERTEX
  8
PLAN_1
  6
CONTINUOUS
 10
-1.539567
 20
1.506571
  0
VERTEX
  8
PLAN_1
  6
CONTINUOUS
 10
-1.539567
 20
1.694630
  0
SEQEND
  8
0
  0
POLYLINE
  8
PLAN_1
  6
CONTINUOUS
 66
     1
 40
0.008248
 41
0.008248
  0
VERTEX
  8
PLAN_1
  6
CONTINUOUS
 10
-0.729142
 20
1.506571
  0
VERTEX
  8
PLAN_1
  6
CONTINUOUS
 10
-0.729142
 20
1.694630
  0
SEQEND
  8
0
  0
POLYLINE
  8
PLAN_1
  6
CONTINUOUS
 66
     1
 40
0.008248
 41
0.008248
  0
VERTEX
  8
PLAN_1
  6
CONTINUOUS
 10
-0.936307
 20
3.141752
  0
VERTEX
  8
PLAN_1
  6
CONTINUOUS
 10
-0.956720
 20
3.156953
  0
VERTEX
  8
PLAN_1
  6
CONTINUOUS
 10
-0.977134
 20
3.170417
  0
VERTEX
  8
PLAN_1
  6
CONTINUOUS
 10
-0.997110
 20
3.181709
  0
VERTEX
  8
PLAN_1
  6
CONTINUOUS
 10
-1.016220
 20
3.191697
  0
VERTEX
  8
PLAN_1
  6
CONTINUOUS
 10
-1.035331
 20
3.199949
  0
VERTEX
  8
PLAN_1
  6
CONTINUOUS
 10
-1.054008
 20
3.206465
  0
VERTEX
  8
PLAN_1
  6
CONTINUOUS
 10
-1.072248
 20
3.211240
  0
VERTEX
  8
PLAN_1
  6
CONTINUOUS
 10
-1.089618
 20
3.215150
  0
VERTEX
  8
PLAN_1
  6
CONTINUOUS
 10
-1.106992
 20
3.217756
  0
VERTEX
  8
PLAN_1
  6
CONTINUOUS
 10
-1.123496
 20
3.218626
  0
VERTEX
  8
PLAN_1
  6
CONTINUOUS
 10
-1.140000
 20
3.219059
  0
VERTEX
  8
PLAN_1
  6
CONTINUOUS
 10
-1.155201
 20
3.218193
  0
VERTEX
  8
PLAN_1
  6
CONTINUOUS
 10
-1.170402
 20
3.216453
  0
VERTEX
  8
PLAN_1
  6
CONTINUOUS
 10
-1.184732
 20
3.213846
  0
VERTEX
  8
PLAN_1
  6
CONTINUOUS
 10
-1.198630
 20
3.210807
  0
VERTEX
  8
PLAN_1
  6
CONTINUOUS
 10
-1.211661
 20
3.206898
  0
VERTEX
  8
PLAN_1
  6
CONTINUOUS
 10
-1.224256
 20
3.202555
  0
VERTEX
  8
PLAN_1
  6
CONTINUOUS
 10
-1.235984
 20
3.197780
  0
VERTEX
  8
PLAN_1
  6
CONTINUOUS
 10
-1.247276
 20
3.193000
  0
VERTEX
  8
PLAN_1
  6
CONTINUOUS
 10
-1.257697
 20
3.187787
  0
VERTEX
  8
PLAN_1
  6
CONTINUOUS
 10
-1.267689
 20
3.182142
  0
VERTEX
  8
PLAN_1
  6
CONTINUOUS
 10
-1.276374
 20
3.176933
  0
VERTEX
  8
PLAN_1
  6
CONTINUOUS
 10
-1.284626
 20
3.171287
  0
VERTEX
  8
PLAN_1
  6
CONTINUOUS
 10
-1.292441
 20
3.166075
  0
VERTEX
  8
PLAN_1
  6
CONTINUOUS
 10
-1.304602
 20
3.156520
  0
VERTEX
  8
PLAN_1
  6
CONTINUOUS
 10
-1.313724
 20
3.148701
  0
VERTEX
  8
PLAN_1
  6
CONTINUOUS
 10
-1.319370
 20
3.143488
  0
VERTEX
  8
PLAN_1
  6
CONTINUOUS
 10
-1.321106
 20
3.141752
  0
SEQEND
  8
0
  0
POLYLINE
  8
PLAN_1
  6
CONTINUOUS
 66
     1
 40
0.008248
 41
0.008248
  0
VERTEX
  8
PLAN_1
  6
CONTINUOUS
 10
-1.321106
 20
3.141752
  0
VERTEX
  8
PLAN_1
  6
CONTINUOUS
 10
-1.321106
 20
2.685724
  0
VERTEX
  8
PLAN_1
  6
CONTINUOUS
 10
-0.936307
 20
2.685724
  0
VERTEX
  8
PLAN_1
  6
CONTINUOUS
 10
-0.936307
 20
3.141752
  0
SEQEND
  8
0
  0
POLYLINE
  8
PLAN_1
  6
CONTINUOUS
 66
     1
 40
0.008248
 41
0.008248
  0
VERTEX
  8
PLAN_1
  6
CONTINUOUS
 10
-0.936307
 20
3.140449
  0
VERTEX
  8
PLAN_1
  6
CONTINUOUS
 10
-1.321106
 20
3.140449
  0
SEQEND
  8
0
  0
POLYLINE
  8
PLAN_1
  6
CONTINUOUS
 66
     1
 40
0.008248
 41
0.008248
  0
VERTEX
  8
PLAN_1
  6
CONTINUOUS
 10
-0.772575
 20
2.373457
  0
VERTEX
  8
PLAN_1
  6
CONTINUOUS
 10
-0.772575
 20
2.611024
  0
SEQEND
  8
0
  0
POLYLINE
  8
PLAN_1
  6
CONTINUOUS
 66
     1
 40
0.008248
 41
0.008248
  0
VERTEX
  8
PLAN_1
  6
CONTINUOUS
 10
-0.772575
 20
2.611024
  0
VERTEX
  8
PLAN_1
  6
CONTINUOUS
 10
-0.772575
 20
2.618409
  0
VERTEX
  8
PLAN_1
  6
CONTINUOUS
 10
-0.773874
 20
2.625791
  0
VERTEX
  8
PLAN_1
  6
CONTINUOUS
 10
-0.775614
 20
2.633173
  0
VERTEX
  8
PLAN_1
  6
CONTINUOUS
 10
-0.778220
 20
2.639689
  0
VERTEX
  8
PLAN_1
  6
CONTINUOUS
 10
-0.781260
 20
2.646205
  0
VERTEX
  8
PLAN_1
  6
CONTINUOUS
 10
-0.785169
 20
2.652283
  0
VERTEX
  8
PLAN_1
  6
CONTINUOUS
 10
-0.789512
 20
2.658366
  0
VERTEX
  8
PLAN_1
  6
CONTINUOUS
 10
-0.794287
 20
2.663575
  0
VERTEX
  8
PLAN_1
  6
CONTINUOUS
 10
-0.799500
 20
2.668354
  0
VERTEX
  8
PLAN_1
  6
CONTINUOUS
 10
-0.805146
 20
2.672697
  0
VERTEX
  8
PLAN_1
  6
CONTINUOUS
 10
-0.811228
 20
2.676173
  0
VERTEX
  8
PLAN_1
  6
CONTINUOUS
 10
-0.817740
 20
2.679646
  0
VERTEX
  8
PLAN_1
  6
CONTINUOUS
 10
-0.824689
 20
2.681819
  0
VERTEX
  8
PLAN_1
  6
CONTINUOUS
 10
-0.831638
 20
2.683988
  0
VERTEX
  8
PLAN_1
  6
CONTINUOUS
 10
-0.839457
 20
2.684858
  0
VERTEX
  8
PLAN_1
  6
CONTINUOUS
 10
-0.846839
 20
2.685291
  0
SEQEND
  8
0
  0
POLYLINE
  8
PLAN_1
  6
CONTINUOUS
 66
     1
 40
0.008248
 41
0.008248
  0
VERTEX
  8
PLAN_1
  6
CONTINUOUS
 10
-0.846839
 20
2.685291
  0
VERTEX
  8
PLAN_1
  6
CONTINUOUS
 10
-1.413614
 20
2.685291
  0
SEQEND
  8
0
  0
POLYLINE
  8
PLAN_1
  6
CONTINUOUS
 66
     1
 40
0.008248
 41
0.008248
  0
VERTEX
  8
PLAN_1
  6
CONTINUOUS
 10
-1.413614
 20
2.685291
  0
VERTEX
  8
PLAN_1
  6
CONTINUOUS
 10
-1.421433
 20
2.684858
  0
VERTEX
  8
PLAN_1
  6
CONTINUOUS
 10
-1.428815
 20
2.683988
  0
VERTEX
  8
PLAN_1
  6
CONTINUOUS
 10
-1.435764
 20
2.681819
  0
VERTEX
  8
PLAN_1
  6
CONTINUOUS
 10
-1.442713
 20
2.679646
  0
VERTEX
  8
PLAN_1
  6
CONTINUOUS
 10
-1.449228
 20
2.676173
  0
VERTEX
  8
PLAN_1
  6
CONTINUOUS
 10
-1.455311
 20
2.672697
  0
VERTEX
  8
PLAN_1
  6
CONTINUOUS
 10
-1.460957
 20
2.668354
  0
VERTEX
  8
PLAN_1
  6
CONTINUOUS
 10
-1.466602
 20
2.663575
  0
VERTEX
  8
PLAN_1
  6
CONTINUOUS
 10
-1.471378
 20
2.658366
  0
VERTEX
  8
PLAN_1
  6
CONTINUOUS
 10
-1.475720
 20
2.652283
  0
VERTEX
  8
PLAN_1
  6
CONTINUOUS
 10
-1.479197
 20
2.646205
  0
VERTEX
  8
PLAN_1
  6
CONTINUOUS
 10
-1.482236
 20
2.639689
  0
VERTEX
  8
PLAN_1
  6
CONTINUOUS
 10
-1.484843
 20
2.633173
  0
VERTEX
  8
PLAN_1
  6
CONTINUOUS
 10
-1.486579
 20
2.625791
  0
VERTEX
  8
PLAN_1
  6
CONTINUOUS
 10
-1.487882
 20
2.618409
  0
VERTEX
  8
PLAN_1
  6
CONTINUOUS
 10
-1.488315
 20
2.611024
  0
SEQEND
  8
0
  0
POLYLINE
  8
PLAN_1
  6
CONTINUOUS
 66
     1
 40
0.008248
 41
0.008248
  0
VERTEX
  8
PLAN_1
  6
CONTINUOUS
 10
-1.488315
 20
2.611024
  0
VERTEX
  8
PLAN_1
  6
CONTINUOUS
 10
-1.488315
 20
2.373457
  0
VERTEX
  8
PLAN_1
  6
CONTINUOUS
 10
-0.772575
 20
2.373457
  0
SEQEND
  8
0
  0
POLYLINE
  8
PLAN_1
  6
CONTINUOUS
 66
     1
 40
0.008248
 41
0.008248
  0
VERTEX
  8
PLAN_1
  6
CONTINUOUS
 10
-1.774094
 20
2.110701
  0
VERTEX
  8
PLAN_1
  6
CONTINUOUS
 10
-0.493311
 20
2.110701
  0
SEQEND
  8
0
  0
POLYLINE
  8
PLAN_1
 62
     2
  6
CONTINUOUS
 66
     1
 40
0.004343
 41
0.004343
  0
VERTEX
  8
PLAN_1
 62
     2
  6
CONTINUOUS
 10
-1.100043
 20
3.377150
  0
VERTEX
  8
PLAN_1
 62
     2
  6
CONTINUOUS
 10
-0.489839
 20
3.377150
  0
SEQEND
  8
0
  0
SOLID
  8
PLAN_1
 62
     2
 10
-0.460303
 20
3.377150
 11
-0.519370
 21
3.393217
 12
-0.460303
 22
3.377150
 13
-0.519370
 23
3.361512
  0
POLYLINE
  8
PLAN_1
 62
     2
  6
CONTINUOUS
 66
     1
 40
0.003000
 41
0.003000
  0
VERTEX
  8
PLAN_1
 62
     2
  6
CONTINUOUS
 10
-0.460303
 20
3.377150
  0
VERTEX
  8
PLAN_1
 62
     2
  6
CONTINUOUS
 10
-0.519370
 20
3.393217
  0
VERTEX
  8
PLAN_1
 62
     2
  6
CONTINUOUS
 10
-0.519370
 20
3.361512
  0
VERTEX
  8
PLAN_1
 62
     2
  6
CONTINUOUS
 10
-0.460303
 20
3.377150
  0
SEQEND
  8
0
  0
SOLID
  8
PLAN_1
 62
     2
 10
-1.129575
 20
3.377150
 11
-1.070512
 21
3.393217
 12
-1.129575
 22
3.377150
 13
-1.070512
 23
3.361512
  0
POLYLINE
  8
PLAN_1
 62
     2
  6
CONTINUOUS
 66
     1
 40
0.003000
 41
0.003000
  0
VERTEX
  8
PLAN_1
 62
     2
  6
CONTINUOUS
 10
-1.129575
 20
3.377150
  0
VERTEX
  8
PLAN_1
 62
     2
  6
CONTINUOUS
 10
-1.070512
 20
3.393217
  0
VERTEX
  8
PLAN_1
 62
     2
  6
CONTINUOUS
 10
-1.070512
 20
3.361512
  0
VERTEX
  8
PLAN_1
 62
     2
  6
CONTINUOUS
 10
-1.129575
 20
3.377150
  0
SEQEND
  8
0
  0
POLYLINE
  8
PLAN_1
 62
     2
  6
CONTINUOUS
 66
     1
 40
0.003000
 41
0.003000
  0
VERTEX
  8
PLAN_1
 62
     2
  6
CONTINUOUS
 10
-0.810358
 20
3.401035
  0
VERTEX
  8
PLAN_1
 62
     2
  6
CONTINUOUS
 10
-0.820346
 20
3.401035
  0
VERTEX
  8
PLAN_1
 62
     2
  6
CONTINUOUS
 10
-0.820346
 20
3.452720
  0
VERTEX
  8
PLAN_1
 62
     2
  6
CONTINUOUS
 10
-0.837283
 20
3.452720
  0
VERTEX
  8
PLAN_1
 62
     2
  6
CONTINUOUS
 10
-0.837283
 20
3.460102
  0
VERTEX
  8
PLAN_1
 62
     2
  6
CONTINUOUS
 10
-0.832941
 20
3.460535
  0
VERTEX
  8
PLAN_1
 62
     2
  6
CONTINUOUS
 10
-0.829469
 20
3.460972
  0
VERTEX
  8
PLAN_1
 62
     2
  6
CONTINUOUS
 10
-0.826429
 20
3.461839
  0
VERTEX
  8
PLAN_1
 62
     2
  6
CONTINUOUS
 10
-0.824256
 20
3.462709
  0
VERTEX
  8
PLAN_1
 62
     2
  6
CONTINUOUS
 10
-0.822083
 20
3.464445
  0
VERTEX
  8
PLAN_1
 62
     2
  6
CONTINUOUS
 10
-0.820346
 20
3.467051
  0
VERTEX
  8
PLAN_1
 62
     2
  6
CONTINUOUS
 10
-0.818610
 20
3.470091
  0
VERTEX
  8
PLAN_1
 62
     2
  6
CONTINUOUS
 10
-0.817740
 20
3.474000
  0
VERTEX
  8
PLAN_1
 62
     2
  6
CONTINUOUS
 10
-0.810358
 20
3.474000
  0
VERTEX
  8
PLAN_1
 62
     2
  6
CONTINUOUS
 10
-0.810358
 20
3.401035
  0
SEQEND
  8
0
  0
POLYLINE
  8
PLAN_1
 62
     2
  6
CONTINUOUS
 66
     1
 40
0.003000
 41
0.003000
  0
VERTEX
  8
PLAN_1
 62
     2
  6
CONTINUOUS
 10
-0.786035
 20
3.472264
  0
VERTEX
  8
PLAN_1
 62
     2
  6
CONTINUOUS
 10
-0.735657
 20
3.472264
  0
VERTEX
  8
PLAN_1
 62
     2
  6
CONTINUOUS
 10
-0.735657
 20
3.464445
  0
VERTEX
  8
PLAN_1
 62
     2
  6
CONTINUOUS
 10
-0.738697
 20
3.460972
  0
VERTEX
  8
PLAN_1
 62
     2
  6
CONTINUOUS
 10
-0.742606
 20
3.455760
  0
VERTEX
  8
PLAN_1
 62
     2
  6
CONTINUOUS
 10
-0.746949
 20
3.449677
  0
VERTEX
  8
PLAN_1
 62
     2
  6
CONTINUOUS
 10
-0.751291
 20
3.441862
  0
VERTEX
  8
PLAN_1
 62
     2
  6
CONTINUOUS
 10
-0.755634
 20
3.433173
  0
VERTEX
  8
PLAN_1
 62
     2
  6
CONTINUOUS
 10
-0.759543
 20
3.423618
  0
VERTEX
  8
PLAN_1
 62
     2
  6
CONTINUOUS
 10
-0.761280
 20
3.418409
  0
VERTEX
  8
PLAN_1
 62
     2
  6
CONTINUOUS
 10
-0.763020
 20
3.412764
  0
VERTEX
  8
PLAN_1
 62
     2
  6
CONTINUOUS
 10
-0.764323
 20
3.406681
  0
VERTEX
  8
PLAN_1
 62
     2
  6
CONTINUOUS
 10
-0.765622
 20
3.401035
  0
VERTEX
  8
PLAN_1
 62
     2
  6
CONTINUOUS
 10
-0.775614
 20
3.401035
  0
VERTEX
  8
PLAN_1
 62
     2
  6
CONTINUOUS
 10
-0.774311
 20
3.408854
  0
VERTEX
  8
PLAN_1
 62
     2
  6
CONTINUOUS
 10
-0.771705
 20
3.416669
  0
VERTEX
  8
PLAN_1
 62
     2
  6
CONTINUOUS
 10
-0.768665
 20
3.425358
  0
VERTEX
  8
PLAN_1
 62
     2
  6
CONTINUOUS
 10
-0.765189
 20
3.433610
  0
VERTEX
  8
PLAN_1
 62
     2
  6
CONTINUOUS
 10
-0.760846
 20
3.441862
  0
VERTEX
  8
PLAN_1
 62
     2
  6
CONTINUOUS
 10
-0.756071
 20
3.449677
  0
VERTEX
  8
PLAN_1
 62
     2
  6
CONTINUOUS
 10
-0.750858
 20
3.457063
  0
VERTEX
  8
PLAN_1
 62
     2
  6
CONTINUOUS
 10
-0.745646
 20
3.463575
  0
VERTEX
  8
PLAN_1
 62
     2
  6
CONTINUOUS
 10
-0.786035
 20
3.463575
  0
VERTEX
  8
PLAN_1
 62
     2
  6
CONTINUOUS
 10
-0.786035
 20
3.472264
  0
SEQEND
  8
0
  0
POLYLINE
  8
PLAN_1
 62
     2
  6
CONTINUOUS
 66
     1
 40
0.004343
 41
0.004343
  0
VERTEX
  8
PLAN_1
 62
     2
  6
CONTINUOUS
 10
-1.129575
 20
3.401035
  0
VERTEX
  8
PLAN_1
 62
     2
  6
CONTINUOUS
 10
-1.129575
 20
3.254673
  0
SEQEND
  8
0
  0
POLYLINE
  8
PLAN_1
 62
     2
  6
CONTINUOUS
 66
     1
 40
0.004343
 41
0.004343
  0
VERTEX
  8
PLAN_1
 62
     2
  6
CONTINUOUS
 10
-0.460303
 20
1.389744
  0
VERTEX
  8
PLAN_1
 62
     2
  6
CONTINUOUS
 10
-0.460303
 20
3.401035
  0
SEQEND
  8
0
  0
ENDSEC
  0
EOF
