  0
SECTION
  2
HEADER
  9
$ACADVER
  1
AC1006
  9
$EXTMIN
 10
-1.956370
 20
-3.408524
  9
$EXTMAX
 10
1.948000
 20
3.405000
  9
$LTSCALE
 40
0.000394
  9
$PDMODE
 70
    35
  9
$PDSIZE
 40
0.000315
  0
ENDSEC
  0
SECTION
  2
TABLES
  0
TABLE
  2
LTYPE
 70
     9
  0
LTYPE
  2
CONTINUOUS
 70
    64
  3
Solid line
 72
    65
 73
     0
 40
0.000000
  0
LTYPE
  2
DASHED
 70
    64
  3
__ __ __ __ __ __ __ __ __ __ __ __ __ __ __
 72
    65
 73
     2
 40
0.000003
 49
0.000002
 49
-0.000001
  0
LTYPE
  2
HIDDEN
 70
    64
  3
 _ _ _ _ _ _ _ _ _ _ _ _ _ _ _ _ _ _ _ _ _ _
 72
    65
 73
     2
 40
0.000001
 49
0.000001
 49
-0.000000
  0
LTYPE
  2
CENTER
 70
    64
  3
____ _ ____ _ ____ _ ____ _ ____ _ ____ _ ____
 72
    65
 73
     4
 40
0.000008
 49
0.000005
 49
-0.000001
 49
0.000001
 49
-0.000001
  0
LTYPE
  2
PHANTOM
 70
    64
  3
_____ _ _ _____ _ _ _____ _ _ _____ _ _ ____
 72
    65
 73
     6
 40
0.000010
 49
0.000005
 49
-0.000001
 49
0.000001
 49
-0.000001
 49
0.000001
 49
-0.000001
  0
LTYPE
  2
DOT
 70
    64
  3
...............................................
 72
    65
 73
     2
 40
0.000001
 49
0.000000
 49
-0.000001
  0
LTYPE
  2
DASHDOT
 70
    64
  3
__ . __ . __ . __ . __ . __ . __ . __ . __ . __
 72
    65
 73
     4
 40
0.000004
 49
0.000002
 49
-0.000001
 49
0.000000
 49
-0.000001
  0
LTYPE
  2
BORDER
 70
    64
  3
__ __ . __ __ . __ __ . __ __ . __ __ . __ __
 72
    65
 73
     6
 40
0.000007
 49
0.000002
 49
-0.000001
 49
0.000002
 49
-0.000001
 49
0.000000
 49
-0.000001
  0
LTYPE
  2
DIVIDE
 70
    64
  3
__ . . __ . . __ . . __ . . __ . . __ . . __
 72
    65
 73
     6
 40
0.000005
 49
0.000002
 49
-0.000001
 49
0.000000
 49
-0.000001
 49
0.000000
 49
-0.000001
  0
LTYPE
  2
DOTDOT
 70
    64
  3
 . .  . .  . .  . .  . .  . . 
 72
    65
 73
     5
 40
0.000002
 49
-0.000001
 49
0.000000
 49
-0.000001
 49
0.000000
 49
-0.000001
  0
ENDTAB
  0
TABLE
  2
STYLE
 70
     0
  0
ENDTAB
  0
TABLE
  2
LAYER
 70
     3
  0
LAYER
  2
FOREGROUND
 70
    64
 62
     7
  6
CONTINUOUS
  0
LAYER
  2
BACKGROUND
 70
    65
 62
    -7
  6
CONTINUOUS
  0
LAYER
  2
PLAN_1
 70
    64
 62
     7
  6
CONTINUOUS
  0
ENDTAB
  0
ENDSEC
  0
SECTION
  2
ENTITIES
  0
POLYLINE
  8
PLAN_1
  6
CONTINUOUS
 66
     1
 40
0.003000
 41
0.003000
  0
VERTEX
  8
PLAN_1
  6
CONTINUOUS
 10
0.087484
 20
-3.374028
  0
VERTEX
  8
PLAN_1
  6
CONTINUOUS
 10
-0.069654
 20
-3.374028
  0
VERTEX
  8
PLAN_1
  6
CONTINUOUS
 10
-0.069654
 20
-3.351461
  0
VERTEX
  8
PLAN_1
  6
CONTINUOUS
 10
0.052563
 20
-3.198579
  0
VERTEX
  8
PLAN_1
  6
CONTINUOUS
 10
-0.060287
 20
-3.198579
  0
VERTEX
  8
PLAN_1
  6
CONTINUOUS
 10
-0.060287
 20
-3.174732
  0
VERTEX
  8
PLAN_1
  6
CONTINUOUS
 10
0.087484
 20
-3.174732
  0
VERTEX
  8
PLAN_1
  6
CONTINUOUS
 10
0.087484
 20
-3.197728
  0
VERTEX
  8
PLAN_1
  6
CONTINUOUS
 10
-0.035161
 20
-3.349756
  0
VERTEX
  8
PLAN_1
  6
CONTINUOUS
 10
0.087484
 20
-3.349756
  0
VERTEX
  8
PLAN_1
  6
CONTINUOUS
 10
0.087484
 20
-3.374028
  0
SEQEND
  8
0
  0
POLYLINE
  8
PLAN_1
  6
CONTINUOUS
 66
     1
 40
0.003000
 41
0.003000
  0
VERTEX
  8
PLAN_1
  6
CONTINUOUS
 10
0.254839
 20
-3.234350
  0
VERTEX
  8
PLAN_1
  6
CONTINUOUS
 10
0.253138
 20
-3.228390
  0
VERTEX
  8
PLAN_1
  6
CONTINUOUS
 10
0.251008
 20
-3.222854
  0
VERTEX
  8
PLAN_1
  6
CONTINUOUS
 10
0.248453
 20
-3.217744
  0
VERTEX
  8
PLAN_1
  6
CONTINUOUS
 10
0.245472
 20
-3.213484
  0
VERTEX
  8
PLAN_1
  6
CONTINUOUS
 10
0.242492
 20
-3.209228
  0
VERTEX
  8
PLAN_1
  6
CONTINUOUS
 10
0.239083
 20
-3.206244
  0
VERTEX
  8
PLAN_1
  6
CONTINUOUS
 10
0.235252
 20
-3.203264
  0
VERTEX
  8
PLAN_1
  6
CONTINUOUS
 10
0.231417
 20
-3.200709
  0
VERTEX
  8
PLAN_1
  6
CONTINUOUS
 10
0.227161
 20
-3.198579
  0
VERTEX
  8
PLAN_1
  6
CONTINUOUS
 10
0.222902
 20
-3.196878
  0
VERTEX
  8
PLAN_1
  6
CONTINUOUS
 10
0.219067
 20
-3.195598
  0
VERTEX
  8
PLAN_1
  6
CONTINUOUS
 10
0.214811
 20
-3.194748
  0
VERTEX
  8
PLAN_1
  6
CONTINUOUS
 10
0.206720
 20
-3.193472
  0
VERTEX
  8
PLAN_1
  6
CONTINUOUS
 10
0.199055
 20
-3.193043
  0
VERTEX
  8
PLAN_1
  6
CONTINUOUS
 10
0.192240
 20
-3.193472
  0
VERTEX
  8
PLAN_1
  6
CONTINUOUS
 10
0.185854
 20
-3.194323
  0
VERTEX
  8
PLAN_1
  6
CONTINUOUS
 10
0.179465
 20
-3.196028
  0
VERTEX
  8
PLAN_1
  6
CONTINUOUS
 10
0.173504
 20
-3.198154
  0
VERTEX
  8
PLAN_1
  6
CONTINUOUS
 10
0.167969
 20
-3.201134
  0
VERTEX
  8
PLAN_1
  6
CONTINUOUS
 10
0.162433
 20
-3.204543
  0
VERTEX
  8
PLAN_1
  6
CONTINUOUS
 10
0.157323
 20
-3.208374
  0
VERTEX
  8
PLAN_1
  6
CONTINUOUS
 10
0.153063
 20
-3.213059
  0
VERTEX
  8
PLAN_1
  6
CONTINUOUS
 10
0.148803
 20
-3.218169
  0
VERTEX
  8
PLAN_1
  6
CONTINUOUS
 10
0.144972
 20
-3.224130
  0
VERTEX
  8
PLAN_1
  6
CONTINUOUS
 10
0.141563
 20
-3.230520
  0
VERTEX
  8
PLAN_1
  6
CONTINUOUS
 10
0.139008
 20
-3.237760
  0
VERTEX
  8
PLAN_1
  6
CONTINUOUS
 10
0.136882
 20
-3.245425
  0
VERTEX
  8
PLAN_1
  6
CONTINUOUS
 10
0.135177
 20
-3.253941
  0
VERTEX
  8
PLAN_1
  6
CONTINUOUS
 10
0.133902
 20
-3.262882
  0
VERTEX
  8
PLAN_1
  6
CONTINUOUS
 10
0.133902
 20
-3.272252
  0
VERTEX
  8
PLAN_1
  6
CONTINUOUS
 10
0.133902
 20
-3.280768
  0
VERTEX
  8
PLAN_1
  6
CONTINUOUS
 10
0.134752
 20
-3.289287
  0
VERTEX
  8
PLAN_1
  6
CONTINUOUS
 10
0.135602
 20
-3.297378
  0
VERTEX
  8
PLAN_1
  6
CONTINUOUS
 10
0.137307
 20
-3.305043
  0
VERTEX
  8
PLAN_1
  6
CONTINUOUS
 10
0.139008
 20
-3.312280
  0
VERTEX
  8
PLAN_1
  6
CONTINUOUS
 10
0.141563
 20
-3.319094
  0
VERTEX
  8
PLAN_1
  6
CONTINUOUS
 10
0.144547
 20
-3.325484
  0
VERTEX
  8
PLAN_1
  6
CONTINUOUS
 10
0.148378
 20
-3.331445
  0
VERTEX
  8
PLAN_1
  6
CONTINUOUS
 10
0.150083
 20
-3.334000
  0
VERTEX
  8
PLAN_1
  6
CONTINUOUS
 10
0.152638
 20
-3.336555
  0
VERTEX
  8
PLAN_1
  6
CONTINUOUS
 10
0.154768
 20
-3.339110
  0
VERTEX
  8
PLAN_1
  6
CONTINUOUS
 10
0.157323
 20
-3.341240
  0
VERTEX
  8
PLAN_1
  6
CONTINUOUS
 10
0.159878
 20
-3.343366
  0
VERTEX
  8
PLAN_1
  6
CONTINUOUS
 10
0.162433
 20
-3.345496
  0
VERTEX
  8
PLAN_1
  6
CONTINUOUS
 10
0.165413
 20
-3.347201
  0
VERTEX
  8
PLAN_1
  6
CONTINUOUS
 10
0.168819
 20
-3.348906
  0
VERTEX
  8
PLAN_1
  6
CONTINUOUS
 10
0.171799
 20
-3.350181
  0
VERTEX
  8
PLAN_1
  6
CONTINUOUS
 10
0.175205
 20
-3.351461
  0
VERTEX
  8
PLAN_1
  6
CONTINUOUS
 10
0.179039
 20
-3.352736
  0
VERTEX
  8
PLAN_1
  6
CONTINUOUS
 10
0.182870
 20
-3.353587
  0
VERTEX
  8
PLAN_1
  6
CONTINUOUS
 10
0.186705
 20
-3.354441
  0
VERTEX
  8
PLAN_1
  6
CONTINUOUS
 10
0.190965
 20
-3.354866
  0
VERTEX
  8
PLAN_1
  6
CONTINUOUS
 10
0.195220
 20
-3.355291
  0
VERTEX
  8
PLAN_1
  6
CONTINUOUS
 10
0.199906
 20
-3.355291
  0
VERTEX
  8
PLAN_1
  6
CONTINUOUS
 10
0.203311
 20
-3.355291
  0
VERTEX
  8
PLAN_1
  6
CONTINUOUS
 10
0.206720
 20
-3.354866
  0
VERTEX
  8
PLAN_1
  6
CONTINUOUS
 10
0.210976
 20
-3.354016
  0
VERTEX
  8
PLAN_1
  6
CONTINUOUS
 10
0.214811
 20
-3.353161
  0
VERTEX
  8
PLAN_1
  6
CONTINUOUS
 10
0.219067
 20
-3.351886
  0
VERTEX
  8
PLAN_1
  6
CONTINUOUS
 10
0.222902
 20
-3.350181
  0
VERTEX
  8
PLAN_1
  6
CONTINUOUS
 10
0.227161
 20
-3.348051
  0
VERTEX
  8
PLAN_1
  6
CONTINUOUS
 10
0.231417
 20
-3.345071
  0
VERTEX
  8
PLAN_1
  6
CONTINUOUS
 10
0.235252
 20
-3.342091
  0
VERTEX
  8
PLAN_1
  6
CONTINUOUS
 10
0.239083
 20
-3.338260
  0
VERTEX
  8
PLAN_1
  6
CONTINUOUS
 10
0.242917
 20
-3.333575
  0
VERTEX
  8
PLAN_1
  6
CONTINUOUS
 10
0.246323
 20
-3.328465
  0
VERTEX
  8
PLAN_1
  6
CONTINUOUS
 10
0.249728
 20
-3.322929
  0
VERTEX
  8
PLAN_1
  6
CONTINUOUS
 10
0.252283
 20
-3.316114
  0
VERTEX
  8
PLAN_1
  6
CONTINUOUS
 10
0.254839
 20
-3.308874
  0
VERTEX
  8
PLAN_1
  6
CONTINUOUS
 10
0.256543
 20
-3.300358
  0
VERTEX
  8
PLAN_1
  6
CONTINUOUS
 10
0.282945
 20
-3.300358
  0
VERTEX
  8
PLAN_1
  6
CONTINUOUS
 10
0.281669
 20
-3.307598
  0
VERTEX
  8
PLAN_1
  6
CONTINUOUS
 10
0.279965
 20
-3.313984
  0
VERTEX
  8
PLAN_1
  6
CONTINUOUS
 10
0.278260
 20
-3.319945
  0
VERTEX
  8
PLAN_1
  6
CONTINUOUS
 10
0.276559
 20
-3.325484
  0
VERTEX
  8
PLAN_1
  6
CONTINUOUS
 10
0.274429
 20
-3.331020
  0
VERTEX
  8
PLAN_1
  6
CONTINUOUS
 10
0.271874
 20
-3.335705
  0
VERTEX
  8
PLAN_1
  6
CONTINUOUS
 10
0.269319
 20
-3.340386
  0
VERTEX
  8
PLAN_1
  6
CONTINUOUS
 10
0.266764
 20
-3.344646
  0
VERTEX
  8
PLAN_1
  6
CONTINUOUS
 10
0.263783
 20
-3.348476
  0
VERTEX
  8
PLAN_1
  6
CONTINUOUS
 10
0.260803
 20
-3.352311
  0
VERTEX
  8
PLAN_1
  6
CONTINUOUS
 10
0.257394
 20
-3.355291
  0
VERTEX
  8
PLAN_1
  6
CONTINUOUS
 10
0.254413
 20
-3.358272
  0
VERTEX
  8
PLAN_1
  6
CONTINUOUS
 10
0.251008
 20
-3.361252
  0
VERTEX
  8
PLAN_1
  6
CONTINUOUS
 10
0.247598
 20
-3.363807
  0
VERTEX
  8
PLAN_1
  6
CONTINUOUS
 10
0.244193
 20
-3.365937
  0
VERTEX
  8
PLAN_1
  6
CONTINUOUS
 10
0.240787
 20
-3.368067
  0
VERTEX
  8
PLAN_1
  6
CONTINUOUS
 10
0.233547
 20
-3.371472
  0
VERTEX
  8
PLAN_1
  6
CONTINUOUS
 10
0.226732
 20
-3.374028
  0
VERTEX
  8
PLAN_1
  6
CONTINUOUS
 10
0.220346
 20
-3.376157
  0
VERTEX
  8
PLAN_1
  6
CONTINUOUS
 10
0.213957
 20
-3.377437
  0
VERTEX
  8
PLAN_1
  6
CONTINUOUS
 10
0.203311
 20
-3.378713
  0
VERTEX
  8
PLAN_1
  6
CONTINUOUS
 10
0.195646
 20
-3.379138
  0
VERTEX
  8
PLAN_1
  6
CONTINUOUS
 10
0.187130
 20
-3.378713
  0
VERTEX
  8
PLAN_1
  6
CONTINUOUS
 10
0.178614
 20
-3.377862
  0
VERTEX
  8
PLAN_1
  6
CONTINUOUS
 10
0.170524
 20
-3.375732
  0
VERTEX
  8
PLAN_1
  6
CONTINUOUS
 10
0.162433
 20
-3.373177
  0
VERTEX
  8
PLAN_1
  6
CONTINUOUS
 10
0.158598
 20
-3.371902
  0
VERTEX
  8
PLAN_1
  6
CONTINUOUS
 10
0.154768
 20
-3.369772
  0
VERTEX
  8
PLAN_1
  6
CONTINUOUS
 10
0.150933
 20
-3.368067
  0
VERTEX
  8
PLAN_1
  6
CONTINUOUS
 10
0.147528
 20
-3.365937
  0
VERTEX
  8
PLAN_1
  6
CONTINUOUS
 10
0.143693
 20
-3.363382
  0
VERTEX
  8
PLAN_1
  6
CONTINUOUS
 10
0.140287
 20
-3.360827
  0
VERTEX
  8
PLAN_1
  6
CONTINUOUS
 10
0.136882
 20
-3.357846
  0
VERTEX
  8
PLAN_1
  6
CONTINUOUS
 10
0.133902
 20
-3.354866
  0
VERTEX
  8
PLAN_1
  6
CONTINUOUS
 10
0.130917
 20
-3.351461
  0
VERTEX
  8
PLAN_1
  6
CONTINUOUS
 10
0.127937
 20
-3.348051
  0
VERTEX
  8
PLAN_1
  6
CONTINUOUS
 10
0.124957
 20
-3.344220
  0
VERTEX
  8
PLAN_1
  6
CONTINUOUS
 10
0.122402
 20
-3.340386
  0
VERTEX
  8
PLAN_1
  6
CONTINUOUS
 10
0.119846
 20
-3.336130
  0
VERTEX
  8
PLAN_1
  6
CONTINUOUS
 10
0.117717
 20
-3.331445
  0
VERTEX
  8
PLAN_1
  6
CONTINUOUS
 10
0.115587
 20
-3.326760
  0
VERTEX
  8
PLAN_1
  6
CONTINUOUS
 10
0.113461
 20
-3.322075
  0
VERTEX
  8
PLAN_1
  6
CONTINUOUS
 10
0.111756
 20
-3.316965
  0
VERTEX
  8
PLAN_1
  6
CONTINUOUS
 10
0.110476
 20
-3.311429
  0
VERTEX
  8
PLAN_1
  6
CONTINUOUS
 10
0.109201
 20
-3.305469
  0
VERTEX
  8
PLAN_1
  6
CONTINUOUS
 10
0.107921
 20
-3.299508
  0
VERTEX
  8
PLAN_1
  6
CONTINUOUS
 10
0.107071
 20
-3.293543
  0
VERTEX
  8
PLAN_1
  6
CONTINUOUS
 10
0.106646
 20
-3.286732
  0
VERTEX
  8
PLAN_1
  6
CONTINUOUS
 10
0.106220
 20
-3.280343
  0
VERTEX
  8
PLAN_1
  6
CONTINUOUS
 10
0.106220
 20
-3.273102
  0
VERTEX
  8
PLAN_1
  6
CONTINUOUS
 10
0.106220
 20
-3.261606
  0
VERTEX
  8
PLAN_1
  6
CONTINUOUS
 10
0.107496
 20
-3.250961
  0
VERTEX
  8
PLAN_1
  6
CONTINUOUS
 10
0.108350
 20
-3.245850
  0
VERTEX
  8
PLAN_1
  6
CONTINUOUS
 10
0.109626
 20
-3.240740
  0
VERTEX
  8
PLAN_1
  6
CONTINUOUS
 10
0.110906
 20
-3.235630
  0
VERTEX
  8
PLAN_1
  6
CONTINUOUS
 10
0.112181
 20
-3.230945
  0
VERTEX
  8
PLAN_1
  6
CONTINUOUS
 10
0.113886
 20
-3.226260
  0
VERTEX
  8
PLAN_1
  6
CONTINUOUS
 10
0.116016
 20
-3.222004
  0
VERTEX
  8
PLAN_1
  6
CONTINUOUS
 10
0.117717
 20
-3.217319
  0
VERTEX
  8
PLAN_1
  6
CONTINUOUS
 10
0.120272
 20
-3.213484
  0
VERTEX
  8
PLAN_1
  6
CONTINUOUS
 10
0.122402
 20
-3.209228
  0
VERTEX
  8
PLAN_1
  6
CONTINUOUS
 10
0.124957
 20
-3.205394
  0
VERTEX
  8
PLAN_1
  6
CONTINUOUS
 10
0.127937
 20
-3.201563
  0
VERTEX
  8
PLAN_1
  6
CONTINUOUS
 10
0.130917
 20
-3.198154
  0
VERTEX
  8
PLAN_1
  6
CONTINUOUS
 10
0.133902
 20
-3.194748
  0
VERTEX
  8
PLAN_1
  6
CONTINUOUS
 10
0.136882
 20
-3.191768
  0
VERTEX
  8
PLAN_1
  6
CONTINUOUS
 10
0.140287
 20
-3.188787
  0
VERTEX
  8
PLAN_1
  6
CONTINUOUS
 10
0.144118
 20
-3.185807
  0
VERTEX
  8
PLAN_1
  6
CONTINUOUS
 10
0.147953
 20
-3.183252
  0
VERTEX
  8
PLAN_1
  6
CONTINUOUS
 10
0.151783
 20
-3.181122
  0
VERTEX
  8
PLAN_1
  6
CONTINUOUS
 10
0.155618
 20
-3.178992
  0
VERTEX
  8
PLAN_1
  6
CONTINUOUS
 10
0.159878
 20
-3.176862
  0
VERTEX
  8
PLAN_1
  6
CONTINUOUS
 10
0.164559
 20
-3.175157
  0
VERTEX
  8
PLAN_1
  6
CONTINUOUS
 10
0.168819
 20
-3.173457
  0
VERTEX
  8
PLAN_1
  6
CONTINUOUS
 10
0.173504
 20
-3.172177
  0
VERTEX
  8
PLAN_1
  6
CONTINUOUS
 10
0.178189
 20
-3.171327
  0
VERTEX
  8
PLAN_1
  6
CONTINUOUS
 10
0.183299
 20
-3.170476
  0
VERTEX
  8
PLAN_1
  6
CONTINUOUS
 10
0.188409
 20
-3.169622
  0
VERTEX
  8
PLAN_1
  6
CONTINUOUS
 10
0.193520
 20
-3.169622
  0
VERTEX
  8
PLAN_1
  6
CONTINUOUS
 10
0.199055
 20
-3.169197
  0
VERTEX
  8
PLAN_1
  6
CONTINUOUS
 10
0.208421
 20
-3.169622
  0
VERTEX
  8
PLAN_1
  6
CONTINUOUS
 10
0.216941
 20
-3.170902
  0
VERTEX
  8
PLAN_1
  6
CONTINUOUS
 10
0.225457
 20
-3.172602
  0
VERTEX
  8
PLAN_1
  6
CONTINUOUS
 10
0.232697
 20
-3.174732
  0
VERTEX
  8
PLAN_1
  6
CONTINUOUS
 10
0.239937
 20
-3.177713
  0
VERTEX
  8
PLAN_1
  6
CONTINUOUS
 10
0.246323
 20
-3.181122
  0
VERTEX
  8
PLAN_1
  6
CONTINUOUS
 10
0.252283
 20
-3.184953
  0
VERTEX
  8
PLAN_1
  6
CONTINUOUS
 10
0.257819
 20
-3.189213
  0
VERTEX
  8
PLAN_1
  6
CONTINUOUS
 10
0.262504
 20
-3.194323
  0
VERTEX
  8
PLAN_1
  6
CONTINUOUS
 10
0.266764
 20
-3.199433
  0
VERTEX
  8
PLAN_1
  6
CONTINUOUS
 10
0.270594
 20
-3.204543
  0
VERTEX
  8
PLAN_1
  6
CONTINUOUS
 10
0.273579
 20
-3.210079
  0
VERTEX
  8
PLAN_1
  6
CONTINUOUS
 10
0.276134
 20
-3.216039
  0
VERTEX
  8
PLAN_1
  6
CONTINUOUS
 10
0.278260
 20
-3.222004
  0
VERTEX
  8
PLAN_1
  6
CONTINUOUS
 10
0.279965
 20
-3.228390
  0
VERTEX
  8
PLAN_1
  6
CONTINUOUS
 10
0.280815
 20
-3.234350
  0
VERTEX
  8
PLAN_1
  6
CONTINUOUS
 10
0.254839
 20
-3.234350
  0
SEQEND
  8
0
  0
POLYLINE
  8
PLAN_1
  6
CONTINUOUS
 66
     1
 40
0.003000
 41
0.003000
  0
VERTEX
  8
PLAN_1
  6
CONTINUOUS
 10
0.342138
 20
-3.374028
  0
VERTEX
  8
PLAN_1
  6
CONTINUOUS
 10
0.315311
 20
-3.374028
  0
VERTEX
  8
PLAN_1
  6
CONTINUOUS
 10
0.315311
 20
-3.174732
  0
VERTEX
  8
PLAN_1
  6
CONTINUOUS
 10
0.342138
 20
-3.174732
  0
VERTEX
  8
PLAN_1
  6
CONTINUOUS
 10
0.342138
 20
-3.270972
  0
VERTEX
  8
PLAN_1
  6
CONTINUOUS
 10
0.438803
 20
-3.174732
  0
VERTEX
  8
PLAN_1
  6
CONTINUOUS
 10
0.476280
 20
-3.174732
  0
VERTEX
  8
PLAN_1
  6
CONTINUOUS
 10
0.393240
 20
-3.255217
  0
VERTEX
  8
PLAN_1
  6
CONTINUOUS
 10
0.478409
 20
-3.374028
  0
VERTEX
  8
PLAN_1
  6
CONTINUOUS
 10
0.443488
 20
-3.374028
  0
VERTEX
  8
PLAN_1
  6
CONTINUOUS
 10
0.373650
 20
-3.273957
  0
VERTEX
  8
PLAN_1
  6
CONTINUOUS
 10
0.342138
 20
-3.303764
  0
VERTEX
  8
PLAN_1
  6
CONTINUOUS
 10
0.342138
 20
-3.374028
  0
SEQEND
  8
0
  0
POLYLINE
  8
PLAN_1
  6
CONTINUOUS
 66
     1
 40
0.003000
 41
0.003000
  0
VERTEX
  8
PLAN_1
  6
CONTINUOUS
 10
0.650449
 20
-3.374028
  0
VERTEX
  8
PLAN_1
  6
CONTINUOUS
 10
0.503531
 20
-3.374028
  0
VERTEX
  8
PLAN_1
  6
CONTINUOUS
 10
0.503531
 20
-3.174732
  0
VERTEX
  8
PLAN_1
  6
CONTINUOUS
 10
0.648319
 20
-3.174732
  0
VERTEX
  8
PLAN_1
  6
CONTINUOUS
 10
0.648319
 20
-3.198579
  0
VERTEX
  8
PLAN_1
  6
CONTINUOUS
 10
0.530362
 20
-3.198579
  0
VERTEX
  8
PLAN_1
  6
CONTINUOUS
 10
0.530362
 20
-3.259476
  0
VERTEX
  8
PLAN_1
  6
CONTINUOUS
 10
0.639378
 20
-3.259476
  0
VERTEX
  8
PLAN_1
  6
CONTINUOUS
 10
0.639378
 20
-3.283323
  0
VERTEX
  8
PLAN_1
  6
CONTINUOUS
 10
0.530362
 20
-3.283323
  0
VERTEX
  8
PLAN_1
  6
CONTINUOUS
 10
0.530362
 20
-3.349756
  0
VERTEX
  8
PLAN_1
  6
CONTINUOUS
 10
0.650449
 20
-3.349756
  0
VERTEX
  8
PLAN_1
  6
CONTINUOUS
 10
0.650449
 20
-3.374028
  0
SEQEND
  8
0
  0
POLYLINE
  8
PLAN_1
  6
CONTINUOUS
 66
     1
 40
0.003000
 41
0.003000
  0
VERTEX
  8
PLAN_1
  6
CONTINUOUS
 10
0.780331
 20
-3.230520
  0
VERTEX
  8
PLAN_1
  6
CONTINUOUS
 10
0.779055
 20
-3.224559
  0
VERTEX
  8
PLAN_1
  6
CONTINUOUS
 10
0.776925
 20
-3.218594
  0
VERTEX
  8
PLAN_1
  6
CONTINUOUS
 10
0.775650
 20
-3.216039
  0
VERTEX
  8
PLAN_1
  6
CONTINUOUS
 10
0.773945
 20
-3.213484
  0
VERTEX
  8
PLAN_1
  6
CONTINUOUS
 10
0.772240
 20
-3.211354
  0
VERTEX
  8
PLAN_1
  6
CONTINUOUS
 10
0.770539
 20
-3.209228
  0
VERTEX
  8
PLAN_1
  6
CONTINUOUS
 10
0.768409
 20
-3.207098
  0
VERTEX
  8
PLAN_1
  6
CONTINUOUS
 10
0.765854
 20
-3.205394
  0
VERTEX
  8
PLAN_1
  6
CONTINUOUS
 10
0.763299
 20
-3.204118
  0
VERTEX
  8
PLAN_1
  6
CONTINUOUS
 10
0.760744
 20
-3.202839
  0
VERTEX
  8
PLAN_1
  6
CONTINUOUS
 10
0.757339
 20
-3.201988
  0
VERTEX
  8
PLAN_1
  6
CONTINUOUS
 10
0.754354
 20
-3.201134
  0
VERTEX
  8
PLAN_1
  6
CONTINUOUS
 10
0.750524
 20
-3.200709
  0
VERTEX
  8
PLAN_1
  6
CONTINUOUS
 10
0.746689
 20
-3.200709
  0
VERTEX
  8
PLAN_1
  6
CONTINUOUS
 10
0.743283
 20
-3.200709
  0
VERTEX
  8
PLAN_1
  6
CONTINUOUS
 10
0.739878
 20
-3.201134
  0
VERTEX
  8
PLAN_1
  6
CONTINUOUS
 10
0.736898
 20
-3.201988
  0
VERTEX
  8
PLAN_1
  6
CONTINUOUS
 10
0.733917
 20
-3.202839
  0
VERTEX
  8
PLAN_1
  6
CONTINUOUS
 10
0.730933
 20
-3.204118
  0
VERTEX
  8
PLAN_1
  6
CONTINUOUS
 10
0.728378
 20
-3.205394
  0
VERTEX
  8
PLAN_1
  6
CONTINUOUS
 10
0.725823
 20
-3.207098
  0
VERTEX
  8
PLAN_1
  6
CONTINUOUS
 10
0.723268
 20
-3.209228
  0
VERTEX
  8
PLAN_1
  6
CONTINUOUS
 10
0.719012
 20
-3.213059
  0
VERTEX
  8
PLAN_1
  6
CONTINUOUS
 10
0.715177
 20
-3.218169
  0
VERTEX
  8
PLAN_1
  6
CONTINUOUS
 10
0.712197
 20
-3.223280
  0
VERTEX
  8
PLAN_1
  6
CONTINUOUS
 10
0.709217
 20
-3.228815
  0
VERTEX
  8
PLAN_1
  6
CONTINUOUS
 10
0.707087
 20
-3.234776
  0
VERTEX
  8
PLAN_1
  6
CONTINUOUS
 10
0.704957
 20
-3.241165
  0
VERTEX
  8
PLAN_1
  6
CONTINUOUS
 10
0.703681
 20
-3.247126
  0
VERTEX
  8
PLAN_1
  6
CONTINUOUS
 10
0.702402
 20
-3.252661
  0
VERTEX
  8
PLAN_1
  6
CONTINUOUS
 10
0.701126
 20
-3.263736
  0
VERTEX
  8
PLAN_1
  6
CONTINUOUS
 10
0.700701
 20
-3.272677
  0
VERTEX
  8
PLAN_1
  6
CONTINUOUS
 10
0.701126
 20
-3.273528
  0
VERTEX
  8
PLAN_1
  6
CONTINUOUS
 10
0.703681
 20
-3.269272
  0
VERTEX
  8
PLAN_1
  6
CONTINUOUS
 10
0.707087
 20
-3.265012
  0
VERTEX
  8
PLAN_1
  6
CONTINUOUS
 10
0.711346
 20
-3.261181
  0
VERTEX
  8
PLAN_1
  6
CONTINUOUS
 10
0.716457
 20
-3.257346
  0
VERTEX
  8
PLAN_1
  6
CONTINUOUS
 10
0.719437
 20
-3.255646
  0
VERTEX
  8
PLAN_1
  6
CONTINUOUS
 10
0.722843
 20
-3.254366
  0
VERTEX
  8
PLAN_1
  6
CONTINUOUS
 10
0.726252
 20
-3.253091
  0
VERTEX
  8
PLAN_1
  6
CONTINUOUS
 10
0.729657
 20
-3.251811
  0
VERTEX
  8
PLAN_1
  6
CONTINUOUS
 10
0.733917
 20
-3.250961
  0
VERTEX
  8
PLAN_1
  6
CONTINUOUS
 10
0.738173
 20
-3.250106
  0
VERTEX
  8
PLAN_1
  6
CONTINUOUS
 10
0.742433
 20
-3.249681
  0
VERTEX
  8
PLAN_1
  6
CONTINUOUS
 10
0.747543
 20
-3.249681
  0
VERTEX
  8
PLAN_1
  6
CONTINUOUS
 10
0.752228
 20
-3.249681
  0
VERTEX
  8
PLAN_1
  6
CONTINUOUS
 10
0.756909
 20
-3.250106
  0
VERTEX
  8
PLAN_1
  6
CONTINUOUS
 10
0.762020
 20
-3.251386
  0
VERTEX
  8
PLAN_1
  6
CONTINUOUS
 10
0.767130
 20
-3.252661
  0
VERTEX
  8
PLAN_1
  6
CONTINUOUS
 10
0.772240
 20
-3.254366
  0
VERTEX
  8
PLAN_1
  6
CONTINUOUS
 10
0.777350
 20
-3.256921
  0
VERTEX
  8
PLAN_1
  6
CONTINUOUS
 10
0.782035
 20
-3.259476
  0
VERTEX
  8
PLAN_1
  6
CONTINUOUS
 10
0.786720
 20
-3.262882
  0
VERTEX
  8
PLAN_1
  6
CONTINUOUS
 10
0.791406
 20
-3.266717
  0
VERTEX
  8
PLAN_1
  6
CONTINUOUS
 10
0.795661
 20
-3.271402
  0
VERTEX
  8
PLAN_1
  6
CONTINUOUS
 10
0.799071
 20
-3.276512
  0
VERTEX
  8
PLAN_1
  6
CONTINUOUS
 10
0.802476
 20
-3.282047
  0
VERTEX
  8
PLAN_1
  6
CONTINUOUS
 10
0.805031
 20
-3.288433
  0
VERTEX
  8
PLAN_1
  6
CONTINUOUS
 10
0.806736
 20
-3.295248
  0
VERTEX
  8
PLAN_1
  6
CONTINUOUS
 10
0.807587
 20
-3.299079
  0
VERTEX
  8
PLAN_1
  6
CONTINUOUS
 10
0.808012
 20
-3.302913
  0
VERTEX
  8
PLAN_1
  6
CONTINUOUS
 10
0.808437
 20
-3.307169
  0
VERTEX
  8
PLAN_1
  6
CONTINUOUS
 10
0.808437
 20
-3.311429
  0
VERTEX
  8
PLAN_1
  6
CONTINUOUS
 10
0.808437
 20
-3.318669
  0
VERTEX
  8
PLAN_1
  6
CONTINUOUS
 10
0.807587
 20
-3.325484
  0
VERTEX
  8
PLAN_1
  6
CONTINUOUS
 10
0.806311
 20
-3.331870
  0
VERTEX
  8
PLAN_1
  6
CONTINUOUS
 10
0.804181
 20
-3.337831
  0
VERTEX
  8
PLAN_1
  6
CONTINUOUS
 10
0.801626
 20
-3.343795
  0
VERTEX
  8
PLAN_1
  6
CONTINUOUS
 10
0.798217
 20
-3.349331
  0
VERTEX
  8
PLAN_1
  6
CONTINUOUS
 10
0.794386
 20
-3.354866
  0
VERTEX
  8
PLAN_1
  6
CONTINUOUS
 10
0.789701
 20
-3.360402
  0
VERTEX
  8
PLAN_1
  6
CONTINUOUS
 10
0.785870
 20
-3.364236
  0
VERTEX
  8
PLAN_1
  6
CONTINUOUS
 10
0.781610
 20
-3.368067
  0
VERTEX
  8
PLAN_1
  6
CONTINUOUS
 10
0.776925
 20
-3.371047
  0
VERTEX
  8
PLAN_1
  6
CONTINUOUS
 10
0.771815
 20
-3.374028
  0
VERTEX
  8
PLAN_1
  6
CONTINUOUS
 10
0.765429
 20
-3.376157
  0
VERTEX
  8
PLAN_1
  6
CONTINUOUS
 10
0.758189
 20
-3.377862
  0
VERTEX
  8
PLAN_1
  6
CONTINUOUS
 10
0.750098
 20
-3.378713
  0
VERTEX
  8
PLAN_1
  6
CONTINUOUS
 10
0.740303
 20
-3.379138
  0
VERTEX
  8
PLAN_1
  6
CONTINUOUS
 10
0.734768
 20
-3.378713
  0
VERTEX
  8
PLAN_1
  6
CONTINUOUS
 10
0.728378
 20
-3.377862
  0
VERTEX
  8
PLAN_1
  6
CONTINUOUS
 10
0.721567
 20
-3.375732
  0
VERTEX
  8
PLAN_1
  6
CONTINUOUS
 10
0.714752
 20
-3.373177
  0
VERTEX
  8
PLAN_1
  6
CONTINUOUS
 10
0.711772
 20
-3.371472
  0
VERTEX
  8
PLAN_1
  6
CONTINUOUS
 10
0.708366
 20
-3.369346
  0
VERTEX
  8
PLAN_1
  6
CONTINUOUS
 10
0.704957
 20
-3.366791
  0
VERTEX
  8
PLAN_1
  6
CONTINUOUS
 10
0.701976
 20
-3.364236
  0
VERTEX
  8
PLAN_1
  6
CONTINUOUS
 10
0.698571
 20
-3.361252
  0
VERTEX
  8
PLAN_1
  6
CONTINUOUS
 10
0.695591
 20
-3.358272
  0
VERTEX
  8
PLAN_1
  6
CONTINUOUS
 10
0.693035
 20
-3.354866
  0
VERTEX
  8
PLAN_1
  6
CONTINUOUS
 10
0.690055
 20
-3.350606
  0
VERTEX
  8
PLAN_1
  6
CONTINUOUS
 10
0.688350
 20
-3.347201
  0
VERTEX
  8
PLAN_1
  6
CONTINUOUS
 10
0.686220
 20
-3.343795
  0
VERTEX
  8
PLAN_1
  6
CONTINUOUS
 10
0.684516
 20
-3.339961
  0
VERTEX
  8
PLAN_1
  6
CONTINUOUS
 10
0.682815
 20
-3.336130
  0
VERTEX
  8
PLAN_1
  6
CONTINUOUS
 10
0.680260
 20
-3.328039
  0
VERTEX
  8
PLAN_1
  6
CONTINUOUS
 10
0.678555
 20
-3.319520
  0
VERTEX
  8
PLAN_1
  6
CONTINUOUS
 10
0.676850
 20
-3.311004
  0
VERTEX
  8
PLAN_1
  6
CONTINUOUS
 10
0.676000
 20
-3.302063
  0
VERTEX
  8
PLAN_1
  6
CONTINUOUS
 10
0.675575
 20
-3.292693
  0
VERTEX
  8
PLAN_1
  6
CONTINUOUS
 10
0.675150
 20
-3.282898
  0
VERTEX
  8
PLAN_1
  6
CONTINUOUS
 10
0.675575
 20
-3.274807
  0
VERTEX
  8
PLAN_1
  6
CONTINUOUS
 10
0.676000
 20
-3.266291
  0
VERTEX
  8
PLAN_1
  6
CONTINUOUS
 10
0.676850
 20
-3.257772
  0
VERTEX
  8
PLAN_1
  6
CONTINUOUS
 10
0.678555
 20
-3.248831
  0
VERTEX
  8
PLAN_1
  6
CONTINUOUS
 10
0.680260
 20
-3.239886
  0
VERTEX
  8
PLAN_1
  6
CONTINUOUS
 10
0.682815
 20
-3.231370
  0
VERTEX
  8
PLAN_1
  6
CONTINUOUS
 10
0.685795
 20
-3.222854
  0
VERTEX
  8
PLAN_1
  6
CONTINUOUS
 10
0.689626
 20
-3.214764
  0
VERTEX
  8
PLAN_1
  6
CONTINUOUS
 10
0.691756
 20
-3.210929
  0
VERTEX
  8
PLAN_1
  6
CONTINUOUS
 10
0.693886
 20
-3.207524
  0
VERTEX
  8
PLAN_1
  6
CONTINUOUS
 10
0.696441
 20
-3.203689
  0
VERTEX
  8
PLAN_1
  6
CONTINUOUS
 10
0.698996
 20
-3.200283
  0
VERTEX
  8
PLAN_1
  6
CONTINUOUS
 10
0.701976
 20
-3.197303
  0
VERTEX
  8
PLAN_1
  6
CONTINUOUS
 10
0.704957
 20
-3.194323
  0
VERTEX
  8
PLAN_1
  6
CONTINUOUS
 10
0.707937
 20
-3.191768
  0
VERTEX
  8
PLAN_1
  6
CONTINUOUS
 10
0.711772
 20
-3.189213
  0
VERTEX
  8
PLAN_1
  6
CONTINUOUS
 10
0.715177
 20
-3.186657
  0
VERTEX
  8
PLAN_1
  6
CONTINUOUS
 10
0.719012
 20
-3.184528
  0
VERTEX
  8
PLAN_1
  6
CONTINUOUS
 10
0.723268
 20
-3.182823
  0
VERTEX
  8
PLAN_1
  6
CONTINUOUS
 10
0.727528
 20
-3.181547
  0
VERTEX
  8
PLAN_1
  6
CONTINUOUS
 10
0.732213
 20
-3.180268
  0
VERTEX
  8
PLAN_1
  6
CONTINUOUS
 10
0.736898
 20
-3.179417
  0
VERTEX
  8
PLAN_1
  6
CONTINUOUS
 10
0.742008
 20
-3.178992
  0
VERTEX
  8
PLAN_1
  6
CONTINUOUS
 10
0.747543
 20
-3.178567
  0
VERTEX
  8
PLAN_1
  6
CONTINUOUS
 10
0.751799
 20
-3.178992
  0
VERTEX
  8
PLAN_1
  6
CONTINUOUS
 10
0.756059
 20
-3.179417
  0
VERTEX
  8
PLAN_1
  6
CONTINUOUS
 10
0.760744
 20
-3.180268
  0
VERTEX
  8
PLAN_1
  6
CONTINUOUS
 10
0.765429
 20
-3.181122
  0
VERTEX
  8
PLAN_1
  6
CONTINUOUS
 10
0.770114
 20
-3.182823
  0
VERTEX
  8
PLAN_1
  6
CONTINUOUS
 10
0.774795
 20
-3.184528
  0
VERTEX
  8
PLAN_1
  6
CONTINUOUS
 10
0.779055
 20
-3.187083
  0
VERTEX
  8
PLAN_1
  6
CONTINUOUS
 10
0.783315
 20
-3.189638
  0
VERTEX
  8
PLAN_1
  6
CONTINUOUS
 10
0.787571
 20
-3.193043
  0
VERTEX
  8
PLAN_1
  6
CONTINUOUS
 10
0.790980
 20
-3.196878
  0
VERTEX
  8
PLAN_1
  6
CONTINUOUS
 10
0.794386
 20
-3.201134
  0
VERTEX
  8
PLAN_1
  6
CONTINUOUS
 10
0.797366
 20
-3.205819
  0
VERTEX
  8
PLAN_1
  6
CONTINUOUS
 10
0.799921
 20
-3.210929
  0
VERTEX
  8
PLAN_1
  6
CONTINUOUS
 10
0.802051
 20
-3.216894
  0
VERTEX
  8
PLAN_1
  6
CONTINUOUS
 10
0.803327
 20
-3.223705
  0
VERTEX
  8
PLAN_1
  6
CONTINUOUS
 10
0.804181
 20
-3.230520
  0
VERTEX
  8
PLAN_1
  6
CONTINUOUS
 10
0.780331
 20
-3.230520
  0
SEQEND
  8
0
  0
POLYLINE
  8
PLAN_1
  6
CONTINUOUS
 66
     1
 40
0.003000
 41
0.003000
  0
VERTEX
  8
PLAN_1
  6
CONTINUOUS
 10
0.744988
 20
-3.356996
  0
VERTEX
  8
PLAN_1
  6
CONTINUOUS
 10
0.749244
 20
-3.356996
  0
VERTEX
  8
PLAN_1
  6
CONTINUOUS
 10
0.753079
 20
-3.356142
  0
VERTEX
  8
PLAN_1
  6
CONTINUOUS
 10
0.756909
 20
-3.355291
  0
VERTEX
  8
PLAN_1
  6
CONTINUOUS
 10
0.760744
 20
-3.354016
  0
VERTEX
  8
PLAN_1
  6
CONTINUOUS
 10
0.764150
 20
-3.352311
  0
VERTEX
  8
PLAN_1
  6
CONTINUOUS
 10
0.767130
 20
-3.350181
  0
VERTEX
  8
PLAN_1
  6
CONTINUOUS
 10
0.770114
 20
-3.347626
  0
VERTEX
  8
PLAN_1
  6
CONTINUOUS
 10
0.772669
 20
-3.344646
  0
VERTEX
  8
PLAN_1
  6
CONTINUOUS
 10
0.775224
 20
-3.341665
  0
VERTEX
  8
PLAN_1
  6
CONTINUOUS
 10
0.777350
 20
-3.338260
  0
VERTEX
  8
PLAN_1
  6
CONTINUOUS
 10
0.779055
 20
-3.334425
  0
VERTEX
  8
PLAN_1
  6
CONTINUOUS
 10
0.780331
 20
-3.330594
  0
VERTEX
  8
PLAN_1
  6
CONTINUOUS
 10
0.781610
 20
-3.326335
  0
VERTEX
  8
PLAN_1
  6
CONTINUOUS
 10
0.782461
 20
-3.322075
  0
VERTEX
  8
PLAN_1
  6
CONTINUOUS
 10
0.782886
 20
-3.317390
  0
VERTEX
  8
PLAN_1
  6
CONTINUOUS
 10
0.783315
 20
-3.312709
  0
VERTEX
  8
PLAN_1
  6
CONTINUOUS
 10
0.783315
 20
-3.309299
  0
VERTEX
  8
PLAN_1
  6
CONTINUOUS
 10
0.782886
 20
-3.305894
  0
VERTEX
  8
PLAN_1
  6
CONTINUOUS
 10
0.782035
 20
-3.302488
  0
VERTEX
  8
PLAN_1
  6
CONTINUOUS
 10
0.781185
 20
-3.298654
  0
VERTEX
  8
PLAN_1
  6
CONTINUOUS
 10
0.780331
 20
-3.295248
  0
VERTEX
  8
PLAN_1
  6
CONTINUOUS
 10
0.778630
 20
-3.291843
  0
VERTEX
  8
PLAN_1
  6
CONTINUOUS
 10
0.776925
 20
-3.288858
  0
VERTEX
  8
PLAN_1
  6
CONTINUOUS
 10
0.774795
 20
-3.285453
  0
VERTEX
  8
PLAN_1
  6
CONTINUOUS
 10
0.772240
 20
-3.282472
  0
VERTEX
  8
PLAN_1
  6
CONTINUOUS
 10
0.769685
 20
-3.279917
  0
VERTEX
  8
PLAN_1
  6
CONTINUOUS
 10
0.766280
 20
-3.277362
  0
VERTEX
  8
PLAN_1
  6
CONTINUOUS
 10
0.762874
 20
-3.275232
  0
VERTEX
  8
PLAN_1
  6
CONTINUOUS
 10
0.758614
 20
-3.273528
  0
VERTEX
  8
PLAN_1
  6
CONTINUOUS
 10
0.754354
 20
-3.272677
  0
VERTEX
  8
PLAN_1
  6
CONTINUOUS
 10
0.749244
 20
-3.271827
  0
VERTEX
  8
PLAN_1
  6
CONTINUOUS
 10
0.743709
 20
-3.271402
  0
VERTEX
  8
PLAN_1
  6
CONTINUOUS
 10
0.739028
 20
-3.271827
  0
VERTEX
  8
PLAN_1
  6
CONTINUOUS
 10
0.734343
 20
-3.272252
  0
VERTEX
  8
PLAN_1
  6
CONTINUOUS
 10
0.730083
 20
-3.273528
  0
VERTEX
  8
PLAN_1
  6
CONTINUOUS
 10
0.726252
 20
-3.274807
  0
VERTEX
  8
PLAN_1
  6
CONTINUOUS
 10
0.722417
 20
-3.276512
  0
VERTEX
  8
PLAN_1
  6
CONTINUOUS
 10
0.719437
 20
-3.278638
  0
VERTEX
  8
PLAN_1
  6
CONTINUOUS
 10
0.716457
 20
-3.281193
  0
VERTEX
  8
PLAN_1
  6
CONTINUOUS
 10
0.713902
 20
-3.284177
  0
VERTEX
  8
PLAN_1
  6
CONTINUOUS
 10
0.711346
 20
-3.287157
  0
VERTEX
  8
PLAN_1
  6
CONTINUOUS
 10
0.709217
 20
-3.290138
  0
VERTEX
  8
PLAN_1
  6
CONTINUOUS
 10
0.707512
 20
-3.293969
  0
VERTEX
  8
PLAN_1
  6
CONTINUOUS
 10
0.706236
 20
-3.297378
  0
VERTEX
  8
PLAN_1
  6
CONTINUOUS
 10
0.705386
 20
-3.301209
  0
VERTEX
  8
PLAN_1
  6
CONTINUOUS
 10
0.704531
 20
-3.305469
  0
VERTEX
  8
PLAN_1
  6
CONTINUOUS
 10
0.704106
 20
-3.309724
  0
VERTEX
  8
PLAN_1
  6
CONTINUOUS
 10
0.703681
 20
-3.313984
  0
VERTEX
  8
PLAN_1
  6
CONTINUOUS
 10
0.704106
 20
-3.317819
  0
VERTEX
  8
PLAN_1
  6
CONTINUOUS
 10
0.704531
 20
-3.321650
  0
VERTEX
  8
PLAN_1
  6
CONTINUOUS
 10
0.705386
 20
-3.325484
  0
VERTEX
  8
PLAN_1
  6
CONTINUOUS
 10
0.706236
 20
-3.329315
  0
VERTEX
  8
PLAN_1
  6
CONTINUOUS
 10
0.707512
 20
-3.333150
  0
VERTEX
  8
PLAN_1
  6
CONTINUOUS
 10
0.709217
 20
-3.336555
  0
VERTEX
  8
PLAN_1
  6
CONTINUOUS
 10
0.711346
 20
-3.339961
  0
VERTEX
  8
PLAN_1
  6
CONTINUOUS
 10
0.713476
 20
-3.343366
  0
VERTEX
  8
PLAN_1
  6
CONTINUOUS
 10
0.716457
 20
-3.346350
  0
VERTEX
  8
PLAN_1
  6
CONTINUOUS
 10
0.719437
 20
-3.348906
  0
VERTEX
  8
PLAN_1
  6
CONTINUOUS
 10
0.722843
 20
-3.351461
  0
VERTEX
  8
PLAN_1
  6
CONTINUOUS
 10
0.726252
 20
-3.353161
  0
VERTEX
  8
PLAN_1
  6
CONTINUOUS
 10
0.730508
 20
-3.354866
  0
VERTEX
  8
PLAN_1
  6
CONTINUOUS
 10
0.734768
 20
-3.356142
  0
VERTEX
  8
PLAN_1
  6
CONTINUOUS
 10
0.739878
 20
-3.356996
  0
VERTEX
  8
PLAN_1
  6
CONTINUOUS
 10
0.744988
 20
-3.356996
  0
SEQEND
  8
0
  0
POLYLINE
  8
PLAN_1
  6
CONTINUOUS
 66
     1
 40
0.003000
 41
0.003000
  0
VERTEX
  8
PLAN_1
  6
CONTINUOUS
 10
0.934913
 20
-3.230520
  0
VERTEX
  8
PLAN_1
  6
CONTINUOUS
 10
0.933213
 20
-3.224559
  0
VERTEX
  8
PLAN_1
  6
CONTINUOUS
 10
0.931083
 20
-3.218594
  0
VERTEX
  8
PLAN_1
  6
CONTINUOUS
 10
0.929803
 20
-3.216039
  0
VERTEX
  8
PLAN_1
  6
CONTINUOUS
 10
0.928528
 20
-3.213484
  0
VERTEX
  8
PLAN_1
  6
CONTINUOUS
 10
0.926823
 20
-3.211354
  0
VERTEX
  8
PLAN_1
  6
CONTINUOUS
 10
0.924693
 20
-3.209228
  0
VERTEX
  8
PLAN_1
  6
CONTINUOUS
 10
0.922563
 20
-3.207098
  0
VERTEX
  8
PLAN_1
  6
CONTINUOUS
 10
0.920437
 20
-3.205394
  0
VERTEX
  8
PLAN_1
  6
CONTINUOUS
 10
0.917882
 20
-3.204118
  0
VERTEX
  8
PLAN_1
  6
CONTINUOUS
 10
0.914902
 20
-3.202839
  0
VERTEX
  8
PLAN_1
  6
CONTINUOUS
 10
0.911917
 20
-3.201988
  0
VERTEX
  8
PLAN_1
  6
CONTINUOUS
 10
0.908512
 20
-3.201134
  0
VERTEX
  8
PLAN_1
  6
CONTINUOUS
 10
0.905106
 20
-3.200709
  0
VERTEX
  8
PLAN_1
  6
CONTINUOUS
 10
0.901272
 20
-3.200709
  0
VERTEX
  8
PLAN_1
  6
CONTINUOUS
 10
0.897866
 20
-3.200709
  0
VERTEX
  8
PLAN_1
  6
CONTINUOUS
 10
0.894461
 20
-3.201134
  0
VERTEX
  8
PLAN_1
  6
CONTINUOUS
 10
0.891051
 20
-3.201988
  0
VERTEX
  8
PLAN_1
  6
CONTINUOUS
 10
0.888071
 20
-3.202839
  0
VERTEX
  8
PLAN_1
  6
CONTINUOUS
 10
0.885516
 20
-3.204118
  0
VERTEX
  8
PLAN_1
  6
CONTINUOUS
 10
0.882535
 20
-3.205394
  0
VERTEX
  8
PLAN_1
  6
CONTINUOUS
 10
0.880406
 20
-3.207098
  0
VERTEX
  8
PLAN_1
  6
CONTINUOUS
 10
0.877850
 20
-3.209228
  0
VERTEX
  8
PLAN_1
  6
CONTINUOUS
 10
0.873594
 20
-3.213059
  0
VERTEX
  8
PLAN_1
  6
CONTINUOUS
 10
0.869760
 20
-3.218169
  0
VERTEX
  8
PLAN_1
  6
CONTINUOUS
 10
0.866354
 20
-3.223280
  0
VERTEX
  8
PLAN_1
  6
CONTINUOUS
 10
0.863799
 20
-3.228815
  0
VERTEX
  8
PLAN_1
  6
CONTINUOUS
 10
0.861244
 20
-3.234776
  0
VERTEX
  8
PLAN_1
  6
CONTINUOUS
 10
0.859539
 20
-3.241165
  0
VERTEX
  8
PLAN_1
  6
CONTINUOUS
 10
0.857835
 20
-3.247126
  0
VERTEX
  8
PLAN_1
  6
CONTINUOUS
 10
0.856559
 20
-3.252661
  0
VERTEX
  8
PLAN_1
  6
CONTINUOUS
 10
0.855280
 20
-3.263736
  0
VERTEX
  8
PLAN_1
  6
CONTINUOUS
 10
0.854854
 20
-3.272677
  0
VERTEX
  8
PLAN_1
  6
CONTINUOUS
 10
0.855280
 20
-3.273528
  0
VERTEX
  8
PLAN_1
  6
CONTINUOUS
 10
0.858264
 20
-3.269272
  0
VERTEX
  8
PLAN_1
  6
CONTINUOUS
 10
0.861669
 20
-3.265012
  0
VERTEX
  8
PLAN_1
  6
CONTINUOUS
 10
0.865929
 20
-3.261181
  0
VERTEX
  8
PLAN_1
  6
CONTINUOUS
 10
0.871039
 20
-3.257346
  0
VERTEX
  8
PLAN_1
  6
CONTINUOUS
 10
0.874020
 20
-3.255646
  0
VERTEX
  8
PLAN_1
  6
CONTINUOUS
 10
0.877000
 20
-3.254366
  0
VERTEX
  8
PLAN_1
  6
CONTINUOUS
 10
0.880406
 20
-3.253091
  0
VERTEX
  8
PLAN_1
  6
CONTINUOUS
 10
0.884240
 20
-3.251811
  0
VERTEX
  8
PLAN_1
  6
CONTINUOUS
 10
0.888071
 20
-3.250961
  0
VERTEX
  8
PLAN_1
  6
CONTINUOUS
 10
0.892331
 20
-3.250106
  0
VERTEX
  8
PLAN_1
  6
CONTINUOUS
 10
0.897016
 20
-3.249681
  0
VERTEX
  8
PLAN_1
  6
CONTINUOUS
 10
0.901697
 20
-3.249681
  0
VERTEX
  8
PLAN_1
  6
CONTINUOUS
 10
0.906382
 20
-3.249681
  0
VERTEX
  8
PLAN_1
  6
CONTINUOUS
 10
0.911067
 20
-3.250106
  0
VERTEX
  8
PLAN_1
  6
CONTINUOUS
 10
0.916177
 20
-3.251386
  0
VERTEX
  8
PLAN_1
  6
CONTINUOUS
 10
0.921287
 20
-3.252661
  0
VERTEX
  8
PLAN_1
  6
CONTINUOUS
 10
0.926398
 20
-3.254366
  0
VERTEX
  8
PLAN_1
  6
CONTINUOUS
 10
0.931508
 20
-3.256921
  0
VERTEX
  8
PLAN_1
  6
CONTINUOUS
 10
0.936618
 20
-3.259476
  0
VERTEX
  8
PLAN_1
  6
CONTINUOUS
 10
0.941303
 20
-3.262882
  0
VERTEX
  8
PLAN_1
  6
CONTINUOUS
 10
0.945559
 20
-3.266717
  0
VERTEX
  8
PLAN_1
  6
CONTINUOUS
 10
0.949819
 20
-3.271402
  0
VERTEX
  8
PLAN_1
  6
CONTINUOUS
 10
0.953654
 20
-3.276512
  0
VERTEX
  8
PLAN_1
  6
CONTINUOUS
 10
0.956634
 20
-3.282047
  0
VERTEX
  8
PLAN_1
  6
CONTINUOUS
 10
0.959189
 20
-3.288433
  0
VERTEX
  8
PLAN_1
  6
CONTINUOUS
 10
0.961315
 20
-3.295248
  0
VERTEX
  8
PLAN_1
  6
CONTINUOUS
 10
0.961744
 20
-3.299079
  0
VERTEX
  8
PLAN_1
  6
CONTINUOUS
 10
0.962594
 20
-3.302913
  0
VERTEX
  8
PLAN_1
  6
CONTINUOUS
 10
0.962594
 20
-3.307169
  0
VERTEX
  8
PLAN_1
  6
CONTINUOUS
 10
0.963020
 20
-3.311429
  0
VERTEX
  8
PLAN_1
  6
CONTINUOUS
 10
0.962594
 20
-3.318669
  0
VERTEX
  8
PLAN_1
  6
CONTINUOUS
 10
0.961744
 20
-3.325484
  0
VERTEX
  8
PLAN_1
  6
CONTINUOUS
 10
0.960465
 20
-3.331870
  0
VERTEX
  8
PLAN_1
  6
CONTINUOUS
 10
0.958760
 20
-3.337831
  0
VERTEX
  8
PLAN_1
  6
CONTINUOUS
 10
0.956205
 20
-3.343795
  0
VERTEX
  8
PLAN_1
  6
CONTINUOUS
 10
0.952799
 20
-3.349331
  0
VERTEX
  8
PLAN_1
  6
CONTINUOUS
 10
0.948969
 20
-3.354866
  0
VERTEX
  8
PLAN_1
  6
CONTINUOUS
 10
0.944283
 20
-3.360402
  0
VERTEX
  8
PLAN_1
  6
CONTINUOUS
 10
0.940449
 20
-3.364236
  0
VERTEX
  8
PLAN_1
  6
CONTINUOUS
 10
0.936193
 20
-3.368067
  0
VERTEX
  8
PLAN_1
  6
CONTINUOUS
 10
0.931508
 20
-3.371047
  0
VERTEX
  8
PLAN_1
  6
CONTINUOUS
 10
0.925972
 20
-3.374028
  0
VERTEX
  8
PLAN_1
  6
CONTINUOUS
 10
0.920008
 20
-3.376157
  0
VERTEX
  8
PLAN_1
  6
CONTINUOUS
 10
0.912772
 20
-3.377862
  0
VERTEX
  8
PLAN_1
  6
CONTINUOUS
 10
0.904252
 20
-3.378713
  0
VERTEX
  8
PLAN_1
  6
CONTINUOUS
 10
0.894886
 20
-3.379138
  0
VERTEX
  8
PLAN_1
  6
CONTINUOUS
 10
0.888921
 20
-3.378713
  0
VERTEX
  8
PLAN_1
  6
CONTINUOUS
 10
0.882535
 20
-3.377862
  0
VERTEX
  8
PLAN_1
  6
CONTINUOUS
 10
0.876150
 20
-3.375732
  0
VERTEX
  8
PLAN_1
  6
CONTINUOUS
 10
0.869335
 20
-3.373177
  0
VERTEX
  8
PLAN_1
  6
CONTINUOUS
 10
0.865929
 20
-3.371472
  0
VERTEX
  8
PLAN_1
  6
CONTINUOUS
 10
0.862520
 20
-3.369346
  0
VERTEX
  8
PLAN_1
  6
CONTINUOUS
 10
0.859539
 20
-3.366791
  0
VERTEX
  8
PLAN_1
  6
CONTINUOUS
 10
0.856134
 20
-3.364236
  0
VERTEX
  8
PLAN_1
  6
CONTINUOUS
 10
0.853154
 20
-3.361252
  0
VERTEX
  8
PLAN_1
  6
CONTINUOUS
 10
0.850169
 20
-3.358272
  0
VERTEX
  8
PLAN_1
  6
CONTINUOUS
 10
0.847189
 20
-3.354866
  0
VERTEX
  8
PLAN_1
  6
CONTINUOUS
 10
0.844634
 20
-3.350606
  0
VERTEX
  8
PLAN_1
  6
CONTINUOUS
 10
0.842508
 20
-3.347201
  0
VERTEX
  8
PLAN_1
  6
CONTINUOUS
 10
0.840803
 20
-3.343795
  0
VERTEX
  8
PLAN_1
  6
CONTINUOUS
 10
0.839098
 20
-3.339961
  0
VERTEX
  8
PLAN_1
  6
CONTINUOUS
 10
0.837398
 20
-3.336130
  0
VERTEX
  8
PLAN_1
  6
CONTINUOUS
 10
0.834843
 20
-3.328039
  0
VERTEX
  8
PLAN_1
  6
CONTINUOUS
 10
0.832713
 20
-3.319520
  0
VERTEX
  8
PLAN_1
  6
CONTINUOUS
 10
0.831433
 20
-3.311004
  0
VERTEX
  8
PLAN_1
  6
CONTINUOUS
 10
0.830157
 20
-3.302063
  0
VERTEX
  8
PLAN_1
  6
CONTINUOUS
 10
0.829732
 20
-3.292693
  0
VERTEX
  8
PLAN_1
  6
CONTINUOUS
 10
0.829732
 20
-3.282898
  0
VERTEX
  8
PLAN_1
  6
CONTINUOUS
 10
0.829732
 20
-3.274807
  0
VERTEX
  8
PLAN_1
  6
CONTINUOUS
 10
0.830157
 20
-3.266291
  0
VERTEX
  8
PLAN_1
  6
CONTINUOUS
 10
0.831433
 20
-3.257772
  0
VERTEX
  8
PLAN_1
  6
CONTINUOUS
 10
0.832713
 20
-3.248831
  0
VERTEX
  8
PLAN_1
  6
CONTINUOUS
 10
0.834843
 20
-3.239886
  0
VERTEX
  8
PLAN_1
  6
CONTINUOUS
 10
0.836969
 20
-3.231370
  0
VERTEX
  8
PLAN_1
  6
CONTINUOUS
 10
0.840378
 20
-3.222854
  0
VERTEX
  8
PLAN_1
  6
CONTINUOUS
 10
0.843783
 20
-3.214764
  0
VERTEX
  8
PLAN_1
  6
CONTINUOUS
 10
0.845913
 20
-3.210929
  0
VERTEX
  8
PLAN_1
  6
CONTINUOUS
 10
0.848043
 20
-3.207524
  0
VERTEX
  8
PLAN_1
  6
CONTINUOUS
 10
0.850598
 20
-3.203689
  0
VERTEX
  8
PLAN_1
  6
CONTINUOUS
 10
0.853154
 20
-3.200283
  0
VERTEX
  8
PLAN_1
  6
CONTINUOUS
 10
0.856134
 20
-3.197303
  0
VERTEX
  8
PLAN_1
  6
CONTINUOUS
 10
0.859114
 20
-3.194323
  0
VERTEX
  8
PLAN_1
  6
CONTINUOUS
 10
0.862520
 20
-3.191768
  0
VERTEX
  8
PLAN_1
  6
CONTINUOUS
 10
0.865929
 20
-3.189213
  0
VERTEX
  8
PLAN_1
  6
CONTINUOUS
 10
0.869760
 20
-3.186657
  0
VERTEX
  8
PLAN_1
  6
CONTINUOUS
 10
0.873594
 20
-3.184528
  0
VERTEX
  8
PLAN_1
  6
CONTINUOUS
 10
0.877425
 20
-3.182823
  0
VERTEX
  8
PLAN_1
  6
CONTINUOUS
 10
0.882110
 20
-3.181547
  0
VERTEX
  8
PLAN_1
  6
CONTINUOUS
 10
0.886366
 20
-3.180268
  0
VERTEX
  8
PLAN_1
  6
CONTINUOUS
 10
0.891476
 20
-3.179417
  0
VERTEX
  8
PLAN_1
  6
CONTINUOUS
 10
0.896587
 20
-3.178992
  0
VERTEX
  8
PLAN_1
  6
CONTINUOUS
 10
0.901697
 20
-3.178567
  0
VERTEX
  8
PLAN_1
  6
CONTINUOUS
 10
0.905957
 20
-3.178992
  0
VERTEX
  8
PLAN_1
  6
CONTINUOUS
 10
0.910642
 20
-3.179417
  0
VERTEX
  8
PLAN_1
  6
CONTINUOUS
 10
0.915327
 20
-3.180268
  0
VERTEX
  8
PLAN_1
  6
CONTINUOUS
 10
0.920008
 20
-3.181122
  0
VERTEX
  8
PLAN_1
  6
CONTINUOUS
 10
0.924268
 20
-3.182823
  0
VERTEX
  8
PLAN_1
  6
CONTINUOUS
 10
0.928953
 20
-3.184528
  0
VERTEX
  8
PLAN_1
  6
CONTINUOUS
 10
0.933638
 20
-3.187083
  0
VERTEX
  8
PLAN_1
  6
CONTINUOUS
 10
0.937894
 20
-3.189638
  0
VERTEX
  8
PLAN_1
  6
CONTINUOUS
 10
0.941728
 20
-3.193043
  0
VERTEX
  8
PLAN_1
  6
CONTINUOUS
 10
0.945559
 20
-3.196878
  0
VERTEX
  8
PLAN_1
  6
CONTINUOUS
 10
0.948969
 20
-3.201134
  0
VERTEX
  8
PLAN_1
  6
CONTINUOUS
 10
0.951949
 20
-3.205819
  0
VERTEX
  8
PLAN_1
  6
CONTINUOUS
 10
0.954504
 20
-3.210929
  0
VERTEX
  8
PLAN_1
  6
CONTINUOUS
 10
0.956634
 20
-3.216894
  0
VERTEX
  8
PLAN_1
  6
CONTINUOUS
 10
0.957909
 20
-3.223705
  0
VERTEX
  8
PLAN_1
  6
CONTINUOUS
 10
0.958760
 20
-3.230520
  0
VERTEX
  8
PLAN_1
  6
CONTINUOUS
 10
0.934913
 20
-3.230520
  0
SEQEND
  8
0
  0
POLYLINE
  8
PLAN_1
  6
CONTINUOUS
 66
     1
 40
0.003000
 41
0.003000
  0
VERTEX
  8
PLAN_1
  6
CONTINUOUS
 10
0.899142
 20
-3.356996
  0
VERTEX
  8
PLAN_1
  6
CONTINUOUS
 10
0.903402
 20
-3.356996
  0
VERTEX
  8
PLAN_1
  6
CONTINUOUS
 10
0.907661
 20
-3.356142
  0
VERTEX
  8
PLAN_1
  6
CONTINUOUS
 10
0.911492
 20
-3.355291
  0
VERTEX
  8
PLAN_1
  6
CONTINUOUS
 10
0.915327
 20
-3.354016
  0
VERTEX
  8
PLAN_1
  6
CONTINUOUS
 10
0.918307
 20
-3.352311
  0
VERTEX
  8
PLAN_1
  6
CONTINUOUS
 10
0.921713
 20
-3.350181
  0
VERTEX
  8
PLAN_1
  6
CONTINUOUS
 10
0.924693
 20
-3.347626
  0
VERTEX
  8
PLAN_1
  6
CONTINUOUS
 10
0.927248
 20
-3.344646
  0
VERTEX
  8
PLAN_1
  6
CONTINUOUS
 10
0.929378
 20
-3.341665
  0
VERTEX
  8
PLAN_1
  6
CONTINUOUS
 10
0.931508
 20
-3.338260
  0
VERTEX
  8
PLAN_1
  6
CONTINUOUS
 10
0.933213
 20
-3.334425
  0
VERTEX
  8
PLAN_1
  6
CONTINUOUS
 10
0.934913
 20
-3.330594
  0
VERTEX
  8
PLAN_1
  6
CONTINUOUS
 10
0.936193
 20
-3.326335
  0
VERTEX
  8
PLAN_1
  6
CONTINUOUS
 10
0.937043
 20
-3.322075
  0
VERTEX
  8
PLAN_1
  6
CONTINUOUS
 10
0.937469
 20
-3.317390
  0
VERTEX
  8
PLAN_1
  6
CONTINUOUS
 10
0.937469
 20
-3.312709
  0
VERTEX
  8
PLAN_1
  6
CONTINUOUS
 10
0.937469
 20
-3.309299
  0
VERTEX
  8
PLAN_1
  6
CONTINUOUS
 10
0.937043
 20
-3.305894
  0
VERTEX
  8
PLAN_1
  6
CONTINUOUS
 10
0.936618
 20
-3.302488
  0
VERTEX
  8
PLAN_1
  6
CONTINUOUS
 10
0.935768
 20
-3.298654
  0
VERTEX
  8
PLAN_1
  6
CONTINUOUS
 10
0.934488
 20
-3.295248
  0
VERTEX
  8
PLAN_1
  6
CONTINUOUS
 10
0.933213
 20
-3.291843
  0
VERTEX
  8
PLAN_1
  6
CONTINUOUS
 10
0.931508
 20
-3.288858
  0
VERTEX
  8
PLAN_1
  6
CONTINUOUS
 10
0.929378
 20
-3.285453
  0
VERTEX
  8
PLAN_1
  6
CONTINUOUS
 10
0.926823
 20
-3.282472
  0
VERTEX
  8
PLAN_1
  6
CONTINUOUS
 10
0.923843
 20
-3.279917
  0
VERTEX
  8
PLAN_1
  6
CONTINUOUS
 10
0.920862
 20
-3.277362
  0
VERTEX
  8
PLAN_1
  6
CONTINUOUS
 10
0.917028
 20
-3.275232
  0
VERTEX
  8
PLAN_1
  6
CONTINUOUS
 10
0.913197
 20
-3.273528
  0
VERTEX
  8
PLAN_1
  6
CONTINUOUS
 10
0.908512
 20
-3.272677
  0
VERTEX
  8
PLAN_1
  6
CONTINUOUS
 10
0.903827
 20
-3.271827
  0
VERTEX
  8
PLAN_1
  6
CONTINUOUS
 10
0.898291
 20
-3.271402
  0
VERTEX
  8
PLAN_1
  6
CONTINUOUS
 10
0.893181
 20
-3.271827
  0
VERTEX
  8
PLAN_1
  6
CONTINUOUS
 10
0.888921
 20
-3.272252
  0
VERTEX
  8
PLAN_1
  6
CONTINUOUS
 10
0.884665
 20
-3.273528
  0
VERTEX
  8
PLAN_1
  6
CONTINUOUS
 10
0.880406
 20
-3.274807
  0
VERTEX
  8
PLAN_1
  6
CONTINUOUS
 10
0.877000
 20
-3.276512
  0
VERTEX
  8
PLAN_1
  6
CONTINUOUS
 10
0.873594
 20
-3.278638
  0
VERTEX
  8
PLAN_1
  6
CONTINUOUS
 10
0.870610
 20
-3.281193
  0
VERTEX
  8
PLAN_1
  6
CONTINUOUS
 10
0.868055
 20
-3.284177
  0
VERTEX
  8
PLAN_1
  6
CONTINUOUS
 10
0.865929
 20
-3.287157
  0
VERTEX
  8
PLAN_1
  6
CONTINUOUS
 10
0.863799
 20
-3.290138
  0
VERTEX
  8
PLAN_1
  6
CONTINUOUS
 10
0.862094
 20
-3.293969
  0
VERTEX
  8
PLAN_1
  6
CONTINUOUS
 10
0.860819
 20
-3.297378
  0
VERTEX
  8
PLAN_1
  6
CONTINUOUS
 10
0.859539
 20
-3.301209
  0
VERTEX
  8
PLAN_1
  6
CONTINUOUS
 10
0.858689
 20
-3.305469
  0
VERTEX
  8
PLAN_1
  6
CONTINUOUS
 10
0.858264
 20
-3.309724
  0
VERTEX
  8
PLAN_1
  6
CONTINUOUS
 10
0.858264
 20
-3.313984
  0
VERTEX
  8
PLAN_1
  6
CONTINUOUS
 10
0.858264
 20
-3.317819
  0
VERTEX
  8
PLAN_1
  6
CONTINUOUS
 10
0.858689
 20
-3.321650
  0
VERTEX
  8
PLAN_1
  6
CONTINUOUS
 10
0.859539
 20
-3.325484
  0
VERTEX
  8
PLAN_1
  6
CONTINUOUS
 10
0.860819
 20
-3.329315
  0
VERTEX
  8
PLAN_1
  6
CONTINUOUS
 10
0.862094
 20
-3.333150
  0
VERTEX
  8
PLAN_1
  6
CONTINUOUS
 10
0.863799
 20
-3.336555
  0
VERTEX
  8
PLAN_1
  6
CONTINUOUS
 10
0.865500
 20
-3.339961
  0
VERTEX
  8
PLAN_1
  6
CONTINUOUS
 10
0.868055
 20
-3.343366
  0
VERTEX
  8
PLAN_1
  6
CONTINUOUS
 10
0.870610
 20
-3.346350
  0
VERTEX
  8
PLAN_1
  6
CONTINUOUS
 10
0.873594
 20
-3.348906
  0
VERTEX
  8
PLAN_1
  6
CONTINUOUS
 10
0.877000
 20
-3.351461
  0
VERTEX
  8
PLAN_1
  6
CONTINUOUS
 10
0.880831
 20
-3.353161
  0
VERTEX
  8
PLAN_1
  6
CONTINUOUS
 10
0.885091
 20
-3.354866
  0
VERTEX
  8
PLAN_1
  6
CONTINUOUS
 10
0.889350
 20
-3.356142
  0
VERTEX
  8
PLAN_1
  6
CONTINUOUS
 10
0.894031
 20
-3.356996
  0
VERTEX
  8
PLAN_1
  6
CONTINUOUS
 10
0.899142
 20
-3.356996
  0
SEQEND
  8
0
  0
SOLID
  8
PLAN_1
 10
0.973665
 20
-3.408524
 11
0.973665
 21
-3.394469
 12
1.127823
 22
-3.408524
 13
1.127823
 23
-3.394469
  0
POLYLINE
  8
PLAN_1
  6
CONTINUOUS
 66
     1
 40
0.003000
 41
0.003000
  0
VERTEX
  8
PLAN_1
  6
CONTINUOUS
 10
0.973665
 20
-3.408524
  0
VERTEX
  8
PLAN_1
  6
CONTINUOUS
 10
0.973665
 20
-3.394469
  0
VERTEX
  8
PLAN_1
  6
CONTINUOUS
 10
1.127823
 20
-3.394469
  0
VERTEX
  8
PLAN_1
  6
CONTINUOUS
 10
1.127823
 20
-3.408524
  0
VERTEX
  8
PLAN_1
  6
CONTINUOUS
 10
0.973665
 20
-3.408524
  0
SEQEND
  8
0
  0
POLYLINE
  8
PLAN_1
  6
CONTINUOUS
 66
     1
 40
0.003000
 41
0.003000
  0
VERTEX
  8
PLAN_1
  6
CONTINUOUS
 10
1.179350
 20
-3.374028
  0
VERTEX
  8
PLAN_1
  6
CONTINUOUS
 10
1.152094
 20
-3.374028
  0
VERTEX
  8
PLAN_1
  6
CONTINUOUS
 10
1.152094
 20
-3.174732
  0
VERTEX
  8
PLAN_1
  6
CONTINUOUS
 10
1.244504
 20
-3.174732
  0
VERTEX
  8
PLAN_1
  6
CONTINUOUS
 10
1.250465
 20
-3.174732
  0
VERTEX
  8
PLAN_1
  6
CONTINUOUS
 10
1.256429
 20
-3.175157
  0
VERTEX
  8
PLAN_1
  6
CONTINUOUS
 10
1.262815
 20
-3.176012
  0
VERTEX
  8
PLAN_1
  6
CONTINUOUS
 10
1.268350
 20
-3.176862
  0
VERTEX
  8
PLAN_1
  6
CONTINUOUS
 10
1.274311
 20
-3.178567
  0
VERTEX
  8
PLAN_1
  6
CONTINUOUS
 10
1.279421
 20
-3.180268
  0
VERTEX
  8
PLAN_1
  6
CONTINUOUS
 10
1.284531
 20
-3.182823
  0
VERTEX
  8
PLAN_1
  6
CONTINUOUS
 10
1.289642
 20
-3.185378
  0
VERTEX
  8
PLAN_1
  6
CONTINUOUS
 10
1.293902
 20
-3.188787
  0
VERTEX
  8
PLAN_1
  6
CONTINUOUS
 10
1.297736
 20
-3.192618
  0
VERTEX
  8
PLAN_1
  6
CONTINUOUS
 10
1.301142
 20
-3.196878
  0
VERTEX
  8
PLAN_1
  6
CONTINUOUS
 10
1.304122
 20
-3.201988
  0
VERTEX
  8
PLAN_1
  6
CONTINUOUS
 10
1.306677
 20
-3.207524
  0
VERTEX
  8
PLAN_1
  6
CONTINUOUS
 10
1.308382
 20
-3.213909
  0
VERTEX
  8
PLAN_1
  6
CONTINUOUS
 10
1.309657
 20
-3.220724
  0
VERTEX
  8
PLAN_1
  6
CONTINUOUS
 10
1.310083
 20
-3.227965
  0
VERTEX
  8
PLAN_1
  6
CONTINUOUS
 10
1.309657
 20
-3.233500
  0
VERTEX
  8
PLAN_1
  6
CONTINUOUS
 10
1.309232
 20
-3.238185
  0
VERTEX
  8
PLAN_1
  6
CONTINUOUS
 10
1.308382
 20
-3.242870
  0
VERTEX
  8
PLAN_1
  6
CONTINUOUS
 10
1.307528
 20
-3.247126
  0
VERTEX
  8
PLAN_1
  6
CONTINUOUS
 10
1.306252
 20
-3.250535
  0
VERTEX
  8
PLAN_1
  6
CONTINUOUS
 10
1.304547
 20
-3.254366
  0
VERTEX
  8
PLAN_1
  6
CONTINUOUS
 10
1.302846
 20
-3.257346
  0
VERTEX
  8
PLAN_1
  6
CONTINUOUS
 10
1.300717
 20
-3.260327
  0
VERTEX
  8
PLAN_1
  6
CONTINUOUS
 10
1.298587
 20
-3.262882
  0
VERTEX
  8
PLAN_1
  6
CONTINUOUS
 10
1.296457
 20
-3.265437
  0
VERTEX
  8
PLAN_1
  6
CONTINUOUS
 10
1.294327
 20
-3.267567
  0
VERTEX
  8
PLAN_1
  6
CONTINUOUS
 10
1.291772
 20
-3.269272
  0
VERTEX
  8
PLAN_1
  6
CONTINUOUS
 10
1.287087
 20
-3.272677
  0
VERTEX
  8
PLAN_1
  6
CONTINUOUS
 10
1.281976
 20
-3.275657
  0
VERTEX
  8
PLAN_1
  6
CONTINUOUS
 10
1.286236
 20
-3.277787
  0
VERTEX
  8
PLAN_1
  6
CONTINUOUS
 10
1.290496
 20
-3.279917
  0
VERTEX
  8
PLAN_1
  6
CONTINUOUS
 10
1.294327
 20
-3.282472
  0
VERTEX
  8
PLAN_1
  6
CONTINUOUS
 10
1.297736
 20
-3.285878
  0
VERTEX
  8
PLAN_1
  6
CONTINUOUS
 10
1.299437
 20
-3.288008
  0
VERTEX
  8
PLAN_1
  6
CONTINUOUS
 10
1.301142
 20
-3.290563
  0
VERTEX
  8
PLAN_1
  6
CONTINUOUS
 10
1.302417
 20
-3.293118
  0
VERTEX
  8
PLAN_1
  6
CONTINUOUS
 10
1.303272
 20
-3.296524
  0
VERTEX
  8
PLAN_1
  6
CONTINUOUS
 10
1.304547
 20
-3.299933
  0
VERTEX
  8
PLAN_1
  6
CONTINUOUS
 10
1.304972
 20
-3.303764
  0
VERTEX
  8
PLAN_1
  6
CONTINUOUS
 10
1.305827
 20
-3.308449
  0
VERTEX
  8
PLAN_1
  6
CONTINUOUS
 10
1.305827
 20
-3.313134
  0
VERTEX
  8
PLAN_1
  6
CONTINUOUS
 10
1.307528
 20
-3.349331
  0
VERTEX
  8
PLAN_1
  6
CONTINUOUS
 10
1.307957
 20
-3.353161
  0
VERTEX
  8
PLAN_1
  6
CONTINUOUS
 10
1.308382
 20
-3.356571
  0
VERTEX
  8
PLAN_1
  6
CONTINUOUS
 10
1.308807
 20
-3.359551
  0
VERTEX
  8
PLAN_1
  6
CONTINUOUS
 10
1.309657
 20
-3.361681
  0
VERTEX
  8
PLAN_1
  6
CONTINUOUS
 10
1.310937
 20
-3.363807
  0
VERTEX
  8
PLAN_1
  6
CONTINUOUS
 10
1.312638
 20
-3.365937
  0
VERTEX
  8
PLAN_1
  6
CONTINUOUS
 10
1.314768
 20
-3.367642
  0
VERTEX
  8
PLAN_1
  6
CONTINUOUS
 10
1.317748
 20
-3.369346
  0
VERTEX
  8
PLAN_1
  6
CONTINUOUS
 10
1.317748
 20
-3.374028
  0
VERTEX
  8
PLAN_1
  6
CONTINUOUS
 10
1.284531
 20
-3.374028
  0
VERTEX
  8
PLAN_1
  6
CONTINUOUS
 10
1.283256
 20
-3.368492
  0
VERTEX
  8
PLAN_1
  6
CONTINUOUS
 10
1.282406
 20
-3.362106
  0
VERTEX
  8
PLAN_1
  6
CONTINUOUS
 10
1.281551
 20
-3.354441
  0
VERTEX
  8
PLAN_1
  6
CONTINUOUS
 10
1.280701
 20
-3.347201
  0
VERTEX
  8
PLAN_1
  6
CONTINUOUS
 10
1.280276
 20
-3.339961
  0
VERTEX
  8
PLAN_1
  6
CONTINUOUS
 10
1.280276
 20
-3.333150
  0
VERTEX
  8
PLAN_1
  6
CONTINUOUS
 10
1.279850
 20
-3.327610
  0
VERTEX
  8
PLAN_1
  6
CONTINUOUS
 10
1.279850
 20
-3.323780
  0
VERTEX
  8
PLAN_1
  6
CONTINUOUS
 10
1.279850
 20
-3.317819
  0
VERTEX
  8
PLAN_1
  6
CONTINUOUS
 10
1.278996
 20
-3.311429
  0
VERTEX
  8
PLAN_1
  6
CONTINUOUS
 10
1.278146
 20
-3.308449
  0
VERTEX
  8
PLAN_1
  6
CONTINUOUS
 10
1.277295
 20
-3.305469
  0
VERTEX
  8
PLAN_1
  6
CONTINUOUS
 10
1.276016
 20
-3.302488
  0
VERTEX
  8
PLAN_1
  6
CONTINUOUS
 10
1.274311
 20
-3.299933
  0
VERTEX
  8
PLAN_1
  6
CONTINUOUS
 10
1.272185
 20
-3.297378
  0
VERTEX
  8
PLAN_1
  6
CONTINUOUS
 10
1.269630
 20
-3.295248
  0
VERTEX
  8
PLAN_1
  6
CONTINUOUS
 10
1.267075
 20
-3.293118
  0
VERTEX
  8
PLAN_1
  6
CONTINUOUS
 10
1.263665
 20
-3.291413
  0
VERTEX
  8
PLAN_1
  6
CONTINUOUS
 10
1.259835
 20
-3.290138
  0
VERTEX
  8
PLAN_1
  6
CONTINUOUS
 10
1.255150
 20
-3.289287
  0
VERTEX
  8
PLAN_1
  6
CONTINUOUS
 10
1.250039
 20
-3.288433
  0
VERTEX
  8
PLAN_1
  6
CONTINUOUS
 10
1.244504
 20
-3.288433
  0
VERTEX
  8
PLAN_1
  6
CONTINUOUS
 10
1.179350
 20
-3.288433
  0
VERTEX
  8
PLAN_1
  6
CONTINUOUS
 10
1.179350
 20
-3.374028
  0
SEQEND
  8
0
  0
POLYLINE
  8
PLAN_1
  6
CONTINUOUS
 66
     1
 40
0.003000
 41
0.003000
  0
VERTEX
  8
PLAN_1
  6
CONTINUOUS
 10
1.179350
 20
-3.265437
  0
VERTEX
  8
PLAN_1
  6
CONTINUOUS
 10
1.241524
 20
-3.265437
  0
VERTEX
  8
PLAN_1
  6
CONTINUOUS
 10
1.249189
 20
-3.265012
  0
VERTEX
  8
PLAN_1
  6
CONTINUOUS
 10
1.256429
 20
-3.264161
  0
VERTEX
  8
PLAN_1
  6
CONTINUOUS
 10
1.259835
 20
-3.263311
  0
VERTEX
  8
PLAN_1
  6
CONTINUOUS
 10
1.263240
 20
-3.262031
  0
VERTEX
  8
PLAN_1
  6
CONTINUOUS
 10
1.266220
 20
-3.260756
  0
VERTEX
  8
PLAN_1
  6
CONTINUOUS
 10
1.269205
 20
-3.259051
  0
VERTEX
  8
PLAN_1
  6
CONTINUOUS
 10
1.272185
 20
-3.256921
  0
VERTEX
  8
PLAN_1
  6
CONTINUOUS
 10
1.274740
 20
-3.254791
  0
VERTEX
  8
PLAN_1
  6
CONTINUOUS
 10
1.276866
 20
-3.251811
  0
VERTEX
  8
PLAN_1
  6
CONTINUOUS
 10
1.278571
 20
-3.248831
  0
VERTEX
  8
PLAN_1
  6
CONTINUOUS
 10
1.280276
 20
-3.244996
  0
VERTEX
  8
PLAN_1
  6
CONTINUOUS
 10
1.281126
 20
-3.240740
  0
VERTEX
  8
PLAN_1
  6
CONTINUOUS
 10
1.281976
 20
-3.236055
  0
VERTEX
  8
PLAN_1
  6
CONTINUOUS
 10
1.281976
 20
-3.230945
  0
VERTEX
  8
PLAN_1
  6
CONTINUOUS
 10
1.281976
 20
-3.225409
  0
VERTEX
  8
PLAN_1
  6
CONTINUOUS
 10
1.281126
 20
-3.220724
  0
VERTEX
  8
PLAN_1
  6
CONTINUOUS
 10
1.279850
 20
-3.216465
  0
VERTEX
  8
PLAN_1
  6
CONTINUOUS
 10
1.278571
 20
-3.212634
  0
VERTEX
  8
PLAN_1
  6
CONTINUOUS
 10
1.276441
 20
-3.209654
  0
VERTEX
  8
PLAN_1
  6
CONTINUOUS
 10
1.274311
 20
-3.206673
  0
VERTEX
  8
PLAN_1
  6
CONTINUOUS
 10
1.271760
 20
-3.204543
  0
VERTEX
  8
PLAN_1
  6
CONTINUOUS
 10
1.269205
 20
-3.202839
  0
VERTEX
  8
PLAN_1
  6
CONTINUOUS
 10
1.266650
 20
-3.201134
  0
VERTEX
  8
PLAN_1
  6
CONTINUOUS
 10
1.263665
 20
-3.199858
  0
VERTEX
  8
PLAN_1
  6
CONTINUOUS
 10
1.260685
 20
-3.199008
  0
VERTEX
  8
PLAN_1
  6
CONTINUOUS
 10
1.257705
 20
-3.198579
  0
VERTEX
  8
PLAN_1
  6
CONTINUOUS
 10
1.251744
 20
-3.197728
  0
VERTEX
  8
PLAN_1
  6
CONTINUOUS
 10
1.246209
 20
-3.197728
  0
VERTEX
  8
PLAN_1
  6
CONTINUOUS
 10
1.179350
 20
-3.197728
  0
VERTEX
  8
PLAN_1
  6
CONTINUOUS
 10
1.179350
 20
-3.265437
  0
SEQEND
  8
0
  0
SOLID
  8
PLAN_1
 10
1.381201
 20
-3.374028
 11
1.352669
 21
-3.374028
 12
1.381201
 22
-3.344220
 13
1.352669
 23
-3.344220
  0
POLYLINE
  8
PLAN_1
  6
CONTINUOUS
 66
     1
 40
0.003000
 41
0.003000
  0
VERTEX
  8
PLAN_1
  6
CONTINUOUS
 10
1.381201
 20
-3.374028
  0
VERTEX
  8
PLAN_1
  6
CONTINUOUS
 10
1.352669
 20
-3.374028
  0
VERTEX
  8
PLAN_1
  6
CONTINUOUS
 10
1.352669
 20
-3.344220
  0
VERTEX
  8
PLAN_1
  6
CONTINUOUS
 10
1.381201
 20
-3.344220
  0
VERTEX
  8
PLAN_1
  6
CONTINUOUS
 10
1.381201
 20
-3.374028
  0
SEQEND
  8
0
  0
POLYLINE
  8
PLAN_1
  6
CONTINUOUS
 66
     1
 40
0.003000
 41
0.003000
  0
VERTEX
  8
PLAN_1
  6
CONTINUOUS
 10
1.576236
 20
-3.374028
  0
VERTEX
  8
PLAN_1
  6
CONTINUOUS
 10
1.429319
 20
-3.374028
  0
VERTEX
  8
PLAN_1
  6
CONTINUOUS
 10
1.429319
 20
-3.174732
  0
VERTEX
  8
PLAN_1
  6
CONTINUOUS
 10
1.574535
 20
-3.174732
  0
VERTEX
  8
PLAN_1
  6
CONTINUOUS
 10
1.574535
 20
-3.198579
  0
VERTEX
  8
PLAN_1
  6
CONTINUOUS
 10
1.456150
 20
-3.198579
  0
VERTEX
  8
PLAN_1
  6
CONTINUOUS
 10
1.456150
 20
-3.259476
  0
VERTEX
  8
PLAN_1
  6
CONTINUOUS
 10
1.565165
 20
-3.259476
  0
VERTEX
  8
PLAN_1
  6
CONTINUOUS
 10
1.565165
 20
-3.283323
  0
VERTEX
  8
PLAN_1
  6
CONTINUOUS
 10
1.456150
 20
-3.283323
  0
VERTEX
  8
PLAN_1
  6
CONTINUOUS
 10
1.456150
 20
-3.349756
  0
VERTEX
  8
PLAN_1
  6
CONTINUOUS
 10
1.576236
 20
-3.349756
  0
VERTEX
  8
PLAN_1
  6
CONTINUOUS
 10
1.576236
 20
-3.374028
  0
SEQEND
  8
0
  0
POLYLINE
  8
PLAN_1
  6
CONTINUOUS
 66
     1
 40
0.003000
 41
0.003000
  0
VERTEX
  8
PLAN_1
  6
CONTINUOUS
 10
1.641390
 20
-3.374028
  0
VERTEX
  8
PLAN_1
  6
CONTINUOUS
 10
1.614563
 20
-3.374028
  0
VERTEX
  8
PLAN_1
  6
CONTINUOUS
 10
1.614563
 20
-3.174732
  0
VERTEX
  8
PLAN_1
  6
CONTINUOUS
 10
1.704417
 20
-3.174732
  0
VERTEX
  8
PLAN_1
  6
CONTINUOUS
 10
1.710803
 20
-3.174732
  0
VERTEX
  8
PLAN_1
  6
CONTINUOUS
 10
1.717193
 20
-3.175587
  0
VERTEX
  8
PLAN_1
  6
CONTINUOUS
 10
1.723579
 20
-3.176862
  0
VERTEX
  8
PLAN_1
  6
CONTINUOUS
 10
1.729114
 20
-3.178992
  0
VERTEX
  8
PLAN_1
  6
CONTINUOUS
 10
1.734224
 20
-3.181122
  0
VERTEX
  8
PLAN_1
  6
CONTINUOUS
 10
1.739335
 20
-3.183677
  0
VERTEX
  8
PLAN_1
  6
CONTINUOUS
 10
1.743594
 20
-3.187083
  0
VERTEX
  8
PLAN_1
  6
CONTINUOUS
 10
1.747425
 20
-3.190488
  0
VERTEX
  8
PLAN_1
  6
CONTINUOUS
 10
1.751260
 20
-3.194323
  0
VERTEX
  8
PLAN_1
  6
CONTINUOUS
 10
1.754240
 20
-3.198579
  0
VERTEX
  8
PLAN_1
  6
CONTINUOUS
 10
1.757220
 20
-3.203264
  0
VERTEX
  8
PLAN_1
  6
CONTINUOUS
 10
1.759350
 20
-3.208374
  0
VERTEX
  8
PLAN_1
  6
CONTINUOUS
 10
1.761055
 20
-3.213484
  0
VERTEX
  8
PLAN_1
  6
CONTINUOUS
 10
1.762331
 20
-3.219020
  0
VERTEX
  8
PLAN_1
  6
CONTINUOUS
 10
1.763185
 20
-3.224559
  0
VERTEX
  8
PLAN_1
  6
CONTINUOUS
 10
1.763185
 20
-3.230520
  0
VERTEX
  8
PLAN_1
  6
CONTINUOUS
 10
1.763185
 20
-3.236055
  0
VERTEX
  8
PLAN_1
  6
CONTINUOUS
 10
1.762756
 20
-3.241165
  0
VERTEX
  8
PLAN_1
  6
CONTINUOUS
 10
1.761480
 20
-3.246276
  0
VERTEX
  8
PLAN_1
  6
CONTINUOUS
 10
1.760201
 20
-3.251386
  0
VERTEX
  8
PLAN_1
  6
CONTINUOUS
 10
1.758500
 20
-3.256496
  0
VERTEX
  8
PLAN_1
  6
CONTINUOUS
 10
1.755945
 20
-3.261606
  0
VERTEX
  8
PLAN_1
  6
CONTINUOUS
 10
1.753390
 20
-3.266291
  0
VERTEX
  8
PLAN_1
  6
CONTINUOUS
 10
1.749980
 20
-3.270547
  0
VERTEX
  8
PLAN_1
  6
CONTINUOUS
 10
1.746150
 20
-3.274807
  0
VERTEX
  8
PLAN_1
  6
CONTINUOUS
 10
1.741890
 20
-3.278213
  0
VERTEX
  8
PLAN_1
  6
CONTINUOUS
 10
1.737205
 20
-3.281622
  0
VERTEX
  8
PLAN_1
  6
CONTINUOUS
 10
1.731669
 20
-3.284602
  0
VERTEX
  8
PLAN_1
  6
CONTINUOUS
 10
1.725709
 20
-3.286732
  0
VERTEX
  8
PLAN_1
  6
CONTINUOUS
 10
1.719323
 20
-3.288433
  0
VERTEX
  8
PLAN_1
  6
CONTINUOUS
 10
1.712083
 20
-3.289287
  0
VERTEX
  8
PLAN_1
  6
CONTINUOUS
 10
1.704417
 20
-3.289713
  0
VERTEX
  8
PLAN_1
  6
CONTINUOUS
 10
1.641390
 20
-3.289713
  0
VERTEX
  8
PLAN_1
  6
CONTINUOUS
 10
1.641390
 20
-3.374028
  0
SEQEND
  8
0
  0
POLYLINE
  8
PLAN_1
  6
CONTINUOUS
 66
     1
 40
0.003000
 41
0.003000
  0
VERTEX
  8
PLAN_1
  6
CONTINUOUS
 10
1.641390
 20
-3.266717
  0
VERTEX
  8
PLAN_1
  6
CONTINUOUS
 10
1.695047
 20
-3.266717
  0
VERTEX
  8
PLAN_1
  6
CONTINUOUS
 10
1.699307
 20
-3.266717
  0
VERTEX
  8
PLAN_1
  6
CONTINUOUS
 10
1.703563
 20
-3.266291
  0
VERTEX
  8
PLAN_1
  6
CONTINUOUS
 10
1.707823
 20
-3.265866
  0
VERTEX
  8
PLAN_1
  6
CONTINUOUS
 10
1.711657
 20
-3.265012
  0
VERTEX
  8
PLAN_1
  6
CONTINUOUS
 10
1.715063
 20
-3.263736
  0
VERTEX
  8
PLAN_1
  6
CONTINUOUS
 10
1.718469
 20
-3.262457
  0
VERTEX
  8
PLAN_1
  6
CONTINUOUS
 10
1.721449
 20
-3.260756
  0
VERTEX
  8
PLAN_1
  6
CONTINUOUS
 10
1.724433
 20
-3.259051
  0
VERTEX
  8
PLAN_1
  6
CONTINUOUS
 10
1.726988
 20
-3.256496
  0
VERTEX
  8
PLAN_1
  6
CONTINUOUS
 10
1.729114
 20
-3.253941
  0
VERTEX
  8
PLAN_1
  6
CONTINUOUS
 10
1.731244
 20
-3.250961
  0
VERTEX
  8
PLAN_1
  6
CONTINUOUS
 10
1.732524
 20
-3.247980
  0
VERTEX
  8
PLAN_1
  6
CONTINUOUS
 10
1.733799
 20
-3.244146
  0
VERTEX
  8
PLAN_1
  6
CONTINUOUS
 10
1.734654
 20
-3.240315
  0
VERTEX
  8
PLAN_1
  6
CONTINUOUS
 10
1.735504
 20
-3.235630
  0
VERTEX
  8
PLAN_1
  6
CONTINUOUS
 10
1.735504
 20
-3.230945
  0
VERTEX
  8
PLAN_1
  6
CONTINUOUS
 10
1.735504
 20
-3.226260
  0
VERTEX
  8
PLAN_1
  6
CONTINUOUS
 10
1.734654
 20
-3.222429
  0
VERTEX
  8
PLAN_1
  6
CONTINUOUS
 10
1.733799
 20
-3.218594
  0
VERTEX
  8
PLAN_1
  6
CONTINUOUS
 10
1.732524
 20
-3.215189
  0
VERTEX
  8
PLAN_1
  6
CONTINUOUS
 10
1.730819
 20
-3.211783
  0
VERTEX
  8
PLAN_1
  6
CONTINUOUS
 10
1.729114
 20
-3.209228
  0
VERTEX
  8
PLAN_1
  6
CONTINUOUS
 10
1.726559
 20
-3.206673
  0
VERTEX
  8
PLAN_1
  6
CONTINUOUS
 10
1.724004
 20
-3.204969
  0
VERTEX
  8
PLAN_1
  6
CONTINUOUS
 10
1.721449
 20
-3.202839
  0
VERTEX
  8
PLAN_1
  6
CONTINUOUS
 10
1.718469
 20
-3.201563
  0
VERTEX
  8
PLAN_1
  6
CONTINUOUS
 10
1.715063
 20
-3.200283
  0
VERTEX
  8
PLAN_1
  6
CONTINUOUS
 10
1.711657
 20
-3.199433
  0
VERTEX
  8
PLAN_1
  6
CONTINUOUS
 10
1.708248
 20
-3.198579
  0
VERTEX
  8
PLAN_1
  6
CONTINUOUS
 10
1.704417
 20
-3.198154
  0
VERTEX
  8
PLAN_1
  6
CONTINUOUS
 10
1.700157
 20
-3.197728
  0
VERTEX
  8
PLAN_1
  6
CONTINUOUS
 10
1.696327
 20
-3.197728
  0
VERTEX
  8
PLAN_1
  6
CONTINUOUS
 10
1.641390
 20
-3.197728
  0
VERTEX
  8
PLAN_1
  6
CONTINUOUS
 10
1.641390
 20
-3.266717
  0
SEQEND
  8
0
  0
POLYLINE
  8
PLAN_1
  6
CONTINUOUS
 66
     1
 40
0.003000
 41
0.003000
  0
VERTEX
  8
PLAN_1
  6
CONTINUOUS
 10
1.917339
 20
-3.232650
  0
VERTEX
  8
PLAN_1
  6
CONTINUOUS
 10
1.916488
 20
-3.227114
  0
VERTEX
  8
PLAN_1
  6
CONTINUOUS
 10
1.915634
 20
-3.222429
  0
VERTEX
  8
PLAN_1
  6
CONTINUOUS
 10
1.913933
 20
-3.217744
  0
VERTEX
  8
PLAN_1
  6
CONTINUOUS
 10
1.912228
 20
-3.213484
  0
VERTEX
  8
PLAN_1
  6
CONTINUOUS
 10
1.909673
 20
-3.209654
  0
VERTEX
  8
PLAN_1
  6
CONTINUOUS
 10
1.906693
 20
-3.206673
  0
VERTEX
  8
PLAN_1
  6
CONTINUOUS
 10
1.903713
 20
-3.203689
  0
VERTEX
  8
PLAN_1
  6
CONTINUOUS
 10
1.900307
 20
-3.201134
  0
VERTEX
  8
PLAN_1
  6
CONTINUOUS
 10
1.896898
 20
-3.199008
  0
VERTEX
  8
PLAN_1
  6
CONTINUOUS
 10
1.893067
 20
-3.196878
  0
VERTEX
  8
PLAN_1
  6
CONTINUOUS
 10
1.888807
 20
-3.195598
  0
VERTEX
  8
PLAN_1
  6
CONTINUOUS
 10
1.884976
 20
-3.194323
  0
VERTEX
  8
PLAN_1
  6
CONTINUOUS
 10
1.880717
 20
-3.193472
  0
VERTEX
  8
PLAN_1
  6
CONTINUOUS
 10
1.876457
 20
-3.192618
  0
VERTEX
  8
PLAN_1
  6
CONTINUOUS
 10
1.872201
 20
-3.192618
  0
VERTEX
  8
PLAN_1
  6
CONTINUOUS
 10
1.867941
 20
-3.192193
  0
VERTEX
  8
PLAN_1
  6
CONTINUOUS
 10
1.861126
 20
-3.192618
  0
VERTEX
  8
PLAN_1
  6
CONTINUOUS
 10
1.853461
 20
-3.193472
  0
VERTEX
  8
PLAN_1
  6
CONTINUOUS
 10
1.849630
 20
-3.194323
  0
VERTEX
  8
PLAN_1
  6
CONTINUOUS
 10
1.845795
 20
-3.195598
  0
VERTEX
  8
PLAN_1
  6
CONTINUOUS
 10
1.842390
 20
-3.196878
  0
VERTEX
  8
PLAN_1
  6
CONTINUOUS
 10
1.838559
 20
-3.198579
  0
VERTEX
  8
PLAN_1
  6
CONTINUOUS
 10
1.835150
 20
-3.200709
  0
VERTEX
  8
PLAN_1
  6
CONTINUOUS
 10
1.832169
 20
-3.202839
  0
VERTEX
  8
PLAN_1
  6
CONTINUOUS
 10
1.829614
 20
-3.205819
  0
VERTEX
  8
PLAN_1
  6
CONTINUOUS
 10
1.827059
 20
-3.209228
  0
VERTEX
  8
PLAN_1
  6
CONTINUOUS
 10
1.824929
 20
-3.212634
  0
VERTEX
  8
PLAN_1
  6
CONTINUOUS
 10
1.823654
 20
-3.217319
  0
VERTEX
  8
PLAN_1
  6
CONTINUOUS
 10
1.822803
 20
-3.222004
  0
VERTEX
  8
PLAN_1
  6
CONTINUOUS
 10
1.822374
 20
-3.227114
  0
VERTEX
  8
PLAN_1
  6
CONTINUOUS
 10
1.822374
 20
-3.230520
  0
VERTEX
  8
PLAN_1
  6
CONTINUOUS
 10
1.822803
 20
-3.233075
  0
VERTEX
  8
PLAN_1
  6
CONTINUOUS
 10
1.823654
 20
-3.235630
  0
VERTEX
  8
PLAN_1
  6
CONTINUOUS
 10
1.824504
 20
-3.238185
  0
VERTEX
  8
PLAN_1
  6
CONTINUOUS
 10
1.825358
 20
-3.239886
  0
VERTEX
  8
PLAN_1
  6
CONTINUOUS
 10
1.826634
 20
-3.242016
  0
VERTEX
  8
PLAN_1
  6
CONTINUOUS
 10
1.827913
 20
-3.243720
  0
VERTEX
  8
PLAN_1
  6
CONTINUOUS
 10
1.829614
 20
-3.245425
  0
VERTEX
  8
PLAN_1
  6
CONTINUOUS
 10
1.833449
 20
-3.247980
  0
VERTEX
  8
PLAN_1
  6
CONTINUOUS
 10
1.837280
 20
-3.249681
  0
VERTEX
  8
PLAN_1
  6
CONTINUOUS
 10
1.841539
 20
-3.251386
  0
VERTEX
  8
PLAN_1
  6
CONTINUOUS
 10
1.845795
 20
-3.252661
  0
VERTEX
  8
PLAN_1
  6
CONTINUOUS
 10
1.902862
 20
-3.265437
  0
VERTEX
  8
PLAN_1
  6
CONTINUOUS
 10
1.907543
 20
-3.266717
  0
VERTEX
  8
PLAN_1
  6
CONTINUOUS
 10
1.912228
 20
-3.268421
  0
VERTEX
  8
PLAN_1
  6
CONTINUOUS
 10
1.916488
 20
-3.270122
  0
VERTEX
  8
PLAN_1
  6
CONTINUOUS
 10
1.920744
 20
-3.272252
  0
VERTEX
  8
PLAN_1
  6
CONTINUOUS
 10
1.924579
 20
-3.274382
  0
VERTEX
  8
PLAN_1
  6
CONTINUOUS
 10
1.928409
 20
-3.276937
  0
VERTEX
  8
PLAN_1
  6
CONTINUOUS
 10
1.931819
 20
-3.279492
  0
VERTEX
  8
PLAN_1
  6
CONTINUOUS
 10
1.935224
 20
-3.282472
  0
VERTEX
  8
PLAN_1
  6
CONTINUOUS
 10
1.937780
 20
-3.285878
  0
VERTEX
  8
PLAN_1
  6
CONTINUOUS
 10
1.940335
 20
-3.289713
  0
VERTEX
  8
PLAN_1
  6
CONTINUOUS
 10
1.942890
 20
-3.293543
  0
VERTEX
  8
PLAN_1
  6
CONTINUOUS
 10
1.944594
 20
-3.298228
  0
VERTEX
  8
PLAN_1
  6
CONTINUOUS
 10
1.945870
 20
-3.302913
  0
VERTEX
  8
PLAN_1
  6
CONTINUOUS
 10
1.947150
 20
-3.307598
  0
VERTEX
  8
PLAN_1
  6
CONTINUOUS
 10
1.947575
 20
-3.313134
  0
VERTEX
  8
PLAN_1
  6
CONTINUOUS
 10
1.948000
 20
-3.318669
  0
VERTEX
  8
PLAN_1
  6
CONTINUOUS
 10
1.948000
 20
-3.323354
  0
VERTEX
  8
PLAN_1
  6
CONTINUOUS
 10
1.947575
 20
-3.327185
  0
VERTEX
  8
PLAN_1
  6
CONTINUOUS
 10
1.946724
 20
-3.331445
  0
VERTEX
  8
PLAN_1
  6
CONTINUOUS
 10
1.945870
 20
-3.334850
  0
VERTEX
  8
PLAN_1
  6
CONTINUOUS
 10
1.945020
 20
-3.338685
  0
VERTEX
  8
PLAN_1
  6
CONTINUOUS
 10
1.943740
 20
-3.342091
  0
VERTEX
  8
PLAN_1
  6
CONTINUOUS
 10
1.942465
 20
-3.345071
  0
VERTEX
  8
PLAN_1
  6
CONTINUOUS
 10
1.940760
 20
-3.348051
  0
VERTEX
  8
PLAN_1
  6
CONTINUOUS
 10
1.938630
 20
-3.351031
  0
VERTEX
  8
PLAN_1
  6
CONTINUOUS
 10
1.936929
 20
-3.353587
  0
VERTEX
  8
PLAN_1
  6
CONTINUOUS
 10
1.934799
 20
-3.356142
  0
VERTEX
  8
PLAN_1
  6
CONTINUOUS
 10
1.932244
 20
-3.358697
  0
VERTEX
  8
PLAN_1
  6
CONTINUOUS
 10
1.927134
 20
-3.362957
  0
VERTEX
  8
PLAN_1
  6
CONTINUOUS
 10
1.921598
 20
-3.366791
  0
VERTEX
  8
PLAN_1
  6
CONTINUOUS
 10
1.916063
 20
-3.369772
  0
VERTEX
  8
PLAN_1
  6
CONTINUOUS
 10
1.909673
 20
-3.372327
  0
VERTEX
  8
PLAN_1
  6
CONTINUOUS
 10
1.903287
 20
-3.374457
  0
VERTEX
  8
PLAN_1
  6
CONTINUOUS
 10
1.896472
 20
-3.376157
  0
VERTEX
  8
PLAN_1
  6
CONTINUOUS
 10
1.890087
 20
-3.377437
  0
VERTEX
  8
PLAN_1
  6
CONTINUOUS
 10
1.883272
 20
-3.378287
  0
VERTEX
  8
PLAN_1
  6
CONTINUOUS
 10
1.876457
 20
-3.379138
  0
VERTEX
  8
PLAN_1
  6
CONTINUOUS
 10
1.870071
 20
-3.379138
  0
VERTEX
  8
PLAN_1
  6
CONTINUOUS
 10
1.863256
 20
-3.379138
  0
VERTEX
  8
PLAN_1
  6
CONTINUOUS
 10
1.857295
 20
-3.378713
  0
VERTEX
  8
PLAN_1
  6
CONTINUOUS
 10
1.851335
 20
-3.377862
  0
VERTEX
  8
PLAN_1
  6
CONTINUOUS
 10
1.846224
 20
-3.377437
  0
VERTEX
  8
PLAN_1
  6
CONTINUOUS
 10
1.841539
 20
-3.376157
  0
VERTEX
  8
PLAN_1
  6
CONTINUOUS
 10
1.836854
 20
-3.375307
  0
VERTEX
  8
PLAN_1
  6
CONTINUOUS
 10
1.833024
 20
-3.374028
  0
VERTEX
  8
PLAN_1
  6
CONTINUOUS
 10
1.829189
 20
-3.372752
  0
VERTEX
  8
PLAN_1
  6
CONTINUOUS
 10
1.822803
 20
-3.369346
  0
VERTEX
  8
PLAN_1
  6
CONTINUOUS
 10
1.817693
 20
-3.366362
  0
VERTEX
  8
PLAN_1
  6
CONTINUOUS
 10
1.813433
 20
-3.362957
  0
VERTEX
  8
PLAN_1
  6
CONTINUOUS
 10
1.809598
 20
-3.359976
  0
VERTEX
  8
PLAN_1
  6
CONTINUOUS
 10
1.806618
 20
-3.356996
  0
VERTEX
  8
PLAN_1
  6
CONTINUOUS
 10
1.804063
 20
-3.354016
  0
VERTEX
  8
PLAN_1
  6
CONTINUOUS
 10
1.801508
 20
-3.351031
  0
VERTEX
  8
PLAN_1
  6
CONTINUOUS
 10
1.799382
 20
-3.348051
  0
VERTEX
  8
PLAN_1
  6
CONTINUOUS
 10
1.797677
 20
-3.345071
  0
VERTEX
  8
PLAN_1
  6
CONTINUOUS
 10
1.795972
 20
-3.342091
  0
VERTEX
  8
PLAN_1
  6
CONTINUOUS
 10
1.794697
 20
-3.339110
  0
VERTEX
  8
PLAN_1
  6
CONTINUOUS
 10
1.793417
 20
-3.336130
  0
VERTEX
  8
PLAN_1
  6
CONTINUOUS
 10
1.791287
 20
-3.329740
  0
VERTEX
  8
PLAN_1
  6
CONTINUOUS
 10
1.790437
 20
-3.322929
  0
VERTEX
  8
PLAN_1
  6
CONTINUOUS
 10
1.789587
 20
-3.316539
  0
VERTEX
  8
PLAN_1
  6
CONTINUOUS
 10
1.789587
 20
-3.309299
  0
VERTEX
  8
PLAN_1
  6
CONTINUOUS
 10
1.814709
 20
-3.309299
  0
VERTEX
  8
PLAN_1
  6
CONTINUOUS
 10
1.815138
 20
-3.316114
  0
VERTEX
  8
PLAN_1
  6
CONTINUOUS
 10
1.815988
 20
-3.321650
  0
VERTEX
  8
PLAN_1
  6
CONTINUOUS
 10
1.817693
 20
-3.327185
  0
VERTEX
  8
PLAN_1
  6
CONTINUOUS
 10
1.819819
 20
-3.331870
  0
VERTEX
  8
PLAN_1
  6
CONTINUOUS
 10
1.822374
 20
-3.336130
  0
VERTEX
  8
PLAN_1
  6
CONTINUOUS
 10
1.825358
 20
-3.339961
  0
VERTEX
  8
PLAN_1
  6
CONTINUOUS
 10
1.828764
 20
-3.343366
  0
VERTEX
  8
PLAN_1
  6
CONTINUOUS
 10
1.832594
 20
-3.346350
  0
VERTEX
  8
PLAN_1
  6
CONTINUOUS
 10
1.836854
 20
-3.348906
  0
VERTEX
  8
PLAN_1
  6
CONTINUOUS
 10
1.841114
 20
-3.351031
  0
VERTEX
  8
PLAN_1
  6
CONTINUOUS
 10
1.845795
 20
-3.352736
  0
VERTEX
  8
PLAN_1
  6
CONTINUOUS
 10
1.850480
 20
-3.354016
  0
VERTEX
  8
PLAN_1
  6
CONTINUOUS
 10
1.855165
 20
-3.354866
  0
VERTEX
  8
PLAN_1
  6
CONTINUOUS
 10
1.859850
 20
-3.355717
  0
VERTEX
  8
PLAN_1
  6
CONTINUOUS
 10
1.864961
 20
-3.356142
  0
VERTEX
  8
PLAN_1
  6
CONTINUOUS
 10
1.869646
 20
-3.356142
  0
VERTEX
  8
PLAN_1
  6
CONTINUOUS
 10
1.877736
 20
-3.355717
  0
VERTEX
  8
PLAN_1
  6
CONTINUOUS
 10
1.886252
 20
-3.354866
  0
VERTEX
  8
PLAN_1
  6
CONTINUOUS
 10
1.890512
 20
-3.354016
  0
VERTEX
  8
PLAN_1
  6
CONTINUOUS
 10
1.894768
 20
-3.353161
  0
VERTEX
  8
PLAN_1
  6
CONTINUOUS
 10
1.899028
 20
-3.351461
  0
VERTEX
  8
PLAN_1
  6
CONTINUOUS
 10
1.903287
 20
-3.350181
  0
VERTEX
  8
PLAN_1
  6
CONTINUOUS
 10
1.907118
 20
-3.348051
  0
VERTEX
  8
PLAN_1
  6
CONTINUOUS
 10
1.910528
 20
-3.345496
  0
VERTEX
  8
PLAN_1
  6
CONTINUOUS
 10
1.913508
 20
-3.342941
  0
VERTEX
  8
PLAN_1
  6
CONTINUOUS
 10
1.916488
 20
-3.339961
  0
VERTEX
  8
PLAN_1
  6
CONTINUOUS
 10
1.918618
 20
-3.336130
  0
VERTEX
  8
PLAN_1
  6
CONTINUOUS
 10
1.920319
 20
-3.332295
  0
VERTEX
  8
PLAN_1
  6
CONTINUOUS
 10
1.921598
 20
-3.327610
  0
VERTEX
  8
PLAN_1
  6
CONTINUOUS
 10
1.922024
 20
-3.322500
  0
VERTEX
  8
PLAN_1
  6
CONTINUOUS
 10
1.921598
 20
-3.318669
  0
VERTEX
  8
PLAN_1
  6
CONTINUOUS
 10
1.921598
 20
-3.315264
  0
VERTEX
  8
PLAN_1
  6
CONTINUOUS
 10
1.920744
 20
-3.312280
  0
VERTEX
  8
PLAN_1
  6
CONTINUOUS
 10
1.919894
 20
-3.309299
  0
VERTEX
  8
PLAN_1
  6
CONTINUOUS
 10
1.918618
 20
-3.306744
  0
VERTEX
  8
PLAN_1
  6
CONTINUOUS
 10
1.916913
 20
-3.304189
  0
VERTEX
  8
PLAN_1
  6
CONTINUOUS
 10
1.915209
 20
-3.302063
  0
VERTEX
  8
PLAN_1
  6
CONTINUOUS
 10
1.913079
 20
-3.299933
  0
VERTEX
  8
PLAN_1
  6
CONTINUOUS
 10
1.910098
 20
-3.298228
  0
VERTEX
  8
PLAN_1
  6
CONTINUOUS
 10
1.907118
 20
-3.296524
  0
VERTEX
  8
PLAN_1
  6
CONTINUOUS
 10
1.903713
 20
-3.294823
  0
VERTEX
  8
PLAN_1
  6
CONTINUOUS
 10
1.899878
 20
-3.293118
  0
VERTEX
  8
PLAN_1
  6
CONTINUOUS
 10
1.890512
 20
-3.290138
  0
VERTEX
  8
PLAN_1
  6
CONTINUOUS
 10
1.879437
 20
-3.287157
  0
VERTEX
  8
PLAN_1
  6
CONTINUOUS
 10
1.838559
 20
-3.277787
  0
VERTEX
  8
PLAN_1
  6
CONTINUOUS
 10
1.833024
 20
-3.276512
  0
VERTEX
  8
PLAN_1
  6
CONTINUOUS
 10
1.826634
 20
-3.273957
  0
VERTEX
  8
PLAN_1
  6
CONTINUOUS
 10
1.822803
 20
-3.272677
  0
VERTEX
  8
PLAN_1
  6
CONTINUOUS
 10
1.819394
 20
-3.270972
  0
VERTEX
  8
PLAN_1
  6
CONTINUOUS
 10
1.815988
 20
-3.268846
  0
VERTEX
  8
PLAN_1
  6
CONTINUOUS
 10
1.812583
 20
-3.266291
  0
VERTEX
  8
PLAN_1
  6
CONTINUOUS
 10
1.809173
 20
-3.263311
  0
VERTEX
  8
PLAN_1
  6
CONTINUOUS
 10
1.806193
 20
-3.260327
  0
VERTEX
  8
PLAN_1
  6
CONTINUOUS
 10
1.803213
 20
-3.256496
  0
VERTEX
  8
PLAN_1
  6
CONTINUOUS
 10
1.801083
 20
-3.252236
  0
VERTEX
  8
PLAN_1
  6
CONTINUOUS
 10
1.798953
 20
-3.247980
  0
VERTEX
  8
PLAN_1
  6
CONTINUOUS
 10
1.797677
 20
-3.242870
  0
VERTEX
  8
PLAN_1
  6
CONTINUOUS
 10
1.796398
 20
-3.236906
  0
VERTEX
  8
PLAN_1
  6
CONTINUOUS
 10
1.795972
 20
-3.230945
  0
VERTEX
  8
PLAN_1
  6
CONTINUOUS
 10
1.796398
 20
-3.224984
  0
VERTEX
  8
PLAN_1
  6
CONTINUOUS
 10
1.797252
 20
-3.219449
  0
VERTEX
  8
PLAN_1
  6
CONTINUOUS
 10
1.798528
 20
-3.213484
  0
VERTEX
  8
PLAN_1
  6
CONTINUOUS
 10
1.800232
 20
-3.207949
  0
VERTEX
  8
PLAN_1
  6
CONTINUOUS
 10
1.802362
 20
-3.202839
  0
VERTEX
  8
PLAN_1
  6
CONTINUOUS
 10
1.804917
 20
-3.197728
  0
VERTEX
  8
PLAN_1
  6
CONTINUOUS
 10
1.808323
 20
-3.193043
  0
VERTEX
  8
PLAN_1
  6
CONTINUOUS
 10
1.812154
 20
-3.188362
  0
VERTEX
  8
PLAN_1
  6
CONTINUOUS
 10
1.816839
 20
-3.184102
  0
VERTEX
  8
PLAN_1
  6
CONTINUOUS
 10
1.821949
 20
-3.180697
  0
VERTEX
  8
PLAN_1
  6
CONTINUOUS
 10
1.827484
 20
-3.177287
  0
VERTEX
  8
PLAN_1
  6
CONTINUOUS
 10
1.833449
 20
-3.174732
  0
VERTEX
  8
PLAN_1
  6
CONTINUOUS
 10
1.840260
 20
-3.172177
  0
VERTEX
  8
PLAN_1
  6
CONTINUOUS
 10
1.847925
 20
-3.170476
  0
VERTEX
  8
PLAN_1
  6
CONTINUOUS
 10
1.856016
 20
-3.169622
  0
VERTEX
  8
PLAN_1
  6
CONTINUOUS
 10
1.864535
 20
-3.169197
  0
VERTEX
  8
PLAN_1
  6
CONTINUOUS
 10
1.870921
 20
-3.169622
  0
VERTEX
  8
PLAN_1
  6
CONTINUOUS
 10
1.876886
 20
-3.169622
  0
VERTEX
  8
PLAN_1
  6
CONTINUOUS
 10
1.882846
 20
-3.170476
  0
VERTEX
  8
PLAN_1
  6
CONTINUOUS
 10
1.887957
 20
-3.171327
  0
VERTEX
  8
PLAN_1
  6
CONTINUOUS
 10
1.893067
 20
-3.172177
  0
VERTEX
  8
PLAN_1
  6
CONTINUOUS
 10
1.897752
 20
-3.173457
  0
VERTEX
  8
PLAN_1
  6
CONTINUOUS
 10
1.902008
 20
-3.174732
  0
VERTEX
  8
PLAN_1
  6
CONTINUOUS
 10
1.906268
 20
-3.176012
  0
VERTEX
  8
PLAN_1
  6
CONTINUOUS
 10
1.909673
 20
-3.177713
  0
VERTEX
  8
PLAN_1
  6
CONTINUOUS
 10
1.913508
 20
-3.179417
  0
VERTEX
  8
PLAN_1
  6
CONTINUOUS
 10
1.916488
 20
-3.181547
  0
VERTEX
  8
PLAN_1
  6
CONTINUOUS
 10
1.919469
 20
-3.183677
  0
VERTEX
  8
PLAN_1
  6
CONTINUOUS
 10
1.922449
 20
-3.185807
  0
VERTEX
  8
PLAN_1
  6
CONTINUOUS
 10
1.925004
 20
-3.187933
  0
VERTEX
  8
PLAN_1
  6
CONTINUOUS
 10
1.927134
 20
-3.190488
  0
VERTEX
  8
PLAN_1
  6
CONTINUOUS
 10
1.929264
 20
-3.193043
  0
VERTEX
  8
PLAN_1
  6
CONTINUOUS
 10
1.932669
 20
-3.197728
  0
VERTEX
  8
PLAN_1
  6
CONTINUOUS
 10
1.935650
 20
-3.203264
  0
VERTEX
  8
PLAN_1
  6
CONTINUOUS
 10
1.937780
 20
-3.208374
  0
VERTEX
  8
PLAN_1
  6
CONTINUOUS
 10
1.939484
 20
-3.213484
  0
VERTEX
  8
PLAN_1
  6
CONTINUOUS
 10
1.940760
 20
-3.219020
  0
VERTEX
  8
PLAN_1
  6
CONTINUOUS
 10
1.941614
 20
-3.223705
  0
VERTEX
  8
PLAN_1
  6
CONTINUOUS
 10
1.942039
 20
-3.228390
  0
VERTEX
  8
PLAN_1
  6
CONTINUOUS
 10
1.942465
 20
-3.232650
  0
VERTEX
  8
PLAN_1
  6
CONTINUOUS
 10
1.917339
 20
-3.232650
  0
SEQEND
  8
0
  0
POLYLINE
  8
PLAN_1
  6
CONTINUOUS
 66
     1
 40
0.008516
 41
0.008516
  0
VERTEX
  8
PLAN_1
  6
CONTINUOUS
 10
-0.465264
 20
1.790197
  0
VERTEX
  8
PLAN_1
  6
CONTINUOUS
 10
-0.465264
 20
2.589933
  0
VERTEX
  8
PLAN_1
  6
CONTINUOUS
 10
-1.786661
 20
2.589933
  0
VERTEX
  8
PLAN_1
  6
CONTINUOUS
 10
-1.786661
 20
1.790197
  0
VERTEX
  8
PLAN_1
  6
CONTINUOUS
 10
-0.465264
 20
1.790197
  0
SEQEND
  8
0
  0
POLYLINE
  8
PLAN_1
  6
CONTINUOUS
 66
     1
 40
0.008516
 41
0.008516
  0
VERTEX
  8
PLAN_1
  6
CONTINUOUS
 10
-0.913681
 20
1.368181
  0
VERTEX
  8
PLAN_1
  6
CONTINUOUS
 10
-0.913681
 20
1.415028
  0
VERTEX
  8
PLAN_1
  6
CONTINUOUS
 10
-1.316957
 20
1.415028
  0
VERTEX
  8
PLAN_1
  6
CONTINUOUS
 10
-1.316957
 20
1.368181
  0
VERTEX
  8
PLAN_1
  6
CONTINUOUS
 10
-0.913681
 20
1.368181
  0
SEQEND
  8
0
  0
POLYLINE
  8
PLAN_1
  6
CONTINUOUS
 66
     1
 40
0.008516
 41
0.008516
  0
VERTEX
  8
PLAN_1
  6
CONTINUOUS
 10
-0.573004
 20
1.764646
  0
VERTEX
  8
PLAN_1
  6
CONTINUOUS
 10
-0.573004
 20
1.790197
  0
VERTEX
  8
PLAN_1
  6
CONTINUOUS
 10
-1.657630
 20
1.790197
  0
VERTEX
  8
PLAN_1
  6
CONTINUOUS
 10
-1.657630
 20
1.764646
  0
VERTEX
  8
PLAN_1
  6
CONTINUOUS
 10
-0.573004
 20
1.764646
  0
SEQEND
  8
0
  0
POLYLINE
  8
PLAN_1
  6
CONTINUOUS
 66
     1
 40
0.008516
 41
0.008516
  0
VERTEX
  8
PLAN_1
  6
CONTINUOUS
 10
-0.811902
 20
1.415028
  0
VERTEX
  8
PLAN_1
  6
CONTINUOUS
 10
-0.811902
 20
1.764646
  0
VERTEX
  8
PLAN_1
  6
CONTINUOUS
 10
-1.438319
 20
1.764646
  0
VERTEX
  8
PLAN_1
  6
CONTINUOUS
 10
-1.438319
 20
1.415028
  0
VERTEX
  8
PLAN_1
  6
CONTINUOUS
 10
-0.811902
 20
1.415028
  0
SEQEND
  8
0
  0
POLYLINE
  8
PLAN_1
 62
     5
  6
CONTINUOUS
 66
     1
 40
0.003000
 41
0.003000
  0
VERTEX
  8
PLAN_1
 62
     5
  6
CONTINUOUS
 10
-1.954870
 20
1.082016
  0
VERTEX
  8
PLAN_1
 62
     5
  6
CONTINUOUS
 10
-1.954870
 20
1.090106
  0
SEQEND
  8
0
  0
POLYLINE
  8
PLAN_1
 62
     5
  6
CONTINUOUS
 66
     1
 40
0.003000
 41
0.003000
  0
VERTEX
  8
PLAN_1
 62
     5
  6
CONTINUOUS
 10
-1.954870
 20
1.098622
  0
VERTEX
  8
PLAN_1
 62
     5
  6
CONTINUOUS
 10
-1.954870
 20
1.106713
  0
SEQEND
  8
0
  0
POLYLINE
  8
PLAN_1
 62
     5
  6
CONTINUOUS
 66
     1
 40
0.003000
 41
0.003000
  0
VERTEX
  8
PLAN_1
 62
     5
  6
CONTINUOUS
 10
-1.954870
 20
1.115232
  0
VERTEX
  8
PLAN_1
 62
     5
  6
CONTINUOUS
 10
-1.954870
 20
1.123323
  0
SEQEND
  8
0
  0
POLYLINE
  8
PLAN_1
 62
     5
  6
CONTINUOUS
 66
     1
 40
0.003000
 41
0.003000
  0
VERTEX
  8
PLAN_1
 62
     5
  6
CONTINUOUS
 10
-1.954870
 20
1.131839
  0
VERTEX
  8
PLAN_1
 62
     5
  6
CONTINUOUS
 10
-1.954870
 20
1.139929
  0
SEQEND
  8
0
  0
POLYLINE
  8
PLAN_1
 62
     5
  6
CONTINUOUS
 66
     1
 40
0.003000
 41
0.003000
  0
VERTEX
  8
PLAN_1
 62
     5
  6
CONTINUOUS
 10
-1.954870
 20
1.148445
  0
VERTEX
  8
PLAN_1
 62
     5
  6
CONTINUOUS
 10
-1.954870
 20
1.156965
  0
SEQEND
  8
0
  0
POLYLINE
  8
PLAN_1
 62
     5
  6
CONTINUOUS
 66
     1
 40
0.003000
 41
0.003000
  0
VERTEX
  8
PLAN_1
 62
     5
  6
CONTINUOUS
 10
-1.954870
 20
1.165055
  0
VERTEX
  8
PLAN_1
 62
     5
  6
CONTINUOUS
 10
-1.954870
 20
1.173571
  0
SEQEND
  8
0
  0
POLYLINE
  8
PLAN_1
 62
     5
  6
CONTINUOUS
 66
     1
 40
0.003000
 41
0.003000
  0
VERTEX
  8
PLAN_1
 62
     5
  6
CONTINUOUS
 10
-1.954870
 20
1.181661
  0
VERTEX
  8
PLAN_1
 62
     5
  6
CONTINUOUS
 10
-1.954870
 20
1.190181
  0
SEQEND
  8
0
  0
POLYLINE
  8
PLAN_1
 62
     5
  6
CONTINUOUS
 66
     1
 40
0.003000
 41
0.003000
  0
VERTEX
  8
PLAN_1
 62
     5
  6
CONTINUOUS
 10
-1.954870
 20
1.198272
  0
VERTEX
  8
PLAN_1
 62
     5
  6
CONTINUOUS
 10
-1.954870
 20
1.206787
  0
SEQEND
  8
0
  0
POLYLINE
  8
PLAN_1
 62
     5
  6
CONTINUOUS
 66
     1
 40
0.003000
 41
0.003000
  0
VERTEX
  8
PLAN_1
 62
     5
  6
CONTINUOUS
 10
-1.954870
 20
1.214878
  0
VERTEX
  8
PLAN_1
 62
     5
  6
CONTINUOUS
 10
-1.954870
 20
1.223394
  0
SEQEND
  8
0
  0
POLYLINE
  8
PLAN_1
 62
     5
  6
CONTINUOUS
 66
     1
 40
0.003000
 41
0.003000
  0
VERTEX
  8
PLAN_1
 62
     5
  6
CONTINUOUS
 10
-1.954870
 20
1.231913
  0
VERTEX
  8
PLAN_1
 62
     5
  6
CONTINUOUS
 10
-1.954870
 20
1.240004
  0
SEQEND
  8
0
  0
POLYLINE
  8
PLAN_1
 62
     5
  6
CONTINUOUS
 66
     1
 40
0.003000
 41
0.003000
  0
VERTEX
  8
PLAN_1
 62
     5
  6
CONTINUOUS
 10
-1.954870
 20
1.248520
  0
VERTEX
  8
PLAN_1
 62
     5
  6
CONTINUOUS
 10
-1.954870
 20
1.256610
  0
SEQEND
  8
0
  0
POLYLINE
  8
PLAN_1
 62
     5
  6
CONTINUOUS
 66
     1
 40
0.003000
 41
0.003000
  0
VERTEX
  8
PLAN_1
 62
     5
  6
CONTINUOUS
 10
-1.954870
 20
1.265130
  0
VERTEX
  8
PLAN_1
 62
     5
  6
CONTINUOUS
 10
-1.954870
 20
1.273220
  0
SEQEND
  8
0
  0
POLYLINE
  8
PLAN_1
 62
     5
  6
CONTINUOUS
 66
     1
 40
0.003000
 41
0.003000
  0
VERTEX
  8
PLAN_1
 62
     5
  6
CONTINUOUS
 10
-1.954870
 20
1.281736
  0
VERTEX
  8
PLAN_1
 62
     5
  6
CONTINUOUS
 10
-1.954870
 20
1.289827
  0
SEQEND
  8
0
  0
POLYLINE
  8
PLAN_1
 62
     5
  6
CONTINUOUS
 66
     1
 40
0.003000
 41
0.003000
  0
VERTEX
  8
PLAN_1
 62
     5
  6
CONTINUOUS
 10
-1.954870
 20
1.298343
  0
VERTEX
  8
PLAN_1
 62
     5
  6
CONTINUOUS
 10
-1.954870
 20
1.306862
  0
SEQEND
  8
0
  0
POLYLINE
  8
PLAN_1
 62
     5
  6
CONTINUOUS
 66
     1
 40
0.003000
 41
0.003000
  0
VERTEX
  8
PLAN_1
 62
     5
  6
CONTINUOUS
 10
-1.954870
 20
1.314953
  0
VERTEX
  8
PLAN_1
 62
     5
  6
CONTINUOUS
 10
-1.954870
 20
1.323469
  0
SEQEND
  8
0
  0
POLYLINE
  8
PLAN_1
 62
     5
  6
CONTINUOUS
 66
     1
 40
0.003000
 41
0.003000
  0
VERTEX
  8
PLAN_1
 62
     5
  6
CONTINUOUS
 10
-1.954870
 20
1.331559
  0
VERTEX
  8
PLAN_1
 62
     5
  6
CONTINUOUS
 10
-1.954870
 20
1.340079
  0
SEQEND
  8
0
  0
POLYLINE
  8
PLAN_1
 62
     5
  6
CONTINUOUS
 66
     1
 40
0.003000
 41
0.003000
  0
VERTEX
  8
PLAN_1
 62
     5
  6
CONTINUOUS
 10
-1.954870
 20
1.348169
  0
VERTEX
  8
PLAN_1
 62
     5
  6
CONTINUOUS
 10
-1.954870
 20
1.356685
  0
SEQEND
  8
0
  0
POLYLINE
  8
PLAN_1
 62
     5
  6
CONTINUOUS
 66
     1
 40
0.003000
 41
0.003000
  0
VERTEX
  8
PLAN_1
 62
     5
  6
CONTINUOUS
 10
-1.954870
 20
1.364776
  0
VERTEX
  8
PLAN_1
 62
     5
  6
CONTINUOUS
 10
-1.954870
 20
1.373291
  0
SEQEND
  8
0
  0
POLYLINE
  8
PLAN_1
 62
     5
  6
CONTINUOUS
 66
     1
 40
0.003000
 41
0.003000
  0
VERTEX
  8
PLAN_1
 62
     5
  6
CONTINUOUS
 10
-1.954870
 20
1.381811
  0
VERTEX
  8
PLAN_1
 62
     5
  6
CONTINUOUS
 10
-1.954870
 20
1.389902
  0
SEQEND
  8
0
  0
POLYLINE
  8
PLAN_1
 62
     5
  6
CONTINUOUS
 66
     1
 40
0.003000
 41
0.003000
  0
VERTEX
  8
PLAN_1
 62
     5
  6
CONTINUOUS
 10
-1.954870
 20
1.398417
  0
VERTEX
  8
PLAN_1
 62
     5
  6
CONTINUOUS
 10
-1.954870
 20
1.406508
  0
SEQEND
  8
0
  0
POLYLINE
  8
PLAN_1
 62
     5
  6
CONTINUOUS
 66
     1
 40
0.003000
 41
0.003000
  0
VERTEX
  8
PLAN_1
 62
     5
  6
CONTINUOUS
 10
-1.954870
 20
1.415028
  0
VERTEX
  8
PLAN_1
 62
     5
  6
CONTINUOUS
 10
-1.954870
 20
1.423118
  0
SEQEND
  8
0
  0
POLYLINE
  8
PLAN_1
 62
     5
  6
CONTINUOUS
 66
     1
 40
0.003000
 41
0.003000
  0
VERTEX
  8
PLAN_1
 62
     5
  6
CONTINUOUS
 10
-1.954870
 20
1.431634
  0
VERTEX
  8
PLAN_1
 62
     5
  6
CONTINUOUS
 10
-1.954870
 20
1.439724
  0
SEQEND
  8
0
  0
POLYLINE
  8
PLAN_1
 62
     5
  6
CONTINUOUS
 66
     1
 40
0.003000
 41
0.003000
  0
VERTEX
  8
PLAN_1
 62
     5
  6
CONTINUOUS
 10
-1.954870
 20
1.448240
  0
VERTEX
  8
PLAN_1
 62
     5
  6
CONTINUOUS
 10
-1.954870
 20
1.456760
  0
SEQEND
  8
0
  0
POLYLINE
  8
PLAN_1
 62
     5
  6
CONTINUOUS
 66
     1
 40
0.003000
 41
0.003000
  0
VERTEX
  8
PLAN_1
 62
     5
  6
CONTINUOUS
 10
-1.954870
 20
1.464850
  0
VERTEX
  8
PLAN_1
 62
     5
  6
CONTINUOUS
 10
-1.954870
 20
1.473366
  0
SEQEND
  8
0
  0
POLYLINE
  8
PLAN_1
 62
     5
  6
CONTINUOUS
 66
     1
 40
0.003000
 41
0.003000
  0
VERTEX
  8
PLAN_1
 62
     5
  6
CONTINUOUS
 10
-1.954870
 20
1.481457
  0
VERTEX
  8
PLAN_1
 62
     5
  6
CONTINUOUS
 10
-1.954870
 20
1.489972
  0
SEQEND
  8
0
  0
POLYLINE
  8
PLAN_1
 62
     5
  6
CONTINUOUS
 66
     1
 40
0.003000
 41
0.003000
  0
VERTEX
  8
PLAN_1
 62
     5
  6
CONTINUOUS
 10
-1.954870
 20
1.498067
  0
VERTEX
  8
PLAN_1
 62
     5
  6
CONTINUOUS
 10
-1.954870
 20
1.506583
  0
SEQEND
  8
0
  0
POLYLINE
  8
PLAN_1
 62
     5
  6
CONTINUOUS
 66
     1
 40
0.003000
 41
0.003000
  0
VERTEX
  8
PLAN_1
 62
     5
  6
CONTINUOUS
 10
-1.954870
 20
1.514673
  0
VERTEX
  8
PLAN_1
 62
     5
  6
CONTINUOUS
 10
-1.954870
 20
1.523189
  0
SEQEND
  8
0
  0
POLYLINE
  8
PLAN_1
 62
     5
  6
CONTINUOUS
 66
     1
 40
0.003000
 41
0.003000
  0
VERTEX
  8
PLAN_1
 62
     5
  6
CONTINUOUS
 10
-1.954870
 20
1.531709
  0
VERTEX
  8
PLAN_1
 62
     5
  6
CONTINUOUS
 10
-1.954870
 20
1.539799
  0
SEQEND
  8
0
  0
POLYLINE
  8
PLAN_1
 62
     5
  6
CONTINUOUS
 66
     1
 40
0.003000
 41
0.003000
  0
VERTEX
  8
PLAN_1
 62
     5
  6
CONTINUOUS
 10
-1.954870
 20
1.548315
  0
VERTEX
  8
PLAN_1
 62
     5
  6
CONTINUOUS
 10
-1.954870
 20
1.556406
  0
SEQEND
  8
0
  0
POLYLINE
  8
PLAN_1
 62
     5
  6
CONTINUOUS
 66
     1
 40
0.003000
 41
0.003000
  0
VERTEX
  8
PLAN_1
 62
     5
  6
CONTINUOUS
 10
-1.954870
 20
1.564921
  0
VERTEX
  8
PLAN_1
 62
     5
  6
CONTINUOUS
 10
-1.954870
 20
1.573016
  0
SEQEND
  8
0
  0
POLYLINE
  8
PLAN_1
 62
     5
  6
CONTINUOUS
 66
     1
 40
0.003000
 41
0.003000
  0
VERTEX
  8
PLAN_1
 62
     5
  6
CONTINUOUS
 10
-1.954870
 20
1.581531
  0
VERTEX
  8
PLAN_1
 62
     5
  6
CONTINUOUS
 10
-1.954870
 20
1.589622
  0
SEQEND
  8
0
  0
POLYLINE
  8
PLAN_1
 62
     5
  6
CONTINUOUS
 66
     1
 40
0.003000
 41
0.003000
  0
VERTEX
  8
PLAN_1
 62
     5
  6
CONTINUOUS
 10
-1.954870
 20
1.598138
  0
VERTEX
  8
PLAN_1
 62
     5
  6
CONTINUOUS
 10
-1.954870
 20
1.606657
  0
SEQEND
  8
0
  0
POLYLINE
  8
PLAN_1
 62
     5
  6
CONTINUOUS
 66
     1
 40
0.003000
 41
0.003000
  0
VERTEX
  8
PLAN_1
 62
     5
  6
CONTINUOUS
 10
-1.954870
 20
1.614748
  0
VERTEX
  8
PLAN_1
 62
     5
  6
CONTINUOUS
 10
-1.954870
 20
1.623264
  0
SEQEND
  8
0
  0
POLYLINE
  8
PLAN_1
 62
     5
  6
CONTINUOUS
 66
     1
 40
0.003000
 41
0.003000
  0
VERTEX
  8
PLAN_1
 62
     5
  6
CONTINUOUS
 10
-1.954870
 20
1.631354
  0
VERTEX
  8
PLAN_1
 62
     5
  6
CONTINUOUS
 10
-1.954870
 20
1.639870
  0
SEQEND
  8
0
  0
POLYLINE
  8
PLAN_1
 62
     5
  6
CONTINUOUS
 66
     1
 40
0.003000
 41
0.003000
  0
VERTEX
  8
PLAN_1
 62
     5
  6
CONTINUOUS
 10
-1.954870
 20
1.647965
  0
VERTEX
  8
PLAN_1
 62
     5
  6
CONTINUOUS
 10
-1.954870
 20
1.656480
  0
SEQEND
  8
0
  0
POLYLINE
  8
PLAN_1
 62
     5
  6
CONTINUOUS
 66
     1
 40
0.003000
 41
0.003000
  0
VERTEX
  8
PLAN_1
 62
     5
  6
CONTINUOUS
 10
-1.954870
 20
1.664571
  0
VERTEX
  8
PLAN_1
 62
     5
  6
CONTINUOUS
 10
-1.954870
 20
1.673087
  0
SEQEND
  8
0
  0
POLYLINE
  8
PLAN_1
 62
     5
  6
CONTINUOUS
 66
     1
 40
0.003000
 41
0.003000
  0
VERTEX
  8
PLAN_1
 62
     5
  6
CONTINUOUS
 10
-1.954870
 20
1.681606
  0
VERTEX
  8
PLAN_1
 62
     5
  6
CONTINUOUS
 10
-1.954870
 20
1.689697
  0
SEQEND
  8
0
  0
POLYLINE
  8
PLAN_1
 62
     5
  6
CONTINUOUS
 66
     1
 40
0.003000
 41
0.003000
  0
VERTEX
  8
PLAN_1
 62
     5
  6
CONTINUOUS
 10
-1.954870
 20
1.698213
  0
VERTEX
  8
PLAN_1
 62
     5
  6
CONTINUOUS
 10
-1.954870
 20
1.706303
  0
SEQEND
  8
0
  0
POLYLINE
  8
PLAN_1
 62
     5
  6
CONTINUOUS
 66
     1
 40
0.003000
 41
0.003000
  0
VERTEX
  8
PLAN_1
 62
     5
  6
CONTINUOUS
 10
-1.954870
 20
1.714819
  0
VERTEX
  8
PLAN_1
 62
     5
  6
CONTINUOUS
 10
-1.954870
 20
1.722913
  0
SEQEND
  8
0
  0
POLYLINE
  8
PLAN_1
 62
     5
  6
CONTINUOUS
 66
     1
 40
0.003000
 41
0.003000
  0
VERTEX
  8
PLAN_1
 62
     5
  6
CONTINUOUS
 10
-1.954870
 20
1.731429
  0
VERTEX
  8
PLAN_1
 62
     5
  6
CONTINUOUS
 10
-1.954870
 20
1.739520
  0
SEQEND
  8
0
  0
POLYLINE
  8
PLAN_1
 62
     5
  6
CONTINUOUS
 66
     1
 40
0.003000
 41
0.003000
  0
VERTEX
  8
PLAN_1
 62
     5
  6
CONTINUOUS
 10
-1.954870
 20
1.748035
  0
VERTEX
  8
PLAN_1
 62
     5
  6
CONTINUOUS
 10
-1.954870
 20
1.756555
  0
SEQEND
  8
0
  0
POLYLINE
  8
PLAN_1
 62
     5
  6
CONTINUOUS
 66
     1
 40
0.003000
 41
0.003000
  0
VERTEX
  8
PLAN_1
 62
     5
  6
CONTINUOUS
 10
-1.954870
 20
1.764646
  0
VERTEX
  8
PLAN_1
 62
     5
  6
CONTINUOUS
 10
-1.954870
 20
1.773161
  0
SEQEND
  8
0
  0
POLYLINE
  8
PLAN_1
 62
     5
  6
CONTINUOUS
 66
     1
 40
0.003000
 41
0.003000
  0
VERTEX
  8
PLAN_1
 62
     5
  6
CONTINUOUS
 10
-1.954870
 20
1.781252
  0
VERTEX
  8
PLAN_1
 62
     5
  6
CONTINUOUS
 10
-1.954870
 20
1.789768
  0
SEQEND
  8
0
  0
POLYLINE
  8
PLAN_1
 62
     5
  6
CONTINUOUS
 66
     1
 40
0.003000
 41
0.003000
  0
VERTEX
  8
PLAN_1
 62
     5
  6
CONTINUOUS
 10
-1.946780
 20
1.790197
  0
VERTEX
  8
PLAN_1
 62
     5
  6
CONTINUOUS
 10
-1.938689
 20
1.790197
  0
SEQEND
  8
0
  0
POLYLINE
  8
PLAN_1
 62
     5
  6
CONTINUOUS
 66
     1
 40
0.003000
 41
0.003000
  0
VERTEX
  8
PLAN_1
 62
     5
  6
CONTINUOUS
 10
-1.930173
 20
1.790197
  0
VERTEX
  8
PLAN_1
 62
     5
  6
CONTINUOUS
 10
-1.922079
 20
1.790197
  0
SEQEND
  8
0
  0
POLYLINE
  8
PLAN_1
 62
     5
  6
CONTINUOUS
 66
     1
 40
0.003000
 41
0.003000
  0
VERTEX
  8
PLAN_1
 62
     5
  6
CONTINUOUS
 10
-1.913563
 20
1.790197
  0
VERTEX
  8
PLAN_1
 62
     5
  6
CONTINUOUS
 10
-1.905472
 20
1.790197
  0
SEQEND
  8
0
  0
POLYLINE
  8
PLAN_1
 62
     5
  6
CONTINUOUS
 66
     1
 40
0.003000
 41
0.003000
  0
VERTEX
  8
PLAN_1
 62
     5
  6
CONTINUOUS
 10
-1.896957
 20
1.790197
  0
VERTEX
  8
PLAN_1
 62
     5
  6
CONTINUOUS
 10
-1.888437
 20
1.790197
  0
SEQEND
  8
0
  0
POLYLINE
  8
PLAN_1
 62
     5
  6
CONTINUOUS
 66
     1
 40
0.003000
 41
0.003000
  0
VERTEX
  8
PLAN_1
 62
     5
  6
CONTINUOUS
 10
-1.880346
 20
1.790197
  0
VERTEX
  8
PLAN_1
 62
     5
  6
CONTINUOUS
 10
-1.871831
 20
1.790197
  0
SEQEND
  8
0
  0
POLYLINE
  8
PLAN_1
 62
     5
  6
CONTINUOUS
 66
     1
 40
0.003000
 41
0.003000
  0
VERTEX
  8
PLAN_1
 62
     5
  6
CONTINUOUS
 10
-1.863740
 20
1.790197
  0
VERTEX
  8
PLAN_1
 62
     5
  6
CONTINUOUS
 10
-1.855224
 20
1.790197
  0
SEQEND
  8
0
  0
POLYLINE
  8
PLAN_1
 62
     5
  6
CONTINUOUS
 66
     1
 40
0.003000
 41
0.003000
  0
VERTEX
  8
PLAN_1
 62
     5
  6
CONTINUOUS
 10
-1.847134
 20
1.790197
  0
VERTEX
  8
PLAN_1
 62
     5
  6
CONTINUOUS
 10
-1.838614
 20
1.790197
  0
SEQEND
  8
0
  0
POLYLINE
  8
PLAN_1
 62
     5
  6
CONTINUOUS
 66
     1
 40
0.003000
 41
0.003000
  0
VERTEX
  8
PLAN_1
 62
     5
  6
CONTINUOUS
 10
-1.830098
 20
1.790197
  0
VERTEX
  8
PLAN_1
 62
     5
  6
CONTINUOUS
 10
-1.822008
 20
1.790197
  0
SEQEND
  8
0
  0
POLYLINE
  8
PLAN_1
 62
     5
  6
CONTINUOUS
 66
     1
 40
0.003000
 41
0.003000
  0
VERTEX
  8
PLAN_1
 62
     5
  6
CONTINUOUS
 10
-1.813492
 20
1.790197
  0
VERTEX
  8
PLAN_1
 62
     5
  6
CONTINUOUS
 10
-1.805398
 20
1.790197
  0
SEQEND
  8
0
  0
POLYLINE
  8
PLAN_1
 62
     5
  6
CONTINUOUS
 66
     1
 40
0.003000
 41
0.003000
  0
VERTEX
  8
PLAN_1
 62
     5
  6
CONTINUOUS
 10
-1.796882
 20
1.790197
  0
VERTEX
  8
PLAN_1
 62
     5
  6
CONTINUOUS
 10
-1.788791
 20
1.790197
  0
SEQEND
  8
0
  0
POLYLINE
  8
PLAN_1
 62
     5
  6
CONTINUOUS
 66
     1
 40
0.003000
 41
0.003000
  0
VERTEX
  8
PLAN_1
 62
     5
  6
CONTINUOUS
 10
-1.780276
 20
1.790197
  0
VERTEX
  8
PLAN_1
 62
     5
  6
CONTINUOUS
 10
-1.772185
 20
1.790197
  0
SEQEND
  8
0
  0
POLYLINE
  8
PLAN_1
 62
     5
  6
CONTINUOUS
 66
     1
 40
0.003000
 41
0.003000
  0
VERTEX
  8
PLAN_1
 62
     5
  6
CONTINUOUS
 10
-1.763665
 20
1.790197
  0
VERTEX
  8
PLAN_1
 62
     5
  6
CONTINUOUS
 10
-1.755150
 20
1.790197
  0
SEQEND
  8
0
  0
POLYLINE
  8
PLAN_1
 62
     5
  6
CONTINUOUS
 66
     1
 40
0.003000
 41
0.003000
  0
VERTEX
  8
PLAN_1
 62
     5
  6
CONTINUOUS
 10
-1.747059
 20
1.790197
  0
VERTEX
  8
PLAN_1
 62
     5
  6
CONTINUOUS
 10
-1.738543
 20
1.790197
  0
SEQEND
  8
0
  0
POLYLINE
  8
PLAN_1
 62
     5
  6
CONTINUOUS
 66
     1
 40
0.003000
 41
0.003000
  0
VERTEX
  8
PLAN_1
 62
     5
  6
CONTINUOUS
 10
-1.730449
 20
1.790197
  0
VERTEX
  8
PLAN_1
 62
     5
  6
CONTINUOUS
 10
-1.721933
 20
1.790197
  0
SEQEND
  8
0
  0
POLYLINE
  8
PLAN_1
 62
     5
  6
CONTINUOUS
 66
     1
 40
0.003000
 41
0.003000
  0
VERTEX
  8
PLAN_1
 62
     5
  6
CONTINUOUS
 10
-1.713843
 20
1.790197
  0
VERTEX
  8
PLAN_1
 62
     5
  6
CONTINUOUS
 10
-1.705327
 20
1.790197
  0
SEQEND
  8
0
  0
POLYLINE
  8
PLAN_1
 62
     5
  6
CONTINUOUS
 66
     1
 40
0.003000
 41
0.003000
  0
VERTEX
  8
PLAN_1
 62
     5
  6
CONTINUOUS
 10
-1.697236
 20
1.790197
  0
VERTEX
  8
PLAN_1
 62
     5
  6
CONTINUOUS
 10
-1.688717
 20
1.790197
  0
SEQEND
  8
0
  0
POLYLINE
  8
PLAN_1
 62
     5
  6
CONTINUOUS
 66
     1
 40
0.003000
 41
0.003000
  0
VERTEX
  8
PLAN_1
 62
     5
  6
CONTINUOUS
 10
-1.680201
 20
1.790197
  0
VERTEX
  8
PLAN_1
 62
     5
  6
CONTINUOUS
 10
-1.672110
 20
1.790197
  0
SEQEND
  8
0
  0
POLYLINE
  8
PLAN_1
 62
     5
  6
CONTINUOUS
 66
     1
 40
0.003000
 41
0.003000
  0
VERTEX
  8
PLAN_1
 62
     5
  6
CONTINUOUS
 10
-1.663594
 20
1.790197
  0
VERTEX
  8
PLAN_1
 62
     5
  6
CONTINUOUS
 10
-1.655500
 20
1.790197
  0
SEQEND
  8
0
  0
POLYLINE
  8
PLAN_1
 62
     5
  6
CONTINUOUS
 66
     1
 40
0.003000
 41
0.003000
  0
VERTEX
  8
PLAN_1
 62
     5
  6
CONTINUOUS
 10
-1.646984
 20
1.790197
  0
VERTEX
  8
PLAN_1
 62
     5
  6
CONTINUOUS
 10
-1.638894
 20
1.790197
  0
SEQEND
  8
0
  0
POLYLINE
  8
PLAN_1
 62
     5
  6
CONTINUOUS
 66
     1
 40
0.003000
 41
0.003000
  0
VERTEX
  8
PLAN_1
 62
     5
  6
CONTINUOUS
 10
-1.630378
 20
1.790197
  0
VERTEX
  8
PLAN_1
 62
     5
  6
CONTINUOUS
 10
-1.622287
 20
1.790197
  0
SEQEND
  8
0
  0
POLYLINE
  8
PLAN_1
 62
     5
  6
CONTINUOUS
 66
     1
 40
0.003000
 41
0.003000
  0
VERTEX
  8
PLAN_1
 62
     5
  6
CONTINUOUS
 10
-1.613768
 20
1.790197
  0
VERTEX
  8
PLAN_1
 62
     5
  6
CONTINUOUS
 10
-1.605252
 20
1.790197
  0
SEQEND
  8
0
  0
POLYLINE
  8
PLAN_1
 62
     5
  6
CONTINUOUS
 66
     1
 40
0.003000
 41
0.003000
  0
VERTEX
  8
PLAN_1
 62
     5
  6
CONTINUOUS
 10
-1.597161
 20
1.790197
  0
VERTEX
  8
PLAN_1
 62
     5
  6
CONTINUOUS
 10
-1.588646
 20
1.790197
  0
SEQEND
  8
0
  0
POLYLINE
  8
PLAN_1
 62
     5
  6
CONTINUOUS
 66
     1
 40
0.003000
 41
0.003000
  0
VERTEX
  8
PLAN_1
 62
     5
  6
CONTINUOUS
 10
-1.580551
 20
1.790197
  0
VERTEX
  8
PLAN_1
 62
     5
  6
CONTINUOUS
 10
-1.572035
 20
1.790197
  0
SEQEND
  8
0
  0
POLYLINE
  8
PLAN_1
 62
     5
  6
CONTINUOUS
 66
     1
 40
0.003000
 41
0.003000
  0
VERTEX
  8
PLAN_1
 62
     5
  6
CONTINUOUS
 10
-1.563945
 20
1.790197
  0
VERTEX
  8
PLAN_1
 62
     5
  6
CONTINUOUS
 10
-1.555429
 20
1.790197
  0
SEQEND
  8
0
  0
POLYLINE
  8
PLAN_1
 62
     5
  6
CONTINUOUS
 66
     1
 40
0.003000
 41
0.003000
  0
VERTEX
  8
PLAN_1
 62
     5
  6
CONTINUOUS
 10
-1.547339
 20
1.790197
  0
VERTEX
  8
PLAN_1
 62
     5
  6
CONTINUOUS
 10
-1.538819
 20
1.790197
  0
SEQEND
  8
0
  0
POLYLINE
  8
PLAN_1
 62
     5
  6
CONTINUOUS
 66
     1
 40
0.003000
 41
0.003000
  0
VERTEX
  8
PLAN_1
 62
     5
  6
CONTINUOUS
 10
-1.530303
 20
1.790197
  0
VERTEX
  8
PLAN_1
 62
     5
  6
CONTINUOUS
 10
-1.522213
 20
1.790197
  0
SEQEND
  8
0
  0
POLYLINE
  8
PLAN_1
 62
     5
  6
CONTINUOUS
 66
     1
 40
0.003000
 41
0.003000
  0
VERTEX
  8
PLAN_1
 62
     5
  6
CONTINUOUS
 10
-1.513697
 20
1.790197
  0
VERTEX
  8
PLAN_1
 62
     5
  6
CONTINUOUS
 10
-1.505602
 20
1.790197
  0
SEQEND
  8
0
  0
POLYLINE
  8
PLAN_1
 62
     5
  6
CONTINUOUS
 66
     1
 40
0.003000
 41
0.003000
  0
VERTEX
  8
PLAN_1
 62
     5
  6
CONTINUOUS
 10
-1.497087
 20
1.790197
  0
VERTEX
  8
PLAN_1
 62
     5
  6
CONTINUOUS
 10
-1.488996
 20
1.790197
  0
SEQEND
  8
0
  0
POLYLINE
  8
PLAN_1
 62
     5
  6
CONTINUOUS
 66
     1
 40
0.003000
 41
0.003000
  0
VERTEX
  8
PLAN_1
 62
     5
  6
CONTINUOUS
 10
-1.480480
 20
1.790197
  0
VERTEX
  8
PLAN_1
 62
     5
  6
CONTINUOUS
 10
-1.472390
 20
1.790197
  0
SEQEND
  8
0
  0
POLYLINE
  8
PLAN_1
 62
     5
  6
CONTINUOUS
 66
     1
 40
0.003000
 41
0.003000
  0
VERTEX
  8
PLAN_1
 62
     5
  6
CONTINUOUS
 10
-1.463870
 20
1.790197
  0
VERTEX
  8
PLAN_1
 62
     5
  6
CONTINUOUS
 10
-1.455354
 20
1.790197
  0
SEQEND
  8
0
  0
POLYLINE
  8
PLAN_1
 62
     5
  6
CONTINUOUS
 66
     1
 40
0.003000
 41
0.003000
  0
VERTEX
  8
PLAN_1
 62
     5
  6
CONTINUOUS
 10
-1.447264
 20
1.790197
  0
VERTEX
  8
PLAN_1
 62
     5
  6
CONTINUOUS
 10
-1.438748
 20
1.790197
  0
SEQEND
  8
0
  0
POLYLINE
  8
PLAN_1
 62
     5
  6
CONTINUOUS
 66
     1
 40
0.003000
 41
0.003000
  0
VERTEX
  8
PLAN_1
 62
     5
  6
CONTINUOUS
 10
-1.430654
 20
1.790197
  0
VERTEX
  8
PLAN_1
 62
     5
  6
CONTINUOUS
 10
-1.422138
 20
1.790197
  0
SEQEND
  8
0
  0
POLYLINE
  8
PLAN_1
 62
     5
  6
CONTINUOUS
 66
     1
 40
0.003000
 41
0.003000
  0
VERTEX
  8
PLAN_1
 62
     5
  6
CONTINUOUS
 10
-1.414047
 20
1.790197
  0
VERTEX
  8
PLAN_1
 62
     5
  6
CONTINUOUS
 10
-1.405531
 20
1.790197
  0
SEQEND
  8
0
  0
POLYLINE
  8
PLAN_1
 62
     5
  6
CONTINUOUS
 66
     1
 40
0.003000
 41
0.003000
  0
VERTEX
  8
PLAN_1
 62
     5
  6
CONTINUOUS
 10
-1.397441
 20
1.790197
  0
VERTEX
  8
PLAN_1
 62
     5
  6
CONTINUOUS
 10
-1.388921
 20
1.790197
  0
SEQEND
  8
0
  0
POLYLINE
  8
PLAN_1
 62
     5
  6
CONTINUOUS
 66
     1
 40
0.003000
 41
0.003000
  0
VERTEX
  8
PLAN_1
 62
     5
  6
CONTINUOUS
 10
-1.380406
 20
1.790197
  0
VERTEX
  8
PLAN_1
 62
     5
  6
CONTINUOUS
 10
-1.372315
 20
1.790197
  0
SEQEND
  8
0
  0
POLYLINE
  8
PLAN_1
 62
     5
  6
CONTINUOUS
 66
     1
 40
0.003000
 41
0.003000
  0
VERTEX
  8
PLAN_1
 62
     5
  6
CONTINUOUS
 10
-1.363799
 20
1.790197
  0
VERTEX
  8
PLAN_1
 62
     5
  6
CONTINUOUS
 10
-1.355705
 20
1.790197
  0
SEQEND
  8
0
  0
POLYLINE
  8
PLAN_1
 62
     5
  6
CONTINUOUS
 66
     1
 40
0.003000
 41
0.003000
  0
VERTEX
  8
PLAN_1
 62
     5
  6
CONTINUOUS
 10
-1.347189
 20
1.790197
  0
VERTEX
  8
PLAN_1
 62
     5
  6
CONTINUOUS
 10
-1.339098
 20
1.790197
  0
SEQEND
  8
0
  0
POLYLINE
  8
PLAN_1
 62
     5
  6
CONTINUOUS
 66
     1
 40
0.003000
 41
0.003000
  0
VERTEX
  8
PLAN_1
 62
     5
  6
CONTINUOUS
 10
-1.330583
 20
1.790197
  0
VERTEX
  8
PLAN_1
 62
     5
  6
CONTINUOUS
 10
-1.322492
 20
1.790197
  0
SEQEND
  8
0
  0
POLYLINE
  8
PLAN_1
 62
     5
  6
CONTINUOUS
 66
     1
 40
0.003000
 41
0.003000
  0
VERTEX
  8
PLAN_1
 62
     5
  6
CONTINUOUS
 10
-1.313972
 20
1.790197
  0
VERTEX
  8
PLAN_1
 62
     5
  6
CONTINUOUS
 10
-1.305457
 20
1.790197
  0
SEQEND
  8
0
  0
POLYLINE
  8
PLAN_1
 62
     5
  6
CONTINUOUS
 66
     1
 40
0.003000
 41
0.003000
  0
VERTEX
  8
PLAN_1
 62
     5
  6
CONTINUOUS
 10
-1.297366
 20
1.790197
  0
VERTEX
  8
PLAN_1
 62
     5
  6
CONTINUOUS
 10
-1.288850
 20
1.790197
  0
SEQEND
  8
0
  0
POLYLINE
  8
PLAN_1
 62
     5
  6
CONTINUOUS
 66
     1
 40
0.003000
 41
0.003000
  0
VERTEX
  8
PLAN_1
 62
     5
  6
CONTINUOUS
 10
-1.280760
 20
1.790197
  0
VERTEX
  8
PLAN_1
 62
     5
  6
CONTINUOUS
 10
-1.272240
 20
1.790197
  0
SEQEND
  8
0
  0
POLYLINE
  8
PLAN_1
 62
     5
  6
CONTINUOUS
 66
     1
 40
0.003000
 41
0.003000
  0
VERTEX
  8
PLAN_1
 62
     5
  6
CONTINUOUS
 10
-1.264150
 20
1.790197
  0
VERTEX
  8
PLAN_1
 62
     5
  6
CONTINUOUS
 10
-1.255634
 20
1.790197
  0
SEQEND
  8
0
  0
POLYLINE
  8
PLAN_1
 62
     5
  6
CONTINUOUS
 66
     1
 40
0.003000
 41
0.003000
  0
VERTEX
  8
PLAN_1
 62
     5
  6
CONTINUOUS
 10
-1.247114
 20
1.790197
  0
VERTEX
  8
PLAN_1
 62
     5
  6
CONTINUOUS
 10
-1.239024
 20
1.790197
  0
SEQEND
  8
0
  0
POLYLINE
  8
PLAN_1
 62
     5
  6
CONTINUOUS
 66
     1
 40
0.003000
 41
0.003000
  0
VERTEX
  8
PLAN_1
 62
     5
  6
CONTINUOUS
 10
-1.230508
 20
1.790197
  0
VERTEX
  8
PLAN_1
 62
     5
  6
CONTINUOUS
 10
-1.222417
 20
1.790197
  0
SEQEND
  8
0
  0
POLYLINE
  8
PLAN_1
 62
     5
  6
CONTINUOUS
 66
     1
 40
0.003000
 41
0.003000
  0
VERTEX
  8
PLAN_1
 62
     5
  6
CONTINUOUS
 10
-1.213902
 20
1.790197
  0
VERTEX
  8
PLAN_1
 62
     5
  6
CONTINUOUS
 10
-1.205811
 20
1.790197
  0
SEQEND
  8
0
  0
POLYLINE
  8
PLAN_1
 62
     5
  6
CONTINUOUS
 66
     1
 40
0.003000
 41
0.003000
  0
VERTEX
  8
PLAN_1
 62
     5
  6
CONTINUOUS
 10
-1.197291
 20
1.790197
  0
VERTEX
  8
PLAN_1
 62
     5
  6
CONTINUOUS
 10
-1.189201
 20
1.790197
  0
SEQEND
  8
0
  0
POLYLINE
  8
PLAN_1
 62
     5
  6
CONTINUOUS
 66
     1
 40
0.003000
 41
0.003000
  0
VERTEX
  8
PLAN_1
 62
     5
  6
CONTINUOUS
 10
-1.180685
 20
1.790197
  0
VERTEX
  8
PLAN_1
 62
     5
  6
CONTINUOUS
 10
-1.172169
 20
1.790197
  0
SEQEND
  8
0
  0
POLYLINE
  8
PLAN_1
 62
     5
  6
CONTINUOUS
 66
     1
 40
0.003000
 41
0.003000
  0
VERTEX
  8
PLAN_1
 62
     5
  6
CONTINUOUS
 10
-1.164075
 20
1.790197
  0
VERTEX
  8
PLAN_1
 62
     5
  6
CONTINUOUS
 10
-1.155559
 20
1.790197
  0
SEQEND
  8
0
  0
POLYLINE
  8
PLAN_1
 62
     5
  6
CONTINUOUS
 66
     1
 40
0.003000
 41
0.003000
  0
VERTEX
  8
PLAN_1
 62
     5
  6
CONTINUOUS
 10
-1.147469
 20
1.790197
  0
VERTEX
  8
PLAN_1
 62
     5
  6
CONTINUOUS
 10
-1.138953
 20
1.790197
  0
SEQEND
  8
0
  0
POLYLINE
  8
PLAN_1
 62
     5
  6
CONTINUOUS
 66
     1
 40
0.003000
 41
0.003000
  0
VERTEX
  8
PLAN_1
 62
     5
  6
CONTINUOUS
 10
-1.130862
 20
1.790197
  0
VERTEX
  8
PLAN_1
 62
     5
  6
CONTINUOUS
 10
-1.122343
 20
1.790197
  0
SEQEND
  8
0
  0
POLYLINE
  8
PLAN_1
 62
     5
  6
CONTINUOUS
 66
     1
 40
0.003000
 41
0.003000
  0
VERTEX
  8
PLAN_1
 62
     5
  6
CONTINUOUS
 10
-1.114252
 20
1.790197
  0
VERTEX
  8
PLAN_1
 62
     5
  6
CONTINUOUS
 10
-1.105736
 20
1.790197
  0
SEQEND
  8
0
  0
POLYLINE
  8
PLAN_1
 62
     5
  6
CONTINUOUS
 66
     1
 40
0.003000
 41
0.003000
  0
VERTEX
  8
PLAN_1
 62
     5
  6
CONTINUOUS
 10
-1.097220
 20
1.790197
  0
VERTEX
  8
PLAN_1
 62
     5
  6
CONTINUOUS
 10
-1.089126
 20
1.790197
  0
SEQEND
  8
0
  0
POLYLINE
  8
PLAN_1
 62
     5
  6
CONTINUOUS
 66
     1
 40
0.003000
 41
0.003000
  0
VERTEX
  8
PLAN_1
 62
     5
  6
CONTINUOUS
 10
-1.080610
 20
1.790197
  0
VERTEX
  8
PLAN_1
 62
     5
  6
CONTINUOUS
 10
-1.072520
 20
1.790197
  0
SEQEND
  8
0
  0
POLYLINE
  8
PLAN_1
 62
     5
  6
CONTINUOUS
 66
     1
 40
0.003000
 41
0.003000
  0
VERTEX
  8
PLAN_1
 62
     5
  6
CONTINUOUS
 10
-1.064004
 20
1.790197
  0
VERTEX
  8
PLAN_1
 62
     5
  6
CONTINUOUS
 10
-1.055913
 20
1.790197
  0
SEQEND
  8
0
  0
POLYLINE
  8
PLAN_1
 62
     5
  6
CONTINUOUS
 66
     1
 40
0.003000
 41
0.003000
  0
VERTEX
  8
PLAN_1
 62
     5
  6
CONTINUOUS
 10
-1.047394
 20
1.790197
  0
VERTEX
  8
PLAN_1
 62
     5
  6
CONTINUOUS
 10
-1.039303
 20
1.790197
  0
SEQEND
  8
0
  0
POLYLINE
  8
PLAN_1
 62
     5
  6
CONTINUOUS
 66
     1
 40
0.003000
 41
0.003000
  0
VERTEX
  8
PLAN_1
 62
     5
  6
CONTINUOUS
 10
-1.030787
 20
1.790197
  0
VERTEX
  8
PLAN_1
 62
     5
  6
CONTINUOUS
 10
-1.022272
 20
1.790197
  0
SEQEND
  8
0
  0
POLYLINE
  8
PLAN_1
 62
     5
  6
CONTINUOUS
 66
     1
 40
0.003000
 41
0.003000
  0
VERTEX
  8
PLAN_1
 62
     5
  6
CONTINUOUS
 10
-1.014177
 20
1.790197
  0
VERTEX
  8
PLAN_1
 62
     5
  6
CONTINUOUS
 10
-1.005661
 20
1.790197
  0
SEQEND
  8
0
  0
POLYLINE
  8
PLAN_1
 62
     5
  6
CONTINUOUS
 66
     1
 40
0.003000
 41
0.003000
  0
VERTEX
  8
PLAN_1
 62
     5
  6
CONTINUOUS
 10
-0.997571
 20
1.790197
  0
VERTEX
  8
PLAN_1
 62
     5
  6
CONTINUOUS
 10
-0.989055
 20
1.790197
  0
SEQEND
  8
0
  0
POLYLINE
  8
PLAN_1
 62
     5
  6
CONTINUOUS
 66
     1
 40
0.003000
 41
0.003000
  0
VERTEX
  8
PLAN_1
 62
     5
  6
CONTINUOUS
 10
-0.980965
 20
1.790197
  0
VERTEX
  8
PLAN_1
 62
     5
  6
CONTINUOUS
 10
-0.972445
 20
1.790197
  0
SEQEND
  8
0
  0
POLYLINE
  8
PLAN_1
 62
     5
  6
CONTINUOUS
 66
     1
 40
0.003000
 41
0.003000
  0
VERTEX
  8
PLAN_1
 62
     5
  6
CONTINUOUS
 10
-0.964354
 20
1.790197
  0
VERTEX
  8
PLAN_1
 62
     5
  6
CONTINUOUS
 10
-0.955839
 20
1.790197
  0
SEQEND
  8
0
  0
POLYLINE
  8
PLAN_1
 62
     5
  6
CONTINUOUS
 66
     1
 40
0.003000
 41
0.003000
  0
VERTEX
  8
PLAN_1
 62
     5
  6
CONTINUOUS
 10
-0.947323
 20
1.790197
  0
VERTEX
  8
PLAN_1
 62
     5
  6
CONTINUOUS
 10
-0.939228
 20
1.790197
  0
SEQEND
  8
0
  0
POLYLINE
  8
PLAN_1
 62
     5
  6
CONTINUOUS
 66
     1
 40
0.003000
 41
0.003000
  0
VERTEX
  8
PLAN_1
 62
     5
  6
CONTINUOUS
 10
-0.930713
 20
1.790197
  0
VERTEX
  8
PLAN_1
 62
     5
  6
CONTINUOUS
 10
-0.922622
 20
1.790197
  0
SEQEND
  8
0
  0
POLYLINE
  8
PLAN_1
 62
     5
  6
CONTINUOUS
 66
     1
 40
0.003000
 41
0.003000
  0
VERTEX
  8
PLAN_1
 62
     5
  6
CONTINUOUS
 10
-0.914106
 20
1.790197
  0
VERTEX
  8
PLAN_1
 62
     5
  6
CONTINUOUS
 10
-0.906016
 20
1.790197
  0
SEQEND
  8
0
  0
POLYLINE
  8
PLAN_1
 62
     5
  6
CONTINUOUS
 66
     1
 40
0.003000
 41
0.003000
  0
VERTEX
  8
PLAN_1
 62
     5
  6
CONTINUOUS
 10
-0.897496
 20
1.790197
  0
VERTEX
  8
PLAN_1
 62
     5
  6
CONTINUOUS
 10
-0.889406
 20
1.790197
  0
SEQEND
  8
0
  0
POLYLINE
  8
PLAN_1
 62
     5
  6
CONTINUOUS
 66
     1
 40
0.003000
 41
0.003000
  0
VERTEX
  8
PLAN_1
 62
     5
  6
CONTINUOUS
 10
-0.880890
 20
1.790197
  0
VERTEX
  8
PLAN_1
 62
     5
  6
CONTINUOUS
 10
-0.872374
 20
1.790197
  0
SEQEND
  8
0
  0
POLYLINE
  8
PLAN_1
 62
     5
  6
CONTINUOUS
 66
     1
 40
0.003000
 41
0.003000
  0
VERTEX
  8
PLAN_1
 62
     5
  6
CONTINUOUS
 10
-0.864280
 20
1.790197
  0
VERTEX
  8
PLAN_1
 62
     5
  6
CONTINUOUS
 10
-0.855764
 20
1.790197
  0
SEQEND
  8
0
  0
POLYLINE
  8
PLAN_1
 62
     5
  6
CONTINUOUS
 66
     1
 40
0.003000
 41
0.003000
  0
VERTEX
  8
PLAN_1
 62
     5
  6
CONTINUOUS
 10
-0.847673
 20
1.790197
  0
VERTEX
  8
PLAN_1
 62
     5
  6
CONTINUOUS
 10
-0.839157
 20
1.790197
  0
SEQEND
  8
0
  0
POLYLINE
  8
PLAN_1
 62
     5
  6
CONTINUOUS
 66
     1
 40
0.003000
 41
0.003000
  0
VERTEX
  8
PLAN_1
 62
     5
  6
CONTINUOUS
 10
-0.831067
 20
1.790197
  0
VERTEX
  8
PLAN_1
 62
     5
  6
CONTINUOUS
 10
-0.822547
 20
1.790197
  0
SEQEND
  8
0
  0
POLYLINE
  8
PLAN_1
 62
     5
  6
CONTINUOUS
 66
     1
 40
0.003000
 41
0.003000
  0
VERTEX
  8
PLAN_1
 62
     5
  6
CONTINUOUS
 10
-0.814457
 20
1.790197
  0
VERTEX
  8
PLAN_1
 62
     5
  6
CONTINUOUS
 10
-0.805941
 20
1.790197
  0
SEQEND
  8
0
  0
POLYLINE
  8
PLAN_1
 62
     5
  6
CONTINUOUS
 66
     1
 40
0.003000
 41
0.003000
  0
VERTEX
  8
PLAN_1
 62
     5
  6
CONTINUOUS
 10
-0.797425
 20
1.790197
  0
VERTEX
  8
PLAN_1
 62
     5
  6
CONTINUOUS
 10
-0.789331
 20
1.790197
  0
SEQEND
  8
0
  0
POLYLINE
  8
PLAN_1
 62
     5
  6
CONTINUOUS
 66
     1
 40
0.003000
 41
0.003000
  0
VERTEX
  8
PLAN_1
 62
     5
  6
CONTINUOUS
 10
-0.780815
 20
1.790197
  0
VERTEX
  8
PLAN_1
 62
     5
  6
CONTINUOUS
 10
-0.772724
 20
1.790197
  0
SEQEND
  8
0
  0
POLYLINE
  8
PLAN_1
 62
     5
  6
CONTINUOUS
 66
     1
 40
0.003000
 41
0.003000
  0
VERTEX
  8
PLAN_1
 62
     5
  6
CONTINUOUS
 10
-0.764209
 20
1.790197
  0
VERTEX
  8
PLAN_1
 62
     5
  6
CONTINUOUS
 10
-0.756118
 20
1.790197
  0
SEQEND
  8
0
  0
POLYLINE
  8
PLAN_1
 62
     5
  6
CONTINUOUS
 66
     1
 40
0.003000
 41
0.003000
  0
VERTEX
  8
PLAN_1
 62
     5
  6
CONTINUOUS
 10
-0.747598
 20
1.790197
  0
VERTEX
  8
PLAN_1
 62
     5
  6
CONTINUOUS
 10
-0.739508
 20
1.790197
  0
SEQEND
  8
0
  0
POLYLINE
  8
PLAN_1
 62
     5
  6
CONTINUOUS
 66
     1
 40
0.003000
 41
0.003000
  0
VERTEX
  8
PLAN_1
 62
     5
  6
CONTINUOUS
 10
-0.730992
 20
1.790197
  0
VERTEX
  8
PLAN_1
 62
     5
  6
CONTINUOUS
 10
-0.722476
 20
1.790197
  0
SEQEND
  8
0
  0
POLYLINE
  8
PLAN_1
 62
     5
  6
CONTINUOUS
 66
     1
 40
0.003000
 41
0.003000
  0
VERTEX
  8
PLAN_1
 62
     5
  6
CONTINUOUS
 10
-0.714386
 20
1.790197
  0
VERTEX
  8
PLAN_1
 62
     5
  6
CONTINUOUS
 10
-0.705866
 20
1.790197
  0
SEQEND
  8
0
  0
POLYLINE
  8
PLAN_1
 62
     5
  6
CONTINUOUS
 66
     1
 40
0.003000
 41
0.003000
  0
VERTEX
  8
PLAN_1
 62
     5
  6
CONTINUOUS
 10
-0.697776
 20
1.790197
  0
VERTEX
  8
PLAN_1
 62
     5
  6
CONTINUOUS
 10
-0.689260
 20
1.790197
  0
SEQEND
  8
0
  0
POLYLINE
  8
PLAN_1
 62
     5
  6
CONTINUOUS
 66
     1
 40
0.003000
 41
0.003000
  0
VERTEX
  8
PLAN_1
 62
     5
  6
CONTINUOUS
 10
-0.681169
 20
1.790197
  0
VERTEX
  8
PLAN_1
 62
     5
  6
CONTINUOUS
 10
-0.672650
 20
1.790197
  0
SEQEND
  8
0
  0
POLYLINE
  8
PLAN_1
 62
     5
  6
CONTINUOUS
 66
     1
 40
0.003000
 41
0.003000
  0
VERTEX
  8
PLAN_1
 62
     5
  6
CONTINUOUS
 10
-0.664134
 20
1.790197
  0
VERTEX
  8
PLAN_1
 62
     5
  6
CONTINUOUS
 10
-0.656043
 20
1.790197
  0
SEQEND
  8
0
  0
POLYLINE
  8
PLAN_1
 62
     5
  6
CONTINUOUS
 66
     1
 40
0.003000
 41
0.003000
  0
VERTEX
  8
PLAN_1
 62
     5
  6
CONTINUOUS
 10
-0.647528
 20
1.790197
  0
VERTEX
  8
PLAN_1
 62
     5
  6
CONTINUOUS
 10
-0.639437
 20
1.790197
  0
SEQEND
  8
0
  0
POLYLINE
  8
PLAN_1
 62
     5
  6
CONTINUOUS
 66
     1
 40
0.003000
 41
0.003000
  0
VERTEX
  8
PLAN_1
 62
     5
  6
CONTINUOUS
 10
-0.630917
 20
1.790197
  0
VERTEX
  8
PLAN_1
 62
     5
  6
CONTINUOUS
 10
-0.622827
 20
1.790197
  0
SEQEND
  8
0
  0
POLYLINE
  8
PLAN_1
 62
     5
  6
CONTINUOUS
 66
     1
 40
0.003000
 41
0.003000
  0
VERTEX
  8
PLAN_1
 62
     5
  6
CONTINUOUS
 10
-0.614311
 20
1.790197
  0
VERTEX
  8
PLAN_1
 62
     5
  6
CONTINUOUS
 10
-0.606220
 20
1.790197
  0
SEQEND
  8
0
  0
POLYLINE
  8
PLAN_1
 62
     5
  6
CONTINUOUS
 66
     1
 40
0.003000
 41
0.003000
  0
VERTEX
  8
PLAN_1
 62
     5
  6
CONTINUOUS
 10
-0.597701
 20
1.790197
  0
VERTEX
  8
PLAN_1
 62
     5
  6
CONTINUOUS
 10
-0.589185
 20
1.790197
  0
SEQEND
  8
0
  0
POLYLINE
  8
PLAN_1
 62
     5
  6
CONTINUOUS
 66
     1
 40
0.003000
 41
0.003000
  0
VERTEX
  8
PLAN_1
 62
     5
  6
CONTINUOUS
 10
-0.581094
 20
1.790197
  0
VERTEX
  8
PLAN_1
 62
     5
  6
CONTINUOUS
 10
-0.572579
 20
1.790197
  0
SEQEND
  8
0
  0
POLYLINE
  8
PLAN_1
 62
     5
  6
CONTINUOUS
 66
     1
 40
0.003000
 41
0.003000
  0
VERTEX
  8
PLAN_1
 62
     5
  6
CONTINUOUS
 10
-0.564488
 20
1.790197
  0
VERTEX
  8
PLAN_1
 62
     5
  6
CONTINUOUS
 10
-0.555969
 20
1.790197
  0
SEQEND
  8
0
  0
POLYLINE
  8
PLAN_1
 62
     5
  6
CONTINUOUS
 66
     1
 40
0.003000
 41
0.003000
  0
VERTEX
  8
PLAN_1
 62
     5
  6
CONTINUOUS
 10
-0.547878
 20
1.790197
  0
VERTEX
  8
PLAN_1
 62
     5
  6
CONTINUOUS
 10
-0.539362
 20
1.790197
  0
SEQEND
  8
0
  0
POLYLINE
  8
PLAN_1
 62
     5
  6
CONTINUOUS
 66
     1
 40
0.003000
 41
0.003000
  0
VERTEX
  8
PLAN_1
 62
     5
  6
CONTINUOUS
 10
-0.531272
 20
1.790197
  0
VERTEX
  8
PLAN_1
 62
     5
  6
CONTINUOUS
 10
-0.522752
 20
1.790197
  0
SEQEND
  8
0
  0
POLYLINE
  8
PLAN_1
 62
     5
  6
CONTINUOUS
 66
     1
 40
0.003000
 41
0.003000
  0
VERTEX
  8
PLAN_1
 62
     5
  6
CONTINUOUS
 10
-0.514236
 20
1.790197
  0
VERTEX
  8
PLAN_1
 62
     5
  6
CONTINUOUS
 10
-0.506146
 20
1.790197
  0
SEQEND
  8
0
  0
POLYLINE
  8
PLAN_1
 62
     5
  6
CONTINUOUS
 66
     1
 40
0.003000
 41
0.003000
  0
VERTEX
  8
PLAN_1
 62
     5
  6
CONTINUOUS
 10
-0.497630
 20
1.790197
  0
VERTEX
  8
PLAN_1
 62
     5
  6
CONTINUOUS
 10
-0.489539
 20
1.790197
  0
SEQEND
  8
0
  0
POLYLINE
  8
PLAN_1
 62
     5
  6
CONTINUOUS
 66
     1
 40
0.003000
 41
0.003000
  0
VERTEX
  8
PLAN_1
 62
     5
  6
CONTINUOUS
 10
-0.481020
 20
1.790197
  0
VERTEX
  8
PLAN_1
 62
     5
  6
CONTINUOUS
 10
-0.472929
 20
1.790197
  0
SEQEND
  8
0
  0
POLYLINE
  8
PLAN_1
 62
     5
  6
CONTINUOUS
 66
     1
 40
0.003000
 41
0.003000
  0
VERTEX
  8
PLAN_1
 62
     5
  6
CONTINUOUS
 10
-0.466543
 20
1.787642
  0
VERTEX
  8
PLAN_1
 62
     5
  6
CONTINUOUS
 10
-0.466543
 20
1.779547
  0
SEQEND
  8
0
  0
POLYLINE
  8
PLAN_1
 62
     5
  6
CONTINUOUS
 66
     1
 40
0.003000
 41
0.003000
  0
VERTEX
  8
PLAN_1
 62
     5
  6
CONTINUOUS
 10
-0.466543
 20
1.771031
  0
VERTEX
  8
PLAN_1
 62
     5
  6
CONTINUOUS
 10
-0.466543
 20
1.762941
  0
SEQEND
  8
0
  0
POLYLINE
  8
PLAN_1
 62
     5
  6
CONTINUOUS
 66
     1
 40
0.003000
 41
0.003000
  0
VERTEX
  8
PLAN_1
 62
     5
  6
CONTINUOUS
 10
-0.466543
 20
1.754425
  0
VERTEX
  8
PLAN_1
 62
     5
  6
CONTINUOUS
 10
-0.466543
 20
1.746335
  0
SEQEND
  8
0
  0
POLYLINE
  8
PLAN_1
 62
     5
  6
CONTINUOUS
 66
     1
 40
0.003000
 41
0.003000
  0
VERTEX
  8
PLAN_1
 62
     5
  6
CONTINUOUS
 10
-0.466543
 20
1.737815
  0
VERTEX
  8
PLAN_1
 62
     5
  6
CONTINUOUS
 10
-0.466543
 20
1.729724
  0
SEQEND
  8
0
  0
POLYLINE
  8
PLAN_1
 62
     5
  6
CONTINUOUS
 66
     1
 40
0.003000
 41
0.003000
  0
VERTEX
  8
PLAN_1
 62
     5
  6
CONTINUOUS
 10
-0.466543
 20
1.721209
  0
VERTEX
  8
PLAN_1
 62
     5
  6
CONTINUOUS
 10
-0.466543
 20
1.712693
  0
SEQEND
  8
0
  0
POLYLINE
  8
PLAN_1
 62
     5
  6
CONTINUOUS
 66
     1
 40
0.003000
 41
0.003000
  0
VERTEX
  8
PLAN_1
 62
     5
  6
CONTINUOUS
 10
-0.466543
 20
1.704598
  0
VERTEX
  8
PLAN_1
 62
     5
  6
CONTINUOUS
 10
-0.466543
 20
1.696083
  0
SEQEND
  8
0
  0
POLYLINE
  8
PLAN_1
 62
     5
  6
CONTINUOUS
 66
     1
 40
0.003000
 41
0.003000
  0
VERTEX
  8
PLAN_1
 62
     5
  6
CONTINUOUS
 10
-0.466543
 20
1.687992
  0
VERTEX
  8
PLAN_1
 62
     5
  6
CONTINUOUS
 10
-0.466543
 20
1.679476
  0
SEQEND
  8
0
  0
POLYLINE
  8
PLAN_1
 62
     5
  6
CONTINUOUS
 66
     1
 40
0.003000
 41
0.003000
  0
VERTEX
  8
PLAN_1
 62
     5
  6
CONTINUOUS
 10
-0.466543
 20
1.671386
  0
VERTEX
  8
PLAN_1
 62
     5
  6
CONTINUOUS
 10
-0.466543
 20
1.662866
  0
SEQEND
  8
0
  0
POLYLINE
  8
PLAN_1
 62
     5
  6
CONTINUOUS
 66
     1
 40
0.003000
 41
0.003000
  0
VERTEX
  8
PLAN_1
 62
     5
  6
CONTINUOUS
 10
-0.466543
 20
1.654776
  0
VERTEX
  8
PLAN_1
 62
     5
  6
CONTINUOUS
 10
-0.466543
 20
1.646260
  0
SEQEND
  8
0
  0
POLYLINE
  8
PLAN_1
 62
     5
  6
CONTINUOUS
 66
     1
 40
0.003000
 41
0.003000
  0
VERTEX
  8
PLAN_1
 62
     5
  6
CONTINUOUS
 10
-0.458878
 20
1.645835
  0
VERTEX
  8
PLAN_1
 62
     5
  6
CONTINUOUS
 10
-0.450358
 20
1.645835
  0
SEQEND
  8
0
  0
POLYLINE
  8
PLAN_1
 62
     5
  6
CONTINUOUS
 66
     1
 40
0.003000
 41
0.003000
  0
VERTEX
  8
PLAN_1
 62
     5
  6
CONTINUOUS
 10
-0.442268
 20
1.645835
  0
VERTEX
  8
PLAN_1
 62
     5
  6
CONTINUOUS
 10
-0.433752
 20
1.645835
  0
SEQEND
  8
0
  0
POLYLINE
  8
PLAN_1
 62
     5
  6
CONTINUOUS
 66
     1
 40
0.003000
 41
0.003000
  0
VERTEX
  8
PLAN_1
 62
     5
  6
CONTINUOUS
 10
-0.426937
 20
1.644130
  0
VERTEX
  8
PLAN_1
 62
     5
  6
CONTINUOUS
 10
-0.426937
 20
1.636039
  0
SEQEND
  8
0
  0
POLYLINE
  8
PLAN_1
 62
     5
  6
CONTINUOUS
 66
     1
 40
0.003000
 41
0.003000
  0
VERTEX
  8
PLAN_1
 62
     5
  6
CONTINUOUS
 10
-0.426937
 20
1.627524
  0
VERTEX
  8
PLAN_1
 62
     5
  6
CONTINUOUS
 10
-0.426937
 20
1.619433
  0
SEQEND
  8
0
  0
POLYLINE
  8
PLAN_1
 62
     5
  6
CONTINUOUS
 66
     1
 40
0.003000
 41
0.003000
  0
VERTEX
  8
PLAN_1
 62
     5
  6
CONTINUOUS
 10
-0.426937
 20
1.610913
  0
VERTEX
  8
PLAN_1
 62
     5
  6
CONTINUOUS
 10
-0.426937
 20
1.602823
  0
SEQEND
  8
0
  0
POLYLINE
  8
PLAN_1
 62
     5
  6
CONTINUOUS
 66
     1
 40
0.003000
 41
0.003000
  0
VERTEX
  8
PLAN_1
 62
     5
  6
CONTINUOUS
 10
-0.426937
 20
1.594307
  0
VERTEX
  8
PLAN_1
 62
     5
  6
CONTINUOUS
 10
-0.426937
 20
1.585791
  0
SEQEND
  8
0
  0
POLYLINE
  8
PLAN_1
 62
     5
  6
CONTINUOUS
 66
     1
 40
0.003000
 41
0.003000
  0
VERTEX
  8
PLAN_1
 62
     5
  6
CONTINUOUS
 10
-0.426937
 20
1.577697
  0
VERTEX
  8
PLAN_1
 62
     5
  6
CONTINUOUS
 10
-0.426937
 20
1.569181
  0
SEQEND
  8
0
  0
POLYLINE
  8
PLAN_1
 62
     5
  6
CONTINUOUS
 66
     1
 40
0.003000
 41
0.003000
  0
VERTEX
  8
PLAN_1
 62
     5
  6
CONTINUOUS
 10
-0.426937
 20
1.561091
  0
VERTEX
  8
PLAN_1
 62
     5
  6
CONTINUOUS
 10
-0.426937
 20
1.552575
  0
SEQEND
  8
0
  0
POLYLINE
  8
PLAN_1
 62
     5
  6
CONTINUOUS
 66
     1
 40
0.003000
 41
0.003000
  0
VERTEX
  8
PLAN_1
 62
     5
  6
CONTINUOUS
 10
-0.426937
 20
1.544484
  0
VERTEX
  8
PLAN_1
 62
     5
  6
CONTINUOUS
 10
-0.426937
 20
1.535965
  0
SEQEND
  8
0
  0
POLYLINE
  8
PLAN_1
 62
     5
  6
CONTINUOUS
 66
     1
 40
0.003000
 41
0.003000
  0
VERTEX
  8
PLAN_1
 62
     5
  6
CONTINUOUS
 10
-0.426937
 20
1.527874
  0
VERTEX
  8
PLAN_1
 62
     5
  6
CONTINUOUS
 10
-0.426937
 20
1.519358
  0
SEQEND
  8
0
  0
POLYLINE
  8
PLAN_1
 62
     5
  6
CONTINUOUS
 66
     1
 40
0.003000
 41
0.003000
  0
VERTEX
  8
PLAN_1
 62
     5
  6
CONTINUOUS
 10
-0.426937
 20
1.510843
  0
VERTEX
  8
PLAN_1
 62
     5
  6
CONTINUOUS
 10
-0.426937
 20
1.502748
  0
SEQEND
  8
0
  0
POLYLINE
  8
PLAN_1
 62
     5
  6
CONTINUOUS
 66
     1
 40
0.003000
 41
0.003000
  0
VERTEX
  8
PLAN_1
 62
     5
  6
CONTINUOUS
 10
-0.426937
 20
1.494232
  0
VERTEX
  8
PLAN_1
 62
     5
  6
CONTINUOUS
 10
-0.426937
 20
1.486142
  0
SEQEND
  8
0
  0
POLYLINE
  8
PLAN_1
 62
     5
  6
CONTINUOUS
 66
     1
 40
0.003000
 41
0.003000
  0
VERTEX
  8
PLAN_1
 62
     5
  6
CONTINUOUS
 10
-0.426937
 20
1.477626
  0
VERTEX
  8
PLAN_1
 62
     5
  6
CONTINUOUS
 10
-0.426937
 20
1.469535
  0
SEQEND
  8
0
  0
POLYLINE
  8
PLAN_1
 62
     5
  6
CONTINUOUS
 66
     1
 40
0.003000
 41
0.003000
  0
VERTEX
  8
PLAN_1
 62
     5
  6
CONTINUOUS
 10
-0.426937
 20
1.461016
  0
VERTEX
  8
PLAN_1
 62
     5
  6
CONTINUOUS
 10
-0.426937
 20
1.452925
  0
SEQEND
  8
0
  0
POLYLINE
  8
PLAN_1
 62
     5
  6
CONTINUOUS
 66
     1
 40
0.003000
 41
0.003000
  0
VERTEX
  8
PLAN_1
 62
     5
  6
CONTINUOUS
 10
-0.426937
 20
1.444409
  0
VERTEX
  8
PLAN_1
 62
     5
  6
CONTINUOUS
 10
-0.426937
 20
1.435894
  0
SEQEND
  8
0
  0
POLYLINE
  8
PLAN_1
 62
     5
  6
CONTINUOUS
 66
     1
 40
0.003000
 41
0.003000
  0
VERTEX
  8
PLAN_1
 62
     5
  6
CONTINUOUS
 10
-0.426937
 20
1.427799
  0
VERTEX
  8
PLAN_1
 62
     5
  6
CONTINUOUS
 10
-0.426937
 20
1.419283
  0
SEQEND
  8
0
  0
POLYLINE
  8
PLAN_1
 62
     5
  6
CONTINUOUS
 66
     1
 40
0.003000
 41
0.003000
  0
VERTEX
  8
PLAN_1
 62
     5
  6
CONTINUOUS
 10
-0.426937
 20
1.411193
  0
VERTEX
  8
PLAN_1
 62
     5
  6
CONTINUOUS
 10
-0.426937
 20
1.402677
  0
SEQEND
  8
0
  0
POLYLINE
  8
PLAN_1
 62
     5
  6
CONTINUOUS
 66
     1
 40
0.003000
 41
0.003000
  0
VERTEX
  8
PLAN_1
 62
     5
  6
CONTINUOUS
 10
-0.426937
 20
1.394587
  0
VERTEX
  8
PLAN_1
 62
     5
  6
CONTINUOUS
 10
-0.426937
 20
1.386067
  0
SEQEND
  8
0
  0
POLYLINE
  8
PLAN_1
 62
     5
  6
CONTINUOUS
 66
     1
 40
0.003000
 41
0.003000
  0
VERTEX
  8
PLAN_1
 62
     5
  6
CONTINUOUS
 10
-0.426937
 20
1.377976
  0
VERTEX
  8
PLAN_1
 62
     5
  6
CONTINUOUS
 10
-0.426937
 20
1.369461
  0
SEQEND
  8
0
  0
POLYLINE
  8
PLAN_1
 62
     5
  6
CONTINUOUS
 66
     1
 40
0.003000
 41
0.003000
  0
VERTEX
  8
PLAN_1
 62
     5
  6
CONTINUOUS
 10
-0.426937
 20
1.360945
  0
VERTEX
  8
PLAN_1
 62
     5
  6
CONTINUOUS
 10
-0.426937
 20
1.357535
  0
VERTEX
  8
PLAN_1
 62
     5
  6
CONTINUOUS
 10
-0.431622
 20
1.357535
  0
SEQEND
  8
0
  0
POLYLINE
  8
PLAN_1
 62
     5
  6
CONTINUOUS
 66
     1
 40
0.003000
 41
0.003000
  0
VERTEX
  8
PLAN_1
 62
     5
  6
CONTINUOUS
 10
-0.440138
 20
1.357535
  0
VERTEX
  8
PLAN_1
 62
     5
  6
CONTINUOUS
 10
-0.448232
 20
1.357535
  0
SEQEND
  8
0
  0
POLYLINE
  8
PLAN_1
 62
     5
  6
CONTINUOUS
 66
     1
 40
0.003000
 41
0.003000
  0
VERTEX
  8
PLAN_1
 62
     5
  6
CONTINUOUS
 10
-0.456748
 20
1.357535
  0
VERTEX
  8
PLAN_1
 62
     5
  6
CONTINUOUS
 10
-0.464839
 20
1.357535
  0
SEQEND
  8
0
  0
POLYLINE
  8
PLAN_1
 62
     5
  6
CONTINUOUS
 66
     1
 40
0.003000
 41
0.003000
  0
VERTEX
  8
PLAN_1
 62
     5
  6
CONTINUOUS
 10
-0.466543
 20
1.350724
  0
VERTEX
  8
PLAN_1
 62
     5
  6
CONTINUOUS
 10
-0.466543
 20
1.342634
  0
SEQEND
  8
0
  0
POLYLINE
  8
PLAN_1
 62
     5
  6
CONTINUOUS
 66
     1
 40
0.003000
 41
0.003000
  0
VERTEX
  8
PLAN_1
 62
     5
  6
CONTINUOUS
 10
-0.466543
 20
1.334114
  0
VERTEX
  8
PLAN_1
 62
     5
  6
CONTINUOUS
 10
-0.466543
 20
1.325598
  0
SEQEND
  8
0
  0
POLYLINE
  8
PLAN_1
 62
     5
  6
CONTINUOUS
 66
     1
 40
0.003000
 41
0.003000
  0
VERTEX
  8
PLAN_1
 62
     5
  6
CONTINUOUS
 10
-0.466543
 20
1.317508
  0
VERTEX
  8
PLAN_1
 62
     5
  6
CONTINUOUS
 10
-0.466543
 20
1.308992
  0
SEQEND
  8
0
  0
POLYLINE
  8
PLAN_1
 62
     5
  6
CONTINUOUS
 66
     1
 40
0.003000
 41
0.003000
  0
VERTEX
  8
PLAN_1
 62
     5
  6
CONTINUOUS
 10
-0.466543
 20
1.300898
  0
VERTEX
  8
PLAN_1
 62
     5
  6
CONTINUOUS
 10
-0.466543
 20
1.292382
  0
SEQEND
  8
0
  0
POLYLINE
  8
PLAN_1
 62
     5
  6
CONTINUOUS
 66
     1
 40
0.003000
 41
0.003000
  0
VERTEX
  8
PLAN_1
 62
     5
  6
CONTINUOUS
 10
-0.466543
 20
1.284291
  0
VERTEX
  8
PLAN_1
 62
     5
  6
CONTINUOUS
 10
-0.466543
 20
1.275776
  0
SEQEND
  8
0
  0
POLYLINE
  8
PLAN_1
 62
     5
  6
CONTINUOUS
 66
     1
 40
0.003000
 41
0.003000
  0
VERTEX
  8
PLAN_1
 62
     5
  6
CONTINUOUS
 10
-0.466543
 20
1.267685
  0
VERTEX
  8
PLAN_1
 62
     5
  6
CONTINUOUS
 10
-0.466543
 20
1.259165
  0
SEQEND
  8
0
  0
POLYLINE
  8
PLAN_1
 62
     5
  6
CONTINUOUS
 66
     1
 40
0.003000
 41
0.003000
  0
VERTEX
  8
PLAN_1
 62
     5
  6
CONTINUOUS
 10
-0.466543
 20
1.250650
  0
VERTEX
  8
PLAN_1
 62
     5
  6
CONTINUOUS
 10
-0.466543
 20
1.242559
  0
SEQEND
  8
0
  0
POLYLINE
  8
PLAN_1
 62
     5
  6
CONTINUOUS
 66
     1
 40
0.003000
 41
0.003000
  0
VERTEX
  8
PLAN_1
 62
     5
  6
CONTINUOUS
 10
-0.466543
 20
1.234043
  0
VERTEX
  8
PLAN_1
 62
     5
  6
CONTINUOUS
 10
-0.466543
 20
1.225949
  0
SEQEND
  8
0
  0
POLYLINE
  8
PLAN_1
 62
     5
  6
CONTINUOUS
 66
     1
 40
0.003000
 41
0.003000
  0
VERTEX
  8
PLAN_1
 62
     5
  6
CONTINUOUS
 10
-0.466543
 20
1.217433
  0
VERTEX
  8
PLAN_1
 62
     5
  6
CONTINUOUS
 10
-0.466543
 20
1.209343
  0
SEQEND
  8
0
  0
POLYLINE
  8
PLAN_1
 62
     5
  6
CONTINUOUS
 66
     1
 40
0.003000
 41
0.003000
  0
VERTEX
  8
PLAN_1
 62
     5
  6
CONTINUOUS
 10
-0.466543
 20
1.200827
  0
VERTEX
  8
PLAN_1
 62
     5
  6
CONTINUOUS
 10
-0.466543
 20
1.192736
  0
SEQEND
  8
0
  0
POLYLINE
  8
PLAN_1
 62
     5
  6
CONTINUOUS
 66
     1
 40
0.003000
 41
0.003000
  0
VERTEX
  8
PLAN_1
 62
     5
  6
CONTINUOUS
 10
-0.466543
 20
1.184217
  0
VERTEX
  8
PLAN_1
 62
     5
  6
CONTINUOUS
 10
-0.466543
 20
1.175701
  0
SEQEND
  8
0
  0
POLYLINE
  8
PLAN_1
 62
     5
  6
CONTINUOUS
 66
     1
 40
0.003000
 41
0.003000
  0
VERTEX
  8
PLAN_1
 62
     5
  6
CONTINUOUS
 10
-0.466543
 20
1.167610
  0
VERTEX
  8
PLAN_1
 62
     5
  6
CONTINUOUS
 10
-0.466543
 20
1.159094
  0
SEQEND
  8
0
  0
POLYLINE
  8
PLAN_1
 62
     5
  6
CONTINUOUS
 66
     1
 40
0.003000
 41
0.003000
  0
VERTEX
  8
PLAN_1
 62
     5
  6
CONTINUOUS
 10
-0.466543
 20
1.151000
  0
VERTEX
  8
PLAN_1
 62
     5
  6
CONTINUOUS
 10
-0.466543
 20
1.142484
  0
SEQEND
  8
0
  0
POLYLINE
  8
PLAN_1
 62
     5
  6
CONTINUOUS
 66
     1
 40
0.003000
 41
0.003000
  0
VERTEX
  8
PLAN_1
 62
     5
  6
CONTINUOUS
 10
-0.466543
 20
1.134394
  0
VERTEX
  8
PLAN_1
 62
     5
  6
CONTINUOUS
 10
-0.466543
 20
1.125878
  0
SEQEND
  8
0
  0
POLYLINE
  8
PLAN_1
 62
     5
  6
CONTINUOUS
 66
     1
 40
0.003000
 41
0.003000
  0
VERTEX
  8
PLAN_1
 62
     5
  6
CONTINUOUS
 10
-0.466543
 20
1.117787
  0
VERTEX
  8
PLAN_1
 62
     5
  6
CONTINUOUS
 10
-0.466543
 20
1.109268
  0
SEQEND
  8
0
  0
POLYLINE
  8
PLAN_1
 62
     5
  6
CONTINUOUS
 66
     1
 40
0.003000
 41
0.003000
  0
VERTEX
  8
PLAN_1
 62
     5
  6
CONTINUOUS
 10
-0.466543
 20
1.100752
  0
VERTEX
  8
PLAN_1
 62
     5
  6
CONTINUOUS
 10
-0.466543
 20
1.092661
  0
SEQEND
  8
0
  0
POLYLINE
  8
PLAN_1
 62
     5
  6
CONTINUOUS
 66
     1
 40
0.003000
 41
0.003000
  0
VERTEX
  8
PLAN_1
 62
     5
  6
CONTINUOUS
 10
-0.466543
 20
1.084146
  0
VERTEX
  8
PLAN_1
 62
     5
  6
CONTINUOUS
 10
-0.466543
 20
1.082016
  0
SEQEND
  8
0
  0
POLYLINE
  8
PLAN_1
 62
     5
  6
CONTINUOUS
 66
     1
 40
0.003000
 41
0.003000
  0
VERTEX
  8
PLAN_1
 62
     5
  6
CONTINUOUS
 10
-0.466543
 20
1.084146
  0
VERTEX
  8
PLAN_1
 62
     5
  6
CONTINUOUS
 10
-0.466543
 20
1.082016
  0
SEQEND
  8
0
  0
POLYLINE
  8
PLAN_1
  6
CONTINUOUS
 66
     1
 40
0.008516
 41
0.008516
  0
VERTEX
  8
PLAN_1
  6
CONTINUOUS
 10
-1.438319
 20
1.790197
  0
VERTEX
  8
PLAN_1
  6
CONTINUOUS
 10
-1.438319
 20
1.966496
  0
VERTEX
  8
PLAN_1
  6
CONTINUOUS
 10
-1.790921
 20
1.966496
  0
SEQEND
  8
0
  0
POLYLINE
  8
PLAN_1
  6
CONTINUOUS
 66
     1
 40
0.008516
 41
0.008516
  0
VERTEX
  8
PLAN_1
  6
CONTINUOUS
 10
-0.464413
 20
1.966496
  0
VERTEX
  8
PLAN_1
  6
CONTINUOUS
 10
-0.797850
 20
1.966496
  0
VERTEX
  8
PLAN_1
  6
CONTINUOUS
 10
-0.797850
 20
1.790197
  0
SEQEND
  8
0
  0
POLYLINE
  8
PLAN_1
  6
CONTINUOUS
 66
     1
 40
0.008516
 41
0.008516
  0
VERTEX
  8
PLAN_1
  6
CONTINUOUS
 10
-1.543929
 20
1.790197
  0
VERTEX
  8
PLAN_1
  6
CONTINUOUS
 10
-1.543929
 20
1.966496
  0
SEQEND
  8
0
  0
POLYLINE
  8
PLAN_1
  6
CONTINUOUS
 66
     1
 40
0.008516
 41
0.008516
  0
VERTEX
  8
PLAN_1
  6
CONTINUOUS
 10
-0.707996
 20
1.790197
  0
VERTEX
  8
PLAN_1
  6
CONTINUOUS
 10
-0.707996
 20
1.966496
  0
SEQEND
  8
0
  0
POLYLINE
  8
PLAN_1
  6
CONTINUOUS
 66
     1
 40
0.008516
 41
0.008516
  0
VERTEX
  8
PLAN_1
  6
CONTINUOUS
 10
-0.752283
 20
2.588654
  0
VERTEX
  8
PLAN_1
  6
CONTINUOUS
 10
-0.752283
 20
2.610799
  0
VERTEX
  8
PLAN_1
  6
CONTINUOUS
 10
-1.458335
 20
2.610799
  0
VERTEX
  8
PLAN_1
  6
CONTINUOUS
 10
-1.458335
 20
2.588654
  0
VERTEX
  8
PLAN_1
  6
CONTINUOUS
 10
-0.752283
 20
2.588654
  0
SEQEND
  8
0
  0
POLYLINE
  8
PLAN_1
  6
CONTINUOUS
 66
     1
 40
0.008516
 41
0.008516
  0
VERTEX
  8
PLAN_1
  6
CONTINUOUS
 10
-0.951154
 20
2.991929
  0
VERTEX
  8
PLAN_1
  6
CONTINUOUS
 10
-0.951579
 20
3.000020
  0
VERTEX
  8
PLAN_1
  6
CONTINUOUS
 10
-0.952004
 20
3.007685
  0
VERTEX
  8
PLAN_1
  6
CONTINUOUS
 10
-0.952858
 20
3.015350
  0
VERTEX
  8
PLAN_1
  6
CONTINUOUS
 10
-0.954134
 20
3.023016
  0
VERTEX
  8
PLAN_1
  6
CONTINUOUS
 10
-0.955839
 20
3.030256
  0
VERTEX
  8
PLAN_1
  6
CONTINUOUS
 10
-0.957969
 20
3.037496
  0
VERTEX
  8
PLAN_1
  6
CONTINUOUS
 10
-0.960524
 20
3.044736
  0
VERTEX
  8
PLAN_1
  6
CONTINUOUS
 10
-0.963079
 20
3.051972
  0
VERTEX
  8
PLAN_1
  6
CONTINUOUS
 10
-0.966484
 20
3.058787
  0
VERTEX
  8
PLAN_1
  6
CONTINUOUS
 10
-0.969465
 20
3.065177
  0
VERTEX
  8
PLAN_1
  6
CONTINUOUS
 10
-0.973299
 20
3.071563
  0
VERTEX
  8
PLAN_1
  6
CONTINUOUS
 10
-0.977130
 20
3.077953
  0
VERTEX
  8
PLAN_1
  6
CONTINUOUS
 10
-0.981390
 20
3.083913
  0
VERTEX
  8
PLAN_1
  6
CONTINUOUS
 10
-0.986075
 20
3.089874
  0
VERTEX
  8
PLAN_1
  6
CONTINUOUS
 10
-0.990756
 20
3.095409
  0
VERTEX
  8
PLAN_1
  6
CONTINUOUS
 10
-0.995866
 20
3.100945
  0
VERTEX
  8
PLAN_1
  6
CONTINUOUS
 10
-1.001402
 20
3.106055
  0
VERTEX
  8
PLAN_1
  6
CONTINUOUS
 10
-1.006941
 20
3.111165
  0
VERTEX
  8
PLAN_1
  6
CONTINUOUS
 10
-1.012476
 20
3.115425
  0
VERTEX
  8
PLAN_1
  6
CONTINUOUS
 10
-1.018437
 20
3.120110
  0
VERTEX
  8
PLAN_1
  6
CONTINUOUS
 10
-1.024827
 20
3.123941
  0
VERTEX
  8
PLAN_1
  6
CONTINUOUS
 10
-1.031213
 20
3.127776
  0
VERTEX
  8
PLAN_1
  6
CONTINUOUS
 10
-1.037598
 20
3.131181
  0
VERTEX
  8
PLAN_1
  6
CONTINUOUS
 10
-1.044413
 20
3.134161
  0
VERTEX
  8
PLAN_1
  6
CONTINUOUS
 10
-1.051654
 20
3.137142
  0
VERTEX
  8
PLAN_1
  6
CONTINUOUS
 10
-1.058469
 20
3.139697
  0
VERTEX
  8
PLAN_1
  6
CONTINUOUS
 10
-1.065705
 20
3.141827
  0
VERTEX
  8
PLAN_1
  6
CONTINUOUS
 10
-1.073370
 20
3.143531
  0
VERTEX
  8
PLAN_1
  6
CONTINUOUS
 10
-1.080610
 20
3.144807
  0
VERTEX
  8
PLAN_1
  6
CONTINUOUS
 10
-1.088276
 20
3.145661
  0
VERTEX
  8
PLAN_1
  6
CONTINUOUS
 10
-1.096366
 20
3.146512
  0
VERTEX
  8
PLAN_1
  6
CONTINUOUS
 10
-1.104031
 20
3.146512
  0
VERTEX
  8
PLAN_1
  6
CONTINUOUS
 10
-1.112122
 20
3.146512
  0
VERTEX
  8
PLAN_1
  6
CONTINUOUS
 10
-1.119787
 20
3.145661
  0
VERTEX
  8
PLAN_1
  6
CONTINUOUS
 10
-1.127453
 20
3.144807
  0
VERTEX
  8
PLAN_1
  6
CONTINUOUS
 10
-1.134693
 20
3.143531
  0
VERTEX
  8
PLAN_1
  6
CONTINUOUS
 10
-1.142358
 20
3.141827
  0
VERTEX
  8
PLAN_1
  6
CONTINUOUS
 10
-1.149598
 20
3.139697
  0
VERTEX
  8
PLAN_1
  6
CONTINUOUS
 10
-1.156839
 20
3.137142
  0
VERTEX
  8
PLAN_1
  6
CONTINUOUS
 10
-1.163650
 20
3.134161
  0
VERTEX
  8
PLAN_1
  6
CONTINUOUS
 10
-1.170465
 20
3.131181
  0
VERTEX
  8
PLAN_1
  6
CONTINUOUS
 10
-1.176850
 20
3.127776
  0
VERTEX
  8
PLAN_1
  6
CONTINUOUS
 10
-1.183240
 20
3.123941
  0
VERTEX
  8
PLAN_1
  6
CONTINUOUS
 10
-1.189626
 20
3.120110
  0
VERTEX
  8
PLAN_1
  6
CONTINUOUS
 10
-1.195591
 20
3.115425
  0
VERTEX
  8
PLAN_1
  6
CONTINUOUS
 10
-1.201551
 20
3.111165
  0
VERTEX
  8
PLAN_1
  6
CONTINUOUS
 10
-1.207087
 20
3.106055
  0
VERTEX
  8
PLAN_1
  6
CONTINUOUS
 10
-1.212197
 20
3.100945
  0
VERTEX
  8
PLAN_1
  6
CONTINUOUS
 10
-1.217307
 20
3.095409
  0
VERTEX
  8
PLAN_1
  6
CONTINUOUS
 10
-1.221992
 20
3.089874
  0
VERTEX
  8
PLAN_1
  6
CONTINUOUS
 10
-1.226677
 20
3.083913
  0
VERTEX
  8
PLAN_1
  6
CONTINUOUS
 10
-1.230933
 20
3.077953
  0
VERTEX
  8
PLAN_1
  6
CONTINUOUS
 10
-1.234768
 20
3.071563
  0
VERTEX
  8
PLAN_1
  6
CONTINUOUS
 10
-1.238598
 20
3.065177
  0
VERTEX
  8
PLAN_1
  6
CONTINUOUS
 10
-1.242008
 20
3.058787
  0
VERTEX
  8
PLAN_1
  6
CONTINUOUS
 10
-1.244988
 20
3.051972
  0
VERTEX
  8
PLAN_1
  6
CONTINUOUS
 10
-1.247543
 20
3.044736
  0
VERTEX
  8
PLAN_1
  6
CONTINUOUS
 10
-1.250098
 20
3.037496
  0
VERTEX
  8
PLAN_1
  6
CONTINUOUS
 10
-1.252224
 20
3.030256
  0
VERTEX
  8
PLAN_1
  6
CONTINUOUS
 10
-1.253929
 20
3.023016
  0
VERTEX
  8
PLAN_1
  6
CONTINUOUS
 10
-1.255209
 20
3.015350
  0
VERTEX
  8
PLAN_1
  6
CONTINUOUS
 10
-1.256059
 20
3.007685
  0
VERTEX
  8
PLAN_1
  6
CONTINUOUS
 10
-1.256909
 20
3.000020
  0
VERTEX
  8
PLAN_1
  6
CONTINUOUS
 10
-1.256909
 20
2.991929
  0
SEQEND
  8
0
  0
POLYLINE
  8
PLAN_1
  6
CONTINUOUS
 66
     1
 40
0.008516
 41
0.008516
  0
VERTEX
  8
PLAN_1
  6
CONTINUOUS
 10
-1.256909
 20
2.991929
  0
VERTEX
  8
PLAN_1
  6
CONTINUOUS
 10
-1.304606
 20
2.991929
  0
VERTEX
  8
PLAN_1
  6
CONTINUOUS
 10
-1.304606
 20
2.610799
  0
VERTEX
  8
PLAN_1
  6
CONTINUOUS
 10
-0.907717
 20
2.610799
  0
VERTEX
  8
PLAN_1
  6
CONTINUOUS
 10
-0.907717
 20
2.991929
  0
VERTEX
  8
PLAN_1
  6
CONTINUOUS
 10
-0.951154
 20
2.991929
  0
SEQEND
  8
0
  0
POLYLINE
  8
PLAN_1
  6
CONTINUOUS
 66
     1
 40
0.008516
 41
0.008516
  0
VERTEX
  8
PLAN_1
  6
CONTINUOUS
 10
-0.952858
 20
2.995339
  0
VERTEX
  8
PLAN_1
  6
CONTINUOUS
 10
-1.255634
 20
2.995339
  0
SEQEND
  8
0
  0
POLYLINE
  8
PLAN_1
 62
     2
  6
CONTINUOUS
 66
     1
 40
0.004256
 41
0.004256
  0
VERTEX
  8
PLAN_1
 62
     2
  6
CONTINUOUS
 10
-1.074650
 20
3.308335
  0
VERTEX
  8
PLAN_1
 62
     2
  6
CONTINUOUS
 10
-0.460579
 20
3.308335
  0
SEQEND
  8
0
  0
SOLID
  8
PLAN_1
 62
     2
 10
-0.430772
 20
3.308335
 11
-0.489965
 21
3.324091
 12
-0.430772
 22
3.308335
 13
-0.489965
 23
3.292579
  0
POLYLINE
  8
PLAN_1
 62
     2
  6
CONTINUOUS
 66
     1
 40
0.003000
 41
0.003000
  0
VERTEX
  8
PLAN_1
 62
     2
  6
CONTINUOUS
 10
-0.430772
 20
3.308335
  0
VERTEX
  8
PLAN_1
 62
     2
  6
CONTINUOUS
 10
-0.489965
 20
3.324091
  0
VERTEX
  8
PLAN_1
 62
     2
  6
CONTINUOUS
 10
-0.489965
 20
3.292579
  0
VERTEX
  8
PLAN_1
 62
     2
  6
CONTINUOUS
 10
-0.430772
 20
3.308335
  0
SEQEND
  8
0
  0
SOLID
  8
PLAN_1
 62
     2
 10
-1.104031
 20
3.308335
 11
-1.044839
 21
3.324091
 12
-1.104031
 22
3.308335
 13
-1.044839
 23
3.292579
  0
POLYLINE
  8
PLAN_1
 62
     2
  6
CONTINUOUS
 66
     1
 40
0.003000
 41
0.003000
  0
VERTEX
  8
PLAN_1
 62
     2
  6
CONTINUOUS
 10
-1.104031
 20
3.308335
  0
VERTEX
  8
PLAN_1
 62
     2
  6
CONTINUOUS
 10
-1.044839
 20
3.324091
  0
VERTEX
  8
PLAN_1
 62
     2
  6
CONTINUOUS
 10
-1.044839
 20
3.292579
  0
VERTEX
  8
PLAN_1
 62
     2
  6
CONTINUOUS
 10
-1.104031
 20
3.308335
  0
SEQEND
  8
0
  0
POLYLINE
  8
PLAN_1
 62
     2
  6
CONTINUOUS
 66
     1
 40
0.003000
 41
0.003000
  0
VERTEX
  8
PLAN_1
 62
     2
  6
CONTINUOUS
 10
-0.788055
 20
3.331756
  0
VERTEX
  8
PLAN_1
 62
     2
  6
CONTINUOUS
 10
-0.797850
 20
3.331756
  0
VERTEX
  8
PLAN_1
 62
     2
  6
CONTINUOUS
 10
-0.797850
 20
3.383709
  0
VERTEX
  8
PLAN_1
 62
     2
  6
CONTINUOUS
 10
-0.814882
 20
3.383709
  0
VERTEX
  8
PLAN_1
 62
     2
  6
CONTINUOUS
 10
-0.814882
 20
3.390949
  0
VERTEX
  8
PLAN_1
 62
     2
  6
CONTINUOUS
 10
-0.810626
 20
3.391374
  0
VERTEX
  8
PLAN_1
 62
     2
  6
CONTINUOUS
 10
-0.807217
 20
3.391799
  0
VERTEX
  8
PLAN_1
 62
     2
  6
CONTINUOUS
 10
-0.804236
 20
3.392650
  0
VERTEX
  8
PLAN_1
 62
     2
  6
CONTINUOUS
 10
-0.801681
 20
3.393929
  0
VERTEX
  8
PLAN_1
 62
     2
  6
CONTINUOUS
 10
-0.799551
 20
3.395630
  0
VERTEX
  8
PLAN_1
 62
     2
  6
CONTINUOUS
 10
-0.797850
 20
3.397760
  0
VERTEX
  8
PLAN_1
 62
     2
  6
CONTINUOUS
 10
-0.796571
 20
3.401169
  0
VERTEX
  8
PLAN_1
 62
     2
  6
CONTINUOUS
 10
-0.795295
 20
3.405000
  0
VERTEX
  8
PLAN_1
 62
     2
  6
CONTINUOUS
 10
-0.788055
 20
3.405000
  0
VERTEX
  8
PLAN_1
 62
     2
  6
CONTINUOUS
 10
-0.788055
 20
3.331756
  0
SEQEND
  8
0
  0
POLYLINE
  8
PLAN_1
 62
     2
  6
CONTINUOUS
 66
     1
 40
0.003000
 41
0.003000
  0
VERTEX
  8
PLAN_1
 62
     2
  6
CONTINUOUS
 10
-0.763783
 20
3.403295
  0
VERTEX
  8
PLAN_1
 62
     2
  6
CONTINUOUS
 10
-0.713106
 20
3.403295
  0
VERTEX
  8
PLAN_1
 62
     2
  6
CONTINUOUS
 10
-0.713106
 20
3.395630
  0
VERTEX
  8
PLAN_1
 62
     2
  6
CONTINUOUS
 10
-0.716087
 20
3.391799
  0
VERTEX
  8
PLAN_1
 62
     2
  6
CONTINUOUS
 10
-0.719921
 20
3.386689
  0
VERTEX
  8
PLAN_1
 62
     2
  6
CONTINUOUS
 10
-0.724602
 20
3.380728
  0
VERTEX
  8
PLAN_1
 62
     2
  6
CONTINUOUS
 10
-0.728862
 20
3.373063
  0
VERTEX
  8
PLAN_1
 62
     2
  6
CONTINUOUS
 10
-0.733122
 20
3.364118
  0
VERTEX
  8
PLAN_1
 62
     2
  6
CONTINUOUS
 10
-0.737378
 20
3.354323
  0
VERTEX
  8
PLAN_1
 62
     2
  6
CONTINUOUS
 10
-0.739083
 20
3.349213
  0
VERTEX
  8
PLAN_1
 62
     2
  6
CONTINUOUS
 10
-0.740787
 20
3.343677
  0
VERTEX
  8
PLAN_1
 62
     2
  6
CONTINUOUS
 10
-0.742063
 20
3.337717
  0
VERTEX
  8
PLAN_1
 62
     2
  6
CONTINUOUS
 10
-0.743343
 20
3.331756
  0
VERTEX
  8
PLAN_1
 62
     2
  6
CONTINUOUS
 10
-0.753134
 20
3.331756
  0
VERTEX
  8
PLAN_1
 62
     2
  6
CONTINUOUS
 10
-0.751858
 20
3.339846
  0
VERTEX
  8
PLAN_1
 62
     2
  6
CONTINUOUS
 10
-0.749303
 20
3.347937
  0
VERTEX
  8
PLAN_1
 62
     2
  6
CONTINUOUS
 10
-0.746323
 20
3.356028
  0
VERTEX
  8
PLAN_1
 62
     2
  6
CONTINUOUS
 10
-0.742488
 20
3.364543
  0
VERTEX
  8
PLAN_1
 62
     2
  6
CONTINUOUS
 10
-0.738232
 20
3.372634
  0
VERTEX
  8
PLAN_1
 62
     2
  6
CONTINUOUS
 10
-0.733547
 20
3.380728
  0
VERTEX
  8
PLAN_1
 62
     2
  6
CONTINUOUS
 10
-0.728437
 20
3.387965
  0
VERTEX
  8
PLAN_1
 62
     2
  6
CONTINUOUS
 10
-0.723327
 20
3.394354
  0
VERTEX
  8
PLAN_1
 62
     2
  6
CONTINUOUS
 10
-0.763783
 20
3.394354
  0
VERTEX
  8
PLAN_1
 62
     2
  6
CONTINUOUS
 10
-0.763783
 20
3.403295
  0
SEQEND
  8
0
  0
POLYLINE
  8
PLAN_1
 62
     2
  6
CONTINUOUS
 66
     1
 40
0.004256
 41
0.004256
  0
VERTEX
  8
PLAN_1
 62
     2
  6
CONTINUOUS
 10
-1.104031
 20
3.331756
  0
VERTEX
  8
PLAN_1
 62
     2
  6
CONTINUOUS
 10
-1.104031
 20
3.170358
  0
SEQEND
  8
0
  0
POLYLINE
  8
PLAN_1
 62
     2
  6
CONTINUOUS
 66
     1
 40
0.004256
 41
0.004256
  0
VERTEX
  8
PLAN_1
 62
     2
  6
CONTINUOUS
 10
-0.430772
 20
3.331756
  0
VERTEX
  8
PLAN_1
 62
     2
  6
CONTINUOUS
 10
-0.430772
 20
1.669256
  0
SEQEND
  8
0
  0
ENDSEC
  0
EOF
