  0
SECTION
  2
HEADER
  9
$ACADVER
  1
AC1006
  9
$EXTMIN
 10
-2.187252
 20
-4.006000
  9
$EXTMAX
 10
2.180496
 20
4.005000
  9
$LTSCALE
 40
0.000394
  9
$PDMODE
 70
    35
  9
$PDSIZE
 40
0.000315
  0
ENDSEC
  0
SECTION
  2
TABLES
  0
TABLE
  2
LTYPE
 70
     9
  0
LTYPE
  2
CONTINUOUS
 70
    64
  3
Solid line
 72
    65
 73
     0
 40
0.000000
  0
LTYPE
  2
DASHED
 70
    64
  3
__ __ __ __ __ __ __ __ __ __ __ __ __ __ __
 72
    65
 73
     2
 40
0.000003
 49
0.000002
 49
-0.000001
  0
LTYPE
  2
HIDDEN
 70
    64
  3
 _ _ _ _ _ _ _ _ _ _ _ _ _ _ _ _ _ _ _ _ _ _
 72
    65
 73
     2
 40
0.000001
 49
0.000001
 49
-0.000000
  0
LTYPE
  2
CENTER
 70
    64
  3
____ _ ____ _ ____ _ ____ _ ____ _ ____ _ ____
 72
    65
 73
     4
 40
0.000008
 49
0.000005
 49
-0.000001
 49
0.000001
 49
-0.000001
  0
LTYPE
  2
PHANTOM
 70
    64
  3
_____ _ _ _____ _ _ _____ _ _ _____ _ _ ____
 72
    65
 73
     6
 40
0.000010
 49
0.000005
 49
-0.000001
 49
0.000001
 49
-0.000001
 49
0.000001
 49
-0.000001
  0
LTYPE
  2
DOT
 70
    64
  3
...............................................
 72
    65
 73
     2
 40
0.000001
 49
0.000000
 49
-0.000001
  0
LTYPE
  2
DASHDOT
 70
    64
  3
__ . __ . __ . __ . __ . __ . __ . __ . __ . __
 72
    65
 73
     4
 40
0.000004
 49
0.000002
 49
-0.000001
 49
0.000000
 49
-0.000001
  0
LTYPE
  2
BORDER
 70
    64
  3
__ __ . __ __ . __ __ . __ __ . __ __ . __ __
 72
    65
 73
     6
 40
0.000007
 49
0.000002
 49
-0.000001
 49
0.000002
 49
-0.000001
 49
0.000000
 49
-0.000001
  0
LTYPE
  2
DIVIDE
 70
    64
  3
__ . . __ . . __ . . __ . . __ . . __ . . __
 72
    65
 73
     6
 40
0.000005
 49
0.000002
 49
-0.000001
 49
0.000000
 49
-0.000001
 49
0.000000
 49
-0.000001
  0
LTYPE
  2
DOTDOT
 70
    64
  3
 . .  . .  . .  . .  . .  . . 
 72
    65
 73
     5
 40
0.000002
 49
-0.000001
 49
0.000000
 49
-0.000001
 49
0.000000
 49
-0.000001
  0
ENDTAB
  0
TABLE
  2
STYLE
 70
     0
  0
ENDTAB
  0
TABLE
  2
LAYER
 70
     3
  0
LAYER
  2
FOREGROUND
 70
    64
 62
     7
  6
CONTINUOUS
  0
LAYER
  2
BACKGROUND
 70
    65
 62
    -7
  6
CONTINUOUS
  0
LAYER
  2
PLAN_1
 70
    64
 62
     7
  6
CONTINUOUS
  0
ENDTAB
  0
ENDSEC
  0
SECTION
  2
ENTITIES
  0
POLYLINE
  8
PLAN_1
  6
CONTINUOUS
 66
     1
 40
0.008508
 41
0.008508
  0
VERTEX
  8
PLAN_1
  6
CONTINUOUS
 10
-1.800469
 20
0.479657
  0
VERTEX
  8
PLAN_1
  6
CONTINUOUS
 10
-1.800469
 20
0.922268
  0
VERTEX
  8
PLAN_1
  6
CONTINUOUS
 10
-1.905114
 20
0.922268
  0
VERTEX
  8
PLAN_1
  6
CONTINUOUS
 10
-1.905114
 20
0.479657
  0
VERTEX
  8
PLAN_1
  6
CONTINUOUS
 10
-1.800469
 20
0.479657
  0
SEQEND
  8
0
  0
POLYLINE
  8
PLAN_1
  6
CONTINUOUS
 66
     1
 40
0.005504
 41
0.005504
  0
VERTEX
  8
PLAN_1
  6
CONTINUOUS
 10
-1.881579
 20
0.809110
  0
VERTEX
  8
PLAN_1
  6
CONTINUOUS
 10
-1.802972
 20
0.809110
  0
SEQEND
  8
0
  0
POLYLINE
  8
PLAN_1
  6
CONTINUOUS
 66
     1
 40
0.005504
 41
0.005504
  0
VERTEX
  8
PLAN_1
  6
CONTINUOUS
 10
-1.881579
 20
0.592815
  0
VERTEX
  8
PLAN_1
  6
CONTINUOUS
 10
-1.802972
 20
0.592815
  0
SEQEND
  8
0
  0
POLYLINE
  8
PLAN_1
  6
CONTINUOUS
 66
     1
 40
0.005504
 41
0.005504
  0
VERTEX
  8
PLAN_1
  6
CONTINUOUS
 10
-1.884587
 20
0.921768
  0
VERTEX
  8
PLAN_1
  6
CONTINUOUS
 10
-1.886087
 20
0.919264
  0
VERTEX
  8
PLAN_1
  6
CONTINUOUS
 10
-1.889091
 20
0.912252
  0
VERTEX
  8
PLAN_1
  6
CONTINUOUS
 10
-1.890594
 20
0.907248
  0
VERTEX
  8
PLAN_1
  6
CONTINUOUS
 10
-1.892594
 20
0.900736
  0
VERTEX
  8
PLAN_1
  6
CONTINUOUS
 10
-1.894098
 20
0.894228
  0
VERTEX
  8
PLAN_1
  6
CONTINUOUS
 10
-1.895598
 20
0.886217
  0
VERTEX
  8
PLAN_1
  6
CONTINUOUS
 10
-1.896602
 20
0.878205
  0
VERTEX
  8
PLAN_1
  6
CONTINUOUS
 10
-1.897102
 20
0.869193
  0
VERTEX
  8
PLAN_1
  6
CONTINUOUS
 10
-1.897102
 20
0.859681
  0
VERTEX
  8
PLAN_1
  6
CONTINUOUS
 10
-1.896602
 20
0.850169
  0
VERTEX
  8
PLAN_1
  6
CONTINUOUS
 10
-1.894598
 20
0.840154
  0
VERTEX
  8
PLAN_1
  6
CONTINUOUS
 10
-1.891594
 20
0.829642
  0
VERTEX
  8
PLAN_1
  6
CONTINUOUS
 10
-1.890091
 20
0.824634
  0
VERTEX
  8
PLAN_1
  6
CONTINUOUS
 10
-1.887591
 20
0.819626
  0
VERTEX
  8
PLAN_1
  6
CONTINUOUS
 10
-1.885087
 20
0.814118
  0
VERTEX
  8
PLAN_1
  6
CONTINUOUS
 10
-1.882583
 20
0.809110
  0
VERTEX
  8
PLAN_1
  6
CONTINUOUS
 10
-1.883583
 20
0.805106
  0
VERTEX
  8
PLAN_1
  6
CONTINUOUS
 10
-1.887087
 20
0.793591
  0
VERTEX
  8
PLAN_1
  6
CONTINUOUS
 10
-1.889091
 20
0.785079
  0
VERTEX
  8
PLAN_1
  6
CONTINUOUS
 10
-1.891094
 20
0.774563
  0
VERTEX
  8
PLAN_1
  6
CONTINUOUS
 10
-1.893094
 20
0.762547
  0
VERTEX
  8
PLAN_1
  6
CONTINUOUS
 10
-1.894598
 20
0.749531
  0
VERTEX
  8
PLAN_1
  6
CONTINUOUS
 10
-1.896102
 20
0.734508
  0
VERTEX
  8
PLAN_1
  6
CONTINUOUS
 10
-1.897102
 20
0.717988
  0
VERTEX
  8
PLAN_1
  6
CONTINUOUS
 10
-1.897602
 20
0.699961
  0
VERTEX
  8
PLAN_1
  6
CONTINUOUS
 10
-1.897102
 20
0.680937
  0
VERTEX
  8
PLAN_1
  6
CONTINUOUS
 10
-1.895598
 20
0.660409
  0
VERTEX
  8
PLAN_1
  6
CONTINUOUS
 10
-1.893598
 20
0.638878
  0
VERTEX
  8
PLAN_1
  6
CONTINUOUS
 10
-1.891594
 20
0.627862
  0
VERTEX
  8
PLAN_1
  6
CONTINUOUS
 10
-1.890091
 20
0.616346
  0
VERTEX
  8
PLAN_1
  6
CONTINUOUS
 10
-1.887591
 20
0.604331
  0
VERTEX
  8
PLAN_1
  6
CONTINUOUS
 10
-1.885087
 20
0.592315
  0
VERTEX
  8
PLAN_1
  6
CONTINUOUS
 10
-1.886587
 20
0.589811
  0
VERTEX
  8
PLAN_1
  6
CONTINUOUS
 10
-1.889591
 20
0.582799
  0
VERTEX
  8
PLAN_1
  6
CONTINUOUS
 10
-1.891094
 20
0.577795
  0
VERTEX
  8
PLAN_1
  6
CONTINUOUS
 10
-1.893094
 20
0.571787
  0
VERTEX
  8
PLAN_1
  6
CONTINUOUS
 10
-1.894598
 20
0.565276
  0
VERTEX
  8
PLAN_1
  6
CONTINUOUS
 10
-1.896102
 20
0.557768
  0
VERTEX
  8
PLAN_1
  6
CONTINUOUS
 10
-1.897102
 20
0.549256
  0
VERTEX
  8
PLAN_1
  6
CONTINUOUS
 10
-1.897602
 20
0.540744
  0
VERTEX
  8
PLAN_1
  6
CONTINUOUS
 10
-1.897602
 20
0.531732
  0
VERTEX
  8
PLAN_1
  6
CONTINUOUS
 10
-1.896602
 20
0.521717
  0
VERTEX
  8
PLAN_1
  6
CONTINUOUS
 10
-1.895098
 20
0.512205
  0
VERTEX
  8
PLAN_1
  6
CONTINUOUS
 10
-1.892094
 20
0.501689
  0
VERTEX
  8
PLAN_1
  6
CONTINUOUS
 10
-1.890091
 20
0.496681
  0
VERTEX
  8
PLAN_1
  6
CONTINUOUS
 10
-1.888091
 20
0.491677
  0
VERTEX
  8
PLAN_1
  6
CONTINUOUS
 10
-1.885587
 20
0.486169
  0
VERTEX
  8
PLAN_1
  6
CONTINUOUS
 10
-1.883083
 20
0.481161
  0
SEQEND
  8
0
  0
POLYLINE
  8
PLAN_1
  6
CONTINUOUS
 66
     1
 40
0.008508
 41
0.008508
  0
VERTEX
  8
PLAN_1
  6
CONTINUOUS
 10
-1.938657
 20
0.574287
  0
VERTEX
  8
PLAN_1
  6
CONTINUOUS
 10
-1.970201
 20
0.605831
  0
VERTEX
  8
PLAN_1
  6
CONTINUOUS
 10
-1.970201
 20
0.793091
  0
VERTEX
  8
PLAN_1
  6
CONTINUOUS
 10
-1.938657
 20
0.824634
  0
VERTEX
  8
PLAN_1
  6
CONTINUOUS
 10
-1.905114
 20
0.825134
  0
VERTEX
  8
PLAN_1
  6
CONTINUOUS
 10
-1.905114
 20
0.574287
  0
VERTEX
  8
PLAN_1
  6
CONTINUOUS
 10
-1.938657
 20
0.574287
  0
SEQEND
  8
0
  0
POLYLINE
  8
PLAN_1
  6
CONTINUOUS
 66
     1
 40
0.008508
 41
0.008508
  0
VERTEX
  8
PLAN_1
  6
CONTINUOUS
 10
-1.594685
 20
2.845909
  0
VERTEX
  8
PLAN_1
  6
CONTINUOUS
 10
-1.594685
 20
-0.497681
  0
VERTEX
  8
PLAN_1
  6
CONTINUOUS
 10
-1.664283
 20
-0.497681
  0
VERTEX
  8
PLAN_1
  6
CONTINUOUS
 10
-1.664283
 20
2.845909
  0
VERTEX
  8
PLAN_1
  6
CONTINUOUS
 10
-1.594685
 20
2.845909
  0
SEQEND
  8
0
  0
POLYLINE
  8
PLAN_1
  6
CONTINUOUS
 66
     1
 40
0.008508
 41
0.008508
  0
VERTEX
  8
PLAN_1
  6
CONTINUOUS
 10
-1.522587
 20
1.135559
  0
VERTEX
  8
PLAN_1
  6
CONTINUOUS
 10
-1.594685
 20
1.135559
  0
VERTEX
  8
PLAN_1
  6
CONTINUOUS
 10
-1.594685
 20
0.263862
  0
VERTEX
  8
PLAN_1
  6
CONTINUOUS
 10
-1.522587
 20
0.263862
  0
VERTEX
  8
PLAN_1
  6
CONTINUOUS
 10
-1.522587
 20
1.135559
  0
SEQEND
  8
0
  0
POLYLINE
  8
PLAN_1
  6
CONTINUOUS
 66
     1
 40
0.008508
 41
0.008508
  0
VERTEX
  8
PLAN_1
  6
CONTINUOUS
 10
-2.006752
 20
1.076480
  0
VERTEX
  8
PLAN_1
  6
CONTINUOUS
 10
-2.006752
 20
1.132055
  0
VERTEX
  8
PLAN_1
  6
CONTINUOUS
 10
-1.665283
 20
1.132055
  0
VERTEX
  8
PLAN_1
  6
CONTINUOUS
 10
-1.665283
 20
1.076480
  0
VERTEX
  8
PLAN_1
  6
CONTINUOUS
 10
-2.006752
 20
1.076480
  0
SEQEND
  8
0
  0
POLYLINE
  8
PLAN_1
  6
CONTINUOUS
 66
     1
 40
0.008508
 41
0.008508
  0
VERTEX
  8
PLAN_1
  6
CONTINUOUS
 10
-1.410933
 20
0.357992
  0
VERTEX
  8
PLAN_1
  6
CONTINUOUS
 10
-1.410933
 20
1.041429
  0
VERTEX
  8
PLAN_1
  6
CONTINUOUS
 10
-1.522587
 20
1.041429
  0
VERTEX
  8
PLAN_1
  6
CONTINUOUS
 10
-1.522587
 20
0.357992
  0
VERTEX
  8
PLAN_1
  6
CONTINUOUS
 10
-1.410933
 20
0.357992
  0
SEQEND
  8
0
  0
POLYLINE
  8
PLAN_1
  6
CONTINUOUS
 66
     1
 40
0.008508
 41
0.008508
  0
VERTEX
  8
PLAN_1
  6
CONTINUOUS
 10
-1.741890
 20
0.343972
  0
VERTEX
  8
PLAN_1
  6
CONTINUOUS
 10
-1.741890
 20
1.055449
  0
VERTEX
  8
PLAN_1
  6
CONTINUOUS
 10
-1.665283
 20
1.055449
  0
VERTEX
  8
PLAN_1
  6
CONTINUOUS
 10
-1.665283
 20
0.343972
  0
VERTEX
  8
PLAN_1
  6
CONTINUOUS
 10
-1.741890
 20
0.343972
  0
SEQEND
  8
0
  0
POLYLINE
  8
PLAN_1
  6
CONTINUOUS
 66
     1
 40
0.008508
 41
0.008508
  0
VERTEX
  8
PLAN_1
  6
CONTINUOUS
 10
-1.741890
 20
0.379020
  0
VERTEX
  8
PLAN_1
  6
CONTINUOUS
 10
-1.741890
 20
1.023906
  0
VERTEX
  8
PLAN_1
  6
CONTINUOUS
 10
-1.800969
 20
1.023906
  0
VERTEX
  8
PLAN_1
  6
CONTINUOUS
 10
-1.800969
 20
0.379020
  0
VERTEX
  8
PLAN_1
  6
CONTINUOUS
 10
-1.741890
 20
0.379020
  0
SEQEND
  8
0
  0
POLYLINE
  8
PLAN_1
  6
CONTINUOUS
 66
     1
 40
0.005504
 41
0.005504
  0
VERTEX
  8
PLAN_1
  6
CONTINUOUS
 10
-0.745520
 20
-0.202780
  0
VERTEX
  8
PLAN_1
  6
CONTINUOUS
 10
-0.868189
 20
-0.224307
  0
VERTEX
  8
PLAN_1
  6
CONTINUOUS
 10
-0.876201
 20
-0.225811
  0
SEQEND
  8
0
  0
POLYLINE
  8
PLAN_1
  6
CONTINUOUS
 66
     1
 40
0.005504
 41
0.005504
  0
VERTEX
  8
PLAN_1
  6
CONTINUOUS
 10
-0.876201
 20
-0.225811
  0
VERTEX
  8
PLAN_1
  6
CONTINUOUS
 10
-0.880205
 20
-0.226811
  0
VERTEX
  8
PLAN_1
  6
CONTINUOUS
 10
-0.883709
 20
-0.228815
  0
VERTEX
  8
PLAN_1
  6
CONTINUOUS
 10
-0.886717
 20
-0.230815
  0
VERTEX
  8
PLAN_1
  6
CONTINUOUS
 10
-0.889217
 20
-0.233819
  0
VERTEX
  8
PLAN_1
  6
CONTINUOUS
 10
-0.890720
 20
-0.237327
  0
VERTEX
  8
PLAN_1
  6
CONTINUOUS
 10
-0.892220
 20
-0.240831
  0
VERTEX
  8
PLAN_1
  6
CONTINUOUS
 10
-0.892724
 20
-0.244835
  0
VERTEX
  8
PLAN_1
  6
CONTINUOUS
 10
-0.892220
 20
-0.248843
  0
VERTEX
  8
PLAN_1
  6
CONTINUOUS
 10
-0.891220
 20
-0.252346
  0
VERTEX
  8
PLAN_1
  6
CONTINUOUS
 10
-0.889217
 20
-0.255850
  0
VERTEX
  8
PLAN_1
  6
CONTINUOUS
 10
-0.887217
 20
-0.258854
  0
VERTEX
  8
PLAN_1
  6
CONTINUOUS
 10
-0.884213
 20
-0.261358
  0
VERTEX
  8
PLAN_1
  6
CONTINUOUS
 10
-0.880705
 20
-0.263362
  0
VERTEX
  8
PLAN_1
  6
CONTINUOUS
 10
-0.877201
 20
-0.264362
  0
VERTEX
  8
PLAN_1
  6
CONTINUOUS
 10
-0.873197
 20
-0.264862
  0
VERTEX
  8
PLAN_1
  6
CONTINUOUS
 10
-0.869189
 20
-0.264862
  0
SEQEND
  8
0
  0
POLYLINE
  8
PLAN_1
  6
CONTINUOUS
 66
     1
 40
0.005504
 41
0.005504
  0
VERTEX
  8
PLAN_1
  6
CONTINUOUS
 10
-0.869189
 20
-0.264862
  0
VERTEX
  8
PLAN_1
  6
CONTINUOUS
 10
-0.861681
 20
-0.263362
  0
VERTEX
  8
PLAN_1
  6
CONTINUOUS
 10
-0.518709
 20
-0.202780
  0
VERTEX
  8
PLAN_1
  6
CONTINUOUS
 10
-0.745520
 20
-0.202780
  0
SEQEND
  8
0
  0
POLYLINE
  8
PLAN_1
  6
CONTINUOUS
 66
     1
 40
0.005504
 41
0.005504
  0
VERTEX
  8
PLAN_1
  6
CONTINUOUS
 10
-0.384024
 20
-0.350980
  0
VERTEX
  8
PLAN_1
  6
CONTINUOUS
 10
-0.380520
 20
-0.349980
  0
VERTEX
  8
PLAN_1
  6
CONTINUOUS
 10
-0.377016
 20
-0.347976
  0
VERTEX
  8
PLAN_1
  6
CONTINUOUS
 10
-0.374012
 20
-0.345972
  0
VERTEX
  8
PLAN_1
  6
CONTINUOUS
 10
-0.371508
 20
-0.342969
  0
VERTEX
  8
PLAN_1
  6
CONTINUOUS
 10
-0.369504
 20
-0.339465
  0
VERTEX
  8
PLAN_1
  6
CONTINUOUS
 10
-0.368504
 20
-0.335961
  0
VERTEX
  8
PLAN_1
  6
CONTINUOUS
 10
-0.368004
 20
-0.331957
  0
VERTEX
  8
PLAN_1
  6
CONTINUOUS
 10
-0.368004
 20
-0.327949
  0
VERTEX
  8
PLAN_1
  6
CONTINUOUS
 10
-0.369004
 20
-0.324445
  0
VERTEX
  8
PLAN_1
  6
CONTINUOUS
 10
-0.371008
 20
-0.320941
  0
VERTEX
  8
PLAN_1
  6
CONTINUOUS
 10
-0.373512
 20
-0.317937
  0
VERTEX
  8
PLAN_1
  6
CONTINUOUS
 10
-0.376012
 20
-0.315433
  0
VERTEX
  8
PLAN_1
  6
CONTINUOUS
 10
-0.379520
 20
-0.313429
  0
VERTEX
  8
PLAN_1
  6
CONTINUOUS
 10
-0.383024
 20
-0.312429
  0
VERTEX
  8
PLAN_1
  6
CONTINUOUS
 10
-0.387028
 20
-0.311929
  0
VERTEX
  8
PLAN_1
  6
CONTINUOUS
 10
-0.391035
 20
-0.311929
  0
SEQEND
  8
0
  0
POLYLINE
  8
PLAN_1
  6
CONTINUOUS
 66
     1
 40
0.005504
 41
0.005504
  0
VERTEX
  8
PLAN_1
  6
CONTINUOUS
 10
-0.391035
 20
-0.311929
  0
VERTEX
  8
PLAN_1
  6
CONTINUOUS
 10
-0.403051
 20
-0.314429
  0
VERTEX
  8
PLAN_1
  6
CONTINUOUS
 10
-0.868189
 20
-0.396543
  0
VERTEX
  8
PLAN_1
  6
CONTINUOUS
 10
-0.876201
 20
-0.398047
  0
SEQEND
  8
0
  0
POLYLINE
  8
PLAN_1
  6
CONTINUOUS
 66
     1
 40
0.005504
 41
0.005504
  0
VERTEX
  8
PLAN_1
  6
CONTINUOUS
 10
-0.876201
 20
-0.398047
  0
VERTEX
  8
PLAN_1
  6
CONTINUOUS
 10
-0.879705
 20
-0.399047
  0
VERTEX
  8
PLAN_1
  6
CONTINUOUS
 10
-0.883209
 20
-0.400547
  0
VERTEX
  8
PLAN_1
  6
CONTINUOUS
 10
-0.886213
 20
-0.403051
  0
VERTEX
  8
PLAN_1
  6
CONTINUOUS
 10
-0.888717
 20
-0.406055
  0
VERTEX
  8
PLAN_1
  6
CONTINUOUS
 10
-0.890720
 20
-0.409059
  0
VERTEX
  8
PLAN_1
  6
CONTINUOUS
 10
-0.891720
 20
-0.413067
  0
VERTEX
  8
PLAN_1
  6
CONTINUOUS
 10
-0.892220
 20
-0.416571
  0
VERTEX
  8
PLAN_1
  6
CONTINUOUS
 10
-0.892220
 20
-0.420575
  0
VERTEX
  8
PLAN_1
  6
CONTINUOUS
 10
-0.891220
 20
-0.424583
  0
VERTEX
  8
PLAN_1
  6
CONTINUOUS
 10
-0.889217
 20
-0.428087
  0
VERTEX
  8
PLAN_1
  6
CONTINUOUS
 10
-0.886717
 20
-0.431091
  0
VERTEX
  8
PLAN_1
  6
CONTINUOUS
 10
-0.884213
 20
-0.433594
  0
VERTEX
  8
PLAN_1
  6
CONTINUOUS
 10
-0.880705
 20
-0.435598
  0
VERTEX
  8
PLAN_1
  6
CONTINUOUS
 10
-0.877201
 20
-0.436598
  0
VERTEX
  8
PLAN_1
  6
CONTINUOUS
 10
-0.873197
 20
-0.437098
  0
VERTEX
  8
PLAN_1
  6
CONTINUOUS
 10
-0.869189
 20
-0.436598
  0
SEQEND
  8
0
  0
POLYLINE
  8
PLAN_1
  6
CONTINUOUS
 66
     1
 40
0.005504
 41
0.005504
  0
VERTEX
  8
PLAN_1
  6
CONTINUOUS
 10
-0.869189
 20
-0.436598
  0
VERTEX
  8
PLAN_1
  6
CONTINUOUS
 10
-0.861181
 20
-0.435598
  0
VERTEX
  8
PLAN_1
  6
CONTINUOUS
 10
-0.396543
 20
-0.352984
  0
VERTEX
  8
PLAN_1
  6
CONTINUOUS
 10
-0.384024
 20
-0.350980
  0
SEQEND
  8
0
  0
POLYLINE
  8
PLAN_1
  6
CONTINUOUS
 66
     1
 40
0.005504
 41
0.005504
  0
VERTEX
  8
PLAN_1
  6
CONTINUOUS
 10
-0.379520
 20
-0.608835
  0
VERTEX
  8
PLAN_1
  6
CONTINUOUS
 10
-0.375512
 20
-0.608335
  0
VERTEX
  8
PLAN_1
  6
CONTINUOUS
 10
-0.372008
 20
-0.607335
  0
VERTEX
  8
PLAN_1
  6
CONTINUOUS
 10
-0.368504
 20
-0.605331
  0
VERTEX
  8
PLAN_1
  6
CONTINUOUS
 10
-0.365500
 20
-0.602827
  0
VERTEX
  8
PLAN_1
  6
CONTINUOUS
 10
-0.363496
 20
-0.600323
  0
VERTEX
  8
PLAN_1
  6
CONTINUOUS
 10
-0.361492
 20
-0.596819
  0
VERTEX
  8
PLAN_1
  6
CONTINUOUS
 10
-0.360492
 20
-0.593315
  0
VERTEX
  8
PLAN_1
  6
CONTINUOUS
 10
-0.359992
 20
-0.589307
  0
VERTEX
  8
PLAN_1
  6
CONTINUOUS
 10
-0.360492
 20
-0.585303
  0
VERTEX
  8
PLAN_1
  6
CONTINUOUS
 10
-0.361492
 20
-0.581299
  0
VERTEX
  8
PLAN_1
  6
CONTINUOUS
 10
-0.363496
 20
-0.577791
  0
VERTEX
  8
PLAN_1
  6
CONTINUOUS
 10
-0.365500
 20
-0.575287
  0
VERTEX
  8
PLAN_1
  6
CONTINUOUS
 10
-0.368504
 20
-0.572787
  0
VERTEX
  8
PLAN_1
  6
CONTINUOUS
 10
-0.372008
 20
-0.570783
  0
VERTEX
  8
PLAN_1
  6
CONTINUOUS
 10
-0.375512
 20
-0.569783
  0
VERTEX
  8
PLAN_1
  6
CONTINUOUS
 10
-0.379520
 20
-0.569280
  0
SEQEND
  8
0
  0
POLYLINE
  8
PLAN_1
  6
CONTINUOUS
 66
     1
 40
0.005504
 41
0.005504
  0
VERTEX
  8
PLAN_1
  6
CONTINUOUS
 10
-0.379520
 20
-0.569280
  0
VERTEX
  8
PLAN_1
  6
CONTINUOUS
 10
-0.392035
 20
-0.569280
  0
VERTEX
  8
PLAN_1
  6
CONTINUOUS
 10
-0.864185
 20
-0.569280
  0
VERTEX
  8
PLAN_1
  6
CONTINUOUS
 10
-0.872193
 20
-0.569280
  0
SEQEND
  8
0
  0
POLYLINE
  8
PLAN_1
  6
CONTINUOUS
 66
     1
 40
0.005504
 41
0.005504
  0
VERTEX
  8
PLAN_1
  6
CONTINUOUS
 10
-0.872193
 20
-0.569280
  0
VERTEX
  8
PLAN_1
  6
CONTINUOUS
 10
-0.876201
 20
-0.569783
  0
VERTEX
  8
PLAN_1
  6
CONTINUOUS
 10
-0.880205
 20
-0.571283
  0
VERTEX
  8
PLAN_1
  6
CONTINUOUS
 10
-0.883209
 20
-0.572787
  0
VERTEX
  8
PLAN_1
  6
CONTINUOUS
 10
-0.886213
 20
-0.575287
  0
VERTEX
  8
PLAN_1
  6
CONTINUOUS
 10
-0.888717
 20
-0.578291
  0
VERTEX
  8
PLAN_1
  6
CONTINUOUS
 10
-0.890720
 20
-0.581799
  0
VERTEX
  8
PLAN_1
  6
CONTINUOUS
 10
-0.891720
 20
-0.585303
  0
VERTEX
  8
PLAN_1
  6
CONTINUOUS
 10
-0.892220
 20
-0.589307
  0
VERTEX
  8
PLAN_1
  6
CONTINUOUS
 10
-0.891720
 20
-0.593315
  0
VERTEX
  8
PLAN_1
  6
CONTINUOUS
 10
-0.890720
 20
-0.596819
  0
VERTEX
  8
PLAN_1
  6
CONTINUOUS
 10
-0.888717
 20
-0.600323
  0
VERTEX
  8
PLAN_1
  6
CONTINUOUS
 10
-0.886213
 20
-0.603327
  0
VERTEX
  8
PLAN_1
  6
CONTINUOUS
 10
-0.883209
 20
-0.605831
  0
VERTEX
  8
PLAN_1
  6
CONTINUOUS
 10
-0.880205
 20
-0.607335
  0
VERTEX
  8
PLAN_1
  6
CONTINUOUS
 10
-0.876201
 20
-0.608835
  0
VERTEX
  8
PLAN_1
  6
CONTINUOUS
 10
-0.872193
 20
-0.608835
  0
SEQEND
  8
0
  0
POLYLINE
  8
PLAN_1
  6
CONTINUOUS
 66
     1
 40
0.005504
 41
0.005504
  0
VERTEX
  8
PLAN_1
  6
CONTINUOUS
 10
-0.872193
 20
-0.608835
  0
VERTEX
  8
PLAN_1
  6
CONTINUOUS
 10
-0.864185
 20
-0.608835
  0
VERTEX
  8
PLAN_1
  6
CONTINUOUS
 10
-0.392035
 20
-0.608835
  0
VERTEX
  8
PLAN_1
  6
CONTINUOUS
 10
-0.379520
 20
-0.608835
  0
SEQEND
  8
0
  0
POLYLINE
  8
PLAN_1
  6
CONTINUOUS
 66
     1
 40
0.008508
 41
0.008508
  0
VERTEX
  8
PLAN_1
  6
CONTINUOUS
 10
-1.411437
 20
0.321941
  0
VERTEX
  8
PLAN_1
  6
CONTINUOUS
 10
-1.411437
 20
1.066465
  0
VERTEX
  8
PLAN_1
  6
CONTINUOUS
 10
-1.165098
 20
1.108524
  0
VERTEX
  8
PLAN_1
  6
CONTINUOUS
 10
-1.165098
 20
0.292902
  0
VERTEX
  8
PLAN_1
  6
CONTINUOUS
 10
-1.411437
 20
0.321941
  0
SEQEND
  8
0
  0
POLYLINE
  8
PLAN_1
  6
CONTINUOUS
 66
     1
 40
0.008508
 41
0.008508
  0
VERTEX
  8
PLAN_1
  6
CONTINUOUS
 10
-0.098634
 20
1.213665
  0
VERTEX
  8
PLAN_1
  6
CONTINUOUS
 10
-0.098130
 20
0.174240
  0
VERTEX
  8
PLAN_1
  6
CONTINUOUS
 10
-1.165098
 20
0.174240
  0
VERTEX
  8
PLAN_1
  6
CONTINUOUS
 10
-1.165098
 20
1.213665
  0
VERTEX
  8
PLAN_1
  6
CONTINUOUS
 10
-0.098634
 20
1.213665
  0
SEQEND
  8
0
  0
POLYLINE
  8
PLAN_1
  6
CONTINUOUS
 66
     1
 40
0.007008
 41
0.007008
  0
VERTEX
  8
PLAN_1
  6
CONTINUOUS
 10
-0.098130
 20
1.096508
  0
VERTEX
  8
PLAN_1
  6
CONTINUOUS
 10
-0.393035
 20
1.096508
  0
VERTEX
  8
PLAN_1
  6
CONTINUOUS
 10
-0.393035
 20
1.213665
  0
VERTEX
  8
PLAN_1
  6
CONTINUOUS
 10
-0.867189
 20
1.213665
  0
VERTEX
  8
PLAN_1
  6
CONTINUOUS
 10
-0.867189
 20
1.096508
  0
VERTEX
  8
PLAN_1
  6
CONTINUOUS
 10
-1.165598
 20
1.096508
  0
SEQEND
  8
0
  0
POLYLINE
  8
PLAN_1
  6
CONTINUOUS
 66
     1
 40
0.007008
 41
0.007008
  0
VERTEX
  8
PLAN_1
  6
CONTINUOUS
 10
-1.002874
 20
1.125047
  0
VERTEX
  8
PLAN_1
  6
CONTINUOUS
 10
-1.065461
 20
1.125047
  0
VERTEX
  8
PLAN_1
  6
CONTINUOUS
 10
-1.065461
 20
1.155087
  0
VERTEX
  8
PLAN_1
  6
CONTINUOUS
 10
-1.159591
 20
1.155087
  0
VERTEX
  8
PLAN_1
  6
CONTINUOUS
 10
-1.159591
 20
1.096004
  0
VERTEX
  8
PLAN_1
  6
CONTINUOUS
 10
-0.906240
 20
1.096004
  0
VERTEX
  8
PLAN_1
  6
CONTINUOUS
 10
-0.906240
 20
1.155087
  0
VERTEX
  8
PLAN_1
  6
CONTINUOUS
 10
-1.002874
 20
1.155087
  0
VERTEX
  8
PLAN_1
  6
CONTINUOUS
 10
-1.002874
 20
1.125047
  0
SEQEND
  8
0
  0
POLYLINE
  8
PLAN_1
  6
CONTINUOUS
 66
     1
 40
0.007008
 41
0.007008
  0
VERTEX
  8
PLAN_1
  6
CONTINUOUS
 10
-0.202276
 20
1.125047
  0
VERTEX
  8
PLAN_1
  6
CONTINUOUS
 10
-0.264358
 20
1.125047
  0
VERTEX
  8
PLAN_1
  6
CONTINUOUS
 10
-0.264358
 20
1.155087
  0
VERTEX
  8
PLAN_1
  6
CONTINUOUS
 10
-0.358488
 20
1.155087
  0
VERTEX
  8
PLAN_1
  6
CONTINUOUS
 10
-0.358488
 20
1.096004
  0
VERTEX
  8
PLAN_1
  6
CONTINUOUS
 10
-0.105142
 20
1.096004
  0
VERTEX
  8
PLAN_1
  6
CONTINUOUS
 10
-0.105142
 20
1.155087
  0
VERTEX
  8
PLAN_1
  6
CONTINUOUS
 10
-0.202276
 20
1.155087
  0
VERTEX
  8
PLAN_1
  6
CONTINUOUS
 10
-0.202276
 20
1.125047
  0
SEQEND
  8
0
  0
POLYLINE
  8
PLAN_1
  6
CONTINUOUS
 66
     1
 40
0.008508
 41
0.008508
  0
VERTEX
  8
PLAN_1
  6
CONTINUOUS
 10
-0.191760
 20
0.113157
  0
VERTEX
  8
PLAN_1
  6
CONTINUOUS
 10
-0.187256
 20
0.113157
  0
VERTEX
  8
PLAN_1
  6
CONTINUOUS
 10
-0.183248
 20
0.113657
  0
VERTEX
  8
PLAN_1
  6
CONTINUOUS
 10
-0.179744
 20
0.114657
  0
VERTEX
  8
PLAN_1
  6
CONTINUOUS
 10
-0.176240
 20
0.115661
  0
VERTEX
  8
PLAN_1
  6
CONTINUOUS
 10
-0.173236
 20
0.117161
  0
VERTEX
  8
PLAN_1
  6
CONTINUOUS
 10
-0.170232
 20
0.118665
  0
VERTEX
  8
PLAN_1
  6
CONTINUOUS
 10
-0.167728
 20
0.120665
  0
VERTEX
  8
PLAN_1
  6
CONTINUOUS
 10
-0.165724
 20
0.122669
  0
VERTEX
  8
PLAN_1
  6
CONTINUOUS
 10
-0.163220
 20
0.124673
  0
VERTEX
  8
PLAN_1
  6
CONTINUOUS
 10
-0.161720
 20
0.127177
  0
VERTEX
  8
PLAN_1
  6
CONTINUOUS
 10
-0.159717
 20
0.129677
  0
VERTEX
  8
PLAN_1
  6
CONTINUOUS
 10
-0.158717
 20
0.132181
  0
VERTEX
  8
PLAN_1
  6
CONTINUOUS
 10
-0.156213
 20
0.138189
  0
VERTEX
  8
PLAN_1
  6
CONTINUOUS
 10
-0.154709
 20
0.143697
  0
VERTEX
  8
PLAN_1
  6
CONTINUOUS
 10
-0.153209
 20
0.149205
  0
VERTEX
  8
PLAN_1
  6
CONTINUOUS
 10
-0.152709
 20
0.155213
  0
VERTEX
  8
PLAN_1
  6
CONTINUOUS
 10
-0.152709
 20
0.160220
  0
VERTEX
  8
PLAN_1
  6
CONTINUOUS
 10
-0.152709
 20
0.164728
  0
VERTEX
  8
PLAN_1
  6
CONTINUOUS
 10
-0.152709
 20
0.171736
  0
VERTEX
  8
PLAN_1
  6
CONTINUOUS
 10
-0.153209
 20
0.174240
  0
SEQEND
  8
0
  0
POLYLINE
  8
PLAN_1
  6
CONTINUOUS
 66
     1
 40
0.008508
 41
0.008508
  0
VERTEX
  8
PLAN_1
  6
CONTINUOUS
 10
-0.153209
 20
0.174240
  0
VERTEX
  8
PLAN_1
  6
CONTINUOUS
 10
-1.102012
 20
0.174240
  0
SEQEND
  8
0
  0
POLYLINE
  8
PLAN_1
  6
CONTINUOUS
 66
     1
 40
0.008508
 41
0.008508
  0
VERTEX
  8
PLAN_1
  6
CONTINUOUS
 10
-1.102012
 20
0.174240
  0
VERTEX
  8
PLAN_1
  6
CONTINUOUS
 10
-1.102512
 20
0.171736
  0
VERTEX
  8
PLAN_1
  6
CONTINUOUS
 10
-1.104512
 20
0.164728
  0
VERTEX
  8
PLAN_1
  6
CONTINUOUS
 10
-1.105516
 20
0.160220
  0
VERTEX
  8
PLAN_1
  6
CONTINUOUS
 10
-1.106016
 20
0.155213
  0
VERTEX
  8
PLAN_1
  6
CONTINUOUS
 10
-1.106516
 20
0.149205
  0
VERTEX
  8
PLAN_1
  6
CONTINUOUS
 10
-1.106516
 20
0.143697
  0
VERTEX
  8
PLAN_1
  6
CONTINUOUS
 10
-1.105516
 20
0.138189
  0
VERTEX
  8
PLAN_1
  6
CONTINUOUS
 10
-1.104012
 20
0.132181
  0
VERTEX
  8
PLAN_1
  6
CONTINUOUS
 10
-1.103012
 20
0.129677
  0
VERTEX
  8
PLAN_1
  6
CONTINUOUS
 10
-1.102012
 20
0.127177
  0
VERTEX
  8
PLAN_1
  6
CONTINUOUS
 10
-1.100508
 20
0.124673
  0
VERTEX
  8
PLAN_1
  6
CONTINUOUS
 10
-1.098504
 20
0.122669
  0
VERTEX
  8
PLAN_1
  6
CONTINUOUS
 10
-1.096504
 20
0.120665
  0
VERTEX
  8
PLAN_1
  6
CONTINUOUS
 10
-1.094000
 20
0.118665
  0
VERTEX
  8
PLAN_1
  6
CONTINUOUS
 10
-1.091496
 20
0.117161
  0
VERTEX
  8
PLAN_1
  6
CONTINUOUS
 10
-1.088492
 20
0.115661
  0
VERTEX
  8
PLAN_1
  6
CONTINUOUS
 10
-1.084988
 20
0.114657
  0
VERTEX
  8
PLAN_1
  6
CONTINUOUS
 10
-1.080980
 20
0.113657
  0
VERTEX
  8
PLAN_1
  6
CONTINUOUS
 10
-1.076976
 20
0.113157
  0
VERTEX
  8
PLAN_1
  6
CONTINUOUS
 10
-1.071969
 20
0.113157
  0
VERTEX
  8
PLAN_1
  6
CONTINUOUS
 10
-1.027409
 20
0.113157
  0
VERTEX
  8
PLAN_1
  6
CONTINUOUS
 10
-0.929272
 20
0.113157
  0
VERTEX
  8
PLAN_1
  6
CONTINUOUS
 10
-0.795591
 20
0.113157
  0
VERTEX
  8
PLAN_1
  6
CONTINUOUS
 10
-0.643382
 20
0.113157
  0
VERTEX
  8
PLAN_1
  6
CONTINUOUS
 10
-0.489669
 20
0.113157
  0
VERTEX
  8
PLAN_1
  6
CONTINUOUS
 10
-0.351480
 20
0.113157
  0
VERTEX
  8
PLAN_1
  6
CONTINUOUS
 10
-0.246335
 20
0.113157
  0
VERTEX
  8
PLAN_1
  6
CONTINUOUS
 10
-0.191760
 20
0.113157
  0
SEQEND
  8
0
  0
POLYLINE
  8
PLAN_1
  6
CONTINUOUS
 66
     1
 40
0.008508
 41
0.008508
  0
VERTEX
  8
PLAN_1
  6
CONTINUOUS
 10
-1.025906
 20
0.113157
  0
VERTEX
  8
PLAN_1
  6
CONTINUOUS
 10
-1.025906
 20
-0.203280
  0
VERTEX
  8
PLAN_1
  6
CONTINUOUS
 10
-0.983846
 20
-0.203280
  0
VERTEX
  8
PLAN_1
  6
CONTINUOUS
 10
-0.983846
 20
-0.246839
  0
VERTEX
  8
PLAN_1
  6
CONTINUOUS
 10
-0.930276
 20
-0.246839
  0
VERTEX
  8
PLAN_1
  6
CONTINUOUS
 10
-0.930276
 20
-0.203280
  0
VERTEX
  8
PLAN_1
  6
CONTINUOUS
 10
-0.340465
 20
-0.203280
  0
VERTEX
  8
PLAN_1
  6
CONTINUOUS
 10
-0.340465
 20
-0.246839
  0
VERTEX
  8
PLAN_1
  6
CONTINUOUS
 10
-0.286890
 20
-0.246839
  0
VERTEX
  8
PLAN_1
  6
CONTINUOUS
 10
-0.286890
 20
-0.203280
  0
VERTEX
  8
PLAN_1
  6
CONTINUOUS
 10
-0.235319
 20
-0.203280
  0
VERTEX
  8
PLAN_1
  6
CONTINUOUS
 10
-0.235319
 20
0.113157
  0
VERTEX
  8
PLAN_1
  6
CONTINUOUS
 10
-1.025906
 20
0.113157
  0
SEQEND
  8
0
  0
POLYLINE
  8
PLAN_1
  6
CONTINUOUS
 66
     1
 40
0.004004
 41
0.004004
  0
VERTEX
  8
PLAN_1
  6
CONTINUOUS
 10
-0.101638
 20
-0.018024
  0
VERTEX
  8
PLAN_1
  6
CONTINUOUS
 10
0.142197
 20
-0.018024
  0
SEQEND
  8
0
  0
POLYLINE
  8
PLAN_1
  6
CONTINUOUS
 66
     1
 40
0.004004
 41
0.004004
  0
VERTEX
  8
PLAN_1
  6
CONTINUOUS
 10
-1.278752
 20
-0.016524
  0
VERTEX
  8
PLAN_1
  6
CONTINUOUS
 10
-1.034417
 20
-0.016524
  0
SEQEND
  8
0
  0
POLYLINE
  8
PLAN_1
  6
CONTINUOUS
 66
     1
 40
0.004004
 41
0.004004
  0
VERTEX
  8
PLAN_1
  6
CONTINUOUS
 10
-1.416441
 20
-0.484665
  0
VERTEX
  8
PLAN_1
  6
CONTINUOUS
 10
-1.416441
 20
-0.212791
  0
VERTEX
  8
PLAN_1
  6
CONTINUOUS
 10
-1.166598
 20
-0.212791
  0
VERTEX
  8
PLAN_1
  6
CONTINUOUS
 10
-1.166598
 20
0.174240
  0
VERTEX
  8
PLAN_1
  6
CONTINUOUS
 10
0.006512
 20
0.174740
  0
VERTEX
  8
PLAN_1
  6
CONTINUOUS
 10
0.006512
 20
-0.482661
  0
SEQEND
  8
0
  0
POLYLINE
  8
PLAN_1
  6
CONTINUOUS
 66
     1
 40
0.005504
 41
0.005504
  0
VERTEX
  8
PLAN_1
  6
CONTINUOUS
 10
-1.938657
 20
0.825134
  0
VERTEX
  8
PLAN_1
  6
CONTINUOUS
 10
-1.938657
 20
0.574287
  0
SEQEND
  8
0
  0
POLYLINE
  8
PLAN_1
  6
CONTINUOUS
 66
     1
 40
0.008508
 41
0.008508
  0
VERTEX
  8
PLAN_1
  6
CONTINUOUS
 10
-1.725866
 20
1.621228
  0
VERTEX
  8
PLAN_1
  6
CONTINUOUS
 10
-1.725866
 20
3.597441
  0
VERTEX
  8
PLAN_1
  6
CONTINUOUS
 10
-2.119909
 20
3.597441
  0
VERTEX
  8
PLAN_1
  6
CONTINUOUS
 10
-2.119909
 20
1.621228
  0
VERTEX
  8
PLAN_1
  6
CONTINUOUS
 10
-1.725866
 20
1.621228
  0
SEQEND
  8
0
  0
POLYLINE
  8
PLAN_1
  6
CONTINUOUS
 66
     1
 40
0.008508
 41
0.008508
  0
VERTEX
  8
PLAN_1
  6
CONTINUOUS
 10
-2.120409
 20
2.374260
  0
VERTEX
  8
PLAN_1
  6
CONTINUOUS
 10
-2.120409
 20
2.848413
  0
VERTEX
  8
PLAN_1
  6
CONTINUOUS
 10
-2.182996
 20
2.848413
  0
VERTEX
  8
PLAN_1
  6
CONTINUOUS
 10
-2.182996
 20
2.374260
  0
VERTEX
  8
PLAN_1
  6
CONTINUOUS
 10
-2.120409
 20
2.374260
  0
SEQEND
  8
0
  0
POLYLINE
  8
PLAN_1
  6
CONTINUOUS
 66
     1
 40
0.008508
 41
0.008508
  0
VERTEX
  8
PLAN_1
  6
CONTINUOUS
 10
-1.664283
 20
2.374260
  0
VERTEX
  8
PLAN_1
  6
CONTINUOUS
 10
-1.664283
 20
2.848413
  0
VERTEX
  8
PLAN_1
  6
CONTINUOUS
 10
-1.725866
 20
2.848413
  0
VERTEX
  8
PLAN_1
  6
CONTINUOUS
 10
-1.725866
 20
2.374260
  0
VERTEX
  8
PLAN_1
  6
CONTINUOUS
 10
-1.664283
 20
2.374260
  0
SEQEND
  8
0
  0
POLYLINE
  8
PLAN_1
  6
CONTINUOUS
 66
     1
 40
0.008508
 41
0.008508
  0
VERTEX
  8
PLAN_1
  6
CONTINUOUS
 10
-1.538610
 20
2.527972
  0
VERTEX
  8
PLAN_1
  6
CONTINUOUS
 10
-1.538610
 20
2.681181
  0
VERTEX
  8
PLAN_1
  6
CONTINUOUS
 10
-1.594685
 20
2.681181
  0
VERTEX
  8
PLAN_1
  6
CONTINUOUS
 10
-1.594685
 20
2.527972
  0
VERTEX
  8
PLAN_1
  6
CONTINUOUS
 10
-1.538610
 20
2.527972
  0
SEQEND
  8
0
  0
POLYLINE
  8
PLAN_1
  6
CONTINUOUS
 66
     1
 40
0.005504
 41
0.005504
  0
VERTEX
  8
PLAN_1
  6
CONTINUOUS
 10
-0.644382
 20
-0.569280
  0
VERTEX
  8
PLAN_1
  6
CONTINUOUS
 10
-0.396039
 20
-0.525220
  0
VERTEX
  8
PLAN_1
  6
CONTINUOUS
 10
-0.384024
 20
-0.523217
  0
SEQEND
  8
0
  0
POLYLINE
  8
PLAN_1
  6
CONTINUOUS
 66
     1
 40
0.005504
 41
0.005504
  0
VERTEX
  8
PLAN_1
  6
CONTINUOUS
 10
-0.384024
 20
-0.523217
  0
VERTEX
  8
PLAN_1
  6
CONTINUOUS
 10
-0.380020
 20
-0.522217
  0
VERTEX
  8
PLAN_1
  6
CONTINUOUS
 10
-0.376516
 20
-0.520213
  0
VERTEX
  8
PLAN_1
  6
CONTINUOUS
 10
-0.373512
 20
-0.517709
  0
VERTEX
  8
PLAN_1
  6
CONTINUOUS
 10
-0.371508
 20
-0.514705
  0
VERTEX
  8
PLAN_1
  6
CONTINUOUS
 10
-0.369504
 20
-0.511701
  0
VERTEX
  8
PLAN_1
  6
CONTINUOUS
 10
-0.368004
 20
-0.508197
  0
VERTEX
  8
PLAN_1
  6
CONTINUOUS
 10
-0.367500
 20
-0.504193
  0
VERTEX
  8
PLAN_1
  6
CONTINUOUS
 10
-0.368004
 20
-0.500185
  0
VERTEX
  8
PLAN_1
  6
CONTINUOUS
 10
-0.369004
 20
-0.496181
  0
VERTEX
  8
PLAN_1
  6
CONTINUOUS
 10
-0.371008
 20
-0.492677
  0
VERTEX
  8
PLAN_1
  6
CONTINUOUS
 10
-0.373008
 20
-0.489673
  0
VERTEX
  8
PLAN_1
  6
CONTINUOUS
 10
-0.376012
 20
-0.487169
  0
VERTEX
  8
PLAN_1
  6
CONTINUOUS
 10
-0.379520
 20
-0.485665
  0
VERTEX
  8
PLAN_1
  6
CONTINUOUS
 10
-0.383024
 20
-0.484165
  0
VERTEX
  8
PLAN_1
  6
CONTINUOUS
 10
-0.387028
 20
-0.483661
  0
VERTEX
  8
PLAN_1
  6
CONTINUOUS
 10
-0.391035
 20
-0.484165
  0
SEQEND
  8
0
  0
POLYLINE
  8
PLAN_1
  6
CONTINUOUS
 66
     1
 40
0.005504
 41
0.005504
  0
VERTEX
  8
PLAN_1
  6
CONTINUOUS
 10
-0.391035
 20
-0.484165
  0
VERTEX
  8
PLAN_1
  6
CONTINUOUS
 10
-0.403051
 20
-0.486165
  0
VERTEX
  8
PLAN_1
  6
CONTINUOUS
 10
-0.868189
 20
-0.568280
  0
VERTEX
  8
PLAN_1
  6
CONTINUOUS
 10
-0.876201
 20
-0.569783
  0
SEQEND
  8
0
  0
POLYLINE
  8
PLAN_1
  6
CONTINUOUS
 66
     1
 40
0.005504
 41
0.005504
  0
VERTEX
  8
PLAN_1
  6
CONTINUOUS
 10
-0.876201
 20
-0.569783
  0
VERTEX
  8
PLAN_1
  6
CONTINUOUS
 10
-0.879705
 20
-0.570783
  0
VERTEX
  8
PLAN_1
  6
CONTINUOUS
 10
-0.883209
 20
-0.572787
  0
VERTEX
  8
PLAN_1
  6
CONTINUOUS
 10
-0.886213
 20
-0.575287
  0
VERTEX
  8
PLAN_1
  6
CONTINUOUS
 10
-0.888717
 20
-0.577791
  0
VERTEX
  8
PLAN_1
  6
CONTINUOUS
 10
-0.890720
 20
-0.581299
  0
VERTEX
  8
PLAN_1
  6
CONTINUOUS
 10
-0.891720
 20
-0.584803
  0
VERTEX
  8
PLAN_1
  6
CONTINUOUS
 10
-0.892220
 20
-0.588807
  0
VERTEX
  8
PLAN_1
  6
CONTINUOUS
 10
-0.892220
 20
-0.592815
  0
VERTEX
  8
PLAN_1
  6
CONTINUOUS
 10
-0.890720
 20
-0.596819
  0
VERTEX
  8
PLAN_1
  6
CONTINUOUS
 10
-0.889217
 20
-0.599823
  0
VERTEX
  8
PLAN_1
  6
CONTINUOUS
 10
-0.886717
 20
-0.602827
  0
VERTEX
  8
PLAN_1
  6
CONTINUOUS
 10
-0.883709
 20
-0.605331
  0
VERTEX
  8
PLAN_1
  6
CONTINUOUS
 10
-0.880705
 20
-0.607335
  0
VERTEX
  8
PLAN_1
  6
CONTINUOUS
 10
-0.877201
 20
-0.608835
  0
VERTEX
  8
PLAN_1
  6
CONTINUOUS
 10
-0.873197
 20
-0.608835
  0
VERTEX
  8
PLAN_1
  6
CONTINUOUS
 10
-0.869189
 20
-0.608835
  0
SEQEND
  8
0
  0
POLYLINE
  8
PLAN_1
  6
CONTINUOUS
 66
     1
 40
0.005504
 41
0.005504
  0
VERTEX
  8
PLAN_1
  6
CONTINUOUS
 10
-0.762543
 20
-0.417071
  0
VERTEX
  8
PLAN_1
  6
CONTINUOUS
 10
-0.396039
 20
-0.481661
  0
VERTEX
  8
PLAN_1
  6
CONTINUOUS
 10
-0.384024
 20
-0.484165
  0
SEQEND
  8
0
  0
POLYLINE
  8
PLAN_1
  6
CONTINUOUS
 66
     1
 40
0.005504
 41
0.005504
  0
VERTEX
  8
PLAN_1
  6
CONTINUOUS
 10
-0.384024
 20
-0.484165
  0
VERTEX
  8
PLAN_1
  6
CONTINUOUS
 10
-0.380020
 20
-0.485165
  0
VERTEX
  8
PLAN_1
  6
CONTINUOUS
 10
-0.376516
 20
-0.487169
  0
VERTEX
  8
PLAN_1
  6
CONTINUOUS
 10
-0.373512
 20
-0.489169
  0
VERTEX
  8
PLAN_1
  6
CONTINUOUS
 10
-0.371008
 20
-0.492173
  0
VERTEX
  8
PLAN_1
  6
CONTINUOUS
 10
-0.369504
 20
-0.495681
  0
VERTEX
  8
PLAN_1
  6
CONTINUOUS
 10
-0.368004
 20
-0.499185
  0
VERTEX
  8
PLAN_1
  6
CONTINUOUS
 10
-0.367500
 20
-0.503189
  0
VERTEX
  8
PLAN_1
  6
CONTINUOUS
 10
-0.368004
 20
-0.507197
  0
VERTEX
  8
PLAN_1
  6
CONTINUOUS
 10
-0.369004
 20
-0.510701
  0
VERTEX
  8
PLAN_1
  6
CONTINUOUS
 10
-0.370504
 20
-0.514205
  0
VERTEX
  8
PLAN_1
  6
CONTINUOUS
 10
-0.373008
 20
-0.517209
  0
VERTEX
  8
PLAN_1
  6
CONTINUOUS
 10
-0.376012
 20
-0.519713
  0
VERTEX
  8
PLAN_1
  6
CONTINUOUS
 10
-0.379520
 20
-0.521717
  0
VERTEX
  8
PLAN_1
  6
CONTINUOUS
 10
-0.383024
 20
-0.522717
  0
VERTEX
  8
PLAN_1
  6
CONTINUOUS
 10
-0.387028
 20
-0.523217
  0
VERTEX
  8
PLAN_1
  6
CONTINUOUS
 10
-0.390531
 20
-0.523217
  0
SEQEND
  8
0
  0
POLYLINE
  8
PLAN_1
  6
CONTINUOUS
 66
     1
 40
0.005504
 41
0.005504
  0
VERTEX
  8
PLAN_1
  6
CONTINUOUS
 10
-0.505189
 20
-0.502689
  0
VERTEX
  8
PLAN_1
  6
CONTINUOUS
 10
-0.868189
 20
-0.438602
  0
VERTEX
  8
PLAN_1
  6
CONTINUOUS
 10
-0.875701
 20
-0.437098
  0
SEQEND
  8
0
  0
POLYLINE
  8
PLAN_1
  6
CONTINUOUS
 66
     1
 40
0.005504
 41
0.005504
  0
VERTEX
  8
PLAN_1
  6
CONTINUOUS
 10
-0.875701
 20
-0.437098
  0
VERTEX
  8
PLAN_1
  6
CONTINUOUS
 10
-0.879705
 20
-0.436098
  0
VERTEX
  8
PLAN_1
  6
CONTINUOUS
 10
-0.883209
 20
-0.434594
  0
VERTEX
  8
PLAN_1
  6
CONTINUOUS
 10
-0.886213
 20
-0.432091
  0
VERTEX
  8
PLAN_1
  6
CONTINUOUS
 10
-0.888717
 20
-0.429087
  0
VERTEX
  8
PLAN_1
  6
CONTINUOUS
 10
-0.890720
 20
-0.426083
  0
VERTEX
  8
PLAN_1
  6
CONTINUOUS
 10
-0.891720
 20
-0.422079
  0
VERTEX
  8
PLAN_1
  6
CONTINUOUS
 10
-0.892220
 20
-0.418575
  0
VERTEX
  8
PLAN_1
  6
CONTINUOUS
 10
-0.891720
 20
-0.414567
  0
VERTEX
  8
PLAN_1
  6
CONTINUOUS
 10
-0.890720
 20
-0.410563
  0
VERTEX
  8
PLAN_1
  6
CONTINUOUS
 10
-0.889217
 20
-0.407059
  0
VERTEX
  8
PLAN_1
  6
CONTINUOUS
 10
-0.886717
 20
-0.404055
  0
VERTEX
  8
PLAN_1
  6
CONTINUOUS
 10
-0.883709
 20
-0.401551
  0
VERTEX
  8
PLAN_1
  6
CONTINUOUS
 10
-0.880705
 20
-0.399547
  0
VERTEX
  8
PLAN_1
  6
CONTINUOUS
 10
-0.876701
 20
-0.398547
  0
VERTEX
  8
PLAN_1
  6
CONTINUOUS
 10
-0.873197
 20
-0.398047
  0
VERTEX
  8
PLAN_1
  6
CONTINUOUS
 10
-0.869189
 20
-0.398547
  0
SEQEND
  8
0
  0
POLYLINE
  8
PLAN_1
  6
CONTINUOUS
 66
     1
 40
0.005504
 41
0.005504
  0
VERTEX
  8
PLAN_1
  6
CONTINUOUS
 10
-0.760543
 20
-0.245335
  0
VERTEX
  8
PLAN_1
  6
CONTINUOUS
 10
-0.396039
 20
-0.309425
  0
VERTEX
  8
PLAN_1
  6
CONTINUOUS
 10
-0.384024
 20
-0.311929
  0
SEQEND
  8
0
  0
POLYLINE
  8
PLAN_1
  6
CONTINUOUS
 66
     1
 40
0.005504
 41
0.005504
  0
VERTEX
  8
PLAN_1
  6
CONTINUOUS
 10
-0.384024
 20
-0.311929
  0
VERTEX
  8
PLAN_1
  6
CONTINUOUS
 10
-0.380020
 20
-0.312929
  0
VERTEX
  8
PLAN_1
  6
CONTINUOUS
 10
-0.376516
 20
-0.314429
  0
VERTEX
  8
PLAN_1
  6
CONTINUOUS
 10
-0.373512
 20
-0.316933
  0
VERTEX
  8
PLAN_1
  6
CONTINUOUS
 10
-0.371008
 20
-0.319937
  0
VERTEX
  8
PLAN_1
  6
CONTINUOUS
 10
-0.369004
 20
-0.322941
  0
VERTEX
  8
PLAN_1
  6
CONTINUOUS
 10
-0.368004
 20
-0.326949
  0
VERTEX
  8
PLAN_1
  6
CONTINUOUS
 10
-0.367500
 20
-0.330453
  0
VERTEX
  8
PLAN_1
  6
CONTINUOUS
 10
-0.368004
 20
-0.334457
  0
VERTEX
  8
PLAN_1
  6
CONTINUOUS
 10
-0.369004
 20
-0.338465
  0
VERTEX
  8
PLAN_1
  6
CONTINUOUS
 10
-0.370504
 20
-0.341969
  0
VERTEX
  8
PLAN_1
  6
CONTINUOUS
 10
-0.373008
 20
-0.344972
  0
VERTEX
  8
PLAN_1
  6
CONTINUOUS
 10
-0.376012
 20
-0.347476
  0
VERTEX
  8
PLAN_1
  6
CONTINUOUS
 10
-0.379520
 20
-0.349480
  0
VERTEX
  8
PLAN_1
  6
CONTINUOUS
 10
-0.383024
 20
-0.350480
  0
VERTEX
  8
PLAN_1
  6
CONTINUOUS
 10
-0.386528
 20
-0.350980
  0
VERTEX
  8
PLAN_1
  6
CONTINUOUS
 10
-0.390531
 20
-0.350480
  0
SEQEND
  8
0
  0
POLYLINE
  8
PLAN_1
  6
CONTINUOUS
 66
     1
 40
0.005504
 41
0.005504
  0
VERTEX
  8
PLAN_1
  6
CONTINUOUS
 10
-0.501685
 20
-0.330953
  0
VERTEX
  8
PLAN_1
  6
CONTINUOUS
 10
-0.867689
 20
-0.266366
  0
VERTEX
  8
PLAN_1
  6
CONTINUOUS
 10
-0.875701
 20
-0.264862
  0
SEQEND
  8
0
  0
POLYLINE
  8
PLAN_1
  6
CONTINUOUS
 66
     1
 40
0.005504
 41
0.005504
  0
VERTEX
  8
PLAN_1
  6
CONTINUOUS
 10
-0.875701
 20
-0.264862
  0
VERTEX
  8
PLAN_1
  6
CONTINUOUS
 10
-0.879705
 20
-0.263862
  0
VERTEX
  8
PLAN_1
  6
CONTINUOUS
 10
-0.883209
 20
-0.261858
  0
VERTEX
  8
PLAN_1
  6
CONTINUOUS
 10
-0.886213
 20
-0.259854
  0
VERTEX
  8
PLAN_1
  6
CONTINUOUS
 10
-0.888717
 20
-0.256850
  0
VERTEX
  8
PLAN_1
  6
CONTINUOUS
 10
-0.890720
 20
-0.253346
  0
VERTEX
  8
PLAN_1
  6
CONTINUOUS
 10
-0.891720
 20
-0.249843
  0
VERTEX
  8
PLAN_1
  6
CONTINUOUS
 10
-0.892220
 20
-0.245839
  0
VERTEX
  8
PLAN_1
  6
CONTINUOUS
 10
-0.891720
 20
-0.241831
  0
VERTEX
  8
PLAN_1
  6
CONTINUOUS
 10
-0.890720
 20
-0.238327
  0
VERTEX
  8
PLAN_1
  6
CONTINUOUS
 10
-0.889217
 20
-0.234823
  0
VERTEX
  8
PLAN_1
  6
CONTINUOUS
 10
-0.886717
 20
-0.231819
  0
VERTEX
  8
PLAN_1
  6
CONTINUOUS
 10
-0.883709
 20
-0.229315
  0
VERTEX
  8
PLAN_1
  6
CONTINUOUS
 10
-0.880205
 20
-0.227311
  0
VERTEX
  8
PLAN_1
  6
CONTINUOUS
 10
-0.876701
 20
-0.226311
  0
VERTEX
  8
PLAN_1
  6
CONTINUOUS
 10
-0.873197
 20
-0.225811
  0
VERTEX
  8
PLAN_1
  6
CONTINUOUS
 10
-0.869189
 20
-0.225811
  0
SEQEND
  8
0
  0
POLYLINE
  8
PLAN_1
  6
CONTINUOUS
 66
     1
 40
0.003000
 41
0.003000
  0
VERTEX
  8
PLAN_1
  6
CONTINUOUS
 10
0.304421
 20
-3.971453
  0
VERTEX
  8
PLAN_1
  6
CONTINUOUS
 10
0.147705
 20
-3.971453
  0
VERTEX
  8
PLAN_1
  6
CONTINUOUS
 10
0.147705
 20
-3.948921
  0
VERTEX
  8
PLAN_1
  6
CONTINUOUS
 10
0.269874
 20
-3.795713
  0
VERTEX
  8
PLAN_1
  6
CONTINUOUS
 10
0.156717
 20
-3.795713
  0
VERTEX
  8
PLAN_1
  6
CONTINUOUS
 10
0.156717
 20
-3.772177
  0
VERTEX
  8
PLAN_1
  6
CONTINUOUS
 10
0.304421
 20
-3.772177
  0
VERTEX
  8
PLAN_1
  6
CONTINUOUS
 10
0.304421
 20
-3.795209
  0
VERTEX
  8
PLAN_1
  6
CONTINUOUS
 10
0.181752
 20
-3.947421
  0
VERTEX
  8
PLAN_1
  6
CONTINUOUS
 10
0.304421
 20
-3.947421
  0
VERTEX
  8
PLAN_1
  6
CONTINUOUS
 10
0.304421
 20
-3.971453
  0
SEQEND
  8
0
  0
POLYLINE
  8
PLAN_1
  6
CONTINUOUS
 66
     1
 40
0.003000
 41
0.003000
  0
VERTEX
  8
PLAN_1
  6
CONTINUOUS
 10
0.471650
 20
-3.831760
  0
VERTEX
  8
PLAN_1
  6
CONTINUOUS
 10
0.470150
 20
-3.825752
  0
VERTEX
  8
PLAN_1
  6
CONTINUOUS
 10
0.468146
 20
-3.820244
  0
VERTEX
  8
PLAN_1
  6
CONTINUOUS
 10
0.465642
 20
-3.815236
  0
VERTEX
  8
PLAN_1
  6
CONTINUOUS
 10
0.462638
 20
-3.810732
  0
VERTEX
  8
PLAN_1
  6
CONTINUOUS
 10
0.459634
 20
-3.806724
  0
VERTEX
  8
PLAN_1
  6
CONTINUOUS
 10
0.456130
 20
-3.803720
  0
VERTEX
  8
PLAN_1
  6
CONTINUOUS
 10
0.452122
 20
-3.800717
  0
VERTEX
  8
PLAN_1
  6
CONTINUOUS
 10
0.448118
 20
-3.798213
  0
VERTEX
  8
PLAN_1
  6
CONTINUOUS
 10
0.444114
 20
-3.796213
  0
VERTEX
  8
PLAN_1
  6
CONTINUOUS
 10
0.440106
 20
-3.794709
  0
VERTEX
  8
PLAN_1
  6
CONTINUOUS
 10
0.436102
 20
-3.793209
  0
VERTEX
  8
PLAN_1
  6
CONTINUOUS
 10
0.431594
 20
-3.792205
  0
VERTEX
  8
PLAN_1
  6
CONTINUOUS
 10
0.423583
 20
-3.790705
  0
VERTEX
  8
PLAN_1
  6
CONTINUOUS
 10
0.416075
 20
-3.790705
  0
VERTEX
  8
PLAN_1
  6
CONTINUOUS
 10
0.409567
 20
-3.790705
  0
VERTEX
  8
PLAN_1
  6
CONTINUOUS
 10
0.403055
 20
-3.791705
  0
VERTEX
  8
PLAN_1
  6
CONTINUOUS
 10
0.396547
 20
-3.793209
  0
VERTEX
  8
PLAN_1
  6
CONTINUOUS
 10
0.390539
 20
-3.795713
  0
VERTEX
  8
PLAN_1
  6
CONTINUOUS
 10
0.385031
 20
-3.798213
  0
VERTEX
  8
PLAN_1
  6
CONTINUOUS
 10
0.379524
 20
-3.801720
  0
VERTEX
  8
PLAN_1
  6
CONTINUOUS
 10
0.374516
 20
-3.805724
  0
VERTEX
  8
PLAN_1
  6
CONTINUOUS
 10
0.370012
 20
-3.810732
  0
VERTEX
  8
PLAN_1
  6
CONTINUOUS
 10
0.365504
 20
-3.815740
  0
VERTEX
  8
PLAN_1
  6
CONTINUOUS
 10
0.362000
 20
-3.821748
  0
VERTEX
  8
PLAN_1
  6
CONTINUOUS
 10
0.358496
 20
-3.828256
  0
VERTEX
  8
PLAN_1
  6
CONTINUOUS
 10
0.355992
 20
-3.835264
  0
VERTEX
  8
PLAN_1
  6
CONTINUOUS
 10
0.353988
 20
-3.842776
  0
VERTEX
  8
PLAN_1
  6
CONTINUOUS
 10
0.351988
 20
-3.851287
  0
VERTEX
  8
PLAN_1
  6
CONTINUOUS
 10
0.350984
 20
-3.860299
  0
VERTEX
  8
PLAN_1
  6
CONTINUOUS
 10
0.350984
 20
-3.869811
  0
VERTEX
  8
PLAN_1
  6
CONTINUOUS
 10
0.350984
 20
-3.878323
  0
VERTEX
  8
PLAN_1
  6
CONTINUOUS
 10
0.351484
 20
-3.886835
  0
VERTEX
  8
PLAN_1
  6
CONTINUOUS
 10
0.352488
 20
-3.894846
  0
VERTEX
  8
PLAN_1
  6
CONTINUOUS
 10
0.354488
 20
-3.902358
  0
VERTEX
  8
PLAN_1
  6
CONTINUOUS
 10
0.355992
 20
-3.909866
  0
VERTEX
  8
PLAN_1
  6
CONTINUOUS
 10
0.358496
 20
-3.916378
  0
VERTEX
  8
PLAN_1
  6
CONTINUOUS
 10
0.362000
 20
-3.922886
  0
VERTEX
  8
PLAN_1
  6
CONTINUOUS
 10
0.365504
 20
-3.928894
  0
VERTEX
  8
PLAN_1
  6
CONTINUOUS
 10
0.369512
 20
-3.933902
  0
VERTEX
  8
PLAN_1
  6
CONTINUOUS
 10
0.374516
 20
-3.938909
  0
VERTEX
  8
PLAN_1
  6
CONTINUOUS
 10
0.379524
 20
-3.942913
  0
VERTEX
  8
PLAN_1
  6
CONTINUOUS
 10
0.385531
 20
-3.946417
  0
VERTEX
  8
PLAN_1
  6
CONTINUOUS
 10
0.392543
 20
-3.948921
  0
VERTEX
  8
PLAN_1
  6
CONTINUOUS
 10
0.400051
 20
-3.950925
  0
VERTEX
  8
PLAN_1
  6
CONTINUOUS
 10
0.408063
 20
-3.952425
  0
VERTEX
  8
PLAN_1
  6
CONTINUOUS
 10
0.417075
 20
-3.952925
  0
VERTEX
  8
PLAN_1
  6
CONTINUOUS
 10
0.420579
 20
-3.952425
  0
VERTEX
  8
PLAN_1
  6
CONTINUOUS
 10
0.424087
 20
-3.952425
  0
VERTEX
  8
PLAN_1
  6
CONTINUOUS
 10
0.428091
 20
-3.951425
  0
VERTEX
  8
PLAN_1
  6
CONTINUOUS
 10
0.432094
 20
-3.950925
  0
VERTEX
  8
PLAN_1
  6
CONTINUOUS
 10
0.436102
 20
-3.949421
  0
VERTEX
  8
PLAN_1
  6
CONTINUOUS
 10
0.440106
 20
-3.947421
  0
VERTEX
  8
PLAN_1
  6
CONTINUOUS
 10
0.444614
 20
-3.945417
  0
VERTEX
  8
PLAN_1
  6
CONTINUOUS
 10
0.448618
 20
-3.942913
  0
VERTEX
  8
PLAN_1
  6
CONTINUOUS
 10
0.452626
 20
-3.939409
  0
VERTEX
  8
PLAN_1
  6
CONTINUOUS
 10
0.456630
 20
-3.935902
  0
VERTEX
  8
PLAN_1
  6
CONTINUOUS
 10
0.460134
 20
-3.931398
  0
VERTEX
  8
PLAN_1
  6
CONTINUOUS
 10
0.463638
 20
-3.925890
  0
VERTEX
  8
PLAN_1
  6
CONTINUOUS
 10
0.466642
 20
-3.920382
  0
VERTEX
  8
PLAN_1
  6
CONTINUOUS
 10
0.469650
 20
-3.913874
  0
VERTEX
  8
PLAN_1
  6
CONTINUOUS
 10
0.471650
 20
-3.906362
  0
VERTEX
  8
PLAN_1
  6
CONTINUOUS
 10
0.473654
 20
-3.897850
  0
VERTEX
  8
PLAN_1
  6
CONTINUOUS
 10
0.499689
 20
-3.897850
  0
VERTEX
  8
PLAN_1
  6
CONTINUOUS
 10
0.498689
 20
-3.904862
  0
VERTEX
  8
PLAN_1
  6
CONTINUOUS
 10
0.497185
 20
-3.911370
  0
VERTEX
  8
PLAN_1
  6
CONTINUOUS
 10
0.495685
 20
-3.917378
  0
VERTEX
  8
PLAN_1
  6
CONTINUOUS
 10
0.493681
 20
-3.922886
  0
VERTEX
  8
PLAN_1
  6
CONTINUOUS
 10
0.491177
 20
-3.928394
  0
VERTEX
  8
PLAN_1
  6
CONTINUOUS
 10
0.489173
 20
-3.933402
  0
VERTEX
  8
PLAN_1
  6
CONTINUOUS
 10
0.486669
 20
-3.937906
  0
VERTEX
  8
PLAN_1
  6
CONTINUOUS
 10
0.483665
 20
-3.941913
  0
VERTEX
  8
PLAN_1
  6
CONTINUOUS
 10
0.480661
 20
-3.945917
  0
VERTEX
  8
PLAN_1
  6
CONTINUOUS
 10
0.477657
 20
-3.949421
  0
VERTEX
  8
PLAN_1
  6
CONTINUOUS
 10
0.474654
 20
-3.952925
  0
VERTEX
  8
PLAN_1
  6
CONTINUOUS
 10
0.471650
 20
-3.955929
  0
VERTEX
  8
PLAN_1
  6
CONTINUOUS
 10
0.464642
 20
-3.961437
  0
VERTEX
  8
PLAN_1
  6
CONTINUOUS
 10
0.457630
 20
-3.965445
  0
VERTEX
  8
PLAN_1
  6
CONTINUOUS
 10
0.450622
 20
-3.968949
  0
VERTEX
  8
PLAN_1
  6
CONTINUOUS
 10
0.444114
 20
-3.971453
  0
VERTEX
  8
PLAN_1
  6
CONTINUOUS
 10
0.437602
 20
-3.973457
  0
VERTEX
  8
PLAN_1
  6
CONTINUOUS
 10
0.431094
 20
-3.974957
  0
VERTEX
  8
PLAN_1
  6
CONTINUOUS
 10
0.420579
 20
-3.976461
  0
VERTEX
  8
PLAN_1
  6
CONTINUOUS
 10
0.412571
 20
-3.976461
  0
VERTEX
  8
PLAN_1
  6
CONTINUOUS
 10
0.404059
 20
-3.976461
  0
VERTEX
  8
PLAN_1
  6
CONTINUOUS
 10
0.396047
 20
-3.974957
  0
VERTEX
  8
PLAN_1
  6
CONTINUOUS
 10
0.387535
 20
-3.973457
  0
VERTEX
  8
PLAN_1
  6
CONTINUOUS
 10
0.379524
 20
-3.970953
  0
VERTEX
  8
PLAN_1
  6
CONTINUOUS
 10
0.372012
 20
-3.967445
  0
VERTEX
  8
PLAN_1
  6
CONTINUOUS
 10
0.364504
 20
-3.963441
  0
VERTEX
  8
PLAN_1
  6
CONTINUOUS
 10
0.357492
 20
-3.958433
  0
VERTEX
  8
PLAN_1
  6
CONTINUOUS
 10
0.350984
 20
-3.952425
  0
VERTEX
  8
PLAN_1
  6
CONTINUOUS
 10
0.347980
 20
-3.948921
  0
VERTEX
  8
PLAN_1
  6
CONTINUOUS
 10
0.344976
 20
-3.945417
  0
VERTEX
  8
PLAN_1
  6
CONTINUOUS
 10
0.341972
 20
-3.941913
  0
VERTEX
  8
PLAN_1
  6
CONTINUOUS
 10
0.339469
 20
-3.937906
  0
VERTEX
  8
PLAN_1
  6
CONTINUOUS
 10
0.336965
 20
-3.933402
  0
VERTEX
  8
PLAN_1
  6
CONTINUOUS
 10
0.334965
 20
-3.928894
  0
VERTEX
  8
PLAN_1
  6
CONTINUOUS
 10
0.332461
 20
-3.924386
  0
VERTEX
  8
PLAN_1
  6
CONTINUOUS
 10
0.330957
 20
-3.919382
  0
VERTEX
  8
PLAN_1
  6
CONTINUOUS
 10
0.328953
 20
-3.914374
  0
VERTEX
  8
PLAN_1
  6
CONTINUOUS
 10
0.327453
 20
-3.908866
  0
VERTEX
  8
PLAN_1
  6
CONTINUOUS
 10
0.325949
 20
-3.902858
  0
VERTEX
  8
PLAN_1
  6
CONTINUOUS
 10
0.324949
 20
-3.897350
  0
VERTEX
  8
PLAN_1
  6
CONTINUOUS
 10
0.324449
 20
-3.890843
  0
VERTEX
  8
PLAN_1
  6
CONTINUOUS
 10
0.323449
 20
-3.884335
  0
VERTEX
  8
PLAN_1
  6
CONTINUOUS
 10
0.323449
 20
-3.877823
  0
VERTEX
  8
PLAN_1
  6
CONTINUOUS
 10
0.322945
 20
-3.870315
  0
VERTEX
  8
PLAN_1
  6
CONTINUOUS
 10
0.323449
 20
-3.859299
  0
VERTEX
  8
PLAN_1
  6
CONTINUOUS
 10
0.324949
 20
-3.848283
  0
VERTEX
  8
PLAN_1
  6
CONTINUOUS
 10
0.326953
 20
-3.838268
  0
VERTEX
  8
PLAN_1
  6
CONTINUOUS
 10
0.329457
 20
-3.828256
  0
VERTEX
  8
PLAN_1
  6
CONTINUOUS
 10
0.332961
 20
-3.819244
  0
VERTEX
  8
PLAN_1
  6
CONTINUOUS
 10
0.337465
 20
-3.810732
  0
VERTEX
  8
PLAN_1
  6
CONTINUOUS
 10
0.341972
 20
-3.802720
  0
VERTEX
  8
PLAN_1
  6
CONTINUOUS
 10
0.347980
 20
-3.795713
  0
VERTEX
  8
PLAN_1
  6
CONTINUOUS
 10
0.350984
 20
-3.792205
  0
VERTEX
  8
PLAN_1
  6
CONTINUOUS
 10
0.353988
 20
-3.789201
  0
VERTEX
  8
PLAN_1
  6
CONTINUOUS
 10
0.357492
 20
-3.786197
  0
VERTEX
  8
PLAN_1
  6
CONTINUOUS
 10
0.361000
 20
-3.783193
  0
VERTEX
  8
PLAN_1
  6
CONTINUOUS
 10
0.365004
 20
-3.780689
  0
VERTEX
  8
PLAN_1
  6
CONTINUOUS
 10
0.369008
 20
-3.778689
  0
VERTEX
  8
PLAN_1
  6
CONTINUOUS
 10
0.373016
 20
-3.776185
  0
VERTEX
  8
PLAN_1
  6
CONTINUOUS
 10
0.377020
 20
-3.774181
  0
VERTEX
  8
PLAN_1
  6
CONTINUOUS
 10
0.381528
 20
-3.772681
  0
VERTEX
  8
PLAN_1
  6
CONTINUOUS
 10
0.386031
 20
-3.771177
  0
VERTEX
  8
PLAN_1
  6
CONTINUOUS
 10
0.390539
 20
-3.769677
  0
VERTEX
  8
PLAN_1
  6
CONTINUOUS
 10
0.395547
 20
-3.768673
  0
VERTEX
  8
PLAN_1
  6
CONTINUOUS
 10
0.400551
 20
-3.767673
  0
VERTEX
  8
PLAN_1
  6
CONTINUOUS
 10
0.405559
 20
-3.767173
  0
VERTEX
  8
PLAN_1
  6
CONTINUOUS
 10
0.410567
 20
-3.766669
  0
VERTEX
  8
PLAN_1
  6
CONTINUOUS
 10
0.416075
 20
-3.766669
  0
VERTEX
  8
PLAN_1
  6
CONTINUOUS
 10
0.425587
 20
-3.767173
  0
VERTEX
  8
PLAN_1
  6
CONTINUOUS
 10
0.434098
 20
-3.768173
  0
VERTEX
  8
PLAN_1
  6
CONTINUOUS
 10
0.442610
 20
-3.769677
  0
VERTEX
  8
PLAN_1
  6
CONTINUOUS
 10
0.450122
 20
-3.772177
  0
VERTEX
  8
PLAN_1
  6
CONTINUOUS
 10
0.457130
 20
-3.775181
  0
VERTEX
  8
PLAN_1
  6
CONTINUOUS
 10
0.463638
 20
-3.778689
  0
VERTEX
  8
PLAN_1
  6
CONTINUOUS
 10
0.469650
 20
-3.782693
  0
VERTEX
  8
PLAN_1
  6
CONTINUOUS
 10
0.474654
 20
-3.786697
  0
VERTEX
  8
PLAN_1
  6
CONTINUOUS
 10
0.479661
 20
-3.791705
  0
VERTEX
  8
PLAN_1
  6
CONTINUOUS
 10
0.483665
 20
-3.796713
  0
VERTEX
  8
PLAN_1
  6
CONTINUOUS
 10
0.487673
 20
-3.802220
  0
VERTEX
  8
PLAN_1
  6
CONTINUOUS
 10
0.490677
 20
-3.807728
  0
VERTEX
  8
PLAN_1
  6
CONTINUOUS
 10
0.493181
 20
-3.813736
  0
VERTEX
  8
PLAN_1
  6
CONTINUOUS
 10
0.495685
 20
-3.819744
  0
VERTEX
  8
PLAN_1
  6
CONTINUOUS
 10
0.497185
 20
-3.825752
  0
VERTEX
  8
PLAN_1
  6
CONTINUOUS
 10
0.498185
 20
-3.831760
  0
VERTEX
  8
PLAN_1
  6
CONTINUOUS
 10
0.471650
 20
-3.831760
  0
SEQEND
  8
0
  0
POLYLINE
  8
PLAN_1
  6
CONTINUOUS
 66
     1
 40
0.003000
 41
0.003000
  0
VERTEX
  8
PLAN_1
  6
CONTINUOUS
 10
0.559272
 20
-3.971453
  0
VERTEX
  8
PLAN_1
  6
CONTINUOUS
 10
0.532736
 20
-3.971453
  0
VERTEX
  8
PLAN_1
  6
CONTINUOUS
 10
0.532736
 20
-3.772177
  0
VERTEX
  8
PLAN_1
  6
CONTINUOUS
 10
0.559272
 20
-3.772177
  0
VERTEX
  8
PLAN_1
  6
CONTINUOUS
 10
0.559272
 20
-3.868811
  0
VERTEX
  8
PLAN_1
  6
CONTINUOUS
 10
0.655906
 20
-3.772177
  0
VERTEX
  8
PLAN_1
  6
CONTINUOUS
 10
0.692953
 20
-3.772177
  0
VERTEX
  8
PLAN_1
  6
CONTINUOUS
 10
0.610343
 20
-3.852287
  0
VERTEX
  8
PLAN_1
  6
CONTINUOUS
 10
0.695457
 20
-3.971453
  0
VERTEX
  8
PLAN_1
  6
CONTINUOUS
 10
0.660409
 20
-3.971453
  0
VERTEX
  8
PLAN_1
  6
CONTINUOUS
 10
0.590815
 20
-3.871315
  0
VERTEX
  8
PLAN_1
  6
CONTINUOUS
 10
0.559272
 20
-3.901354
  0
VERTEX
  8
PLAN_1
  6
CONTINUOUS
 10
0.559272
 20
-3.971453
  0
SEQEND
  8
0
  0
POLYLINE
  8
PLAN_1
  6
CONTINUOUS
 66
     1
 40
0.003000
 41
0.003000
  0
VERTEX
  8
PLAN_1
  6
CONTINUOUS
 10
0.718992
 20
-3.772177
  0
VERTEX
  8
PLAN_1
  6
CONTINUOUS
 10
0.800102
 20
-3.772177
  0
VERTEX
  8
PLAN_1
  6
CONTINUOUS
 10
0.809614
 20
-3.772681
  0
VERTEX
  8
PLAN_1
  6
CONTINUOUS
 10
0.818626
 20
-3.773681
  0
VERTEX
  8
PLAN_1
  6
CONTINUOUS
 10
0.827138
 20
-3.776185
  0
VERTEX
  8
PLAN_1
  6
CONTINUOUS
 10
0.834650
 20
-3.779189
  0
VERTEX
  8
PLAN_1
  6
CONTINUOUS
 10
0.842157
 20
-3.782693
  0
VERTEX
  8
PLAN_1
  6
CONTINUOUS
 10
0.849169
 20
-3.787701
  0
VERTEX
  8
PLAN_1
  6
CONTINUOUS
 10
0.855677
 20
-3.792709
  0
VERTEX
  8
PLAN_1
  6
CONTINUOUS
 10
0.861185
 20
-3.798717
  0
VERTEX
  8
PLAN_1
  6
CONTINUOUS
 10
0.866193
 20
-3.805724
  0
VERTEX
  8
PLAN_1
  6
CONTINUOUS
 10
0.870697
 20
-3.812736
  0
VERTEX
  8
PLAN_1
  6
CONTINUOUS
 10
0.874705
 20
-3.820744
  0
VERTEX
  8
PLAN_1
  6
CONTINUOUS
 10
0.877709
 20
-3.829756
  0
VERTEX
  8
PLAN_1
  6
CONTINUOUS
 10
0.880213
 20
-3.838772
  0
VERTEX
  8
PLAN_1
  6
CONTINUOUS
 10
0.882213
 20
-3.848283
  0
VERTEX
  8
PLAN_1
  6
CONTINUOUS
 10
0.883217
 20
-3.858295
  0
VERTEX
  8
PLAN_1
  6
CONTINUOUS
 10
0.883717
 20
-3.868811
  0
VERTEX
  8
PLAN_1
  6
CONTINUOUS
 10
0.883717
 20
-3.877323
  0
VERTEX
  8
PLAN_1
  6
CONTINUOUS
 10
0.882717
 20
-3.886335
  0
VERTEX
  8
PLAN_1
  6
CONTINUOUS
 10
0.881713
 20
-3.894846
  0
VERTEX
  8
PLAN_1
  6
CONTINUOUS
 10
0.879713
 20
-3.903858
  0
VERTEX
  8
PLAN_1
  6
CONTINUOUS
 10
0.877209
 20
-3.912370
  0
VERTEX
  8
PLAN_1
  6
CONTINUOUS
 10
0.874205
 20
-3.920882
  0
VERTEX
  8
PLAN_1
  6
CONTINUOUS
 10
0.870197
 20
-3.928894
  0
VERTEX
  8
PLAN_1
  6
CONTINUOUS
 10
0.865693
 20
-3.936906
  0
VERTEX
  8
PLAN_1
  6
CONTINUOUS
 10
0.863189
 20
-3.940409
  0
VERTEX
  8
PLAN_1
  6
CONTINUOUS
 10
0.860685
 20
-3.943913
  0
VERTEX
  8
PLAN_1
  6
CONTINUOUS
 10
0.857681
 20
-3.947421
  0
VERTEX
  8
PLAN_1
  6
CONTINUOUS
 10
0.854677
 20
-3.950925
  0
VERTEX
  8
PLAN_1
  6
CONTINUOUS
 10
0.851173
 20
-3.953929
  0
VERTEX
  8
PLAN_1
  6
CONTINUOUS
 10
0.847665
 20
-3.956433
  0
VERTEX
  8
PLAN_1
  6
CONTINUOUS
 10
0.843661
 20
-3.959437
  0
VERTEX
  8
PLAN_1
  6
CONTINUOUS
 10
0.839657
 20
-3.961437
  0
VERTEX
  8
PLAN_1
  6
CONTINUOUS
 10
0.835650
 20
-3.963941
  0
VERTEX
  8
PLAN_1
  6
CONTINUOUS
 10
0.831146
 20
-3.965445
  0
VERTEX
  8
PLAN_1
  6
CONTINUOUS
 10
0.826138
 20
-3.967445
  0
VERTEX
  8
PLAN_1
  6
CONTINUOUS
 10
0.821130
 20
-3.968949
  0
VERTEX
  8
PLAN_1
  6
CONTINUOUS
 10
0.816122
 20
-3.969949
  0
VERTEX
  8
PLAN_1
  6
CONTINUOUS
 10
0.810614
 20
-3.970453
  0
VERTEX
  8
PLAN_1
  6
CONTINUOUS
 10
0.804606
 20
-3.970953
  0
VERTEX
  8
PLAN_1
  6
CONTINUOUS
 10
0.798598
 20
-3.971453
  0
VERTEX
  8
PLAN_1
  6
CONTINUOUS
 10
0.718992
 20
-3.971453
  0
VERTEX
  8
PLAN_1
  6
CONTINUOUS
 10
0.718992
 20
-3.772177
  0
SEQEND
  8
0
  0
POLYLINE
  8
PLAN_1
  6
CONTINUOUS
 66
     1
 40
0.003000
 41
0.003000
  0
VERTEX
  8
PLAN_1
  6
CONTINUOUS
 10
0.746028
 20
-3.948421
  0
VERTEX
  8
PLAN_1
  6
CONTINUOUS
 10
0.798098
 20
-3.948421
  0
VERTEX
  8
PLAN_1
  6
CONTINUOUS
 10
0.804606
 20
-3.947921
  0
VERTEX
  8
PLAN_1
  6
CONTINUOUS
 10
0.810614
 20
-3.946917
  0
VERTEX
  8
PLAN_1
  6
CONTINUOUS
 10
0.816626
 20
-3.945417
  0
VERTEX
  8
PLAN_1
  6
CONTINUOUS
 10
0.822130
 20
-3.943413
  0
VERTEX
  8
PLAN_1
  6
CONTINUOUS
 10
0.827138
 20
-3.940409
  0
VERTEX
  8
PLAN_1
  6
CONTINUOUS
 10
0.831646
 20
-3.936906
  0
VERTEX
  8
PLAN_1
  6
CONTINUOUS
 10
0.836150
 20
-3.932898
  0
VERTEX
  8
PLAN_1
  6
CONTINUOUS
 10
0.840157
 20
-3.928394
  0
VERTEX
  8
PLAN_1
  6
CONTINUOUS
 10
0.843661
 20
-3.922886
  0
VERTEX
  8
PLAN_1
  6
CONTINUOUS
 10
0.846665
 20
-3.917378
  0
VERTEX
  8
PLAN_1
  6
CONTINUOUS
 10
0.849669
 20
-3.910870
  0
VERTEX
  8
PLAN_1
  6
CONTINUOUS
 10
0.851673
 20
-3.903858
  0
VERTEX
  8
PLAN_1
  6
CONTINUOUS
 10
0.853673
 20
-3.896350
  0
VERTEX
  8
PLAN_1
  6
CONTINUOUS
 10
0.854677
 20
-3.888339
  0
VERTEX
  8
PLAN_1
  6
CONTINUOUS
 10
0.855677
 20
-3.879827
  0
VERTEX
  8
PLAN_1
  6
CONTINUOUS
 10
0.856177
 20
-3.870315
  0
VERTEX
  8
PLAN_1
  6
CONTINUOUS
 10
0.855677
 20
-3.861299
  0
VERTEX
  8
PLAN_1
  6
CONTINUOUS
 10
0.854677
 20
-3.852791
  0
VERTEX
  8
PLAN_1
  6
CONTINUOUS
 10
0.853673
 20
-3.844780
  0
VERTEX
  8
PLAN_1
  6
CONTINUOUS
 10
0.851673
 20
-3.837768
  0
VERTEX
  8
PLAN_1
  6
CONTINUOUS
 10
0.849669
 20
-3.830760
  0
VERTEX
  8
PLAN_1
  6
CONTINUOUS
 10
0.846665
 20
-3.824752
  0
VERTEX
  8
PLAN_1
  6
CONTINUOUS
 10
0.843661
 20
-3.818744
  0
VERTEX
  8
PLAN_1
  6
CONTINUOUS
 10
0.839657
 20
-3.813736
  0
VERTEX
  8
PLAN_1
  6
CONTINUOUS
 10
0.835650
 20
-3.809728
  0
VERTEX
  8
PLAN_1
  6
CONTINUOUS
 10
0.831146
 20
-3.805724
  0
VERTEX
  8
PLAN_1
  6
CONTINUOUS
 10
0.826138
 20
-3.802220
  0
VERTEX
  8
PLAN_1
  6
CONTINUOUS
 10
0.821130
 20
-3.799717
  0
VERTEX
  8
PLAN_1
  6
CONTINUOUS
 10
0.815622
 20
-3.797713
  0
VERTEX
  8
PLAN_1
  6
CONTINUOUS
 10
0.809114
 20
-3.796213
  0
VERTEX
  8
PLAN_1
  6
CONTINUOUS
 10
0.803106
 20
-3.795209
  0
VERTEX
  8
PLAN_1
  6
CONTINUOUS
 10
0.796094
 20
-3.795209
  0
VERTEX
  8
PLAN_1
  6
CONTINUOUS
 10
0.746028
 20
-3.795209
  0
VERTEX
  8
PLAN_1
  6
CONTINUOUS
 10
0.746028
 20
-3.948421
  0
SEQEND
  8
0
  0
POLYLINE
  8
PLAN_1
  6
CONTINUOUS
 66
     1
 40
0.003000
 41
0.003000
  0
VERTEX
  8
PLAN_1
  6
CONTINUOUS
 10
1.013894
 20
-3.923886
  0
VERTEX
  8
PLAN_1
  6
CONTINUOUS
 10
1.013894
 20
-3.971453
  0
VERTEX
  8
PLAN_1
  6
CONTINUOUS
 10
0.989362
 20
-3.971453
  0
VERTEX
  8
PLAN_1
  6
CONTINUOUS
 10
0.989362
 20
-3.923886
  0
VERTEX
  8
PLAN_1
  6
CONTINUOUS
 10
0.904244
 20
-3.923886
  0
VERTEX
  8
PLAN_1
  6
CONTINUOUS
 10
0.904244
 20
-3.899854
  0
VERTEX
  8
PLAN_1
  6
CONTINUOUS
 10
0.993366
 20
-3.776185
  0
VERTEX
  8
PLAN_1
  6
CONTINUOUS
 10
1.013894
 20
-3.776185
  0
VERTEX
  8
PLAN_1
  6
CONTINUOUS
 10
1.013894
 20
-3.902858
  0
VERTEX
  8
PLAN_1
  6
CONTINUOUS
 10
1.042433
 20
-3.902858
  0
VERTEX
  8
PLAN_1
  6
CONTINUOUS
 10
1.042433
 20
-3.923886
  0
VERTEX
  8
PLAN_1
  6
CONTINUOUS
 10
1.013894
 20
-3.923886
  0
SEQEND
  8
0
  0
SOLID
  8
PLAN_1
 10
0.926776
 20
-3.902858
 11
0.989362
 21
-3.902858
 12
0.988862
 22
-3.814236
 13
0.989362
 23
-3.814236
  0
POLYLINE
  8
PLAN_1
  6
CONTINUOUS
 66
     1
 40
0.003000
 41
0.003000
  0
VERTEX
  8
PLAN_1
  6
CONTINUOUS
 10
0.926776
 20
-3.902858
  0
VERTEX
  8
PLAN_1
  6
CONTINUOUS
 10
0.989362
 20
-3.902858
  0
VERTEX
  8
PLAN_1
  6
CONTINUOUS
 10
0.989362
 20
-3.814236
  0
VERTEX
  8
PLAN_1
  6
CONTINUOUS
 10
0.988862
 20
-3.814236
  0
VERTEX
  8
PLAN_1
  6
CONTINUOUS
 10
0.926776
 20
-3.902858
  0
SEQEND
  8
0
  0
POLYLINE
  8
PLAN_1
  6
CONTINUOUS
 66
     1
 40
0.003000
 41
0.003000
  0
VERTEX
  8
PLAN_1
  6
CONTINUOUS
 10
1.062961
 20
-3.843276
  0
VERTEX
  8
PLAN_1
  6
CONTINUOUS
 10
1.063465
 20
-3.836268
  0
VERTEX
  8
PLAN_1
  6
CONTINUOUS
 10
1.063965
 20
-3.829756
  0
VERTEX
  8
PLAN_1
  6
CONTINUOUS
 10
1.065465
 20
-3.823748
  0
VERTEX
  8
PLAN_1
  6
CONTINUOUS
 10
1.066969
 20
-3.817740
  0
VERTEX
  8
PLAN_1
  6
CONTINUOUS
 10
1.069472
 20
-3.811732
  0
VERTEX
  8
PLAN_1
  6
CONTINUOUS
 10
1.071976
 20
-3.806224
  0
VERTEX
  8
PLAN_1
  6
CONTINUOUS
 10
1.075480
 20
-3.801220
  0
VERTEX
  8
PLAN_1
  6
CONTINUOUS
 10
1.078984
 20
-3.796213
  0
VERTEX
  8
PLAN_1
  6
CONTINUOUS
 10
1.083492
 20
-3.791705
  0
VERTEX
  8
PLAN_1
  6
CONTINUOUS
 10
1.087996
 20
-3.788201
  0
VERTEX
  8
PLAN_1
  6
CONTINUOUS
 10
1.093004
 20
-3.784697
  0
VERTEX
  8
PLAN_1
  6
CONTINUOUS
 10
1.099012
 20
-3.781693
  0
VERTEX
  8
PLAN_1
  6
CONTINUOUS
 10
1.105020
 20
-3.779189
  0
VERTEX
  8
PLAN_1
  6
CONTINUOUS
 10
1.111528
 20
-3.777685
  0
VERTEX
  8
PLAN_1
  6
CONTINUOUS
 10
1.118539
 20
-3.776685
  0
VERTEX
  8
PLAN_1
  6
CONTINUOUS
 10
1.126047
 20
-3.776185
  0
VERTEX
  8
PLAN_1
  6
CONTINUOUS
 10
1.131555
 20
-3.776185
  0
VERTEX
  8
PLAN_1
  6
CONTINUOUS
 10
1.137063
 20
-3.776685
  0
VERTEX
  8
PLAN_1
  6
CONTINUOUS
 10
1.142071
 20
-3.777685
  0
VERTEX
  8
PLAN_1
  6
CONTINUOUS
 10
1.146579
 20
-3.778689
  0
VERTEX
  8
PLAN_1
  6
CONTINUOUS
 10
1.151083
 20
-3.780189
  0
VERTEX
  8
PLAN_1
  6
CONTINUOUS
 10
1.155091
 20
-3.781693
  0
VERTEX
  8
PLAN_1
  6
CONTINUOUS
 10
1.159094
 20
-3.783693
  0
VERTEX
  8
PLAN_1
  6
CONTINUOUS
 10
1.162598
 20
-3.785697
  0
VERTEX
  8
PLAN_1
  6
CONTINUOUS
 10
1.166102
 20
-3.788201
  0
VERTEX
  8
PLAN_1
  6
CONTINUOUS
 10
1.169106
 20
-3.790705
  0
VERTEX
  8
PLAN_1
  6
CONTINUOUS
 10
1.172114
 20
-3.793709
  0
VERTEX
  8
PLAN_1
  6
CONTINUOUS
 10
1.174614
 20
-3.796713
  0
VERTEX
  8
PLAN_1
  6
CONTINUOUS
 10
1.179622
 20
-3.802720
  0
VERTEX
  8
PLAN_1
  6
CONTINUOUS
 10
1.183126
 20
-3.809728
  0
VERTEX
  8
PLAN_1
  6
CONTINUOUS
 10
1.186634
 20
-3.816740
  0
VERTEX
  8
PLAN_1
  6
CONTINUOUS
 10
1.189134
 20
-3.824252
  0
VERTEX
  8
PLAN_1
  6
CONTINUOUS
 10
1.190638
 20
-3.831760
  0
VERTEX
  8
PLAN_1
  6
CONTINUOUS
 10
1.192142
 20
-3.839272
  0
VERTEX
  8
PLAN_1
  6
CONTINUOUS
 10
1.193142
 20
-3.846780
  0
VERTEX
  8
PLAN_1
  6
CONTINUOUS
 10
1.193642
 20
-3.853791
  0
VERTEX
  8
PLAN_1
  6
CONTINUOUS
 10
1.194142
 20
-3.860299
  0
VERTEX
  8
PLAN_1
  6
CONTINUOUS
 10
1.194142
 20
-3.866807
  0
VERTEX
  8
PLAN_1
  6
CONTINUOUS
 10
1.193642
 20
-3.877323
  0
VERTEX
  8
PLAN_1
  6
CONTINUOUS
 10
1.192642
 20
-3.892843
  0
VERTEX
  8
PLAN_1
  6
CONTINUOUS
 10
1.191138
 20
-3.901354
  0
VERTEX
  8
PLAN_1
  6
CONTINUOUS
 10
1.189638
 20
-3.910370
  0
VERTEX
  8
PLAN_1
  6
CONTINUOUS
 10
1.187134
 20
-3.919882
  0
VERTEX
  8
PLAN_1
  6
CONTINUOUS
 10
1.184130
 20
-3.929394
  0
VERTEX
  8
PLAN_1
  6
CONTINUOUS
 10
1.180122
 20
-3.938406
  0
VERTEX
  8
PLAN_1
  6
CONTINUOUS
 10
1.175118
 20
-3.947421
  0
VERTEX
  8
PLAN_1
  6
CONTINUOUS
 10
1.172614
 20
-3.951425
  0
VERTEX
  8
PLAN_1
  6
CONTINUOUS
 10
1.169610
 20
-3.955429
  0
VERTEX
  8
PLAN_1
  6
CONTINUOUS
 10
1.166102
 20
-3.958937
  0
VERTEX
  8
PLAN_1
  6
CONTINUOUS
 10
1.162598
 20
-3.962441
  0
VERTEX
  8
PLAN_1
  6
CONTINUOUS
 10
1.159094
 20
-3.965445
  0
VERTEX
  8
PLAN_1
  6
CONTINUOUS
 10
1.155091
 20
-3.968449
  0
VERTEX
  8
PLAN_1
  6
CONTINUOUS
 10
1.150583
 20
-3.970453
  0
VERTEX
  8
PLAN_1
  6
CONTINUOUS
 10
1.145575
 20
-3.972953
  0
VERTEX
  8
PLAN_1
  6
CONTINUOUS
 10
1.140571
 20
-3.974457
  0
VERTEX
  8
PLAN_1
  6
CONTINUOUS
 10
1.135063
 20
-3.975457
  0
VERTEX
  8
PLAN_1
  6
CONTINUOUS
 10
1.129555
 20
-3.976461
  0
VERTEX
  8
PLAN_1
  6
CONTINUOUS
 10
1.123547
 20
-3.976461
  0
VERTEX
  8
PLAN_1
  6
CONTINUOUS
 10
1.115035
 20
-3.975957
  0
VERTEX
  8
PLAN_1
  6
CONTINUOUS
 10
1.107524
 20
-3.974957
  0
VERTEX
  8
PLAN_1
  6
CONTINUOUS
 10
1.101016
 20
-3.973457
  0
VERTEX
  8
PLAN_1
  6
CONTINUOUS
 10
1.095008
 20
-3.970953
  0
VERTEX
  8
PLAN_1
  6
CONTINUOUS
 10
1.089500
 20
-3.968449
  0
VERTEX
  8
PLAN_1
  6
CONTINUOUS
 10
1.084992
 20
-3.964945
  0
VERTEX
  8
PLAN_1
  6
CONTINUOUS
 10
1.080988
 20
-3.961437
  0
VERTEX
  8
PLAN_1
  6
CONTINUOUS
 10
1.076980
 20
-3.957433
  0
VERTEX
  8
PLAN_1
  6
CONTINUOUS
 10
1.073976
 20
-3.953429
  0
VERTEX
  8
PLAN_1
  6
CONTINUOUS
 10
1.071472
 20
-3.949421
  0
VERTEX
  8
PLAN_1
  6
CONTINUOUS
 10
1.069472
 20
-3.944917
  0
VERTEX
  8
PLAN_1
  6
CONTINUOUS
 10
1.067969
 20
-3.940409
  0
VERTEX
  8
PLAN_1
  6
CONTINUOUS
 10
1.066969
 20
-3.936406
  0
VERTEX
  8
PLAN_1
  6
CONTINUOUS
 10
1.065969
 20
-3.931898
  0
VERTEX
  8
PLAN_1
  6
CONTINUOUS
 10
1.065465
 20
-3.927894
  0
VERTEX
  8
PLAN_1
  6
CONTINUOUS
 10
1.065465
 20
-3.924386
  0
VERTEX
  8
PLAN_1
  6
CONTINUOUS
 10
1.090000
 20
-3.924386
  0
VERTEX
  8
PLAN_1
  6
CONTINUOUS
 10
1.090000
 20
-3.927894
  0
VERTEX
  8
PLAN_1
  6
CONTINUOUS
 10
1.091000
 20
-3.931398
  0
VERTEX
  8
PLAN_1
  6
CONTINUOUS
 10
1.091500
 20
-3.934902
  0
VERTEX
  8
PLAN_1
  6
CONTINUOUS
 10
1.092504
 20
-3.937906
  0
VERTEX
  8
PLAN_1
  6
CONTINUOUS
 10
1.094004
 20
-3.940409
  0
VERTEX
  8
PLAN_1
  6
CONTINUOUS
 10
1.095508
 20
-3.942913
  0
VERTEX
  8
PLAN_1
  6
CONTINUOUS
 10
1.097512
 20
-3.945417
  0
VERTEX
  8
PLAN_1
  6
CONTINUOUS
 10
1.099512
 20
-3.947921
  0
VERTEX
  8
PLAN_1
  6
CONTINUOUS
 10
1.101516
 20
-3.949921
  0
VERTEX
  8
PLAN_1
  6
CONTINUOUS
 10
1.104020
 20
-3.951425
  0
VERTEX
  8
PLAN_1
  6
CONTINUOUS
 10
1.106524
 20
-3.952925
  0
VERTEX
  8
PLAN_1
  6
CONTINUOUS
 10
1.109528
 20
-3.953929
  0
VERTEX
  8
PLAN_1
  6
CONTINUOUS
 10
1.112531
 20
-3.954929
  0
VERTEX
  8
PLAN_1
  6
CONTINUOUS
 10
1.115535
 20
-3.955929
  0
VERTEX
  8
PLAN_1
  6
CONTINUOUS
 10
1.119039
 20
-3.955929
  0
VERTEX
  8
PLAN_1
  6
CONTINUOUS
 10
1.123043
 20
-3.956433
  0
VERTEX
  8
PLAN_1
  6
CONTINUOUS
 10
1.127551
 20
-3.955929
  0
VERTEX
  8
PLAN_1
  6
CONTINUOUS
 10
1.132059
 20
-3.955429
  0
VERTEX
  8
PLAN_1
  6
CONTINUOUS
 10
1.136563
 20
-3.953929
  0
VERTEX
  8
PLAN_1
  6
CONTINUOUS
 10
1.140571
 20
-3.951925
  0
VERTEX
  8
PLAN_1
  6
CONTINUOUS
 10
1.144075
 20
-3.949421
  0
VERTEX
  8
PLAN_1
  6
CONTINUOUS
 10
1.147579
 20
-3.946417
  0
VERTEX
  8
PLAN_1
  6
CONTINUOUS
 10
1.151083
 20
-3.942913
  0
VERTEX
  8
PLAN_1
  6
CONTINUOUS
 10
1.154087
 20
-3.938909
  0
VERTEX
  8
PLAN_1
  6
CONTINUOUS
 10
1.156591
 20
-3.933902
  0
VERTEX
  8
PLAN_1
  6
CONTINUOUS
 10
1.159094
 20
-3.928394
  0
VERTEX
  8
PLAN_1
  6
CONTINUOUS
 10
1.161598
 20
-3.922886
  0
VERTEX
  8
PLAN_1
  6
CONTINUOUS
 10
1.163602
 20
-3.915878
  0
VERTEX
  8
PLAN_1
  6
CONTINUOUS
 10
1.165602
 20
-3.908866
  0
VERTEX
  8
PLAN_1
  6
CONTINUOUS
 10
1.167106
 20
-3.900854
  0
VERTEX
  8
PLAN_1
  6
CONTINUOUS
 10
1.168606
 20
-3.892343
  0
VERTEX
  8
PLAN_1
  6
CONTINUOUS
 10
1.169610
 20
-3.883331
  0
VERTEX
  8
PLAN_1
  6
CONTINUOUS
 10
1.169106
 20
-3.882831
  0
VERTEX
  8
PLAN_1
  6
CONTINUOUS
 10
1.167606
 20
-3.885335
  0
VERTEX
  8
PLAN_1
  6
CONTINUOUS
 10
1.166102
 20
-3.887839
  0
VERTEX
  8
PLAN_1
  6
CONTINUOUS
 10
1.164102
 20
-3.890343
  0
VERTEX
  8
PLAN_1
  6
CONTINUOUS
 10
1.161598
 20
-3.892843
  0
VERTEX
  8
PLAN_1
  6
CONTINUOUS
 10
1.156591
 20
-3.896850
  0
VERTEX
  8
PLAN_1
  6
CONTINUOUS
 10
1.151083
 20
-3.899854
  0
VERTEX
  8
PLAN_1
  6
CONTINUOUS
 10
1.144575
 20
-3.902858
  0
VERTEX
  8
PLAN_1
  6
CONTINUOUS
 10
1.138067
 20
-3.904358
  0
VERTEX
  8
PLAN_1
  6
CONTINUOUS
 10
1.131555
 20
-3.905862
  0
VERTEX
  8
PLAN_1
  6
CONTINUOUS
 10
1.124547
 20
-3.905862
  0
VERTEX
  8
PLAN_1
  6
CONTINUOUS
 10
1.118039
 20
-3.905862
  0
VERTEX
  8
PLAN_1
  6
CONTINUOUS
 10
1.111528
 20
-3.904862
  0
VERTEX
  8
PLAN_1
  6
CONTINUOUS
 10
1.105520
 20
-3.903358
  0
VERTEX
  8
PLAN_1
  6
CONTINUOUS
 10
1.099512
 20
-3.901858
  0
VERTEX
  8
PLAN_1
  6
CONTINUOUS
 10
1.094504
 20
-3.899354
  0
VERTEX
  8
PLAN_1
  6
CONTINUOUS
 10
1.089000
 20
-3.896350
  0
VERTEX
  8
PLAN_1
  6
CONTINUOUS
 10
1.084492
 20
-3.892843
  0
VERTEX
  8
PLAN_1
  6
CONTINUOUS
 10
1.080488
 20
-3.889339
  0
VERTEX
  8
PLAN_1
  6
CONTINUOUS
 10
1.076480
 20
-3.884835
  0
VERTEX
  8
PLAN_1
  6
CONTINUOUS
 10
1.072976
 20
-3.880327
  0
VERTEX
  8
PLAN_1
  6
CONTINUOUS
 10
1.069972
 20
-3.874819
  0
VERTEX
  8
PLAN_1
  6
CONTINUOUS
 10
1.067469
 20
-3.869311
  0
VERTEX
  8
PLAN_1
  6
CONTINUOUS
 10
1.065969
 20
-3.863303
  0
VERTEX
  8
PLAN_1
  6
CONTINUOUS
 10
1.064465
 20
-3.856795
  0
VERTEX
  8
PLAN_1
  6
CONTINUOUS
 10
1.063465
 20
-3.850287
  0
VERTEX
  8
PLAN_1
  6
CONTINUOUS
 10
1.062961
 20
-3.843276
  0
SEQEND
  8
0
  0
POLYLINE
  8
PLAN_1
  6
CONTINUOUS
 66
     1
 40
0.003000
 41
0.003000
  0
VERTEX
  8
PLAN_1
  6
CONTINUOUS
 10
1.165602
 20
-3.839772
  0
VERTEX
  8
PLAN_1
  6
CONTINUOUS
 10
1.165602
 20
-3.835768
  0
VERTEX
  8
PLAN_1
  6
CONTINUOUS
 10
1.165102
 20
-3.831760
  0
VERTEX
  8
PLAN_1
  6
CONTINUOUS
 10
1.164102
 20
-3.827756
  0
VERTEX
  8
PLAN_1
  6
CONTINUOUS
 10
1.163602
 20
-3.823748
  0
VERTEX
  8
PLAN_1
  6
CONTINUOUS
 10
1.162098
 20
-3.820244
  0
VERTEX
  8
PLAN_1
  6
CONTINUOUS
 10
1.160598
 20
-3.816740
  0
VERTEX
  8
PLAN_1
  6
CONTINUOUS
 10
1.158594
 20
-3.813736
  0
VERTEX
  8
PLAN_1
  6
CONTINUOUS
 10
1.156591
 20
-3.810732
  0
VERTEX
  8
PLAN_1
  6
CONTINUOUS
 10
1.154087
 20
-3.807728
  0
VERTEX
  8
PLAN_1
  6
CONTINUOUS
 10
1.151083
 20
-3.805224
  0
VERTEX
  8
PLAN_1
  6
CONTINUOUS
 10
1.147579
 20
-3.803220
  0
VERTEX
  8
PLAN_1
  6
CONTINUOUS
 10
1.144075
 20
-3.801720
  0
VERTEX
  8
PLAN_1
  6
CONTINUOUS
 10
1.140067
 20
-3.800217
  0
VERTEX
  8
PLAN_1
  6
CONTINUOUS
 10
1.136063
 20
-3.799217
  0
VERTEX
  8
PLAN_1
  6
CONTINUOUS
 10
1.131055
 20
-3.798213
  0
VERTEX
  8
PLAN_1
  6
CONTINUOUS
 10
1.126047
 20
-3.798213
  0
VERTEX
  8
PLAN_1
  6
CONTINUOUS
 10
1.122043
 20
-3.798213
  0
VERTEX
  8
PLAN_1
  6
CONTINUOUS
 10
1.118039
 20
-3.798717
  0
VERTEX
  8
PLAN_1
  6
CONTINUOUS
 10
1.114031
 20
-3.799717
  0
VERTEX
  8
PLAN_1
  6
CONTINUOUS
 10
1.110528
 20
-3.801220
  0
VERTEX
  8
PLAN_1
  6
CONTINUOUS
 10
1.107524
 20
-3.803220
  0
VERTEX
  8
PLAN_1
  6
CONTINUOUS
 10
1.104020
 20
-3.805224
  0
VERTEX
  8
PLAN_1
  6
CONTINUOUS
 10
1.101516
 20
-3.807728
  0
VERTEX
  8
PLAN_1
  6
CONTINUOUS
 10
1.099012
 20
-3.810232
  0
VERTEX
  8
PLAN_1
  6
CONTINUOUS
 10
1.096508
 20
-3.813236
  0
VERTEX
  8
PLAN_1
  6
CONTINUOUS
 10
1.094504
 20
-3.816740
  0
VERTEX
  8
PLAN_1
  6
CONTINUOUS
 10
1.092504
 20
-3.820244
  0
VERTEX
  8
PLAN_1
  6
CONTINUOUS
 10
1.091000
 20
-3.824252
  0
VERTEX
  8
PLAN_1
  6
CONTINUOUS
 10
1.090000
 20
-3.828256
  0
VERTEX
  8
PLAN_1
  6
CONTINUOUS
 10
1.089000
 20
-3.832764
  0
VERTEX
  8
PLAN_1
  6
CONTINUOUS
 10
1.088496
 20
-3.837268
  0
VERTEX
  8
PLAN_1
  6
CONTINUOUS
 10
1.088496
 20
-3.841776
  0
VERTEX
  8
PLAN_1
  6
CONTINUOUS
 10
1.088496
 20
-3.848783
  0
VERTEX
  8
PLAN_1
  6
CONTINUOUS
 10
1.089500
 20
-3.854291
  0
VERTEX
  8
PLAN_1
  6
CONTINUOUS
 10
1.090500
 20
-3.859799
  0
VERTEX
  8
PLAN_1
  6
CONTINUOUS
 10
1.092504
 20
-3.864307
  0
VERTEX
  8
PLAN_1
  6
CONTINUOUS
 10
1.094504
 20
-3.868311
  0
VERTEX
  8
PLAN_1
  6
CONTINUOUS
 10
1.096508
 20
-3.871815
  0
VERTEX
  8
PLAN_1
  6
CONTINUOUS
 10
1.099512
 20
-3.874819
  0
VERTEX
  8
PLAN_1
  6
CONTINUOUS
 10
1.102016
 20
-3.877323
  0
VERTEX
  8
PLAN_1
  6
CONTINUOUS
 10
1.105020
 20
-3.879327
  0
VERTEX
  8
PLAN_1
  6
CONTINUOUS
 10
1.108524
 20
-3.880827
  0
VERTEX
  8
PLAN_1
  6
CONTINUOUS
 10
1.111528
 20
-3.881831
  0
VERTEX
  8
PLAN_1
  6
CONTINUOUS
 10
1.115035
 20
-3.882831
  0
VERTEX
  8
PLAN_1
  6
CONTINUOUS
 10
1.121543
 20
-3.883831
  0
VERTEX
  8
PLAN_1
  6
CONTINUOUS
 10
1.128051
 20
-3.884335
  0
VERTEX
  8
PLAN_1
  6
CONTINUOUS
 10
1.133559
 20
-3.883831
  0
VERTEX
  8
PLAN_1
  6
CONTINUOUS
 10
1.139567
 20
-3.882831
  0
VERTEX
  8
PLAN_1
  6
CONTINUOUS
 10
1.142571
 20
-3.881831
  0
VERTEX
  8
PLAN_1
  6
CONTINUOUS
 10
1.145575
 20
-3.880327
  0
VERTEX
  8
PLAN_1
  6
CONTINUOUS
 10
1.148579
 20
-3.878323
  0
VERTEX
  8
PLAN_1
  6
CONTINUOUS
 10
1.151583
 20
-3.876323
  0
VERTEX
  8
PLAN_1
  6
CONTINUOUS
 10
1.154587
 20
-3.873819
  0
VERTEX
  8
PLAN_1
  6
CONTINUOUS
 10
1.157091
 20
-3.870815
  0
VERTEX
  8
PLAN_1
  6
CONTINUOUS
 10
1.159594
 20
-3.867311
  0
VERTEX
  8
PLAN_1
  6
CONTINUOUS
 10
1.161598
 20
-3.862803
  0
VERTEX
  8
PLAN_1
  6
CONTINUOUS
 10
1.163098
 20
-3.858295
  0
VERTEX
  8
PLAN_1
  6
CONTINUOUS
 10
1.164602
 20
-3.852791
  0
VERTEX
  8
PLAN_1
  6
CONTINUOUS
 10
1.165102
 20
-3.846780
  0
VERTEX
  8
PLAN_1
  6
CONTINUOUS
 10
1.165602
 20
-3.839772
  0
SEQEND
  8
0
  0
SOLID
  8
PLAN_1
 10
1.205657
 20
-4.006000
 11
1.205657
 21
-3.991980
 12
1.360370
 22
-4.006000
 13
1.360370
 23
-3.991980
  0
POLYLINE
  8
PLAN_1
  6
CONTINUOUS
 66
     1
 40
0.003000
 41
0.003000
  0
VERTEX
  8
PLAN_1
  6
CONTINUOUS
 10
1.205657
 20
-4.006000
  0
VERTEX
  8
PLAN_1
  6
CONTINUOUS
 10
1.205657
 20
-3.991980
  0
VERTEX
  8
PLAN_1
  6
CONTINUOUS
 10
1.360370
 20
-3.991980
  0
VERTEX
  8
PLAN_1
  6
CONTINUOUS
 10
1.360370
 20
-4.006000
  0
VERTEX
  8
PLAN_1
  6
CONTINUOUS
 10
1.205657
 20
-4.006000
  0
SEQEND
  8
0
  0
POLYLINE
  8
PLAN_1
  6
CONTINUOUS
 66
     1
 40
0.003000
 41
0.003000
  0
VERTEX
  8
PLAN_1
  6
CONTINUOUS
 10
1.411441
 20
-3.971453
  0
VERTEX
  8
PLAN_1
  6
CONTINUOUS
 10
1.384906
 20
-3.971453
  0
VERTEX
  8
PLAN_1
  6
CONTINUOUS
 10
1.384906
 20
-3.772177
  0
VERTEX
  8
PLAN_1
  6
CONTINUOUS
 10
1.477031
 20
-3.772177
  0
VERTEX
  8
PLAN_1
  6
CONTINUOUS
 10
1.483039
 20
-3.772177
  0
VERTEX
  8
PLAN_1
  6
CONTINUOUS
 10
1.489047
 20
-3.772681
  0
VERTEX
  8
PLAN_1
  6
CONTINUOUS
 10
1.495055
 20
-3.773181
  0
VERTEX
  8
PLAN_1
  6
CONTINUOUS
 10
1.501063
 20
-3.774681
  0
VERTEX
  8
PLAN_1
  6
CONTINUOUS
 10
1.506571
 20
-3.776185
  0
VERTEX
  8
PLAN_1
  6
CONTINUOUS
 10
1.512079
 20
-3.777685
  0
VERTEX
  8
PLAN_1
  6
CONTINUOUS
 10
1.517087
 20
-3.780189
  0
VERTEX
  8
PLAN_1
  6
CONTINUOUS
 10
1.522094
 20
-3.783193
  0
VERTEX
  8
PLAN_1
  6
CONTINUOUS
 10
1.526098
 20
-3.786197
  0
VERTEX
  8
PLAN_1
  6
CONTINUOUS
 10
1.530102
 20
-3.790205
  0
VERTEX
  8
PLAN_1
  6
CONTINUOUS
 10
1.533610
 20
-3.794709
  0
VERTEX
  8
PLAN_1
  6
CONTINUOUS
 10
1.536614
 20
-3.799217
  0
VERTEX
  8
PLAN_1
  6
CONTINUOUS
 10
1.539118
 20
-3.805224
  0
VERTEX
  8
PLAN_1
  6
CONTINUOUS
 10
1.541118
 20
-3.811232
  0
VERTEX
  8
PLAN_1
  6
CONTINUOUS
 10
1.542122
 20
-3.818240
  0
VERTEX
  8
PLAN_1
  6
CONTINUOUS
 10
1.542122
 20
-3.825752
  0
VERTEX
  8
PLAN_1
  6
CONTINUOUS
 10
1.542122
 20
-3.830760
  0
VERTEX
  8
PLAN_1
  6
CONTINUOUS
 10
1.541618
 20
-3.835768
  0
VERTEX
  8
PLAN_1
  6
CONTINUOUS
 10
1.541118
 20
-3.840272
  0
VERTEX
  8
PLAN_1
  6
CONTINUOUS
 10
1.539618
 20
-3.844280
  0
VERTEX
  8
PLAN_1
  6
CONTINUOUS
 10
1.538614
 20
-3.848283
  0
VERTEX
  8
PLAN_1
  6
CONTINUOUS
 10
1.537114
 20
-3.851787
  0
VERTEX
  8
PLAN_1
  6
CONTINUOUS
 10
1.535110
 20
-3.854791
  0
VERTEX
  8
PLAN_1
  6
CONTINUOUS
 10
1.533106
 20
-3.857795
  0
VERTEX
  8
PLAN_1
  6
CONTINUOUS
 10
1.529102
 20
-3.862803
  0
VERTEX
  8
PLAN_1
  6
CONTINUOUS
 10
1.524094
 20
-3.866807
  0
VERTEX
  8
PLAN_1
  6
CONTINUOUS
 10
1.519591
 20
-3.870315
  0
VERTEX
  8
PLAN_1
  6
CONTINUOUS
 10
1.514583
 20
-3.873319
  0
VERTEX
  8
PLAN_1
  6
CONTINUOUS
 10
1.519091
 20
-3.875319
  0
VERTEX
  8
PLAN_1
  6
CONTINUOUS
 10
1.523094
 20
-3.877323
  0
VERTEX
  8
PLAN_1
  6
CONTINUOUS
 10
1.527098
 20
-3.879827
  0
VERTEX
  8
PLAN_1
  6
CONTINUOUS
 10
1.530606
 20
-3.883331
  0
VERTEX
  8
PLAN_1
  6
CONTINUOUS
 10
1.532106
 20
-3.885335
  0
VERTEX
  8
PLAN_1
  6
CONTINUOUS
 10
1.533610
 20
-3.887839
  0
VERTEX
  8
PLAN_1
  6
CONTINUOUS
 10
1.534610
 20
-3.890843
  0
VERTEX
  8
PLAN_1
  6
CONTINUOUS
 10
1.536110
 20
-3.893846
  0
VERTEX
  8
PLAN_1
  6
CONTINUOUS
 10
1.536614
 20
-3.897350
  0
VERTEX
  8
PLAN_1
  6
CONTINUOUS
 10
1.537614
 20
-3.901354
  0
VERTEX
  8
PLAN_1
  6
CONTINUOUS
 10
1.538114
 20
-3.905862
  0
VERTEX
  8
PLAN_1
  6
CONTINUOUS
 10
1.538614
 20
-3.910870
  0
VERTEX
  8
PLAN_1
  6
CONTINUOUS
 10
1.540118
 20
-3.946917
  0
VERTEX
  8
PLAN_1
  6
CONTINUOUS
 10
1.540118
 20
-3.950925
  0
VERTEX
  8
PLAN_1
  6
CONTINUOUS
 10
1.540618
 20
-3.953929
  0
VERTEX
  8
PLAN_1
  6
CONTINUOUS
 10
1.541118
 20
-3.956933
  0
VERTEX
  8
PLAN_1
  6
CONTINUOUS
 10
1.542122
 20
-3.959437
  0
VERTEX
  8
PLAN_1
  6
CONTINUOUS
 10
1.543622
 20
-3.961437
  0
VERTEX
  8
PLAN_1
  6
CONTINUOUS
 10
1.545126
 20
-3.963441
  0
VERTEX
  8
PLAN_1
  6
CONTINUOUS
 10
1.547126
 20
-3.964945
  0
VERTEX
  8
PLAN_1
  6
CONTINUOUS
 10
1.550130
 20
-3.966945
  0
VERTEX
  8
PLAN_1
  6
CONTINUOUS
 10
1.550130
 20
-3.971453
  0
VERTEX
  8
PLAN_1
  6
CONTINUOUS
 10
1.517087
 20
-3.971453
  0
VERTEX
  8
PLAN_1
  6
CONTINUOUS
 10
1.515583
 20
-3.965945
  0
VERTEX
  8
PLAN_1
  6
CONTINUOUS
 10
1.514583
 20
-3.959437
  0
VERTEX
  8
PLAN_1
  6
CONTINUOUS
 10
1.514083
 20
-3.951925
  0
VERTEX
  8
PLAN_1
  6
CONTINUOUS
 10
1.513079
 20
-3.944413
  0
VERTEX
  8
PLAN_1
  6
CONTINUOUS
 10
1.513079
 20
-3.937406
  0
VERTEX
  8
PLAN_1
  6
CONTINUOUS
 10
1.512579
 20
-3.930398
  0
VERTEX
  8
PLAN_1
  6
CONTINUOUS
 10
1.512579
 20
-3.925390
  0
VERTEX
  8
PLAN_1
  6
CONTINUOUS
 10
1.512579
 20
-3.921382
  0
VERTEX
  8
PLAN_1
  6
CONTINUOUS
 10
1.512079
 20
-3.914874
  0
VERTEX
  8
PLAN_1
  6
CONTINUOUS
 10
1.511579
 20
-3.908866
  0
VERTEX
  8
PLAN_1
  6
CONTINUOUS
 10
1.510579
 20
-3.905862
  0
VERTEX
  8
PLAN_1
  6
CONTINUOUS
 10
1.509575
 20
-3.902858
  0
VERTEX
  8
PLAN_1
  6
CONTINUOUS
 10
1.508575
 20
-3.899854
  0
VERTEX
  8
PLAN_1
  6
CONTINUOUS
 10
1.506571
 20
-3.897350
  0
VERTEX
  8
PLAN_1
  6
CONTINUOUS
 10
1.504567
 20
-3.894846
  0
VERTEX
  8
PLAN_1
  6
CONTINUOUS
 10
1.502067
 20
-3.892843
  0
VERTEX
  8
PLAN_1
  6
CONTINUOUS
 10
1.499563
 20
-3.890843
  0
VERTEX
  8
PLAN_1
  6
CONTINUOUS
 10
1.496059
 20
-3.888839
  0
VERTEX
  8
PLAN_1
  6
CONTINUOUS
 10
1.492051
 20
-3.887839
  0
VERTEX
  8
PLAN_1
  6
CONTINUOUS
 10
1.487547
 20
-3.886835
  0
VERTEX
  8
PLAN_1
  6
CONTINUOUS
 10
1.482539
 20
-3.885835
  0
VERTEX
  8
PLAN_1
  6
CONTINUOUS
 10
1.477031
 20
-3.885835
  0
VERTEX
  8
PLAN_1
  6
CONTINUOUS
 10
1.411441
 20
-3.885835
  0
VERTEX
  8
PLAN_1
  6
CONTINUOUS
 10
1.411441
 20
-3.971453
  0
SEQEND
  8
0
  0
POLYLINE
  8
PLAN_1
  6
CONTINUOUS
 66
     1
 40
0.003000
 41
0.003000
  0
VERTEX
  8
PLAN_1
  6
CONTINUOUS
 10
1.411441
 20
-3.862803
  0
VERTEX
  8
PLAN_1
  6
CONTINUOUS
 10
1.474028
 20
-3.862803
  0
VERTEX
  8
PLAN_1
  6
CONTINUOUS
 10
1.481535
 20
-3.862303
  0
VERTEX
  8
PLAN_1
  6
CONTINUOUS
 10
1.488547
 20
-3.861299
  0
VERTEX
  8
PLAN_1
  6
CONTINUOUS
 10
1.492051
 20
-3.860799
  0
VERTEX
  8
PLAN_1
  6
CONTINUOUS
 10
1.495555
 20
-3.859799
  0
VERTEX
  8
PLAN_1
  6
CONTINUOUS
 10
1.498559
 20
-3.858295
  0
VERTEX
  8
PLAN_1
  6
CONTINUOUS
 10
1.501563
 20
-3.856795
  0
VERTEX
  8
PLAN_1
  6
CONTINUOUS
 10
1.504567
 20
-3.854791
  0
VERTEX
  8
PLAN_1
  6
CONTINUOUS
 10
1.507071
 20
-3.852287
  0
VERTEX
  8
PLAN_1
  6
CONTINUOUS
 10
1.509075
 20
-3.849283
  0
VERTEX
  8
PLAN_1
  6
CONTINUOUS
 10
1.511079
 20
-3.846280
  0
VERTEX
  8
PLAN_1
  6
CONTINUOUS
 10
1.512579
 20
-3.842276
  0
VERTEX
  8
PLAN_1
  6
CONTINUOUS
 10
1.513583
 20
-3.838268
  0
VERTEX
  8
PLAN_1
  6
CONTINUOUS
 10
1.514583
 20
-3.833764
  0
VERTEX
  8
PLAN_1
  6
CONTINUOUS
 10
1.514583
 20
-3.828256
  0
VERTEX
  8
PLAN_1
  6
CONTINUOUS
 10
1.514583
 20
-3.822748
  0
VERTEX
  8
PLAN_1
  6
CONTINUOUS
 10
1.513583
 20
-3.818240
  0
VERTEX
  8
PLAN_1
  6
CONTINUOUS
 10
1.512579
 20
-3.813736
  0
VERTEX
  8
PLAN_1
  6
CONTINUOUS
 10
1.511079
 20
-3.810232
  0
VERTEX
  8
PLAN_1
  6
CONTINUOUS
 10
1.509075
 20
-3.807228
  0
VERTEX
  8
PLAN_1
  6
CONTINUOUS
 10
1.506571
 20
-3.804224
  0
VERTEX
  8
PLAN_1
  6
CONTINUOUS
 10
1.504567
 20
-3.802220
  0
VERTEX
  8
PLAN_1
  6
CONTINUOUS
 10
1.501563
 20
-3.800217
  0
VERTEX
  8
PLAN_1
  6
CONTINUOUS
 10
1.499063
 20
-3.798717
  0
VERTEX
  8
PLAN_1
  6
CONTINUOUS
 10
1.496059
 20
-3.797713
  0
VERTEX
  8
PLAN_1
  6
CONTINUOUS
 10
1.493051
 20
-3.796713
  0
VERTEX
  8
PLAN_1
  6
CONTINUOUS
 10
1.490047
 20
-3.795713
  0
VERTEX
  8
PLAN_1
  6
CONTINUOUS
 10
1.484039
 20
-3.795209
  0
VERTEX
  8
PLAN_1
  6
CONTINUOUS
 10
1.479035
 20
-3.795209
  0
VERTEX
  8
PLAN_1
  6
CONTINUOUS
 10
1.411441
 20
-3.795209
  0
VERTEX
  8
PLAN_1
  6
CONTINUOUS
 10
1.411441
 20
-3.862803
  0
SEQEND
  8
0
  0
SOLID
  8
PLAN_1
 10
1.613720
 20
-3.971453
 11
1.585181
 21
-3.971453
 12
1.613720
 22
-3.941913
 13
1.585181
 23
-3.941913
  0
POLYLINE
  8
PLAN_1
  6
CONTINUOUS
 66
     1
 40
0.003000
 41
0.003000
  0
VERTEX
  8
PLAN_1
  6
CONTINUOUS
 10
1.613720
 20
-3.971453
  0
VERTEX
  8
PLAN_1
  6
CONTINUOUS
 10
1.585181
 20
-3.971453
  0
VERTEX
  8
PLAN_1
  6
CONTINUOUS
 10
1.585181
 20
-3.941913
  0
VERTEX
  8
PLAN_1
  6
CONTINUOUS
 10
1.613720
 20
-3.941913
  0
VERTEX
  8
PLAN_1
  6
CONTINUOUS
 10
1.613720
 20
-3.971453
  0
SEQEND
  8
0
  0
POLYLINE
  8
PLAN_1
  6
CONTINUOUS
 66
     1
 40
0.003000
 41
0.003000
  0
VERTEX
  8
PLAN_1
  6
CONTINUOUS
 10
1.808988
 20
-3.971453
  0
VERTEX
  8
PLAN_1
  6
CONTINUOUS
 10
1.661783
 20
-3.971453
  0
VERTEX
  8
PLAN_1
  6
CONTINUOUS
 10
1.661783
 20
-3.772177
  0
VERTEX
  8
PLAN_1
  6
CONTINUOUS
 10
1.806984
 20
-3.772177
  0
VERTEX
  8
PLAN_1
  6
CONTINUOUS
 10
1.806984
 20
-3.795713
  0
VERTEX
  8
PLAN_1
  6
CONTINUOUS
 10
1.688823
 20
-3.795713
  0
VERTEX
  8
PLAN_1
  6
CONTINUOUS
 10
1.688823
 20
-3.856795
  0
VERTEX
  8
PLAN_1
  6
CONTINUOUS
 10
1.797972
 20
-3.856795
  0
VERTEX
  8
PLAN_1
  6
CONTINUOUS
 10
1.797972
 20
-3.880827
  0
VERTEX
  8
PLAN_1
  6
CONTINUOUS
 10
1.688823
 20
-3.880827
  0
VERTEX
  8
PLAN_1
  6
CONTINUOUS
 10
1.688823
 20
-3.947421
  0
VERTEX
  8
PLAN_1
  6
CONTINUOUS
 10
1.808988
 20
-3.947421
  0
VERTEX
  8
PLAN_1
  6
CONTINUOUS
 10
1.808988
 20
-3.971453
  0
SEQEND
  8
0
  0
POLYLINE
  8
PLAN_1
  6
CONTINUOUS
 66
     1
 40
0.003000
 41
0.003000
  0
VERTEX
  8
PLAN_1
  6
CONTINUOUS
 10
1.874075
 20
-3.971453
  0
VERTEX
  8
PLAN_1
  6
CONTINUOUS
 10
1.847039
 20
-3.971453
  0
VERTEX
  8
PLAN_1
  6
CONTINUOUS
 10
1.847039
 20
-3.772177
  0
VERTEX
  8
PLAN_1
  6
CONTINUOUS
 10
1.936661
 20
-3.772177
  0
VERTEX
  8
PLAN_1
  6
CONTINUOUS
 10
1.943673
 20
-3.772177
  0
VERTEX
  8
PLAN_1
  6
CONTINUOUS
 10
1.949681
 20
-3.773181
  0
VERTEX
  8
PLAN_1
  6
CONTINUOUS
 10
1.955689
 20
-3.774181
  0
VERTEX
  8
PLAN_1
  6
CONTINUOUS
 10
1.961697
 20
-3.776185
  0
VERTEX
  8
PLAN_1
  6
CONTINUOUS
 10
1.966705
 20
-3.778689
  0
VERTEX
  8
PLAN_1
  6
CONTINUOUS
 10
1.971709
 20
-3.781193
  0
VERTEX
  8
PLAN_1
  6
CONTINUOUS
 10
1.976217
 20
-3.784197
  0
VERTEX
  8
PLAN_1
  6
CONTINUOUS
 10
1.980220
 20
-3.788201
  0
VERTEX
  8
PLAN_1
  6
CONTINUOUS
 10
1.983728
 20
-3.791705
  0
VERTEX
  8
PLAN_1
  6
CONTINUOUS
 10
1.986732
 20
-3.796213
  0
VERTEX
  8
PLAN_1
  6
CONTINUOUS
 10
1.989736
 20
-3.800717
  0
VERTEX
  8
PLAN_1
  6
CONTINUOUS
 10
1.991736
 20
-3.805724
  0
VERTEX
  8
PLAN_1
  6
CONTINUOUS
 10
1.993740
 20
-3.810732
  0
VERTEX
  8
PLAN_1
  6
CONTINUOUS
 10
1.994740
 20
-3.816240
  0
VERTEX
  8
PLAN_1
  6
CONTINUOUS
 10
1.995744
 20
-3.822248
  0
VERTEX
  8
PLAN_1
  6
CONTINUOUS
 10
1.995744
 20
-3.828256
  0
VERTEX
  8
PLAN_1
  6
CONTINUOUS
 10
1.995744
 20
-3.833264
  0
VERTEX
  8
PLAN_1
  6
CONTINUOUS
 10
1.995244
 20
-3.838772
  0
VERTEX
  8
PLAN_1
  6
CONTINUOUS
 10
1.994240
 20
-3.843776
  0
VERTEX
  8
PLAN_1
  6
CONTINUOUS
 10
1.992740
 20
-3.848783
  0
VERTEX
  8
PLAN_1
  6
CONTINUOUS
 10
1.990736
 20
-3.854291
  0
VERTEX
  8
PLAN_1
  6
CONTINUOUS
 10
1.988732
 20
-3.858799
  0
VERTEX
  8
PLAN_1
  6
CONTINUOUS
 10
1.985728
 20
-3.863803
  0
VERTEX
  8
PLAN_1
  6
CONTINUOUS
 10
1.982724
 20
-3.867811
  0
VERTEX
  8
PLAN_1
  6
CONTINUOUS
 10
1.978720
 20
-3.872315
  0
VERTEX
  8
PLAN_1
  6
CONTINUOUS
 10
1.974213
 20
-3.875823
  0
VERTEX
  8
PLAN_1
  6
CONTINUOUS
 10
1.969709
 20
-3.879327
  0
VERTEX
  8
PLAN_1
  6
CONTINUOUS
 10
1.964201
 20
-3.881831
  0
VERTEX
  8
PLAN_1
  6
CONTINUOUS
 10
1.958193
 20
-3.884335
  0
VERTEX
  8
PLAN_1
  6
CONTINUOUS
 10
1.951681
 20
-3.885835
  0
VERTEX
  8
PLAN_1
  6
CONTINUOUS
 10
1.944673
 20
-3.886835
  0
VERTEX
  8
PLAN_1
  6
CONTINUOUS
 10
1.936661
 20
-3.887339
  0
VERTEX
  8
PLAN_1
  6
CONTINUOUS
 10
1.874075
 20
-3.887339
  0
VERTEX
  8
PLAN_1
  6
CONTINUOUS
 10
1.874075
 20
-3.971453
  0
SEQEND
  8
0
  0
POLYLINE
  8
PLAN_1
  6
CONTINUOUS
 66
     1
 40
0.003000
 41
0.003000
  0
VERTEX
  8
PLAN_1
  6
CONTINUOUS
 10
1.874075
 20
-3.864307
  0
VERTEX
  8
PLAN_1
  6
CONTINUOUS
 10
1.927650
 20
-3.864307
  0
VERTEX
  8
PLAN_1
  6
CONTINUOUS
 10
1.932157
 20
-3.864307
  0
VERTEX
  8
PLAN_1
  6
CONTINUOUS
 10
1.936161
 20
-3.863803
  0
VERTEX
  8
PLAN_1
  6
CONTINUOUS
 10
1.940165
 20
-3.863303
  0
VERTEX
  8
PLAN_1
  6
CONTINUOUS
 10
1.944173
 20
-3.862303
  0
VERTEX
  8
PLAN_1
  6
CONTINUOUS
 10
1.947677
 20
-3.861299
  0
VERTEX
  8
PLAN_1
  6
CONTINUOUS
 10
1.951181
 20
-3.859799
  0
VERTEX
  8
PLAN_1
  6
CONTINUOUS
 10
1.954185
 20
-3.858295
  0
VERTEX
  8
PLAN_1
  6
CONTINUOUS
 10
1.956689
 20
-3.856295
  0
VERTEX
  8
PLAN_1
  6
CONTINUOUS
 10
1.959193
 20
-3.854291
  0
VERTEX
  8
PLAN_1
  6
CONTINUOUS
 10
1.961697
 20
-3.851287
  0
VERTEX
  8
PLAN_1
  6
CONTINUOUS
 10
1.963701
 20
-3.848783
  0
VERTEX
  8
PLAN_1
  6
CONTINUOUS
 10
1.965201
 20
-3.845280
  0
VERTEX
  8
PLAN_1
  6
CONTINUOUS
 10
1.966201
 20
-3.841776
  0
VERTEX
  8
PLAN_1
  6
CONTINUOUS
 10
1.967205
 20
-3.837768
  0
VERTEX
  8
PLAN_1
  6
CONTINUOUS
 10
1.967705
 20
-3.833264
  0
VERTEX
  8
PLAN_1
  6
CONTINUOUS
 10
1.968205
 20
-3.828256
  0
VERTEX
  8
PLAN_1
  6
CONTINUOUS
 10
1.967705
 20
-3.823748
  0
VERTEX
  8
PLAN_1
  6
CONTINUOUS
 10
1.967205
 20
-3.819744
  0
VERTEX
  8
PLAN_1
  6
CONTINUOUS
 10
1.966201
 20
-3.815740
  0
VERTEX
  8
PLAN_1
  6
CONTINUOUS
 10
1.965201
 20
-3.812736
  0
VERTEX
  8
PLAN_1
  6
CONTINUOUS
 10
1.963197
 20
-3.809228
  0
VERTEX
  8
PLAN_1
  6
CONTINUOUS
 10
1.961197
 20
-3.806724
  0
VERTEX
  8
PLAN_1
  6
CONTINUOUS
 10
1.959193
 20
-3.804224
  0
VERTEX
  8
PLAN_1
  6
CONTINUOUS
 10
1.956689
 20
-3.802220
  0
VERTEX
  8
PLAN_1
  6
CONTINUOUS
 10
1.953685
 20
-3.800217
  0
VERTEX
  8
PLAN_1
  6
CONTINUOUS
 10
1.950681
 20
-3.798717
  0
VERTEX
  8
PLAN_1
  6
CONTINUOUS
 10
1.947677
 20
-3.797713
  0
VERTEX
  8
PLAN_1
  6
CONTINUOUS
 10
1.944173
 20
-3.796713
  0
VERTEX
  8
PLAN_1
  6
CONTINUOUS
 10
1.936661
 20
-3.795209
  0
VERTEX
  8
PLAN_1
  6
CONTINUOUS
 10
1.928650
 20
-3.795209
  0
VERTEX
  8
PLAN_1
  6
CONTINUOUS
 10
1.874075
 20
-3.795209
  0
VERTEX
  8
PLAN_1
  6
CONTINUOUS
 10
1.874075
 20
-3.864307
  0
SEQEND
  8
0
  0
POLYLINE
  8
PLAN_1
  6
CONTINUOUS
 66
     1
 40
0.003000
 41
0.003000
  0
VERTEX
  8
PLAN_1
  6
CONTINUOUS
 10
2.149453
 20
-3.830260
  0
VERTEX
  8
PLAN_1
  6
CONTINUOUS
 10
2.148953
 20
-3.824752
  0
VERTEX
  8
PLAN_1
  6
CONTINUOUS
 10
2.147953
 20
-3.819744
  0
VERTEX
  8
PLAN_1
  6
CONTINUOUS
 10
2.146449
 20
-3.815236
  0
VERTEX
  8
PLAN_1
  6
CONTINUOUS
 10
2.144449
 20
-3.810732
  0
VERTEX
  8
PLAN_1
  6
CONTINUOUS
 10
2.141945
 20
-3.807228
  0
VERTEX
  8
PLAN_1
  6
CONTINUOUS
 10
2.139441
 20
-3.803720
  0
VERTEX
  8
PLAN_1
  6
CONTINUOUS
 10
2.136437
 20
-3.801220
  0
VERTEX
  8
PLAN_1
  6
CONTINUOUS
 10
2.132933
 20
-3.798717
  0
VERTEX
  8
PLAN_1
  6
CONTINUOUS
 10
2.129425
 20
-3.796213
  0
VERTEX
  8
PLAN_1
  6
CONTINUOUS
 10
2.125421
 20
-3.794709
  0
VERTEX
  8
PLAN_1
  6
CONTINUOUS
 10
2.121417
 20
-3.793209
  0
VERTEX
  8
PLAN_1
  6
CONTINUOUS
 10
2.117409
 20
-3.791705
  0
VERTEX
  8
PLAN_1
  6
CONTINUOUS
 10
2.112906
 20
-3.790705
  0
VERTEX
  8
PLAN_1
  6
CONTINUOUS
 10
2.108898
 20
-3.790205
  0
VERTEX
  8
PLAN_1
  6
CONTINUOUS
 10
2.104394
 20
-3.789705
  0
VERTEX
  8
PLAN_1
  6
CONTINUOUS
 10
2.100386
 20
-3.789705
  0
VERTEX
  8
PLAN_1
  6
CONTINUOUS
 10
2.093378
 20
-3.790205
  0
VERTEX
  8
PLAN_1
  6
CONTINUOUS
 10
2.085866
 20
-3.791205
  0
VERTEX
  8
PLAN_1
  6
CONTINUOUS
 10
2.082362
 20
-3.791705
  0
VERTEX
  8
PLAN_1
  6
CONTINUOUS
 10
2.078358
 20
-3.792709
  0
VERTEX
  8
PLAN_1
  6
CONTINUOUS
 10
2.074850
 20
-3.794209
  0
VERTEX
  8
PLAN_1
  6
CONTINUOUS
 10
2.071346
 20
-3.795713
  0
VERTEX
  8
PLAN_1
  6
CONTINUOUS
 10
2.067843
 20
-3.797713
  0
VERTEX
  8
PLAN_1
  6
CONTINUOUS
 10
2.064839
 20
-3.800217
  0
VERTEX
  8
PLAN_1
  6
CONTINUOUS
 10
2.061835
 20
-3.803220
  0
VERTEX
  8
PLAN_1
  6
CONTINUOUS
 10
2.059331
 20
-3.806724
  0
VERTEX
  8
PLAN_1
  6
CONTINUOUS
 10
2.057327
 20
-3.810232
  0
VERTEX
  8
PLAN_1
  6
CONTINUOUS
 10
2.055827
 20
-3.814736
  0
VERTEX
  8
PLAN_1
  6
CONTINUOUS
 10
2.055327
 20
-3.819244
  0
VERTEX
  8
PLAN_1
  6
CONTINUOUS
 10
2.054823
 20
-3.824752
  0
VERTEX
  8
PLAN_1
  6
CONTINUOUS
 10
2.054823
 20
-3.827756
  0
VERTEX
  8
PLAN_1
  6
CONTINUOUS
 10
2.055327
 20
-3.830760
  0
VERTEX
  8
PLAN_1
  6
CONTINUOUS
 10
2.055827
 20
-3.833264
  0
VERTEX
  8
PLAN_1
  6
CONTINUOUS
 10
2.056827
 20
-3.835264
  0
VERTEX
  8
PLAN_1
  6
CONTINUOUS
 10
2.057827
 20
-3.837768
  0
VERTEX
  8
PLAN_1
  6
CONTINUOUS
 10
2.059331
 20
-3.839272
  0
VERTEX
  8
PLAN_1
  6
CONTINUOUS
 10
2.060831
 20
-3.841272
  0
VERTEX
  8
PLAN_1
  6
CONTINUOUS
 10
2.062335
 20
-3.842776
  0
VERTEX
  8
PLAN_1
  6
CONTINUOUS
 10
2.065839
 20
-3.845280
  0
VERTEX
  8
PLAN_1
  6
CONTINUOUS
 10
2.069846
 20
-3.847283
  0
VERTEX
  8
PLAN_1
  6
CONTINUOUS
 10
2.073850
 20
-3.848783
  0
VERTEX
  8
PLAN_1
  6
CONTINUOUS
 10
2.078358
 20
-3.849783
  0
VERTEX
  8
PLAN_1
  6
CONTINUOUS
 10
2.135437
 20
-3.862803
  0
VERTEX
  8
PLAN_1
  6
CONTINUOUS
 10
2.139941
 20
-3.864307
  0
VERTEX
  8
PLAN_1
  6
CONTINUOUS
 10
2.144449
 20
-3.865807
  0
VERTEX
  8
PLAN_1
  6
CONTINUOUS
 10
2.148953
 20
-3.867311
  0
VERTEX
  8
PLAN_1
  6
CONTINUOUS
 10
2.153461
 20
-3.869311
  0
VERTEX
  8
PLAN_1
  6
CONTINUOUS
 10
2.156965
 20
-3.871815
  0
VERTEX
  8
PLAN_1
  6
CONTINUOUS
 10
2.160969
 20
-3.874319
  0
VERTEX
  8
PLAN_1
  6
CONTINUOUS
 10
2.164476
 20
-3.876823
  0
VERTEX
  8
PLAN_1
  6
CONTINUOUS
 10
2.167480
 20
-3.880327
  0
VERTEX
  8
PLAN_1
  6
CONTINUOUS
 10
2.170484
 20
-3.883331
  0
VERTEX
  8
PLAN_1
  6
CONTINUOUS
 10
2.172988
 20
-3.887339
  0
VERTEX
  8
PLAN_1
  6
CONTINUOUS
 10
2.174988
 20
-3.891343
  0
VERTEX
  8
PLAN_1
  6
CONTINUOUS
 10
2.176992
 20
-3.895346
  0
VERTEX
  8
PLAN_1
  6
CONTINUOUS
 10
2.178496
 20
-3.900354
  0
VERTEX
  8
PLAN_1
  6
CONTINUOUS
 10
2.179496
 20
-3.905362
  0
VERTEX
  8
PLAN_1
  6
CONTINUOUS
 10
2.180496
 20
-3.910370
  0
VERTEX
  8
PLAN_1
  6
CONTINUOUS
 10
2.180496
 20
-3.916378
  0
VERTEX
  8
PLAN_1
  6
CONTINUOUS
 10
2.180496
 20
-3.920882
  0
VERTEX
  8
PLAN_1
  6
CONTINUOUS
 10
2.179996
 20
-3.924890
  0
VERTEX
  8
PLAN_1
  6
CONTINUOUS
 10
2.179496
 20
-3.928894
  0
VERTEX
  8
PLAN_1
  6
CONTINUOUS
 10
2.178496
 20
-3.932398
  0
VERTEX
  8
PLAN_1
  6
CONTINUOUS
 10
2.175992
 20
-3.939409
  0
VERTEX
  8
PLAN_1
  6
CONTINUOUS
 10
2.172988
 20
-3.945917
  0
VERTEX
  8
PLAN_1
  6
CONTINUOUS
 10
2.169480
 20
-3.951425
  0
VERTEX
  8
PLAN_1
  6
CONTINUOUS
 10
2.164976
 20
-3.955929
  0
VERTEX
  8
PLAN_1
  6
CONTINUOUS
 10
2.159969
 20
-3.960437
  0
VERTEX
  8
PLAN_1
  6
CONTINUOUS
 10
2.154461
 20
-3.963941
  0
VERTEX
  8
PLAN_1
  6
CONTINUOUS
 10
2.148453
 20
-3.967445
  0
VERTEX
  8
PLAN_1
  6
CONTINUOUS
 10
2.141945
 20
-3.969949
  0
VERTEX
  8
PLAN_1
  6
CONTINUOUS
 10
2.135937
 20
-3.971953
  0
VERTEX
  8
PLAN_1
  6
CONTINUOUS
 10
2.128925
 20
-3.973957
  0
VERTEX
  8
PLAN_1
  6
CONTINUOUS
 10
2.122417
 20
-3.974957
  0
VERTEX
  8
PLAN_1
  6
CONTINUOUS
 10
2.115409
 20
-3.975957
  0
VERTEX
  8
PLAN_1
  6
CONTINUOUS
 10
2.108898
 20
-3.976461
  0
VERTEX
  8
PLAN_1
  6
CONTINUOUS
 10
2.102390
 20
-3.976461
  0
VERTEX
  8
PLAN_1
  6
CONTINUOUS
 10
2.095882
 20
-3.976461
  0
VERTEX
  8
PLAN_1
  6
CONTINUOUS
 10
2.089874
 20
-3.975957
  0
VERTEX
  8
PLAN_1
  6
CONTINUOUS
 10
2.083866
 20
-3.975457
  0
VERTEX
  8
PLAN_1
  6
CONTINUOUS
 10
2.078858
 20
-3.974957
  0
VERTEX
  8
PLAN_1
  6
CONTINUOUS
 10
2.069343
 20
-3.972453
  0
VERTEX
  8
PLAN_1
  6
CONTINUOUS
 10
2.061835
 20
-3.969949
  0
VERTEX
  8
PLAN_1
  6
CONTINUOUS
 10
2.055327
 20
-3.966945
  0
VERTEX
  8
PLAN_1
  6
CONTINUOUS
 10
2.050319
 20
-3.963941
  0
VERTEX
  8
PLAN_1
  6
CONTINUOUS
 10
2.045811
 20
-3.960437
  0
VERTEX
  8
PLAN_1
  6
CONTINUOUS
 10
2.042307
 20
-3.957433
  0
VERTEX
  8
PLAN_1
  6
CONTINUOUS
 10
2.036299
 20
-3.951425
  0
VERTEX
  8
PLAN_1
  6
CONTINUOUS
 10
2.031791
 20
-3.945917
  0
VERTEX
  8
PLAN_1
  6
CONTINUOUS
 10
2.028287
 20
-3.939409
  0
VERTEX
  8
PLAN_1
  6
CONTINUOUS
 10
2.025783
 20
-3.933402
  0
VERTEX
  8
PLAN_1
  6
CONTINUOUS
 10
2.023783
 20
-3.926890
  0
VERTEX
  8
PLAN_1
  6
CONTINUOUS
 10
2.022780
 20
-3.920382
  0
VERTEX
  8
PLAN_1
  6
CONTINUOUS
 10
2.022280
 20
-3.913874
  0
VERTEX
  8
PLAN_1
  6
CONTINUOUS
 10
2.021780
 20
-3.906862
  0
VERTEX
  8
PLAN_1
  6
CONTINUOUS
 10
2.047315
 20
-3.906862
  0
VERTEX
  8
PLAN_1
  6
CONTINUOUS
 10
2.047815
 20
-3.913374
  0
VERTEX
  8
PLAN_1
  6
CONTINUOUS
 10
2.048815
 20
-3.919382
  0
VERTEX
  8
PLAN_1
  6
CONTINUOUS
 10
2.050319
 20
-3.924386
  0
VERTEX
  8
PLAN_1
  6
CONTINUOUS
 10
2.052323
 20
-3.929394
  0
VERTEX
  8
PLAN_1
  6
CONTINUOUS
 10
2.054823
 20
-3.933902
  0
VERTEX
  8
PLAN_1
  6
CONTINUOUS
 10
2.057827
 20
-3.937406
  0
VERTEX
  8
PLAN_1
  6
CONTINUOUS
 10
2.061335
 20
-3.940909
  0
VERTEX
  8
PLAN_1
  6
CONTINUOUS
 10
2.065339
 20
-3.943913
  0
VERTEX
  8
PLAN_1
  6
CONTINUOUS
 10
2.069343
 20
-3.946417
  0
VERTEX
  8
PLAN_1
  6
CONTINUOUS
 10
2.073850
 20
-3.948421
  0
VERTEX
  8
PLAN_1
  6
CONTINUOUS
 10
2.078358
 20
-3.949921
  0
VERTEX
  8
PLAN_1
  6
CONTINUOUS
 10
2.082862
 20
-3.951425
  0
VERTEX
  8
PLAN_1
  6
CONTINUOUS
 10
2.087870
 20
-3.952425
  0
VERTEX
  8
PLAN_1
  6
CONTINUOUS
 10
2.092374
 20
-3.952925
  0
VERTEX
  8
PLAN_1
  6
CONTINUOUS
 10
2.097382
 20
-3.953429
  0
VERTEX
  8
PLAN_1
  6
CONTINUOUS
 10
2.102390
 20
-3.953429
  0
VERTEX
  8
PLAN_1
  6
CONTINUOUS
 10
2.109902
 20
-3.953429
  0
VERTEX
  8
PLAN_1
  6
CONTINUOUS
 10
2.118413
 20
-3.952425
  0
VERTEX
  8
PLAN_1
  6
CONTINUOUS
 10
2.122917
 20
-3.951425
  0
VERTEX
  8
PLAN_1
  6
CONTINUOUS
 10
2.127425
 20
-3.950425
  0
VERTEX
  8
PLAN_1
  6
CONTINUOUS
 10
2.131429
 20
-3.948921
  0
VERTEX
  8
PLAN_1
  6
CONTINUOUS
 10
2.135437
 20
-3.947421
  0
VERTEX
  8
PLAN_1
  6
CONTINUOUS
 10
2.139441
 20
-3.945417
  0
VERTEX
  8
PLAN_1
  6
CONTINUOUS
 10
2.142945
 20
-3.942913
  0
VERTEX
  8
PLAN_1
  6
CONTINUOUS
 10
2.146449
 20
-3.940409
  0
VERTEX
  8
PLAN_1
  6
CONTINUOUS
 10
2.148953
 20
-3.937406
  0
VERTEX
  8
PLAN_1
  6
CONTINUOUS
 10
2.151457
 20
-3.933902
  0
VERTEX
  8
PLAN_1
  6
CONTINUOUS
 10
2.152961
 20
-3.929394
  0
VERTEX
  8
PLAN_1
  6
CONTINUOUS
 10
2.153961
 20
-3.924890
  0
VERTEX
  8
PLAN_1
  6
CONTINUOUS
 10
2.154461
 20
-3.919882
  0
VERTEX
  8
PLAN_1
  6
CONTINUOUS
 10
2.154461
 20
-3.916378
  0
VERTEX
  8
PLAN_1
  6
CONTINUOUS
 10
2.153961
 20
-3.912870
  0
VERTEX
  8
PLAN_1
  6
CONTINUOUS
 10
2.153461
 20
-3.909866
  0
VERTEX
  8
PLAN_1
  6
CONTINUOUS
 10
2.152457
 20
-3.906862
  0
VERTEX
  8
PLAN_1
  6
CONTINUOUS
 10
2.150957
 20
-3.904358
  0
VERTEX
  8
PLAN_1
  6
CONTINUOUS
 10
2.149453
 20
-3.901858
  0
VERTEX
  8
PLAN_1
  6
CONTINUOUS
 10
2.147953
 20
-3.899354
  0
VERTEX
  8
PLAN_1
  6
CONTINUOUS
 10
2.145449
 20
-3.897350
  0
VERTEX
  8
PLAN_1
  6
CONTINUOUS
 10
2.142945
 20
-3.895346
  0
VERTEX
  8
PLAN_1
  6
CONTINUOUS
 10
2.139941
 20
-3.893846
  0
VERTEX
  8
PLAN_1
  6
CONTINUOUS
 10
2.136437
 20
-3.892343
  0
VERTEX
  8
PLAN_1
  6
CONTINUOUS
 10
2.132429
 20
-3.890343
  0
VERTEX
  8
PLAN_1
  6
CONTINUOUS
 10
2.122917
 20
-3.887839
  0
VERTEX
  8
PLAN_1
  6
CONTINUOUS
 10
2.111902
 20
-3.884835
  0
VERTEX
  8
PLAN_1
  6
CONTINUOUS
 10
2.071346
 20
-3.875319
  0
VERTEX
  8
PLAN_1
  6
CONTINUOUS
 10
2.065339
 20
-3.873819
  0
VERTEX
  8
PLAN_1
  6
CONTINUOUS
 10
2.058831
 20
-3.871315
  0
VERTEX
  8
PLAN_1
  6
CONTINUOUS
 10
2.055327
 20
-3.869811
  0
VERTEX
  8
PLAN_1
  6
CONTINUOUS
 10
2.051819
 20
-3.868311
  0
VERTEX
  8
PLAN_1
  6
CONTINUOUS
 10
2.048315
 20
-3.866307
  0
VERTEX
  8
PLAN_1
  6
CONTINUOUS
 10
2.044811
 20
-3.863803
  0
VERTEX
  8
PLAN_1
  6
CONTINUOUS
 10
2.041807
 20
-3.860799
  0
VERTEX
  8
PLAN_1
  6
CONTINUOUS
 10
2.038803
 20
-3.857795
  0
VERTEX
  8
PLAN_1
  6
CONTINUOUS
 10
2.035799
 20
-3.853791
  0
VERTEX
  8
PLAN_1
  6
CONTINUOUS
 10
2.033295
 20
-3.849783
  0
VERTEX
  8
PLAN_1
  6
CONTINUOUS
 10
2.031291
 20
-3.845280
  0
VERTEX
  8
PLAN_1
  6
CONTINUOUS
 10
2.029791
 20
-3.840272
  0
VERTEX
  8
PLAN_1
  6
CONTINUOUS
 10
2.028787
 20
-3.834764
  0
VERTEX
  8
PLAN_1
  6
CONTINUOUS
 10
2.028787
 20
-3.828256
  0
VERTEX
  8
PLAN_1
  6
CONTINUOUS
 10
2.028787
 20
-3.822748
  0
VERTEX
  8
PLAN_1
  6
CONTINUOUS
 10
2.029791
 20
-3.816740
  0
VERTEX
  8
PLAN_1
  6
CONTINUOUS
 10
2.030791
 20
-3.811232
  0
VERTEX
  8
PLAN_1
  6
CONTINUOUS
 10
2.032795
 20
-3.805724
  0
VERTEX
  8
PLAN_1
  6
CONTINUOUS
 10
2.034795
 20
-3.800217
  0
VERTEX
  8
PLAN_1
  6
CONTINUOUS
 10
2.037799
 20
-3.795209
  0
VERTEX
  8
PLAN_1
  6
CONTINUOUS
 10
2.040807
 20
-3.790205
  0
VERTEX
  8
PLAN_1
  6
CONTINUOUS
 10
2.044811
 20
-3.785697
  0
VERTEX
  8
PLAN_1
  6
CONTINUOUS
 10
2.049315
 20
-3.781693
  0
VERTEX
  8
PLAN_1
  6
CONTINUOUS
 10
2.054323
 20
-3.778185
  0
VERTEX
  8
PLAN_1
  6
CONTINUOUS
 10
2.059831
 20
-3.774681
  0
VERTEX
  8
PLAN_1
  6
CONTINUOUS
 10
2.066339
 20
-3.772177
  0
VERTEX
  8
PLAN_1
  6
CONTINUOUS
 10
2.072850
 20
-3.769677
  0
VERTEX
  8
PLAN_1
  6
CONTINUOUS
 10
2.080358
 20
-3.768173
  0
VERTEX
  8
PLAN_1
  6
CONTINUOUS
 10
2.088370
 20
-3.767173
  0
VERTEX
  8
PLAN_1
  6
CONTINUOUS
 10
2.097382
 20
-3.766669
  0
VERTEX
  8
PLAN_1
  6
CONTINUOUS
 10
2.109398
 20
-3.767173
  0
VERTEX
  8
PLAN_1
  6
CONTINUOUS
 10
2.120413
 20
-3.768673
  0
VERTEX
  8
PLAN_1
  6
CONTINUOUS
 10
2.129929
 20
-3.770677
  0
VERTEX
  8
PLAN_1
  6
CONTINUOUS
 10
2.138441
 20
-3.773681
  0
VERTEX
  8
PLAN_1
  6
CONTINUOUS
 10
2.145949
 20
-3.777185
  0
VERTEX
  8
PLAN_1
  6
CONTINUOUS
 10
2.151957
 20
-3.781193
  0
VERTEX
  8
PLAN_1
  6
CONTINUOUS
 10
2.157465
 20
-3.785697
  0
VERTEX
  8
PLAN_1
  6
CONTINUOUS
 10
2.161972
 20
-3.790205
  0
VERTEX
  8
PLAN_1
  6
CONTINUOUS
 10
2.165476
 20
-3.795209
  0
VERTEX
  8
PLAN_1
  6
CONTINUOUS
 10
2.168480
 20
-3.800717
  0
VERTEX
  8
PLAN_1
  6
CONTINUOUS
 10
2.170484
 20
-3.805724
  0
VERTEX
  8
PLAN_1
  6
CONTINUOUS
 10
2.171984
 20
-3.811232
  0
VERTEX
  8
PLAN_1
  6
CONTINUOUS
 10
2.173488
 20
-3.816240
  0
VERTEX
  8
PLAN_1
  6
CONTINUOUS
 10
2.173988
 20
-3.821248
  0
VERTEX
  8
PLAN_1
  6
CONTINUOUS
 10
2.174488
 20
-3.825752
  0
VERTEX
  8
PLAN_1
  6
CONTINUOUS
 10
2.174988
 20
-3.830260
  0
VERTEX
  8
PLAN_1
  6
CONTINUOUS
 10
2.149453
 20
-3.830260
  0
SEQEND
  8
0
  0
POLYLINE
  8
PLAN_1
 62
     2
  6
CONTINUOUS
 66
     1
 40
0.004004
 41
0.004004
  0
VERTEX
  8
PLAN_1
 62
     2
  6
CONTINUOUS
 10
-2.091370
 20
3.752154
  0
VERTEX
  8
PLAN_1
 62
     2
  6
CONTINUOUS
 10
-1.756409
 20
3.752154
  0
SEQEND
  8
0
  0
SOLID
  8
PLAN_1
 62
     2
 10
-1.726870
 20
3.752154
 11
-1.785949
 21
3.768173
 12
-1.726870
 22
3.752154
 13
-1.785949
 23
3.736630
  0
POLYLINE
  8
PLAN_1
 62
     2
  6
CONTINUOUS
 66
     1
 40
0.003000
 41
0.003000
  0
VERTEX
  8
PLAN_1
 62
     2
  6
CONTINUOUS
 10
-1.726870
 20
3.752154
  0
VERTEX
  8
PLAN_1
 62
     2
  6
CONTINUOUS
 10
-1.785949
 20
3.768173
  0
VERTEX
  8
PLAN_1
 62
     2
  6
CONTINUOUS
 10
-1.785949
 20
3.736630
  0
VERTEX
  8
PLAN_1
 62
     2
  6
CONTINUOUS
 10
-1.726870
 20
3.752154
  0
SEQEND
  8
0
  0
SOLID
  8
PLAN_1
 62
     2
 10
-2.120909
 20
3.752154
 11
-2.061827
 21
3.768173
 12
-2.120909
 22
3.752154
 13
-2.061827
 23
3.736630
  0
POLYLINE
  8
PLAN_1
 62
     2
  6
CONTINUOUS
 66
     1
 40
0.003000
 41
0.003000
  0
VERTEX
  8
PLAN_1
 62
     2
  6
CONTINUOUS
 10
-2.120909
 20
3.752154
  0
VERTEX
  8
PLAN_1
 62
     2
  6
CONTINUOUS
 10
-2.061827
 20
3.768173
  0
VERTEX
  8
PLAN_1
 62
     2
  6
CONTINUOUS
 10
-2.061827
 20
3.736630
  0
VERTEX
  8
PLAN_1
 62
     2
  6
CONTINUOUS
 10
-2.120909
 20
3.752154
  0
SEQEND
  8
0
  0
POLYLINE
  8
PLAN_1
 62
     2
  6
CONTINUOUS
 66
     1
 40
0.003000
 41
0.003000
  0
VERTEX
  8
PLAN_1
 62
     2
  6
CONTINUOUS
 10
-1.944665
 20
3.776185
  0
VERTEX
  8
PLAN_1
 62
     2
  6
CONTINUOUS
 10
-1.954181
 20
3.776185
  0
VERTEX
  8
PLAN_1
 62
     2
  6
CONTINUOUS
 10
-1.954181
 20
3.827756
  0
VERTEX
  8
PLAN_1
 62
     2
  6
CONTINUOUS
 10
-1.971205
 20
3.827756
  0
VERTEX
  8
PLAN_1
 62
     2
  6
CONTINUOUS
 10
-1.971205
 20
3.835268
  0
VERTEX
  8
PLAN_1
 62
     2
  6
CONTINUOUS
 10
-1.967197
 20
3.835268
  0
VERTEX
  8
PLAN_1
 62
     2
  6
CONTINUOUS
 10
-1.963693
 20
3.835768
  0
VERTEX
  8
PLAN_1
 62
     2
  6
CONTINUOUS
 10
-1.960689
 20
3.836768
  0
VERTEX
  8
PLAN_1
 62
     2
  6
CONTINUOUS
 10
-1.958185
 20
3.837772
  0
VERTEX
  8
PLAN_1
 62
     2
  6
CONTINUOUS
 10
-1.956181
 20
3.839772
  0
VERTEX
  8
PLAN_1
 62
     2
  6
CONTINUOUS
 10
-1.954181
 20
3.841776
  0
VERTEX
  8
PLAN_1
 62
     2
  6
CONTINUOUS
 10
-1.952677
 20
3.845280
  0
VERTEX
  8
PLAN_1
 62
     2
  6
CONTINUOUS
 10
-1.951677
 20
3.849287
  0
VERTEX
  8
PLAN_1
 62
     2
  6
CONTINUOUS
 10
-1.944665
 20
3.849287
  0
VERTEX
  8
PLAN_1
 62
     2
  6
CONTINUOUS
 10
-1.944665
 20
3.776185
  0
SEQEND
  8
0
  0
POLYLINE
  8
PLAN_1
 62
     2
  6
CONTINUOUS
 66
     1
 40
0.003000
 41
0.003000
  0
VERTEX
  8
PLAN_1
 62
     2
  6
CONTINUOUS
 10
-1.895098
 20
3.774181
  0
VERTEX
  8
PLAN_1
 62
     2
  6
CONTINUOUS
 10
-1.898602
 20
3.774181
  0
VERTEX
  8
PLAN_1
 62
     2
  6
CONTINUOUS
 10
-1.902110
 20
3.775185
  0
VERTEX
  8
PLAN_1
 62
     2
  6
CONTINUOUS
 10
-1.905114
 20
3.776185
  0
VERTEX
  8
PLAN_1
 62
     2
  6
CONTINUOUS
 10
-1.907618
 20
3.777689
  0
VERTEX
  8
PLAN_1
 62
     2
  6
CONTINUOUS
 10
-1.910118
 20
3.779689
  0
VERTEX
  8
PLAN_1
 62
     2
  6
CONTINUOUS
 10
-1.912122
 20
3.781693
  0
VERTEX
  8
PLAN_1
 62
     2
  6
CONTINUOUS
 10
-1.914126
 20
3.784197
  0
VERTEX
  8
PLAN_1
 62
     2
  6
CONTINUOUS
 10
-1.915626
 20
3.787201
  0
VERTEX
  8
PLAN_1
 62
     2
  6
CONTINUOUS
 10
-1.917630
 20
3.793209
  0
VERTEX
  8
PLAN_1
 62
     2
  6
CONTINUOUS
 10
-1.919134
 20
3.799217
  0
VERTEX
  8
PLAN_1
 62
     2
  6
CONTINUOUS
 10
-1.919634
 20
3.805728
  0
VERTEX
  8
PLAN_1
 62
     2
  6
CONTINUOUS
 10
-1.920134
 20
3.811736
  0
VERTEX
  8
PLAN_1
 62
     2
  6
CONTINUOUS
 10
-1.919634
 20
3.817744
  0
VERTEX
  8
PLAN_1
 62
     2
  6
CONTINUOUS
 10
-1.919134
 20
3.823752
  0
VERTEX
  8
PLAN_1
 62
     2
  6
CONTINUOUS
 10
-1.917630
 20
3.830260
  0
VERTEX
  8
PLAN_1
 62
     2
  6
CONTINUOUS
 10
-1.915626
 20
3.836268
  0
VERTEX
  8
PLAN_1
 62
     2
  6
CONTINUOUS
 10
-1.914126
 20
3.838772
  0
VERTEX
  8
PLAN_1
 62
     2
  6
CONTINUOUS
 10
-1.912122
 20
3.841276
  0
VERTEX
  8
PLAN_1
 62
     2
  6
CONTINUOUS
 10
-1.910118
 20
3.843280
  0
VERTEX
  8
PLAN_1
 62
     2
  6
CONTINUOUS
 10
-1.907618
 20
3.845280
  0
VERTEX
  8
PLAN_1
 62
     2
  6
CONTINUOUS
 10
-1.905114
 20
3.846783
  0
VERTEX
  8
PLAN_1
 62
     2
  6
CONTINUOUS
 10
-1.902110
 20
3.848283
  0
VERTEX
  8
PLAN_1
 62
     2
  6
CONTINUOUS
 10
-1.898602
 20
3.848787
  0
VERTEX
  8
PLAN_1
 62
     2
  6
CONTINUOUS
 10
-1.895098
 20
3.849287
  0
VERTEX
  8
PLAN_1
 62
     2
  6
CONTINUOUS
 10
-1.891094
 20
3.848787
  0
VERTEX
  8
PLAN_1
 62
     2
  6
CONTINUOUS
 10
-1.888091
 20
3.848283
  0
VERTEX
  8
PLAN_1
 62
     2
  6
CONTINUOUS
 10
-1.885087
 20
3.846783
  0
VERTEX
  8
PLAN_1
 62
     2
  6
CONTINUOUS
 10
-1.882083
 20
3.845280
  0
VERTEX
  8
PLAN_1
 62
     2
  6
CONTINUOUS
 10
-1.880079
 20
3.843280
  0
VERTEX
  8
PLAN_1
 62
     2
  6
CONTINUOUS
 10
-1.878075
 20
3.841276
  0
VERTEX
  8
PLAN_1
 62
     2
  6
CONTINUOUS
 10
-1.876075
 20
3.838772
  0
VERTEX
  8
PLAN_1
 62
     2
  6
CONTINUOUS
 10
-1.874571
 20
3.836268
  0
VERTEX
  8
PLAN_1
 62
     2
  6
CONTINUOUS
 10
-1.872067
 20
3.830260
  0
VERTEX
  8
PLAN_1
 62
     2
  6
CONTINUOUS
 10
-1.871067
 20
3.823752
  0
VERTEX
  8
PLAN_1
 62
     2
  6
CONTINUOUS
 10
-1.870063
 20
3.817744
  0
VERTEX
  8
PLAN_1
 62
     2
  6
CONTINUOUS
 10
-1.870063
 20
3.811736
  0
VERTEX
  8
PLAN_1
 62
     2
  6
CONTINUOUS
 10
-1.870063
 20
3.805728
  0
VERTEX
  8
PLAN_1
 62
     2
  6
CONTINUOUS
 10
-1.871067
 20
3.799217
  0
VERTEX
  8
PLAN_1
 62
     2
  6
CONTINUOUS
 10
-1.872067
 20
3.793209
  0
VERTEX
  8
PLAN_1
 62
     2
  6
CONTINUOUS
 10
-1.874571
 20
3.787201
  0
VERTEX
  8
PLAN_1
 62
     2
  6
CONTINUOUS
 10
-1.876075
 20
3.784197
  0
VERTEX
  8
PLAN_1
 62
     2
  6
CONTINUOUS
 10
-1.878075
 20
3.781693
  0
VERTEX
  8
PLAN_1
 62
     2
  6
CONTINUOUS
 10
-1.880079
 20
3.779689
  0
VERTEX
  8
PLAN_1
 62
     2
  6
CONTINUOUS
 10
-1.882083
 20
3.777689
  0
VERTEX
  8
PLAN_1
 62
     2
  6
CONTINUOUS
 10
-1.885087
 20
3.776185
  0
VERTEX
  8
PLAN_1
 62
     2
  6
CONTINUOUS
 10
-1.888091
 20
3.775185
  0
VERTEX
  8
PLAN_1
 62
     2
  6
CONTINUOUS
 10
-1.891094
 20
3.774181
  0
VERTEX
  8
PLAN_1
 62
     2
  6
CONTINUOUS
 10
-1.895098
 20
3.774181
  0
SEQEND
  8
0
  0
POLYLINE
  8
PLAN_1
 62
     2
  6
CONTINUOUS
 66
     1
 40
0.003000
 41
0.003000
  0
VERTEX
  8
PLAN_1
 62
     2
  6
CONTINUOUS
 10
-1.895098
 20
3.840776
  0
VERTEX
  8
PLAN_1
 62
     2
  6
CONTINUOUS
 10
-1.897102
 20
3.840776
  0
VERTEX
  8
PLAN_1
 62
     2
  6
CONTINUOUS
 10
-1.898602
 20
3.840276
  0
VERTEX
  8
PLAN_1
 62
     2
  6
CONTINUOUS
 10
-1.900106
 20
3.839772
  0
VERTEX
  8
PLAN_1
 62
     2
  6
CONTINUOUS
 10
-1.901606
 20
3.838772
  0
VERTEX
  8
PLAN_1
 62
     2
  6
CONTINUOUS
 10
-1.904614
 20
3.836268
  0
VERTEX
  8
PLAN_1
 62
     2
  6
CONTINUOUS
 10
-1.906614
 20
3.833264
  0
VERTEX
  8
PLAN_1
 62
     2
  6
CONTINUOUS
 10
-1.908118
 20
3.828760
  0
VERTEX
  8
PLAN_1
 62
     2
  6
CONTINUOUS
 10
-1.909618
 20
3.823752
  0
VERTEX
  8
PLAN_1
 62
     2
  6
CONTINUOUS
 10
-1.910118
 20
3.818244
  0
VERTEX
  8
PLAN_1
 62
     2
  6
CONTINUOUS
 10
-1.910118
 20
3.811736
  0
VERTEX
  8
PLAN_1
 62
     2
  6
CONTINUOUS
 10
-1.910118
 20
3.805224
  0
VERTEX
  8
PLAN_1
 62
     2
  6
CONTINUOUS
 10
-1.909618
 20
3.799217
  0
VERTEX
  8
PLAN_1
 62
     2
  6
CONTINUOUS
 10
-1.908118
 20
3.794209
  0
VERTEX
  8
PLAN_1
 62
     2
  6
CONTINUOUS
 10
-1.906614
 20
3.790205
  0
VERTEX
  8
PLAN_1
 62
     2
  6
CONTINUOUS
 10
-1.904614
 20
3.786701
  0
VERTEX
  8
PLAN_1
 62
     2
  6
CONTINUOUS
 10
-1.901606
 20
3.784197
  0
VERTEX
  8
PLAN_1
 62
     2
  6
CONTINUOUS
 10
-1.900106
 20
3.783197
  0
VERTEX
  8
PLAN_1
 62
     2
  6
CONTINUOUS
 10
-1.898602
 20
3.782693
  0
VERTEX
  8
PLAN_1
 62
     2
  6
CONTINUOUS
 10
-1.897102
 20
3.782193
  0
VERTEX
  8
PLAN_1
 62
     2
  6
CONTINUOUS
 10
-1.895098
 20
3.782193
  0
VERTEX
  8
PLAN_1
 62
     2
  6
CONTINUOUS
 10
-1.893094
 20
3.782193
  0
VERTEX
  8
PLAN_1
 62
     2
  6
CONTINUOUS
 10
-1.891094
 20
3.782693
  0
VERTEX
  8
PLAN_1
 62
     2
  6
CONTINUOUS
 10
-1.889591
 20
3.783197
  0
VERTEX
  8
PLAN_1
 62
     2
  6
CONTINUOUS
 10
-1.888091
 20
3.784197
  0
VERTEX
  8
PLAN_1
 62
     2
  6
CONTINUOUS
 10
-1.885587
 20
3.786701
  0
VERTEX
  8
PLAN_1
 62
     2
  6
CONTINUOUS
 10
-1.883583
 20
3.790205
  0
VERTEX
  8
PLAN_1
 62
     2
  6
CONTINUOUS
 10
-1.881579
 20
3.794209
  0
VERTEX
  8
PLAN_1
 62
     2
  6
CONTINUOUS
 10
-1.880579
 20
3.799217
  0
VERTEX
  8
PLAN_1
 62
     2
  6
CONTINUOUS
 10
-1.880079
 20
3.805224
  0
VERTEX
  8
PLAN_1
 62
     2
  6
CONTINUOUS
 10
-1.879579
 20
3.811736
  0
VERTEX
  8
PLAN_1
 62
     2
  6
CONTINUOUS
 10
-1.880079
 20
3.818244
  0
VERTEX
  8
PLAN_1
 62
     2
  6
CONTINUOUS
 10
-1.880579
 20
3.823752
  0
VERTEX
  8
PLAN_1
 62
     2
  6
CONTINUOUS
 10
-1.881579
 20
3.828760
  0
VERTEX
  8
PLAN_1
 62
     2
  6
CONTINUOUS
 10
-1.883583
 20
3.833264
  0
VERTEX
  8
PLAN_1
 62
     2
  6
CONTINUOUS
 10
-1.885587
 20
3.836268
  0
VERTEX
  8
PLAN_1
 62
     2
  6
CONTINUOUS
 10
-1.888091
 20
3.838772
  0
VERTEX
  8
PLAN_1
 62
     2
  6
CONTINUOUS
 10
-1.889591
 20
3.839772
  0
VERTEX
  8
PLAN_1
 62
     2
  6
CONTINUOUS
 10
-1.891094
 20
3.840276
  0
VERTEX
  8
PLAN_1
 62
     2
  6
CONTINUOUS
 10
-1.893094
 20
3.840776
  0
VERTEX
  8
PLAN_1
 62
     2
  6
CONTINUOUS
 10
-1.895098
 20
3.840776
  0
SEQEND
  8
0
  0
POLYLINE
  8
PLAN_1
 62
     2
  6
CONTINUOUS
 66
     1
 40
0.004004
 41
0.004004
  0
VERTEX
  8
PLAN_1
 62
     2
  6
CONTINUOUS
 10
-1.894598
 20
3.909870
  0
VERTEX
  8
PLAN_1
 62
     2
  6
CONTINUOUS
 10
-0.023028
 20
3.909870
  0
SEQEND
  8
0
  0
SOLID
  8
PLAN_1
 62
     2
 10
0.006512
 20
3.909870
 11
-0.052571
 21
3.925390
 12
0.006512
 22
3.909870
 13
-0.052571
 23
3.893846
  0
POLYLINE
  8
PLAN_1
 62
     2
  6
CONTINUOUS
 66
     1
 40
0.003000
 41
0.003000
  0
VERTEX
  8
PLAN_1
 62
     2
  6
CONTINUOUS
 10
0.006512
 20
3.909870
  0
VERTEX
  8
PLAN_1
 62
     2
  6
CONTINUOUS
 10
-0.052571
 20
3.925390
  0
VERTEX
  8
PLAN_1
 62
     2
  6
CONTINUOUS
 10
-0.052571
 20
3.893846
  0
VERTEX
  8
PLAN_1
 62
     2
  6
CONTINUOUS
 10
0.006512
 20
3.909870
  0
SEQEND
  8
0
  0
SOLID
  8
PLAN_1
 62
     2
 10
-1.924138
 20
3.909870
 11
-1.865059
 21
3.925390
 12
-1.924138
 22
3.909870
 13
-1.865059
 23
3.893846
  0
POLYLINE
  8
PLAN_1
 62
     2
  6
CONTINUOUS
 66
     1
 40
0.003000
 41
0.003000
  0
VERTEX
  8
PLAN_1
 62
     2
  6
CONTINUOUS
 10
-1.924138
 20
3.909870
  0
VERTEX
  8
PLAN_1
 62
     2
  6
CONTINUOUS
 10
-1.865059
 20
3.925390
  0
VERTEX
  8
PLAN_1
 62
     2
  6
CONTINUOUS
 10
-1.865059
 20
3.893846
  0
VERTEX
  8
PLAN_1
 62
     2
  6
CONTINUOUS
 10
-1.924138
 20
3.909870
  0
SEQEND
  8
0
  0
POLYLINE
  8
PLAN_1
 62
     2
  6
CONTINUOUS
 66
     1
 40
0.003000
 41
0.003000
  0
VERTEX
  8
PLAN_1
 62
     2
  6
CONTINUOUS
 10
-1.001370
 20
3.975961
  0
VERTEX
  8
PLAN_1
 62
     2
  6
CONTINUOUS
 10
-0.999870
 20
3.976961
  0
VERTEX
  8
PLAN_1
 62
     2
  6
CONTINUOUS
 10
-0.998870
 20
3.977461
  0
VERTEX
  8
PLAN_1
 62
     2
  6
CONTINUOUS
 10
-0.997366
 20
3.978465
  0
VERTEX
  8
PLAN_1
 62
     2
  6
CONTINUOUS
 10
-0.995362
 20
3.978965
  0
VERTEX
  8
PLAN_1
 62
     2
  6
CONTINUOUS
 10
-0.993862
 20
3.979965
  0
VERTEX
  8
PLAN_1
 62
     2
  6
CONTINUOUS
 10
-0.991858
 20
3.979965
  0
VERTEX
  8
PLAN_1
 62
     2
  6
CONTINUOUS
 10
-0.989354
 20
3.980465
  0
VERTEX
  8
PLAN_1
 62
     2
  6
CONTINUOUS
 10
-0.987354
 20
3.980465
  0
VERTEX
  8
PLAN_1
 62
     2
  6
CONTINUOUS
 10
-0.982846
 20
3.979965
  0
VERTEX
  8
PLAN_1
 62
     2
  6
CONTINUOUS
 10
-0.978339
 20
3.978965
  0
VERTEX
  8
PLAN_1
 62
     2
  6
CONTINUOUS
 10
-0.974335
 20
3.976961
  0
VERTEX
  8
PLAN_1
 62
     2
  6
CONTINUOUS
 10
-0.970831
 20
3.974457
  0
VERTEX
  8
PLAN_1
 62
     2
  6
CONTINUOUS
 10
-0.967827
 20
3.970953
  0
VERTEX
  8
PLAN_1
 62
     2
  6
CONTINUOUS
 10
-0.965323
 20
3.966949
  0
VERTEX
  8
PLAN_1
 62
     2
  6
CONTINUOUS
 10
-0.964323
 20
3.964945
  0
VERTEX
  8
PLAN_1
 62
     2
  6
CONTINUOUS
 10
-0.963819
 20
3.962441
  0
VERTEX
  8
PLAN_1
 62
     2
  6
CONTINUOUS
 10
-0.963319
 20
3.959937
  0
VERTEX
  8
PLAN_1
 62
     2
  6
CONTINUOUS
 10
-0.963319
 20
3.956933
  0
VERTEX
  8
PLAN_1
 62
     2
  6
CONTINUOUS
 10
-0.963319
 20
3.953929
  0
VERTEX
  8
PLAN_1
 62
     2
  6
CONTINUOUS
 10
-0.964323
 20
3.949925
  0
VERTEX
  8
PLAN_1
 62
     2
  6
CONTINUOUS
 10
-0.965323
 20
3.945417
  0
VERTEX
  8
PLAN_1
 62
     2
  6
CONTINUOUS
 10
-0.967827
 20
3.941413
  0
VERTEX
  8
PLAN_1
 62
     2
  6
CONTINUOUS
 10
-0.969327
 20
3.939409
  0
VERTEX
  8
PLAN_1
 62
     2
  6
CONTINUOUS
 10
-0.971331
 20
3.937406
  0
VERTEX
  8
PLAN_1
 62
     2
  6
CONTINUOUS
 10
-0.973335
 20
3.935906
  0
VERTEX
  8
PLAN_1
 62
     2
  6
CONTINUOUS
 10
-0.975839
 20
3.934402
  0
VERTEX
  8
PLAN_1
 62
     2
  6
CONTINUOUS
 10
-0.978843
 20
3.932902
  0
VERTEX
  8
PLAN_1
 62
     2
  6
CONTINUOUS
 10
-0.981846
 20
3.932402
  0
VERTEX
  8
PLAN_1
 62
     2
  6
CONTINUOUS
 10
-0.985850
 20
3.931398
  0
VERTEX
  8
PLAN_1
 62
     2
  6
CONTINUOUS
 10
-0.989854
 20
3.931398
  0
VERTEX
  8
PLAN_1
 62
     2
  6
CONTINUOUS
 10
-0.993362
 20
3.931398
  0
VERTEX
  8
PLAN_1
 62
     2
  6
CONTINUOUS
 10
-0.997366
 20
3.932402
  0
VERTEX
  8
PLAN_1
 62
     2
  6
CONTINUOUS
 10
-1.000870
 20
3.933402
  0
VERTEX
  8
PLAN_1
 62
     2
  6
CONTINUOUS
 10
-1.004378
 20
3.935406
  0
VERTEX
  8
PLAN_1
 62
     2
  6
CONTINUOUS
 10
-1.007382
 20
3.937909
  0
VERTEX
  8
PLAN_1
 62
     2
  6
CONTINUOUS
 10
-1.010386
 20
3.941413
  0
VERTEX
  8
PLAN_1
 62
     2
  6
CONTINUOUS
 10
-1.011386
 20
3.943917
  0
VERTEX
  8
PLAN_1
 62
     2
  6
CONTINUOUS
 10
-1.012386
 20
3.945917
  0
VERTEX
  8
PLAN_1
 62
     2
  6
CONTINUOUS
 10
-1.012890
 20
3.948921
  0
VERTEX
  8
PLAN_1
 62
     2
  6
CONTINUOUS
 10
-1.013390
 20
3.951425
  0
VERTEX
  8
PLAN_1
 62
     2
  6
CONTINUOUS
 10
-1.003874
 20
3.951425
  0
VERTEX
  8
PLAN_1
 62
     2
  6
CONTINUOUS
 10
-1.003374
 20
3.948421
  0
VERTEX
  8
PLAN_1
 62
     2
  6
CONTINUOUS
 10
-1.002374
 20
3.945917
  0
VERTEX
  8
PLAN_1
 62
     2
  6
CONTINUOUS
 10
-1.000870
 20
3.943917
  0
VERTEX
  8
PLAN_1
 62
     2
  6
CONTINUOUS
 10
-0.998870
 20
3.942413
  0
VERTEX
  8
PLAN_1
 62
     2
  6
CONTINUOUS
 10
-0.996366
 20
3.940913
  0
VERTEX
  8
PLAN_1
 62
     2
  6
CONTINUOUS
 10
-0.993862
 20
3.939909
  0
VERTEX
  8
PLAN_1
 62
     2
  6
CONTINUOUS
 10
-0.991358
 20
3.939409
  0
VERTEX
  8
PLAN_1
 62
     2
  6
CONTINUOUS
 10
-0.988354
 20
3.939409
  0
VERTEX
  8
PLAN_1
 62
     2
  6
CONTINUOUS
 10
-0.984850
 20
3.939909
  0
VERTEX
  8
PLAN_1
 62
     2
  6
CONTINUOUS
 10
-0.981846
 20
3.940913
  0
VERTEX
  8
PLAN_1
 62
     2
  6
CONTINUOUS
 10
-0.979343
 20
3.942413
  0
VERTEX
  8
PLAN_1
 62
     2
  6
CONTINUOUS
 10
-0.976839
 20
3.944417
  0
VERTEX
  8
PLAN_1
 62
     2
  6
CONTINUOUS
 10
-0.975335
 20
3.946921
  0
VERTEX
  8
PLAN_1
 62
     2
  6
CONTINUOUS
 10
-0.973835
 20
3.949425
  0
VERTEX
  8
PLAN_1
 62
     2
  6
CONTINUOUS
 10
-0.973335
 20
3.952929
  0
VERTEX
  8
PLAN_1
 62
     2
  6
CONTINUOUS
 10
-0.972835
 20
3.955933
  0
VERTEX
  8
PLAN_1
 62
     2
  6
CONTINUOUS
 10
-0.973335
 20
3.959937
  0
VERTEX
  8
PLAN_1
 62
     2
  6
CONTINUOUS
 10
-0.974335
 20
3.962941
  0
VERTEX
  8
PLAN_1
 62
     2
  6
CONTINUOUS
 10
-0.975839
 20
3.965945
  0
VERTEX
  8
PLAN_1
 62
     2
  6
CONTINUOUS
 10
-0.977839
 20
3.967949
  0
VERTEX
  8
PLAN_1
 62
     2
  6
CONTINUOUS
 10
-0.979843
 20
3.969953
  0
VERTEX
  8
PLAN_1
 62
     2
  6
CONTINUOUS
 10
-0.982846
 20
3.971453
  0
VERTEX
  8
PLAN_1
 62
     2
  6
CONTINUOUS
 10
-0.985850
 20
3.971953
  0
VERTEX
  8
PLAN_1
 62
     2
  6
CONTINUOUS
 10
-0.989354
 20
3.972457
  0
VERTEX
  8
PLAN_1
 62
     2
  6
CONTINUOUS
 10
-0.991358
 20
3.972457
  0
VERTEX
  8
PLAN_1
 62
     2
  6
CONTINUOUS
 10
-0.992862
 20
3.971953
  0
VERTEX
  8
PLAN_1
 62
     2
  6
CONTINUOUS
 10
-0.994862
 20
3.971453
  0
VERTEX
  8
PLAN_1
 62
     2
  6
CONTINUOUS
 10
-0.996866
 20
3.970453
  0
VERTEX
  8
PLAN_1
 62
     2
  6
CONTINUOUS
 10
-0.998366
 20
3.969453
  0
VERTEX
  8
PLAN_1
 62
     2
  6
CONTINUOUS
 10
-0.999870
 20
3.968449
  0
VERTEX
  8
PLAN_1
 62
     2
  6
CONTINUOUS
 10
-1.001370
 20
3.966949
  0
VERTEX
  8
PLAN_1
 62
     2
  6
CONTINUOUS
 10
-1.002874
 20
3.965445
  0
VERTEX
  8
PLAN_1
 62
     2
  6
CONTINUOUS
 10
-1.010386
 20
3.965945
  0
VERTEX
  8
PLAN_1
 62
     2
  6
CONTINUOUS
 10
-1.004878
 20
4.005000
  0
VERTEX
  8
PLAN_1
 62
     2
  6
CONTINUOUS
 10
-0.967327
 20
4.005000
  0
VERTEX
  8
PLAN_1
 62
     2
  6
CONTINUOUS
 10
-0.967327
 20
3.995988
  0
VERTEX
  8
PLAN_1
 62
     2
  6
CONTINUOUS
 10
-0.998366
 20
3.995988
  0
VERTEX
  8
PLAN_1
 62
     2
  6
CONTINUOUS
 10
-1.001370
 20
3.975961
  0
SEQEND
  8
0
  0
POLYLINE
  8
PLAN_1
 62
     2
  6
CONTINUOUS
 66
     1
 40
0.003000
 41
0.003000
  0
VERTEX
  8
PLAN_1
 62
     2
  6
CONTINUOUS
 10
-0.954807
 20
4.005000
  0
VERTEX
  8
PLAN_1
 62
     2
  6
CONTINUOUS
 10
-0.904240
 20
4.005000
  0
VERTEX
  8
PLAN_1
 62
     2
  6
CONTINUOUS
 10
-0.904240
 20
3.996988
  0
VERTEX
  8
PLAN_1
 62
     2
  6
CONTINUOUS
 10
-0.907244
 20
3.993484
  0
VERTEX
  8
PLAN_1
 62
     2
  6
CONTINUOUS
 10
-0.911248
 20
3.988476
  0
VERTEX
  8
PLAN_1
 62
     2
  6
CONTINUOUS
 10
-0.915756
 20
3.981969
  0
VERTEX
  8
PLAN_1
 62
     2
  6
CONTINUOUS
 10
-0.920260
 20
3.974457
  0
VERTEX
  8
PLAN_1
 62
     2
  6
CONTINUOUS
 10
-0.924268
 20
3.965945
  0
VERTEX
  8
PLAN_1
 62
     2
  6
CONTINUOUS
 10
-0.928272
 20
3.955933
  0
VERTEX
  8
PLAN_1
 62
     2
  6
CONTINUOUS
 10
-0.930276
 20
3.950925
  0
VERTEX
  8
PLAN_1
 62
     2
  6
CONTINUOUS
 10
-0.931776
 20
3.945417
  0
VERTEX
  8
PLAN_1
 62
     2
  6
CONTINUOUS
 10
-0.933280
 20
3.939409
  0
VERTEX
  8
PLAN_1
 62
     2
  6
CONTINUOUS
 10
-0.934280
 20
3.933402
  0
VERTEX
  8
PLAN_1
 62
     2
  6
CONTINUOUS
 10
-0.944295
 20
3.933402
  0
VERTEX
  8
PLAN_1
 62
     2
  6
CONTINUOUS
 10
-0.943291
 20
3.941413
  0
VERTEX
  8
PLAN_1
 62
     2
  6
CONTINUOUS
 10
-0.940787
 20
3.949425
  0
VERTEX
  8
PLAN_1
 62
     2
  6
CONTINUOUS
 10
-0.937783
 20
3.957937
  0
VERTEX
  8
PLAN_1
 62
     2
  6
CONTINUOUS
 10
-0.933780
 20
3.965945
  0
VERTEX
  8
PLAN_1
 62
     2
  6
CONTINUOUS
 10
-0.929776
 20
3.974457
  0
VERTEX
  8
PLAN_1
 62
     2
  6
CONTINUOUS
 10
-0.924768
 20
3.981969
  0
VERTEX
  8
PLAN_1
 62
     2
  6
CONTINUOUS
 10
-0.919760
 20
3.989480
  0
VERTEX
  8
PLAN_1
 62
     2
  6
CONTINUOUS
 10
-0.914752
 20
3.995988
  0
VERTEX
  8
PLAN_1
 62
     2
  6
CONTINUOUS
 10
-0.954807
 20
3.995988
  0
VERTEX
  8
PLAN_1
 62
     2
  6
CONTINUOUS
 10
-0.954807
 20
4.005000
  0
SEQEND
  8
0
  0
POLYLINE
  8
PLAN_1
 62
     2
  6
CONTINUOUS
 66
     1
 40
0.004004
 41
0.004004
  0
VERTEX
  8
PLAN_1
 62
     2
  6
CONTINUOUS
 10
-2.120909
 20
3.620972
  0
VERTEX
  8
PLAN_1
 62
     2
  6
CONTINUOUS
 10
-2.120909
 20
3.776185
  0
SEQEND
  8
0
  0
POLYLINE
  8
PLAN_1
 62
     2
  6
CONTINUOUS
 66
     1
 40
0.004004
 41
0.004004
  0
VERTEX
  8
PLAN_1
 62
     2
  6
CONTINUOUS
 10
-1.726870
 20
3.620972
  0
VERTEX
  8
PLAN_1
 62
     2
  6
CONTINUOUS
 10
-1.726870
 20
3.776185
  0
SEQEND
  8
0
  0
POLYLINE
  8
PLAN_1
 62
     2
  6
CONTINUOUS
 66
     1
 40
0.004004
 41
0.004004
  0
VERTEX
  8
PLAN_1
 62
     2
  6
CONTINUOUS
 10
-1.924138
 20
3.869815
  0
VERTEX
  8
PLAN_1
 62
     2
  6
CONTINUOUS
 10
-1.924138
 20
3.933402
  0
SEQEND
  8
0
  0
POLYLINE
  8
PLAN_1
 62
     2
  6
CONTINUOUS
 66
     1
 40
0.004004
 41
0.004004
  0
VERTEX
  8
PLAN_1
 62
     2
  6
CONTINUOUS
 10
0.006512
 20
0.198272
  0
VERTEX
  8
PLAN_1
 62
     2
  6
CONTINUOUS
 10
0.006512
 20
3.933402
  0
SEQEND
  8
0
  0
POLYLINE
  8
PLAN_1
 62
     2
  6
CONTINUOUS
 66
     1
 40
0.004004
 41
0.004004
  0
VERTEX
  8
PLAN_1
 62
     2
  6
CONTINUOUS
 10
-2.154457
 20
-0.767051
  0
VERTEX
  8
PLAN_1
 62
     2
  6
CONTINUOUS
 10
-0.023028
 20
-0.767051
  0
SEQEND
  8
0
  0
SOLID
  8
PLAN_1
 62
     2
 10
0.006512
 20
-0.767051
 11
-0.052571
 21
-0.751031
 12
0.006512
 22
-0.767051
 13
-0.052571
 23
-0.782575
  0
POLYLINE
  8
PLAN_1
 62
     2
  6
CONTINUOUS
 66
     1
 40
0.003000
 41
0.003000
  0
VERTEX
  8
PLAN_1
 62
     2
  6
CONTINUOUS
 10
0.006512
 20
-0.767051
  0
VERTEX
  8
PLAN_1
 62
     2
  6
CONTINUOUS
 10
-0.052571
 20
-0.751031
  0
VERTEX
  8
PLAN_1
 62
     2
  6
CONTINUOUS
 10
-0.052571
 20
-0.782575
  0
VERTEX
  8
PLAN_1
 62
     2
  6
CONTINUOUS
 10
0.006512
 20
-0.767051
  0
SEQEND
  8
0
  0
SOLID
  8
PLAN_1
 62
     2
 10
-2.183996
 20
-0.767051
 11
-2.124913
 21
-0.751031
 12
-2.183996
 22
-0.767051
 13
-2.124913
 23
-0.782575
  0
POLYLINE
  8
PLAN_1
 62
     2
  6
CONTINUOUS
 66
     1
 40
0.003000
 41
0.003000
  0
VERTEX
  8
PLAN_1
 62
     2
  6
CONTINUOUS
 10
-2.183996
 20
-0.767051
  0
VERTEX
  8
PLAN_1
 62
     2
  6
CONTINUOUS
 10
-2.124913
 20
-0.751031
  0
VERTEX
  8
PLAN_1
 62
     2
  6
CONTINUOUS
 10
-2.124913
 20
-0.782575
  0
VERTEX
  8
PLAN_1
 62
     2
  6
CONTINUOUS
 10
-2.183996
 20
-0.767051
  0
SEQEND
  8
0
  0
POLYLINE
  8
PLAN_1
 62
     2
  6
CONTINUOUS
 66
     1
 40
0.003000
 41
0.003000
  0
VERTEX
  8
PLAN_1
 62
     2
  6
CONTINUOUS
 10
-1.103512
 20
-0.689445
  0
VERTEX
  8
PLAN_1
 62
     2
  6
CONTINUOUS
 10
-1.104012
 20
-0.687445
  0
VERTEX
  8
PLAN_1
 62
     2
  6
CONTINUOUS
 10
-1.104512
 20
-0.684941
  0
VERTEX
  8
PLAN_1
 62
     2
  6
CONTINUOUS
 10
-1.105516
 20
-0.683437
  0
VERTEX
  8
PLAN_1
 62
     2
  6
CONTINUOUS
 10
-1.107016
 20
-0.681433
  0
VERTEX
  8
PLAN_1
 62
     2
  6
CONTINUOUS
 10
-1.108520
 20
-0.680433
  0
VERTEX
  8
PLAN_1
 62
     2
  6
CONTINUOUS
 10
-1.110524
 20
-0.679433
  0
VERTEX
  8
PLAN_1
 62
     2
  6
CONTINUOUS
 10
-1.113024
 20
-0.678429
  0
VERTEX
  8
PLAN_1
 62
     2
  6
CONTINUOUS
 10
-1.116028
 20
-0.678429
  0
VERTEX
  8
PLAN_1
 62
     2
  6
CONTINUOUS
 10
-1.118531
 20
-0.678429
  0
VERTEX
  8
PLAN_1
 62
     2
  6
CONTINUOUS
 10
-1.120535
 20
-0.679433
  0
VERTEX
  8
PLAN_1
 62
     2
  6
CONTINUOUS
 10
-1.123039
 20
-0.680433
  0
VERTEX
  8
PLAN_1
 62
     2
  6
CONTINUOUS
 10
-1.124539
 20
-0.681433
  0
VERTEX
  8
PLAN_1
 62
     2
  6
CONTINUOUS
 10
-1.126043
 20
-0.682937
  0
VERTEX
  8
PLAN_1
 62
     2
  6
CONTINUOUS
 10
-1.127547
 20
-0.684941
  0
VERTEX
  8
PLAN_1
 62
     2
  6
CONTINUOUS
 10
-1.129047
 20
-0.686941
  0
VERTEX
  8
PLAN_1
 62
     2
  6
CONTINUOUS
 10
-1.130047
 20
-0.688945
  0
VERTEX
  8
PLAN_1
 62
     2
  6
CONTINUOUS
 10
-1.131551
 20
-0.693453
  0
VERTEX
  8
PLAN_1
 62
     2
  6
CONTINUOUS
 10
-1.132551
 20
-0.697957
  0
VERTEX
  8
PLAN_1
 62
     2
  6
CONTINUOUS
 10
-1.133051
 20
-0.701965
  0
VERTEX
  8
PLAN_1
 62
     2
  6
CONTINUOUS
 10
-1.133051
 20
-0.705469
  0
VERTEX
  8
PLAN_1
 62
     2
  6
CONTINUOUS
 10
-1.132051
 20
-0.703965
  0
VERTEX
  8
PLAN_1
 62
     2
  6
CONTINUOUS
 10
-1.130551
 20
-0.702465
  0
VERTEX
  8
PLAN_1
 62
     2
  6
CONTINUOUS
 10
-1.129047
 20
-0.700961
  0
VERTEX
  8
PLAN_1
 62
     2
  6
CONTINUOUS
 10
-1.127043
 20
-0.699461
  0
VERTEX
  8
PLAN_1
 62
     2
  6
CONTINUOUS
 10
-1.125043
 20
-0.698457
  0
VERTEX
  8
PLAN_1
 62
     2
  6
CONTINUOUS
 10
-1.122039
 20
-0.697457
  0
VERTEX
  8
PLAN_1
 62
     2
  6
CONTINUOUS
 10
-1.119035
 20
-0.696957
  0
VERTEX
  8
PLAN_1
 62
     2
  6
CONTINUOUS
 10
-1.115528
 20
-0.696457
  0
VERTEX
  8
PLAN_1
 62
     2
  6
CONTINUOUS
 10
-1.112024
 20
-0.696957
  0
VERTEX
  8
PLAN_1
 62
     2
  6
CONTINUOUS
 10
-1.108520
 20
-0.697957
  0
VERTEX
  8
PLAN_1
 62
     2
  6
CONTINUOUS
 10
-1.104512
 20
-0.699461
  0
VERTEX
  8
PLAN_1
 62
     2
  6
CONTINUOUS
 10
-1.101008
 20
-0.701965
  0
VERTEX
  8
PLAN_1
 62
     2
  6
CONTINUOUS
 10
-1.099008
 20
-0.702965
  0
VERTEX
  8
PLAN_1
 62
     2
  6
CONTINUOUS
 10
-1.097504
 20
-0.704969
  0
VERTEX
  8
PLAN_1
 62
     2
  6
CONTINUOUS
 10
-1.096504
 20
-0.706969
  0
VERTEX
  8
PLAN_1
 62
     2
  6
CONTINUOUS
 10
-1.095000
 20
-0.708972
  0
VERTEX
  8
PLAN_1
 62
     2
  6
CONTINUOUS
 10
-1.094000
 20
-0.711476
  0
VERTEX
  8
PLAN_1
 62
     2
  6
CONTINUOUS
 10
-1.093500
 20
-0.713980
  0
VERTEX
  8
PLAN_1
 62
     2
  6
CONTINUOUS
 10
-1.092996
 20
-0.716984
  0
VERTEX
  8
PLAN_1
 62
     2
  6
CONTINUOUS
 10
-1.092996
 20
-0.719988
  0
VERTEX
  8
PLAN_1
 62
     2
  6
CONTINUOUS
 10
-1.092996
 20
-0.722492
  0
VERTEX
  8
PLAN_1
 62
     2
  6
CONTINUOUS
 10
-1.092996
 20
-0.724996
  0
VERTEX
  8
PLAN_1
 62
     2
  6
CONTINUOUS
 10
-1.093500
 20
-0.727500
  0
VERTEX
  8
PLAN_1
 62
     2
  6
CONTINUOUS
 10
-1.094500
 20
-0.730000
  0
VERTEX
  8
PLAN_1
 62
     2
  6
CONTINUOUS
 10
-1.095500
 20
-0.732004
  0
VERTEX
  8
PLAN_1
 62
     2
  6
CONTINUOUS
 10
-1.096504
 20
-0.734008
  0
VERTEX
  8
PLAN_1
 62
     2
  6
CONTINUOUS
 10
-1.098004
 20
-0.736008
  0
VERTEX
  8
PLAN_1
 62
     2
  6
CONTINUOUS
 10
-1.099508
 20
-0.738012
  0
VERTEX
  8
PLAN_1
 62
     2
  6
CONTINUOUS
 10
-1.101008
 20
-0.739516
  0
VERTEX
  8
PLAN_1
 62
     2
  6
CONTINUOUS
 10
-1.103012
 20
-0.741016
  0
VERTEX
  8
PLAN_1
 62
     2
  6
CONTINUOUS
 10
-1.104512
 20
-0.742520
  0
VERTEX
  8
PLAN_1
 62
     2
  6
CONTINUOUS
 10
-1.106516
 20
-0.743520
  0
VERTEX
  8
PLAN_1
 62
     2
  6
CONTINUOUS
 10
-1.109020
 20
-0.744020
  0
VERTEX
  8
PLAN_1
 62
     2
  6
CONTINUOUS
 10
-1.111524
 20
-0.745024
  0
VERTEX
  8
PLAN_1
 62
     2
  6
CONTINUOUS
 10
-1.114528
 20
-0.745024
  0
VERTEX
  8
PLAN_1
 62
     2
  6
CONTINUOUS
 10
-1.118031
 20
-0.745524
  0
VERTEX
  8
PLAN_1
 62
     2
  6
CONTINUOUS
 10
-1.120535
 20
-0.745024
  0
VERTEX
  8
PLAN_1
 62
     2
  6
CONTINUOUS
 10
-1.123039
 20
-0.744520
  0
VERTEX
  8
PLAN_1
 62
     2
  6
CONTINUOUS
 10
-1.125543
 20
-0.744020
  0
VERTEX
  8
PLAN_1
 62
     2
  6
CONTINUOUS
 10
-1.128047
 20
-0.743020
  0
VERTEX
  8
PLAN_1
 62
     2
  6
CONTINUOUS
 10
-1.130551
 20
-0.741516
  0
VERTEX
  8
PLAN_1
 62
     2
  6
CONTINUOUS
 10
-1.132551
 20
-0.739516
  0
VERTEX
  8
PLAN_1
 62
     2
  6
CONTINUOUS
 10
-1.135055
 20
-0.737512
  0
VERTEX
  8
PLAN_1
 62
     2
  6
CONTINUOUS
 10
-1.137059
 20
-0.734508
  0
VERTEX
  8
PLAN_1
 62
     2
  6
CONTINUOUS
 10
-1.138559
 20
-0.732004
  0
VERTEX
  8
PLAN_1
 62
     2
  6
CONTINUOUS
 10
-1.140063
 20
-0.729000
  0
VERTEX
  8
PLAN_1
 62
     2
  6
CONTINUOUS
 10
-1.140563
 20
-0.725996
  0
VERTEX
  8
PLAN_1
 62
     2
  6
CONTINUOUS
 10
-1.141563
 20
-0.722992
  0
VERTEX
  8
PLAN_1
 62
     2
  6
CONTINUOUS
 10
-1.142067
 20
-0.719488
  0
VERTEX
  8
PLAN_1
 62
     2
  6
CONTINUOUS
 10
-1.142567
 20
-0.716484
  0
VERTEX
  8
PLAN_1
 62
     2
  6
CONTINUOUS
 10
-1.142567
 20
-0.712976
  0
VERTEX
  8
PLAN_1
 62
     2
  6
CONTINUOUS
 10
-1.142567
 20
-0.709472
  0
VERTEX
  8
PLAN_1
 62
     2
  6
CONTINUOUS
 10
-1.142567
 20
-0.702965
  0
VERTEX
  8
PLAN_1
 62
     2
  6
CONTINUOUS
 10
-1.141563
 20
-0.696457
  0
VERTEX
  8
PLAN_1
 62
     2
  6
CONTINUOUS
 10
-1.140063
 20
-0.689945
  0
VERTEX
  8
PLAN_1
 62
     2
  6
CONTINUOUS
 10
-1.137559
 20
-0.683937
  0
VERTEX
  8
PLAN_1
 62
     2
  6
CONTINUOUS
 10
-1.135555
 20
-0.680933
  0
VERTEX
  8
PLAN_1
 62
     2
  6
CONTINUOUS
 10
-1.134055
 20
-0.678429
  0
VERTEX
  8
PLAN_1
 62
     2
  6
CONTINUOUS
 10
-1.131551
 20
-0.675929
  0
VERTEX
  8
PLAN_1
 62
     2
  6
CONTINUOUS
 10
-1.129047
 20
-0.673925
  0
VERTEX
  8
PLAN_1
 62
     2
  6
CONTINUOUS
 10
-1.126043
 20
-0.672421
  0
VERTEX
  8
PLAN_1
 62
     2
  6
CONTINUOUS
 10
-1.123039
 20
-0.671421
  0
VERTEX
  8
PLAN_1
 62
     2
  6
CONTINUOUS
 10
-1.119535
 20
-0.670421
  0
VERTEX
  8
PLAN_1
 62
     2
  6
CONTINUOUS
 10
-1.115528
 20
-0.669917
  0
VERTEX
  8
PLAN_1
 62
     2
  6
CONTINUOUS
 10
-1.112524
 20
-0.670421
  0
VERTEX
  8
PLAN_1
 62
     2
  6
CONTINUOUS
 10
-1.109020
 20
-0.670921
  0
VERTEX
  8
PLAN_1
 62
     2
  6
CONTINUOUS
 10
-1.105516
 20
-0.672421
  0
VERTEX
  8
PLAN_1
 62
     2
  6
CONTINUOUS
 10
-1.102012
 20
-0.674425
  0
VERTEX
  8
PLAN_1
 62
     2
  6
CONTINUOUS
 10
-1.099508
 20
-0.676929
  0
VERTEX
  8
PLAN_1
 62
     2
  6
CONTINUOUS
 10
-1.097004
 20
-0.680433
  0
VERTEX
  8
PLAN_1
 62
     2
  6
CONTINUOUS
 10
-1.096000
 20
-0.682437
  0
VERTEX
  8
PLAN_1
 62
     2
  6
CONTINUOUS
 10
-1.095000
 20
-0.684441
  0
VERTEX
  8
PLAN_1
 62
     2
  6
CONTINUOUS
 10
-1.094500
 20
-0.686941
  0
VERTEX
  8
PLAN_1
 62
     2
  6
CONTINUOUS
 10
-1.094500
 20
-0.689445
  0
VERTEX
  8
PLAN_1
 62
     2
  6
CONTINUOUS
 10
-1.103512
 20
-0.689445
  0
SEQEND
  8
0
  0
POLYLINE
  8
PLAN_1
 62
     2
  6
CONTINUOUS
 66
     1
 40
0.003000
 41
0.003000
  0
VERTEX
  8
PLAN_1
 62
     2
  6
CONTINUOUS
 10
-1.116531
 20
-0.737012
  0
VERTEX
  8
PLAN_1
 62
     2
  6
CONTINUOUS
 10
-1.113528
 20
-0.736512
  0
VERTEX
  8
PLAN_1
 62
     2
  6
CONTINUOUS
 10
-1.110524
 20
-0.736008
  0
VERTEX
  8
PLAN_1
 62
     2
  6
CONTINUOUS
 10
-1.108020
 20
-0.734508
  0
VERTEX
  8
PLAN_1
 62
     2
  6
CONTINUOUS
 10
-1.106016
 20
-0.732504
  0
VERTEX
  8
PLAN_1
 62
     2
  6
CONTINUOUS
 10
-1.104512
 20
-0.730000
  0
VERTEX
  8
PLAN_1
 62
     2
  6
CONTINUOUS
 10
-1.103012
 20
-0.726996
  0
VERTEX
  8
PLAN_1
 62
     2
  6
CONTINUOUS
 10
-1.102512
 20
-0.723992
  0
VERTEX
  8
PLAN_1
 62
     2
  6
CONTINUOUS
 10
-1.102012
 20
-0.720488
  0
VERTEX
  8
PLAN_1
 62
     2
  6
CONTINUOUS
 10
-1.102512
 20
-0.717984
  0
VERTEX
  8
PLAN_1
 62
     2
  6
CONTINUOUS
 10
-1.103012
 20
-0.714980
  0
VERTEX
  8
PLAN_1
 62
     2
  6
CONTINUOUS
 10
-1.104012
 20
-0.712476
  0
VERTEX
  8
PLAN_1
 62
     2
  6
CONTINUOUS
 10
-1.105516
 20
-0.709972
  0
VERTEX
  8
PLAN_1
 62
     2
  6
CONTINUOUS
 10
-1.107520
 20
-0.707972
  0
VERTEX
  8
PLAN_1
 62
     2
  6
CONTINUOUS
 10
-1.110020
 20
-0.706469
  0
VERTEX
  8
PLAN_1
 62
     2
  6
CONTINUOUS
 10
-1.113024
 20
-0.705469
  0
VERTEX
  8
PLAN_1
 62
     2
  6
CONTINUOUS
 10
-1.117031
 20
-0.704969
  0
VERTEX
  8
PLAN_1
 62
     2
  6
CONTINUOUS
 10
-1.120535
 20
-0.705469
  0
VERTEX
  8
PLAN_1
 62
     2
  6
CONTINUOUS
 10
-1.123539
 20
-0.705969
  0
VERTEX
  8
PLAN_1
 62
     2
  6
CONTINUOUS
 10
-1.126043
 20
-0.707472
  0
VERTEX
  8
PLAN_1
 62
     2
  6
CONTINUOUS
 10
-1.128047
 20
-0.709472
  0
VERTEX
  8
PLAN_1
 62
     2
  6
CONTINUOUS
 10
-1.130047
 20
-0.711976
  0
VERTEX
  8
PLAN_1
 62
     2
  6
CONTINUOUS
 10
-1.131051
 20
-0.714480
  0
VERTEX
  8
PLAN_1
 62
     2
  6
CONTINUOUS
 10
-1.131551
 20
-0.717484
  0
VERTEX
  8
PLAN_1
 62
     2
  6
CONTINUOUS
 10
-1.132051
 20
-0.720988
  0
VERTEX
  8
PLAN_1
 62
     2
  6
CONTINUOUS
 10
-1.131551
 20
-0.723992
  0
VERTEX
  8
PLAN_1
 62
     2
  6
CONTINUOUS
 10
-1.131051
 20
-0.726496
  0
VERTEX
  8
PLAN_1
 62
     2
  6
CONTINUOUS
 10
-1.130047
 20
-0.729500
  0
VERTEX
  8
PLAN_1
 62
     2
  6
CONTINUOUS
 10
-1.128547
 20
-0.732004
  0
VERTEX
  8
PLAN_1
 62
     2
  6
CONTINUOUS
 10
-1.126043
 20
-0.734008
  0
VERTEX
  8
PLAN_1
 62
     2
  6
CONTINUOUS
 10
-1.123539
 20
-0.735508
  0
VERTEX
  8
PLAN_1
 62
     2
  6
CONTINUOUS
 10
-1.120535
 20
-0.736512
  0
VERTEX
  8
PLAN_1
 62
     2
  6
CONTINUOUS
 10
-1.116531
 20
-0.737012
  0
SEQEND
  8
0
  0
POLYLINE
  8
PLAN_1
 62
     2
  6
CONTINUOUS
 66
     1
 40
0.003000
 41
0.003000
  0
VERTEX
  8
PLAN_1
 62
     2
  6
CONTINUOUS
 10
-1.073472
 20
-0.700961
  0
VERTEX
  8
PLAN_1
 62
     2
  6
CONTINUOUS
 10
-1.072469
 20
-0.699961
  0
VERTEX
  8
PLAN_1
 62
     2
  6
CONTINUOUS
 10
-1.070969
 20
-0.698961
  0
VERTEX
  8
PLAN_1
 62
     2
  6
CONTINUOUS
 10
-1.069465
 20
-0.698457
  0
VERTEX
  8
PLAN_1
 62
     2
  6
CONTINUOUS
 10
-1.067465
 20
-0.697457
  0
VERTEX
  8
PLAN_1
 62
     2
  6
CONTINUOUS
 10
-1.065961
 20
-0.696957
  0
VERTEX
  8
PLAN_1
 62
     2
  6
CONTINUOUS
 10
-1.063957
 20
-0.696457
  0
VERTEX
  8
PLAN_1
 62
     2
  6
CONTINUOUS
 10
-1.061453
 20
-0.696457
  0
VERTEX
  8
PLAN_1
 62
     2
  6
CONTINUOUS
 10
-1.059453
 20
-0.695957
  0
VERTEX
  8
PLAN_1
 62
     2
  6
CONTINUOUS
 10
-1.054945
 20
-0.696457
  0
VERTEX
  8
PLAN_1
 62
     2
  6
CONTINUOUS
 10
-1.050441
 20
-0.697957
  0
VERTEX
  8
PLAN_1
 62
     2
  6
CONTINUOUS
 10
-1.046433
 20
-0.699461
  0
VERTEX
  8
PLAN_1
 62
     2
  6
CONTINUOUS
 10
-1.042929
 20
-0.702465
  0
VERTEX
  8
PLAN_1
 62
     2
  6
CONTINUOUS
 10
-1.039925
 20
-0.705469
  0
VERTEX
  8
PLAN_1
 62
     2
  6
CONTINUOUS
 10
-1.037421
 20
-0.709472
  0
VERTEX
  8
PLAN_1
 62
     2
  6
CONTINUOUS
 10
-1.036421
 20
-0.711976
  0
VERTEX
  8
PLAN_1
 62
     2
  6
CONTINUOUS
 10
-1.035921
 20
-0.714480
  0
VERTEX
  8
PLAN_1
 62
     2
  6
CONTINUOUS
 10
-1.035417
 20
-0.716984
  0
VERTEX
  8
PLAN_1
 62
     2
  6
CONTINUOUS
 10
-1.035417
 20
-0.719488
  0
VERTEX
  8
PLAN_1
 62
     2
  6
CONTINUOUS
 10
-1.035417
 20
-0.722992
  0
VERTEX
  8
PLAN_1
 62
     2
  6
CONTINUOUS
 10
-1.036421
 20
-0.726996
  0
VERTEX
  8
PLAN_1
 62
     2
  6
CONTINUOUS
 10
-1.037421
 20
-0.731504
  0
VERTEX
  8
PLAN_1
 62
     2
  6
CONTINUOUS
 10
-1.039925
 20
-0.735508
  0
VERTEX
  8
PLAN_1
 62
     2
  6
CONTINUOUS
 10
-1.041425
 20
-0.737512
  0
VERTEX
  8
PLAN_1
 62
     2
  6
CONTINUOUS
 10
-1.043429
 20
-0.739516
  0
VERTEX
  8
PLAN_1
 62
     2
  6
CONTINUOUS
 10
-1.045433
 20
-0.741016
  0
VERTEX
  8
PLAN_1
 62
     2
  6
CONTINUOUS
 10
-1.047937
 20
-0.742520
  0
VERTEX
  8
PLAN_1
 62
     2
  6
CONTINUOUS
 10
-1.050941
 20
-0.743520
  0
VERTEX
  8
PLAN_1
 62
     2
  6
CONTINUOUS
 10
-1.053945
 20
-0.744520
  0
VERTEX
  8
PLAN_1
 62
     2
  6
CONTINUOUS
 10
-1.057949
 20
-0.745024
  0
VERTEX
  8
PLAN_1
 62
     2
  6
CONTINUOUS
 10
-1.061957
 20
-0.745524
  0
VERTEX
  8
PLAN_1
 62
     2
  6
CONTINUOUS
 10
-1.065461
 20
-0.745024
  0
VERTEX
  8
PLAN_1
 62
     2
  6
CONTINUOUS
 10
-1.069465
 20
-0.744520
  0
VERTEX
  8
PLAN_1
 62
     2
  6
CONTINUOUS
 10
-1.072969
 20
-0.743020
  0
VERTEX
  8
PLAN_1
 62
     2
  6
CONTINUOUS
 10
-1.076476
 20
-0.741516
  0
VERTEX
  8
PLAN_1
 62
     2
  6
CONTINUOUS
 10
-1.079480
 20
-0.738512
  0
VERTEX
  8
PLAN_1
 62
     2
  6
CONTINUOUS
 10
-1.082484
 20
-0.735008
  0
VERTEX
  8
PLAN_1
 62
     2
  6
CONTINUOUS
 10
-1.083484
 20
-0.733004
  0
VERTEX
  8
PLAN_1
 62
     2
  6
CONTINUOUS
 10
-1.084484
 20
-0.730504
  0
VERTEX
  8
PLAN_1
 62
     2
  6
CONTINUOUS
 10
-1.084988
 20
-0.728000
  0
VERTEX
  8
PLAN_1
 62
     2
  6
CONTINUOUS
 10
-1.085488
 20
-0.724996
  0
VERTEX
  8
PLAN_1
 62
     2
  6
CONTINUOUS
 10
-1.075976
 20
-0.724996
  0
VERTEX
  8
PLAN_1
 62
     2
  6
CONTINUOUS
 10
-1.075472
 20
-0.728000
  0
VERTEX
  8
PLAN_1
 62
     2
  6
CONTINUOUS
 10
-1.074472
 20
-0.730504
  0
VERTEX
  8
PLAN_1
 62
     2
  6
CONTINUOUS
 10
-1.072969
 20
-0.732504
  0
VERTEX
  8
PLAN_1
 62
     2
  6
CONTINUOUS
 10
-1.070969
 20
-0.734508
  0
VERTEX
  8
PLAN_1
 62
     2
  6
CONTINUOUS
 10
-1.068965
 20
-0.735508
  0
VERTEX
  8
PLAN_1
 62
     2
  6
CONTINUOUS
 10
-1.066461
 20
-0.736512
  0
VERTEX
  8
PLAN_1
 62
     2
  6
CONTINUOUS
 10
-1.063457
 20
-0.737012
  0
VERTEX
  8
PLAN_1
 62
     2
  6
CONTINUOUS
 10
-1.060453
 20
-0.737512
  0
VERTEX
  8
PLAN_1
 62
     2
  6
CONTINUOUS
 10
-1.056949
 20
-0.737012
  0
VERTEX
  8
PLAN_1
 62
     2
  6
CONTINUOUS
 10
-1.053945
 20
-0.736008
  0
VERTEX
  8
PLAN_1
 62
     2
  6
CONTINUOUS
 10
-1.051441
 20
-0.734508
  0
VERTEX
  8
PLAN_1
 62
     2
  6
CONTINUOUS
 10
-1.049437
 20
-0.732504
  0
VERTEX
  8
PLAN_1
 62
     2
  6
CONTINUOUS
 10
-1.047437
 20
-0.730000
  0
VERTEX
  8
PLAN_1
 62
     2
  6
CONTINUOUS
 10
-1.045933
 20
-0.726996
  0
VERTEX
  8
PLAN_1
 62
     2
  6
CONTINUOUS
 10
-1.045433
 20
-0.723992
  0
VERTEX
  8
PLAN_1
 62
     2
  6
CONTINUOUS
 10
-1.044933
 20
-0.720488
  0
VERTEX
  8
PLAN_1
 62
     2
  6
CONTINUOUS
 10
-1.045433
 20
-0.716984
  0
VERTEX
  8
PLAN_1
 62
     2
  6
CONTINUOUS
 10
-1.046433
 20
-0.713480
  0
VERTEX
  8
PLAN_1
 62
     2
  6
CONTINUOUS
 10
-1.047937
 20
-0.710976
  0
VERTEX
  8
PLAN_1
 62
     2
  6
CONTINUOUS
 10
-1.049937
 20
-0.708472
  0
VERTEX
  8
PLAN_1
 62
     2
  6
CONTINUOUS
 10
-1.052441
 20
-0.706969
  0
VERTEX
  8
PLAN_1
 62
     2
  6
CONTINUOUS
 10
-1.054945
 20
-0.705469
  0
VERTEX
  8
PLAN_1
 62
     2
  6
CONTINUOUS
 10
-1.057949
 20
-0.704465
  0
VERTEX
  8
PLAN_1
 62
     2
  6
CONTINUOUS
 10
-1.061453
 20
-0.704465
  0
VERTEX
  8
PLAN_1
 62
     2
  6
CONTINUOUS
 10
-1.063457
 20
-0.704465
  0
VERTEX
  8
PLAN_1
 62
     2
  6
CONTINUOUS
 10
-1.064961
 20
-0.704969
  0
VERTEX
  8
PLAN_1
 62
     2
  6
CONTINUOUS
 10
-1.066961
 20
-0.705469
  0
VERTEX
  8
PLAN_1
 62
     2
  6
CONTINUOUS
 10
-1.068965
 20
-0.705969
  0
VERTEX
  8
PLAN_1
 62
     2
  6
CONTINUOUS
 10
-1.070469
 20
-0.706969
  0
VERTEX
  8
PLAN_1
 62
     2
  6
CONTINUOUS
 10
-1.071969
 20
-0.708472
  0
VERTEX
  8
PLAN_1
 62
     2
  6
CONTINUOUS
 10
-1.073472
 20
-0.709972
  0
VERTEX
  8
PLAN_1
 62
     2
  6
CONTINUOUS
 10
-1.074972
 20
-0.711476
  0
VERTEX
  8
PLAN_1
 62
     2
  6
CONTINUOUS
 10
-1.082484
 20
-0.710976
  0
VERTEX
  8
PLAN_1
 62
     2
  6
CONTINUOUS
 10
-1.076976
 20
-0.671921
  0
VERTEX
  8
PLAN_1
 62
     2
  6
CONTINUOUS
 10
-1.039425
 20
-0.671921
  0
VERTEX
  8
PLAN_1
 62
     2
  6
CONTINUOUS
 10
-1.039425
 20
-0.680433
  0
VERTEX
  8
PLAN_1
 62
     2
  6
CONTINUOUS
 10
-1.070469
 20
-0.680433
  0
VERTEX
  8
PLAN_1
 62
     2
  6
CONTINUOUS
 10
-1.073472
 20
-0.700961
  0
SEQEND
  8
0
  0
POLYLINE
  8
PLAN_1
 62
     2
  6
CONTINUOUS
 66
     1
 40
0.004004
 41
0.004004
  0
VERTEX
  8
PLAN_1
 62
     2
  6
CONTINUOUS
 10
0.006512
 20
-0.506697
  0
VERTEX
  8
PLAN_1
 62
     2
  6
CONTINUOUS
 10
0.006512
 20
-0.784075
  0
SEQEND
  8
0
  0
POLYLINE
  8
PLAN_1
 62
     2
  6
CONTINUOUS
 66
     1
 40
0.004004
 41
0.004004
  0
VERTEX
  8
PLAN_1
 62
     2
  6
CONTINUOUS
 10
-2.183996
 20
2.327197
  0
VERTEX
  8
PLAN_1
 62
     2
  6
CONTINUOUS
 10
-2.183996
 20
-0.790587
  0
SEQEND
  8
0
  0
ENDSEC
  0
EOF
