  0
SECTION
  2
HEADER
  9
$ACADVER
  1
AC1006
  9
$EXTMIN
 10
-2.062445
 20
-3.288717
  9
$EXTMAX
 10
2.068000
 20
3.288000
  9
$LTSCALE
 40
0.000394
  9
$PDMODE
 70
    35
  9
$PDSIZE
 40
0.000315
  0
ENDSEC
  0
SECTION
  2
TABLES
  0
TABLE
  2
LTYPE
 70
     9
  0
LTYPE
  2
CONTINUOUS
 70
    64
  3
Solid line
 72
    65
 73
     0
 40
0.000000
  0
LTYPE
  2
DASHED
 70
    64
  3
__ __ __ __ __ __ __ __ __ __ __ __ __ __ __
 72
    65
 73
     2
 40
0.000003
 49
0.000002
 49
-0.000001
  0
LTYPE
  2
HIDDEN
 70
    64
  3
 _ _ _ _ _ _ _ _ _ _ _ _ _ _ _ _ _ _ _ _ _ _
 72
    65
 73
     2
 40
0.000001
 49
0.000001
 49
-0.000000
  0
LTYPE
  2
CENTER
 70
    64
  3
____ _ ____ _ ____ _ ____ _ ____ _ ____ _ ____
 72
    65
 73
     4
 40
0.000008
 49
0.000005
 49
-0.000001
 49
0.000001
 49
-0.000001
  0
LTYPE
  2
PHANTOM
 70
    64
  3
_____ _ _ _____ _ _ _____ _ _ _____ _ _ ____
 72
    65
 73
     6
 40
0.000010
 49
0.000005
 49
-0.000001
 49
0.000001
 49
-0.000001
 49
0.000001
 49
-0.000001
  0
LTYPE
  2
DOT
 70
    64
  3
...............................................
 72
    65
 73
     2
 40
0.000001
 49
0.000000
 49
-0.000001
  0
LTYPE
  2
DASHDOT
 70
    64
  3
__ . __ . __ . __ . __ . __ . __ . __ . __ . __
 72
    65
 73
     4
 40
0.000004
 49
0.000002
 49
-0.000001
 49
0.000000
 49
-0.000001
  0
LTYPE
  2
BORDER
 70
    64
  3
__ __ . __ __ . __ __ . __ __ . __ __ . __ __
 72
    65
 73
     6
 40
0.000007
 49
0.000002
 49
-0.000001
 49
0.000002
 49
-0.000001
 49
0.000000
 49
-0.000001
  0
LTYPE
  2
DIVIDE
 70
    64
  3
__ . . __ . . __ . . __ . . __ . . __ . . __
 72
    65
 73
     6
 40
0.000005
 49
0.000002
 49
-0.000001
 49
0.000000
 49
-0.000001
 49
0.000000
 49
-0.000001
  0
LTYPE
  2
DOTDOT
 70
    64
  3
 . .  . .  . .  . .  . .  . . 
 72
    65
 73
     5
 40
0.000002
 49
-0.000001
 49
0.000000
 49
-0.000001
 49
0.000000
 49
-0.000001
  0
ENDTAB
  0
TABLE
  2
STYLE
 70
     0
  0
ENDTAB
  0
TABLE
  2
LAYER
 70
     3
  0
LAYER
  2
FOREGROUND
 70
    64
 62
     7
  6
CONTINUOUS
  0
LAYER
  2
BACKGROUND
 70
    65
 62
    -7
  6
CONTINUOUS
  0
LAYER
  2
PLAN_1
 70
    64
 62
     7
  6
CONTINUOUS
  0
ENDTAB
  0
ENDSEC
  0
SECTION
  2
ENTITIES
  0
POLYLINE
  8
PLAN_1
  6
CONTINUOUS
 66
     1
 40
0.003000
 41
0.003000
  0
VERTEX
  8
PLAN_1
  6
CONTINUOUS
 10
0.191992
 20
-3.283374
  0
VERTEX
  8
PLAN_1
  6
CONTINUOUS
 10
0.035382
 20
-3.283374
  0
VERTEX
  8
PLAN_1
  6
CONTINUOUS
 10
0.035382
 20
-3.260764
  0
VERTEX
  8
PLAN_1
  6
CONTINUOUS
 10
0.157465
 20
-3.107858
  0
VERTEX
  8
PLAN_1
  6
CONTINUOUS
 10
0.044425
 20
-3.107858
  0
VERTEX
  8
PLAN_1
  6
CONTINUOUS
 10
0.044425
 20
-3.084016
  0
VERTEX
  8
PLAN_1
  6
CONTINUOUS
 10
0.191992
 20
-3.084016
  0
VERTEX
  8
PLAN_1
  6
CONTINUOUS
 10
0.191992
 20
-3.107445
  0
VERTEX
  8
PLAN_1
  6
CONTINUOUS
 10
0.069500
 20
-3.259531
  0
VERTEX
  8
PLAN_1
  6
CONTINUOUS
 10
0.191992
 20
-3.259531
  0
VERTEX
  8
PLAN_1
  6
CONTINUOUS
 10
0.191992
 20
-3.283374
  0
SEQEND
  8
0
  0
POLYLINE
  8
PLAN_1
  6
CONTINUOUS
 66
     1
 40
0.003000
 41
0.003000
  0
VERTEX
  8
PLAN_1
  6
CONTINUOUS
 10
0.359287
 20
-3.144028
  0
VERTEX
  8
PLAN_1
  6
CONTINUOUS
 10
0.357642
 20
-3.137862
  0
VERTEX
  8
PLAN_1
  6
CONTINUOUS
 10
0.355587
 20
-3.132110
  0
VERTEX
  8
PLAN_1
  6
CONTINUOUS
 10
0.353122
 20
-3.127177
  0
VERTEX
  8
PLAN_1
  6
CONTINUOUS
 10
0.350244
 20
-3.123067
  0
VERTEX
  8
PLAN_1
  6
CONTINUOUS
 10
0.346957
 20
-3.118957
  0
VERTEX
  8
PLAN_1
  6
CONTINUOUS
 10
0.343665
 20
-3.115665
  0
VERTEX
  8
PLAN_1
  6
CONTINUOUS
 10
0.339969
 20
-3.112787
  0
VERTEX
  8
PLAN_1
  6
CONTINUOUS
 10
0.335858
 20
-3.110323
  0
VERTEX
  8
PLAN_1
  6
CONTINUOUS
 10
0.331748
 20
-3.108268
  0
VERTEX
  8
PLAN_1
  6
CONTINUOUS
 10
0.327638
 20
-3.106622
  0
VERTEX
  8
PLAN_1
  6
CONTINUOUS
 10
0.323528
 20
-3.105390
  0
VERTEX
  8
PLAN_1
  6
CONTINUOUS
 10
0.319417
 20
-3.104157
  0
VERTEX
  8
PLAN_1
  6
CONTINUOUS
 10
0.311193
 20
-3.102925
  0
VERTEX
  8
PLAN_1
  6
CONTINUOUS
 10
0.303795
 20
-3.102925
  0
VERTEX
  8
PLAN_1
  6
CONTINUOUS
 10
0.296807
 20
-3.102925
  0
VERTEX
  8
PLAN_1
  6
CONTINUOUS
 10
0.290642
 20
-3.104157
  0
VERTEX
  8
PLAN_1
  6
CONTINUOUS
 10
0.284067
 20
-3.105390
  0
VERTEX
  8
PLAN_1
  6
CONTINUOUS
 10
0.278311
 20
-3.107858
  0
VERTEX
  8
PLAN_1
  6
CONTINUOUS
 10
0.272555
 20
-3.110732
  0
VERTEX
  8
PLAN_1
  6
CONTINUOUS
 10
0.267213
 20
-3.114024
  0
VERTEX
  8
PLAN_1
  6
CONTINUOUS
 10
0.262280
 20
-3.118134
  0
VERTEX
  8
PLAN_1
  6
CONTINUOUS
 10
0.257346
 20
-3.122654
  0
VERTEX
  8
PLAN_1
  6
CONTINUOUS
 10
0.253236
 20
-3.127996
  0
VERTEX
  8
PLAN_1
  6
CONTINUOUS
 10
0.249539
 20
-3.133752
  0
VERTEX
  8
PLAN_1
  6
CONTINUOUS
 10
0.246248
 20
-3.140331
  0
VERTEX
  8
PLAN_1
  6
CONTINUOUS
 10
0.243374
 20
-3.147319
  0
VERTEX
  8
PLAN_1
  6
CONTINUOUS
 10
0.241319
 20
-3.155126
  0
VERTEX
  8
PLAN_1
  6
CONTINUOUS
 10
0.239673
 20
-3.163346
  0
VERTEX
  8
PLAN_1
  6
CONTINUOUS
 10
0.238850
 20
-3.172390
  0
VERTEX
  8
PLAN_1
  6
CONTINUOUS
 10
0.238441
 20
-3.181846
  0
VERTEX
  8
PLAN_1
  6
CONTINUOUS
 10
0.238441
 20
-3.190476
  0
VERTEX
  8
PLAN_1
  6
CONTINUOUS
 10
0.239260
 20
-3.198697
  0
VERTEX
  8
PLAN_1
  6
CONTINUOUS
 10
0.240083
 20
-3.206917
  0
VERTEX
  8
PLAN_1
  6
CONTINUOUS
 10
0.241728
 20
-3.214728
  0
VERTEX
  8
PLAN_1
  6
CONTINUOUS
 10
0.243783
 20
-3.221717
  0
VERTEX
  8
PLAN_1
  6
CONTINUOUS
 10
0.246248
 20
-3.228705
  0
VERTEX
  8
PLAN_1
  6
CONTINUOUS
 10
0.249126
 20
-3.235280
  0
VERTEX
  8
PLAN_1
  6
CONTINUOUS
 10
0.252827
 20
-3.241035
  0
VERTEX
  8
PLAN_1
  6
CONTINUOUS
 10
0.254882
 20
-3.243500
  0
VERTEX
  8
PLAN_1
  6
CONTINUOUS
 10
0.256937
 20
-3.246378
  0
VERTEX
  8
PLAN_1
  6
CONTINUOUS
 10
0.259402
 20
-3.248846
  0
VERTEX
  8
PLAN_1
  6
CONTINUOUS
 10
0.261870
 20
-3.250902
  0
VERTEX
  8
PLAN_1
  6
CONTINUOUS
 10
0.264335
 20
-3.252957
  0
VERTEX
  8
PLAN_1
  6
CONTINUOUS
 10
0.267213
 20
-3.255012
  0
VERTEX
  8
PLAN_1
  6
CONTINUOUS
 10
0.270091
 20
-3.256654
  0
VERTEX
  8
PLAN_1
  6
CONTINUOUS
 10
0.273378
 20
-3.258299
  0
VERTEX
  8
PLAN_1
  6
CONTINUOUS
 10
0.276665
 20
-3.259945
  0
VERTEX
  8
PLAN_1
  6
CONTINUOUS
 10
0.279957
 20
-3.261177
  0
VERTEX
  8
PLAN_1
  6
CONTINUOUS
 10
0.283654
 20
-3.262409
  0
VERTEX
  8
PLAN_1
  6
CONTINUOUS
 10
0.287354
 20
-3.263232
  0
VERTEX
  8
PLAN_1
  6
CONTINUOUS
 10
0.291465
 20
-3.264055
  0
VERTEX
  8
PLAN_1
  6
CONTINUOUS
 10
0.295575
 20
-3.264465
  0
VERTEX
  8
PLAN_1
  6
CONTINUOUS
 10
0.300094
 20
-3.264874
  0
VERTEX
  8
PLAN_1
  6
CONTINUOUS
 10
0.304618
 20
-3.264874
  0
VERTEX
  8
PLAN_1
  6
CONTINUOUS
 10
0.307906
 20
-3.264874
  0
VERTEX
  8
PLAN_1
  6
CONTINUOUS
 10
0.311606
 20
-3.264465
  0
VERTEX
  8
PLAN_1
  6
CONTINUOUS
 10
0.315303
 20
-3.263642
  0
VERTEX
  8
PLAN_1
  6
CONTINUOUS
 10
0.319417
 20
-3.262819
  0
VERTEX
  8
PLAN_1
  6
CONTINUOUS
 10
0.323528
 20
-3.261587
  0
VERTEX
  8
PLAN_1
  6
CONTINUOUS
 10
0.327638
 20
-3.259945
  0
VERTEX
  8
PLAN_1
  6
CONTINUOUS
 10
0.331748
 20
-3.257476
  0
VERTEX
  8
PLAN_1
  6
CONTINUOUS
 10
0.335858
 20
-3.255012
  0
VERTEX
  8
PLAN_1
  6
CONTINUOUS
 10
0.339969
 20
-3.251720
  0
VERTEX
  8
PLAN_1
  6
CONTINUOUS
 10
0.344079
 20
-3.248024
  0
VERTEX
  8
PLAN_1
  6
CONTINUOUS
 10
0.347780
 20
-3.243500
  0
VERTEX
  8
PLAN_1
  6
CONTINUOUS
 10
0.351067
 20
-3.238157
  0
VERTEX
  8
PLAN_1
  6
CONTINUOUS
 10
0.354354
 20
-3.232402
  0
VERTEX
  8
PLAN_1
  6
CONTINUOUS
 10
0.356819
 20
-3.225827
  0
VERTEX
  8
PLAN_1
  6
CONTINUOUS
 10
0.359287
 20
-3.218429
  0
VERTEX
  8
PLAN_1
  6
CONTINUOUS
 10
0.361343
 20
-3.210209
  0
VERTEX
  8
PLAN_1
  6
CONTINUOUS
 10
0.387650
 20
-3.210209
  0
VERTEX
  8
PLAN_1
  6
CONTINUOUS
 10
0.386417
 20
-3.217193
  0
VERTEX
  8
PLAN_1
  6
CONTINUOUS
 10
0.384772
 20
-3.223362
  0
VERTEX
  8
PLAN_1
  6
CONTINUOUS
 10
0.383126
 20
-3.229528
  0
VERTEX
  8
PLAN_1
  6
CONTINUOUS
 10
0.381071
 20
-3.235280
  0
VERTEX
  8
PLAN_1
  6
CONTINUOUS
 10
0.379016
 20
-3.240626
  0
VERTEX
  8
PLAN_1
  6
CONTINUOUS
 10
0.376551
 20
-3.245555
  0
VERTEX
  8
PLAN_1
  6
CONTINUOUS
 10
0.374083
 20
-3.250079
  0
VERTEX
  8
PLAN_1
  6
CONTINUOUS
 10
0.371209
 20
-3.254189
  0
VERTEX
  8
PLAN_1
  6
CONTINUOUS
 10
0.368331
 20
-3.258299
  0
VERTEX
  8
PLAN_1
  6
CONTINUOUS
 10
0.365453
 20
-3.261587
  0
VERTEX
  8
PLAN_1
  6
CONTINUOUS
 10
0.362165
 20
-3.264874
  0
VERTEX
  8
PLAN_1
  6
CONTINUOUS
 10
0.358874
 20
-3.268165
  0
VERTEX
  8
PLAN_1
  6
CONTINUOUS
 10
0.355587
 20
-3.271043
  0
VERTEX
  8
PLAN_1
  6
CONTINUOUS
 10
0.352299
 20
-3.273508
  0
VERTEX
  8
PLAN_1
  6
CONTINUOUS
 10
0.348598
 20
-3.275563
  0
VERTEX
  8
PLAN_1
  6
CONTINUOUS
 10
0.345311
 20
-3.277618
  0
VERTEX
  8
PLAN_1
  6
CONTINUOUS
 10
0.338323
 20
-3.280906
  0
VERTEX
  8
PLAN_1
  6
CONTINUOUS
 10
0.331335
 20
-3.283783
  0
VERTEX
  8
PLAN_1
  6
CONTINUOUS
 10
0.324760
 20
-3.285839
  0
VERTEX
  8
PLAN_1
  6
CONTINUOUS
 10
0.318594
 20
-3.287071
  0
VERTEX
  8
PLAN_1
  6
CONTINUOUS
 10
0.312839
 20
-3.287894
  0
VERTEX
  8
PLAN_1
  6
CONTINUOUS
 10
0.307906
 20
-3.288307
  0
VERTEX
  8
PLAN_1
  6
CONTINUOUS
 10
0.303795
 20
-3.288717
  0
VERTEX
  8
PLAN_1
  6
CONTINUOUS
 10
0.300508
 20
-3.288717
  0
VERTEX
  8
PLAN_1
  6
CONTINUOUS
 10
0.291874
 20
-3.288307
  0
VERTEX
  8
PLAN_1
  6
CONTINUOUS
 10
0.283654
 20
-3.287484
  0
VERTEX
  8
PLAN_1
  6
CONTINUOUS
 10
0.275024
 20
-3.285429
  0
VERTEX
  8
PLAN_1
  6
CONTINUOUS
 10
0.267213
 20
-3.282961
  0
VERTEX
  8
PLAN_1
  6
CONTINUOUS
 10
0.263102
 20
-3.281319
  0
VERTEX
  8
PLAN_1
  6
CONTINUOUS
 10
0.259402
 20
-3.279673
  0
VERTEX
  8
PLAN_1
  6
CONTINUOUS
 10
0.255705
 20
-3.277618
  0
VERTEX
  8
PLAN_1
  6
CONTINUOUS
 10
0.252004
 20
-3.275563
  0
VERTEX
  8
PLAN_1
  6
CONTINUOUS
 10
0.248303
 20
-3.273098
  0
VERTEX
  8
PLAN_1
  6
CONTINUOUS
 10
0.245016
 20
-3.270220
  0
VERTEX
  8
PLAN_1
  6
CONTINUOUS
 10
0.241728
 20
-3.267343
  0
VERTEX
  8
PLAN_1
  6
CONTINUOUS
 10
0.238441
 20
-3.264465
  0
VERTEX
  8
PLAN_1
  6
CONTINUOUS
 10
0.235563
 20
-3.261177
  0
VERTEX
  8
PLAN_1
  6
CONTINUOUS
 10
0.232685
 20
-3.257476
  0
VERTEX
  8
PLAN_1
  6
CONTINUOUS
 10
0.229807
 20
-3.253780
  0
VERTEX
  8
PLAN_1
  6
CONTINUOUS
 10
0.226929
 20
-3.250079
  0
VERTEX
  8
PLAN_1
  6
CONTINUOUS
 10
0.224465
 20
-3.245555
  0
VERTEX
  8
PLAN_1
  6
CONTINUOUS
 10
0.222409
 20
-3.241035
  0
VERTEX
  8
PLAN_1
  6
CONTINUOUS
 10
0.220354
 20
-3.236512
  0
VERTEX
  8
PLAN_1
  6
CONTINUOUS
 10
0.218299
 20
-3.231583
  0
VERTEX
  8
PLAN_1
  6
CONTINUOUS
 10
0.216654
 20
-3.226236
  0
VERTEX
  8
PLAN_1
  6
CONTINUOUS
 10
0.215012
 20
-3.220894
  0
VERTEX
  8
PLAN_1
  6
CONTINUOUS
 10
0.213776
 20
-3.215138
  0
VERTEX
  8
PLAN_1
  6
CONTINUOUS
 10
0.212543
 20
-3.209386
  0
VERTEX
  8
PLAN_1
  6
CONTINUOUS
 10
0.211720
 20
-3.202807
  0
VERTEX
  8
PLAN_1
  6
CONTINUOUS
 10
0.211311
 20
-3.196642
  0
VERTEX
  8
PLAN_1
  6
CONTINUOUS
 10
0.210902
 20
-3.189654
  0
VERTEX
  8
PLAN_1
  6
CONTINUOUS
 10
0.210488
 20
-3.182665
  0
VERTEX
  8
PLAN_1
  6
CONTINUOUS
 10
0.210902
 20
-3.176913
  0
VERTEX
  8
PLAN_1
  6
CONTINUOUS
 10
0.210902
 20
-3.171567
  0
VERTEX
  8
PLAN_1
  6
CONTINUOUS
 10
0.211720
 20
-3.165815
  0
VERTEX
  8
PLAN_1
  6
CONTINUOUS
 10
0.212134
 20
-3.160469
  0
VERTEX
  8
PLAN_1
  6
CONTINUOUS
 10
0.213366
 20
-3.155539
  0
VERTEX
  8
PLAN_1
  6
CONTINUOUS
 10
0.214189
 20
-3.150193
  0
VERTEX
  8
PLAN_1
  6
CONTINUOUS
 10
0.215421
 20
-3.145260
  0
VERTEX
  8
PLAN_1
  6
CONTINUOUS
 10
0.217067
 20
-3.140740
  0
VERTEX
  8
PLAN_1
  6
CONTINUOUS
 10
0.218709
 20
-3.135807
  0
VERTEX
  8
PLAN_1
  6
CONTINUOUS
 10
0.220354
 20
-3.131287
  0
VERTEX
  8
PLAN_1
  6
CONTINUOUS
 10
0.222409
 20
-3.127177
  0
VERTEX
  8
PLAN_1
  6
CONTINUOUS
 10
0.224874
 20
-3.123067
  0
VERTEX
  8
PLAN_1
  6
CONTINUOUS
 10
0.227343
 20
-3.118957
  0
VERTEX
  8
PLAN_1
  6
CONTINUOUS
 10
0.229807
 20
-3.114843
  0
VERTEX
  8
PLAN_1
  6
CONTINUOUS
 10
0.232276
 20
-3.111146
  0
VERTEX
  8
PLAN_1
  6
CONTINUOUS
 10
0.235563
 20
-3.107858
  0
VERTEX
  8
PLAN_1
  6
CONTINUOUS
 10
0.238441
 20
-3.104567
  0
VERTEX
  8
PLAN_1
  6
CONTINUOUS
 10
0.241728
 20
-3.101280
  0
VERTEX
  8
PLAN_1
  6
CONTINUOUS
 10
0.245016
 20
-3.098402
  0
VERTEX
  8
PLAN_1
  6
CONTINUOUS
 10
0.248717
 20
-3.095524
  0
VERTEX
  8
PLAN_1
  6
CONTINUOUS
 10
0.252413
 20
-3.093059
  0
VERTEX
  8
PLAN_1
  6
CONTINUOUS
 10
0.256528
 20
-3.090594
  0
VERTEX
  8
PLAN_1
  6
CONTINUOUS
 10
0.260224
 20
-3.088539
  0
VERTEX
  8
PLAN_1
  6
CONTINUOUS
 10
0.264748
 20
-3.086484
  0
VERTEX
  8
PLAN_1
  6
CONTINUOUS
 10
0.268858
 20
-3.084839
  0
VERTEX
  8
PLAN_1
  6
CONTINUOUS
 10
0.273378
 20
-3.083193
  0
VERTEX
  8
PLAN_1
  6
CONTINUOUS
 10
0.278311
 20
-3.081961
  0
VERTEX
  8
PLAN_1
  6
CONTINUOUS
 10
0.282831
 20
-3.080728
  0
VERTEX
  8
PLAN_1
  6
CONTINUOUS
 10
0.287764
 20
-3.079906
  0
VERTEX
  8
PLAN_1
  6
CONTINUOUS
 10
0.293110
 20
-3.079496
  0
VERTEX
  8
PLAN_1
  6
CONTINUOUS
 10
0.298453
 20
-3.079083
  0
VERTEX
  8
PLAN_1
  6
CONTINUOUS
 10
0.303795
 20
-3.079083
  0
VERTEX
  8
PLAN_1
  6
CONTINUOUS
 10
0.312839
 20
-3.079083
  0
VERTEX
  8
PLAN_1
  6
CONTINUOUS
 10
0.321882
 20
-3.080315
  0
VERTEX
  8
PLAN_1
  6
CONTINUOUS
 10
0.330102
 20
-3.081961
  0
VERTEX
  8
PLAN_1
  6
CONTINUOUS
 10
0.337500
 20
-3.084425
  0
VERTEX
  8
PLAN_1
  6
CONTINUOUS
 10
0.344488
 20
-3.087303
  0
VERTEX
  8
PLAN_1
  6
CONTINUOUS
 10
0.351067
 20
-3.090594
  0
VERTEX
  8
PLAN_1
  6
CONTINUOUS
 10
0.356819
 20
-3.094705
  0
VERTEX
  8
PLAN_1
  6
CONTINUOUS
 10
0.362575
 20
-3.098815
  0
VERTEX
  8
PLAN_1
  6
CONTINUOUS
 10
0.367098
 20
-3.103748
  0
VERTEX
  8
PLAN_1
  6
CONTINUOUS
 10
0.371618
 20
-3.108677
  0
VERTEX
  8
PLAN_1
  6
CONTINUOUS
 10
0.375319
 20
-3.114024
  0
VERTEX
  8
PLAN_1
  6
CONTINUOUS
 10
0.378197
 20
-3.119776
  0
VERTEX
  8
PLAN_1
  6
CONTINUOUS
 10
0.381071
 20
-3.125531
  0
VERTEX
  8
PLAN_1
  6
CONTINUOUS
 10
0.383126
 20
-3.131697
  0
VERTEX
  8
PLAN_1
  6
CONTINUOUS
 10
0.384362
 20
-3.137862
  0
VERTEX
  8
PLAN_1
  6
CONTINUOUS
 10
0.385594
 20
-3.144028
  0
VERTEX
  8
PLAN_1
  6
CONTINUOUS
 10
0.359287
 20
-3.144028
  0
SEQEND
  8
0
  0
POLYLINE
  8
PLAN_1
  6
CONTINUOUS
 66
     1
 40
0.003000
 41
0.003000
  0
VERTEX
  8
PLAN_1
  6
CONTINUOUS
 10
0.446839
 20
-3.283374
  0
VERTEX
  8
PLAN_1
  6
CONTINUOUS
 10
0.420122
 20
-3.283374
  0
VERTEX
  8
PLAN_1
  6
CONTINUOUS
 10
0.420122
 20
-3.084016
  0
VERTEX
  8
PLAN_1
  6
CONTINUOUS
 10
0.446839
 20
-3.084016
  0
VERTEX
  8
PLAN_1
  6
CONTINUOUS
 10
0.446839
 20
-3.180610
  0
VERTEX
  8
PLAN_1
  6
CONTINUOUS
 10
0.543433
 20
-3.084016
  0
VERTEX
  8
PLAN_1
  6
CONTINUOUS
 10
0.580839
 20
-3.084016
  0
VERTEX
  8
PLAN_1
  6
CONTINUOUS
 10
0.497807
 20
-3.164583
  0
VERTEX
  8
PLAN_1
  6
CONTINUOUS
 10
0.582894
 20
-3.283374
  0
VERTEX
  8
PLAN_1
  6
CONTINUOUS
 10
0.547957
 20
-3.283374
  0
VERTEX
  8
PLAN_1
  6
CONTINUOUS
 10
0.478488
 20
-3.183488
  0
VERTEX
  8
PLAN_1
  6
CONTINUOUS
 10
0.446839
 20
-3.213496
  0
VERTEX
  8
PLAN_1
  6
CONTINUOUS
 10
0.446839
 20
-3.283374
  0
SEQEND
  8
0
  0
POLYLINE
  8
PLAN_1
  6
CONTINUOUS
 66
     1
 40
0.003000
 41
0.003000
  0
VERTEX
  8
PLAN_1
  6
CONTINUOUS
 10
0.606736
 20
-3.084016
  0
VERTEX
  8
PLAN_1
  6
CONTINUOUS
 10
0.687299
 20
-3.084016
  0
VERTEX
  8
PLAN_1
  6
CONTINUOUS
 10
0.692232
 20
-3.084425
  0
VERTEX
  8
PLAN_1
  6
CONTINUOUS
 10
0.696756
 20
-3.084425
  0
VERTEX
  8
PLAN_1
  6
CONTINUOUS
 10
0.701276
 20
-3.085248
  0
VERTEX
  8
PLAN_1
  6
CONTINUOUS
 10
0.705799
 20
-3.086071
  0
VERTEX
  8
PLAN_1
  6
CONTINUOUS
 10
0.710319
 20
-3.086894
  0
VERTEX
  8
PLAN_1
  6
CONTINUOUS
 10
0.714429
 20
-3.088126
  0
VERTEX
  8
PLAN_1
  6
CONTINUOUS
 10
0.718539
 20
-3.089772
  0
VERTEX
  8
PLAN_1
  6
CONTINUOUS
 10
0.722240
 20
-3.091413
  0
VERTEX
  8
PLAN_1
  6
CONTINUOUS
 10
0.726350
 20
-3.093059
  0
VERTEX
  8
PLAN_1
  6
CONTINUOUS
 10
0.730051
 20
-3.095114
  0
VERTEX
  8
PLAN_1
  6
CONTINUOUS
 10
0.733339
 20
-3.097169
  0
VERTEX
  8
PLAN_1
  6
CONTINUOUS
 10
0.736626
 20
-3.099634
  0
VERTEX
  8
PLAN_1
  6
CONTINUOUS
 10
0.739913
 20
-3.102102
  0
VERTEX
  8
PLAN_1
  6
CONTINUOUS
 10
0.743201
 20
-3.104980
  0
VERTEX
  8
PLAN_1
  6
CONTINUOUS
 10
0.746079
 20
-3.107858
  0
VERTEX
  8
PLAN_1
  6
CONTINUOUS
 10
0.748957
 20
-3.111146
  0
VERTEX
  8
PLAN_1
  6
CONTINUOUS
 10
0.751425
 20
-3.114433
  0
VERTEX
  8
PLAN_1
  6
CONTINUOUS
 10
0.753890
 20
-3.117720
  0
VERTEX
  8
PLAN_1
  6
CONTINUOUS
 10
0.756354
 20
-3.121421
  0
VERTEX
  8
PLAN_1
  6
CONTINUOUS
 10
0.758409
 20
-3.125122
  0
VERTEX
  8
PLAN_1
  6
CONTINUOUS
 10
0.760469
 20
-3.129232
  0
VERTEX
  8
PLAN_1
  6
CONTINUOUS
 10
0.762110
 20
-3.132929
  0
VERTEX
  8
PLAN_1
  6
CONTINUOUS
 10
0.763756
 20
-3.137453
  0
VERTEX
  8
PLAN_1
  6
CONTINUOUS
 10
0.765398
 20
-3.141563
  0
VERTEX
  8
PLAN_1
  6
CONTINUOUS
 10
0.767866
 20
-3.150606
  0
VERTEX
  8
PLAN_1
  6
CONTINUOUS
 10
0.769921
 20
-3.160469
  0
VERTEX
  8
PLAN_1
  6
CONTINUOUS
 10
0.770744
 20
-3.170335
  0
VERTEX
  8
PLAN_1
  6
CONTINUOUS
 10
0.771154
 20
-3.181024
  0
VERTEX
  8
PLAN_1
  6
CONTINUOUS
 10
0.771154
 20
-3.189654
  0
VERTEX
  8
PLAN_1
  6
CONTINUOUS
 10
0.770331
 20
-3.198287
  0
VERTEX
  8
PLAN_1
  6
CONTINUOUS
 10
0.769098
 20
-3.206917
  0
VERTEX
  8
PLAN_1
  6
CONTINUOUS
 10
0.767043
 20
-3.215961
  0
VERTEX
  8
PLAN_1
  6
CONTINUOUS
 10
0.764579
 20
-3.224594
  0
VERTEX
  8
PLAN_1
  6
CONTINUOUS
 10
0.761701
 20
-3.233224
  0
VERTEX
  8
PLAN_1
  6
CONTINUOUS
 10
0.759646
 20
-3.237335
  0
VERTEX
  8
PLAN_1
  6
CONTINUOUS
 10
0.758000
 20
-3.241445
  0
VERTEX
  8
PLAN_1
  6
CONTINUOUS
 10
0.755535
 20
-3.245146
  0
VERTEX
  8
PLAN_1
  6
CONTINUOUS
 10
0.753480
 20
-3.248846
  0
VERTEX
  8
PLAN_1
  6
CONTINUOUS
 10
0.750602
 20
-3.252543
  0
VERTEX
  8
PLAN_1
  6
CONTINUOUS
 10
0.748134
 20
-3.256244
  0
VERTEX
  8
PLAN_1
  6
CONTINUOUS
 10
0.745260
 20
-3.259531
  0
VERTEX
  8
PLAN_1
  6
CONTINUOUS
 10
0.741969
 20
-3.262819
  0
VERTEX
  8
PLAN_1
  6
CONTINUOUS
 10
0.738681
 20
-3.265697
  0
VERTEX
  8
PLAN_1
  6
CONTINUOUS
 10
0.734980
 20
-3.268575
  0
VERTEX
  8
PLAN_1
  6
CONTINUOUS
 10
0.731283
 20
-3.271453
  0
VERTEX
  8
PLAN_1
  6
CONTINUOUS
 10
0.727173
 20
-3.273917
  0
VERTEX
  8
PLAN_1
  6
CONTINUOUS
 10
0.723063
 20
-3.275972
  0
VERTEX
  8
PLAN_1
  6
CONTINUOUS
 10
0.718539
 20
-3.278028
  0
VERTEX
  8
PLAN_1
  6
CONTINUOUS
 10
0.713606
 20
-3.279673
  0
VERTEX
  8
PLAN_1
  6
CONTINUOUS
 10
0.708673
 20
-3.280906
  0
VERTEX
  8
PLAN_1
  6
CONTINUOUS
 10
0.703331
 20
-3.282138
  0
VERTEX
  8
PLAN_1
  6
CONTINUOUS
 10
0.697988
 20
-3.282961
  0
VERTEX
  8
PLAN_1
  6
CONTINUOUS
 10
0.692232
 20
-3.283374
  0
VERTEX
  8
PLAN_1
  6
CONTINUOUS
 10
0.686480
 20
-3.283374
  0
VERTEX
  8
PLAN_1
  6
CONTINUOUS
 10
0.606736
 20
-3.283374
  0
VERTEX
  8
PLAN_1
  6
CONTINUOUS
 10
0.606736
 20
-3.084016
  0
SEQEND
  8
0
  0
POLYLINE
  8
PLAN_1
  6
CONTINUOUS
 66
     1
 40
0.003000
 41
0.003000
  0
VERTEX
  8
PLAN_1
  6
CONTINUOUS
 10
0.633453
 20
-3.260354
  0
VERTEX
  8
PLAN_1
  6
CONTINUOUS
 10
0.685657
 20
-3.260354
  0
VERTEX
  8
PLAN_1
  6
CONTINUOUS
 10
0.692232
 20
-3.259945
  0
VERTEX
  8
PLAN_1
  6
CONTINUOUS
 10
0.698398
 20
-3.259122
  0
VERTEX
  8
PLAN_1
  6
CONTINUOUS
 10
0.704154
 20
-3.257476
  0
VERTEX
  8
PLAN_1
  6
CONTINUOUS
 10
0.709496
 20
-3.255421
  0
VERTEX
  8
PLAN_1
  6
CONTINUOUS
 10
0.714429
 20
-3.252543
  0
VERTEX
  8
PLAN_1
  6
CONTINUOUS
 10
0.719362
 20
-3.249256
  0
VERTEX
  8
PLAN_1
  6
CONTINUOUS
 10
0.723882
 20
-3.245146
  0
VERTEX
  8
PLAN_1
  6
CONTINUOUS
 10
0.727583
 20
-3.240213
  0
VERTEX
  8
PLAN_1
  6
CONTINUOUS
 10
0.731283
 20
-3.235280
  0
VERTEX
  8
PLAN_1
  6
CONTINUOUS
 10
0.734571
 20
-3.229528
  0
VERTEX
  8
PLAN_1
  6
CONTINUOUS
 10
0.737035
 20
-3.222949
  0
VERTEX
  8
PLAN_1
  6
CONTINUOUS
 10
0.739504
 20
-3.215961
  0
VERTEX
  8
PLAN_1
  6
CONTINUOUS
 10
0.741146
 20
-3.208563
  0
VERTEX
  8
PLAN_1
  6
CONTINUOUS
 10
0.742382
 20
-3.200343
  0
VERTEX
  8
PLAN_1
  6
CONTINUOUS
 10
0.743201
 20
-3.191709
  0
VERTEX
  8
PLAN_1
  6
CONTINUOUS
 10
0.743614
 20
-3.182665
  0
VERTEX
  8
PLAN_1
  6
CONTINUOUS
 10
0.743201
 20
-3.173622
  0
VERTEX
  8
PLAN_1
  6
CONTINUOUS
 10
0.742382
 20
-3.164992
  0
VERTEX
  8
PLAN_1
  6
CONTINUOUS
 10
0.741146
 20
-3.157181
  0
VERTEX
  8
PLAN_1
  6
CONTINUOUS
 10
0.739504
 20
-3.149783
  0
VERTEX
  8
PLAN_1
  6
CONTINUOUS
 10
0.737035
 20
-3.142795
  0
VERTEX
  8
PLAN_1
  6
CONTINUOUS
 10
0.734161
 20
-3.136630
  0
VERTEX
  8
PLAN_1
  6
CONTINUOUS
 10
0.730870
 20
-3.131287
  0
VERTEX
  8
PLAN_1
  6
CONTINUOUS
 10
0.727583
 20
-3.125941
  0
VERTEX
  8
PLAN_1
  6
CONTINUOUS
 10
0.723472
 20
-3.121831
  0
VERTEX
  8
PLAN_1
  6
CONTINUOUS
 10
0.718953
 20
-3.117720
  0
VERTEX
  8
PLAN_1
  6
CONTINUOUS
 10
0.714020
 20
-3.114433
  0
VERTEX
  8
PLAN_1
  6
CONTINUOUS
 10
0.708673
 20
-3.111969
  0
VERTEX
  8
PLAN_1
  6
CONTINUOUS
 10
0.702921
 20
-3.109913
  0
VERTEX
  8
PLAN_1
  6
CONTINUOUS
 10
0.696756
 20
-3.108268
  0
VERTEX
  8
PLAN_1
  6
CONTINUOUS
 10
0.690591
 20
-3.107445
  0
VERTEX
  8
PLAN_1
  6
CONTINUOUS
 10
0.684012
 20
-3.107035
  0
VERTEX
  8
PLAN_1
  6
CONTINUOUS
 10
0.633453
 20
-3.107035
  0
VERTEX
  8
PLAN_1
  6
CONTINUOUS
 10
0.633453
 20
-3.260354
  0
SEQEND
  8
0
  0
POLYLINE
  8
PLAN_1
  6
CONTINUOUS
 66
     1
 40
0.003000
 41
0.003000
  0
VERTEX
  8
PLAN_1
  6
CONTINUOUS
 10
0.861996
 20
-3.288717
  0
VERTEX
  8
PLAN_1
  6
CONTINUOUS
 10
0.856650
 20
-3.288717
  0
VERTEX
  8
PLAN_1
  6
CONTINUOUS
 10
0.851720
 20
-3.287894
  0
VERTEX
  8
PLAN_1
  6
CONTINUOUS
 10
0.847197
 20
-3.287071
  0
VERTEX
  8
PLAN_1
  6
CONTINUOUS
 10
0.842677
 20
-3.286252
  0
VERTEX
  8
PLAN_1
  6
CONTINUOUS
 10
0.838567
 20
-3.284606
  0
VERTEX
  8
PLAN_1
  6
CONTINUOUS
 10
0.834866
 20
-3.282961
  0
VERTEX
  8
PLAN_1
  6
CONTINUOUS
 10
0.831165
 20
-3.280906
  0
VERTEX
  8
PLAN_1
  6
CONTINUOUS
 10
0.827878
 20
-3.278850
  0
VERTEX
  8
PLAN_1
  6
CONTINUOUS
 10
0.824591
 20
-3.276386
  0
VERTEX
  8
PLAN_1
  6
CONTINUOUS
 10
0.821303
 20
-3.273508
  0
VERTEX
  8
PLAN_1
  6
CONTINUOUS
 10
0.818425
 20
-3.270630
  0
VERTEX
  8
PLAN_1
  6
CONTINUOUS
 10
0.815957
 20
-3.267752
  0
VERTEX
  8
PLAN_1
  6
CONTINUOUS
 10
0.813492
 20
-3.264465
  0
VERTEX
  8
PLAN_1
  6
CONTINUOUS
 10
0.811437
 20
-3.261177
  0
VERTEX
  8
PLAN_1
  6
CONTINUOUS
 10
0.809382
 20
-3.257476
  0
VERTEX
  8
PLAN_1
  6
CONTINUOUS
 10
0.807327
 20
-3.253780
  0
VERTEX
  8
PLAN_1
  6
CONTINUOUS
 10
0.804035
 20
-3.245969
  0
VERTEX
  8
PLAN_1
  6
CONTINUOUS
 10
0.801161
 20
-3.238157
  0
VERTEX
  8
PLAN_1
  6
CONTINUOUS
 10
0.799106
 20
-3.229528
  0
VERTEX
  8
PLAN_1
  6
CONTINUOUS
 10
0.797461
 20
-3.221303
  0
VERTEX
  8
PLAN_1
  6
CONTINUOUS
 10
0.796228
 20
-3.212673
  0
VERTEX
  8
PLAN_1
  6
CONTINUOUS
 10
0.795406
 20
-3.204453
  0
VERTEX
  8
PLAN_1
  6
CONTINUOUS
 10
0.794996
 20
-3.196232
  0
VERTEX
  8
PLAN_1
  6
CONTINUOUS
 10
0.794996
 20
-3.188421
  0
VERTEX
  8
PLAN_1
  6
CONTINUOUS
 10
0.794996
 20
-3.180610
  0
VERTEX
  8
PLAN_1
  6
CONTINUOUS
 10
0.795406
 20
-3.172390
  0
VERTEX
  8
PLAN_1
  6
CONTINUOUS
 10
0.796228
 20
-3.164169
  0
VERTEX
  8
PLAN_1
  6
CONTINUOUS
 10
0.797461
 20
-3.155949
  0
VERTEX
  8
PLAN_1
  6
CONTINUOUS
 10
0.799106
 20
-3.147319
  0
VERTEX
  8
PLAN_1
  6
CONTINUOUS
 10
0.801161
 20
-3.139094
  0
VERTEX
  8
PLAN_1
  6
CONTINUOUS
 10
0.804035
 20
-3.130874
  0
VERTEX
  8
PLAN_1
  6
CONTINUOUS
 10
0.807327
 20
-3.123067
  0
VERTEX
  8
PLAN_1
  6
CONTINUOUS
 10
0.809382
 20
-3.119366
  0
VERTEX
  8
PLAN_1
  6
CONTINUOUS
 10
0.811437
 20
-3.116079
  0
VERTEX
  8
PLAN_1
  6
CONTINUOUS
 10
0.813492
 20
-3.112787
  0
VERTEX
  8
PLAN_1
  6
CONTINUOUS
 10
0.815957
 20
-3.109500
  0
VERTEX
  8
PLAN_1
  6
CONTINUOUS
 10
0.818425
 20
-3.106213
  0
VERTEX
  8
PLAN_1
  6
CONTINUOUS
 10
0.821303
 20
-3.103335
  0
VERTEX
  8
PLAN_1
  6
CONTINUOUS
 10
0.824591
 20
-3.100870
  0
VERTEX
  8
PLAN_1
  6
CONTINUOUS
 10
0.827878
 20
-3.098402
  0
VERTEX
  8
PLAN_1
  6
CONTINUOUS
 10
0.831165
 20
-3.095937
  0
VERTEX
  8
PLAN_1
  6
CONTINUOUS
 10
0.834866
 20
-3.094291
  0
VERTEX
  8
PLAN_1
  6
CONTINUOUS
 10
0.838567
 20
-3.092236
  0
VERTEX
  8
PLAN_1
  6
CONTINUOUS
 10
0.842677
 20
-3.091004
  0
VERTEX
  8
PLAN_1
  6
CONTINUOUS
 10
0.847197
 20
-3.089772
  0
VERTEX
  8
PLAN_1
  6
CONTINUOUS
 10
0.851720
 20
-3.088949
  0
VERTEX
  8
PLAN_1
  6
CONTINUOUS
 10
0.856650
 20
-3.088539
  0
VERTEX
  8
PLAN_1
  6
CONTINUOUS
 10
0.861996
 20
-3.088126
  0
VERTEX
  8
PLAN_1
  6
CONTINUOUS
 10
0.866925
 20
-3.088539
  0
VERTEX
  8
PLAN_1
  6
CONTINUOUS
 10
0.871858
 20
-3.088949
  0
VERTEX
  8
PLAN_1
  6
CONTINUOUS
 10
0.876382
 20
-3.089772
  0
VERTEX
  8
PLAN_1
  6
CONTINUOUS
 10
0.880902
 20
-3.091004
  0
VERTEX
  8
PLAN_1
  6
CONTINUOUS
 10
0.885012
 20
-3.092236
  0
VERTEX
  8
PLAN_1
  6
CONTINUOUS
 10
0.888713
 20
-3.094291
  0
VERTEX
  8
PLAN_1
  6
CONTINUOUS
 10
0.892413
 20
-3.095937
  0
VERTEX
  8
PLAN_1
  6
CONTINUOUS
 10
0.896110
 20
-3.098402
  0
VERTEX
  8
PLAN_1
  6
CONTINUOUS
 10
0.898988
 20
-3.100870
  0
VERTEX
  8
PLAN_1
  6
CONTINUOUS
 10
0.902276
 20
-3.103335
  0
VERTEX
  8
PLAN_1
  6
CONTINUOUS
 10
0.905154
 20
-3.106213
  0
VERTEX
  8
PLAN_1
  6
CONTINUOUS
 10
0.907622
 20
-3.109500
  0
VERTEX
  8
PLAN_1
  6
CONTINUOUS
 10
0.910087
 20
-3.112787
  0
VERTEX
  8
PLAN_1
  6
CONTINUOUS
 10
0.912142
 20
-3.116079
  0
VERTEX
  8
PLAN_1
  6
CONTINUOUS
 10
0.914197
 20
-3.119366
  0
VERTEX
  8
PLAN_1
  6
CONTINUOUS
 10
0.916252
 20
-3.123067
  0
VERTEX
  8
PLAN_1
  6
CONTINUOUS
 10
0.919539
 20
-3.130874
  0
VERTEX
  8
PLAN_1
  6
CONTINUOUS
 10
0.922417
 20
-3.139094
  0
VERTEX
  8
PLAN_1
  6
CONTINUOUS
 10
0.924472
 20
-3.147319
  0
VERTEX
  8
PLAN_1
  6
CONTINUOUS
 10
0.926118
 20
-3.155949
  0
VERTEX
  8
PLAN_1
  6
CONTINUOUS
 10
0.927350
 20
-3.164169
  0
VERTEX
  8
PLAN_1
  6
CONTINUOUS
 10
0.928173
 20
-3.172390
  0
VERTEX
  8
PLAN_1
  6
CONTINUOUS
 10
0.928583
 20
-3.180610
  0
VERTEX
  8
PLAN_1
  6
CONTINUOUS
 10
0.928583
 20
-3.188421
  0
VERTEX
  8
PLAN_1
  6
CONTINUOUS
 10
0.928583
 20
-3.196232
  0
VERTEX
  8
PLAN_1
  6
CONTINUOUS
 10
0.928173
 20
-3.204453
  0
VERTEX
  8
PLAN_1
  6
CONTINUOUS
 10
0.927350
 20
-3.212673
  0
VERTEX
  8
PLAN_1
  6
CONTINUOUS
 10
0.926118
 20
-3.221303
  0
VERTEX
  8
PLAN_1
  6
CONTINUOUS
 10
0.924472
 20
-3.229528
  0
VERTEX
  8
PLAN_1
  6
CONTINUOUS
 10
0.922417
 20
-3.238157
  0
VERTEX
  8
PLAN_1
  6
CONTINUOUS
 10
0.919539
 20
-3.245969
  0
VERTEX
  8
PLAN_1
  6
CONTINUOUS
 10
0.916252
 20
-3.253780
  0
VERTEX
  8
PLAN_1
  6
CONTINUOUS
 10
0.914197
 20
-3.257476
  0
VERTEX
  8
PLAN_1
  6
CONTINUOUS
 10
0.912142
 20
-3.261177
  0
VERTEX
  8
PLAN_1
  6
CONTINUOUS
 10
0.910087
 20
-3.264465
  0
VERTEX
  8
PLAN_1
  6
CONTINUOUS
 10
0.907622
 20
-3.267752
  0
VERTEX
  8
PLAN_1
  6
CONTINUOUS
 10
0.905154
 20
-3.270630
  0
VERTEX
  8
PLAN_1
  6
CONTINUOUS
 10
0.902276
 20
-3.273508
  0
VERTEX
  8
PLAN_1
  6
CONTINUOUS
 10
0.898988
 20
-3.276386
  0
VERTEX
  8
PLAN_1
  6
CONTINUOUS
 10
0.896110
 20
-3.278850
  0
VERTEX
  8
PLAN_1
  6
CONTINUOUS
 10
0.892413
 20
-3.280906
  0
VERTEX
  8
PLAN_1
  6
CONTINUOUS
 10
0.888713
 20
-3.282961
  0
VERTEX
  8
PLAN_1
  6
CONTINUOUS
 10
0.885012
 20
-3.284606
  0
VERTEX
  8
PLAN_1
  6
CONTINUOUS
 10
0.880902
 20
-3.286252
  0
VERTEX
  8
PLAN_1
  6
CONTINUOUS
 10
0.876382
 20
-3.287071
  0
VERTEX
  8
PLAN_1
  6
CONTINUOUS
 10
0.871858
 20
-3.287894
  0
VERTEX
  8
PLAN_1
  6
CONTINUOUS
 10
0.866925
 20
-3.288717
  0
VERTEX
  8
PLAN_1
  6
CONTINUOUS
 10
0.861996
 20
-3.288717
  0
SEQEND
  8
0
  0
POLYLINE
  8
PLAN_1
  6
CONTINUOUS
 66
     1
 40
0.003000
 41
0.003000
  0
VERTEX
  8
PLAN_1
  6
CONTINUOUS
 10
0.861996
 20
-3.110323
  0
VERTEX
  8
PLAN_1
  6
CONTINUOUS
 10
0.856650
 20
-3.110732
  0
VERTEX
  8
PLAN_1
  6
CONTINUOUS
 10
0.852130
 20
-3.111555
  0
VERTEX
  8
PLAN_1
  6
CONTINUOUS
 10
0.847606
 20
-3.113201
  0
VERTEX
  8
PLAN_1
  6
CONTINUOUS
 10
0.843496
 20
-3.115665
  0
VERTEX
  8
PLAN_1
  6
CONTINUOUS
 10
0.839799
 20
-3.118543
  0
VERTEX
  8
PLAN_1
  6
CONTINUOUS
 10
0.836512
 20
-3.122244
  0
VERTEX
  8
PLAN_1
  6
CONTINUOUS
 10
0.833634
 20
-3.126354
  0
VERTEX
  8
PLAN_1
  6
CONTINUOUS
 10
0.830756
 20
-3.130874
  0
VERTEX
  8
PLAN_1
  6
CONTINUOUS
 10
0.828701
 20
-3.136220
  0
VERTEX
  8
PLAN_1
  6
CONTINUOUS
 10
0.826646
 20
-3.142386
  0
VERTEX
  8
PLAN_1
  6
CONTINUOUS
 10
0.825000
 20
-3.148551
  0
VERTEX
  8
PLAN_1
  6
CONTINUOUS
 10
0.823358
 20
-3.155539
  0
VERTEX
  8
PLAN_1
  6
CONTINUOUS
 10
0.822535
 20
-3.163346
  0
VERTEX
  8
PLAN_1
  6
CONTINUOUS
 10
0.821713
 20
-3.171157
  0
VERTEX
  8
PLAN_1
  6
CONTINUOUS
 10
0.821303
 20
-3.179791
  0
VERTEX
  8
PLAN_1
  6
CONTINUOUS
 10
0.820890
 20
-3.188421
  0
VERTEX
  8
PLAN_1
  6
CONTINUOUS
 10
0.821303
 20
-3.197465
  0
VERTEX
  8
PLAN_1
  6
CONTINUOUS
 10
0.821713
 20
-3.206094
  0
VERTEX
  8
PLAN_1
  6
CONTINUOUS
 10
0.822535
 20
-3.213906
  0
VERTEX
  8
PLAN_1
  6
CONTINUOUS
 10
0.823358
 20
-3.221303
  0
VERTEX
  8
PLAN_1
  6
CONTINUOUS
 10
0.825000
 20
-3.228291
  0
VERTEX
  8
PLAN_1
  6
CONTINUOUS
 10
0.826646
 20
-3.234870
  0
VERTEX
  8
PLAN_1
  6
CONTINUOUS
 10
0.828701
 20
-3.240626
  0
VERTEX
  8
PLAN_1
  6
CONTINUOUS
 10
0.830756
 20
-3.245969
  0
VERTEX
  8
PLAN_1
  6
CONTINUOUS
 10
0.833634
 20
-3.250902
  0
VERTEX
  8
PLAN_1
  6
CONTINUOUS
 10
0.836512
 20
-3.255012
  0
VERTEX
  8
PLAN_1
  6
CONTINUOUS
 10
0.839799
 20
-3.258299
  0
VERTEX
  8
PLAN_1
  6
CONTINUOUS
 10
0.843496
 20
-3.261587
  0
VERTEX
  8
PLAN_1
  6
CONTINUOUS
 10
0.847606
 20
-3.263642
  0
VERTEX
  8
PLAN_1
  6
CONTINUOUS
 10
0.852130
 20
-3.265287
  0
VERTEX
  8
PLAN_1
  6
CONTINUOUS
 10
0.856650
 20
-3.266520
  0
VERTEX
  8
PLAN_1
  6
CONTINUOUS
 10
0.861996
 20
-3.266929
  0
VERTEX
  8
PLAN_1
  6
CONTINUOUS
 10
0.866925
 20
-3.266520
  0
VERTEX
  8
PLAN_1
  6
CONTINUOUS
 10
0.871449
 20
-3.265287
  0
VERTEX
  8
PLAN_1
  6
CONTINUOUS
 10
0.875969
 20
-3.263642
  0
VERTEX
  8
PLAN_1
  6
CONTINUOUS
 10
0.880079
 20
-3.261587
  0
VERTEX
  8
PLAN_1
  6
CONTINUOUS
 10
0.883780
 20
-3.258299
  0
VERTEX
  8
PLAN_1
  6
CONTINUOUS
 10
0.887067
 20
-3.255012
  0
VERTEX
  8
PLAN_1
  6
CONTINUOUS
 10
0.889945
 20
-3.250902
  0
VERTEX
  8
PLAN_1
  6
CONTINUOUS
 10
0.892823
 20
-3.245969
  0
VERTEX
  8
PLAN_1
  6
CONTINUOUS
 10
0.894878
 20
-3.240626
  0
VERTEX
  8
PLAN_1
  6
CONTINUOUS
 10
0.896933
 20
-3.234870
  0
VERTEX
  8
PLAN_1
  6
CONTINUOUS
 10
0.898988
 20
-3.228291
  0
VERTEX
  8
PLAN_1
  6
CONTINUOUS
 10
0.900220
 20
-3.221303
  0
VERTEX
  8
PLAN_1
  6
CONTINUOUS
 10
0.901043
 20
-3.213906
  0
VERTEX
  8
PLAN_1
  6
CONTINUOUS
 10
0.901866
 20
-3.206094
  0
VERTEX
  8
PLAN_1
  6
CONTINUOUS
 10
0.902276
 20
-3.197465
  0
VERTEX
  8
PLAN_1
  6
CONTINUOUS
 10
0.902689
 20
-3.188421
  0
VERTEX
  8
PLAN_1
  6
CONTINUOUS
 10
0.902276
 20
-3.179791
  0
VERTEX
  8
PLAN_1
  6
CONTINUOUS
 10
0.901866
 20
-3.171157
  0
VERTEX
  8
PLAN_1
  6
CONTINUOUS
 10
0.901043
 20
-3.163346
  0
VERTEX
  8
PLAN_1
  6
CONTINUOUS
 10
0.900220
 20
-3.155539
  0
VERTEX
  8
PLAN_1
  6
CONTINUOUS
 10
0.898988
 20
-3.148551
  0
VERTEX
  8
PLAN_1
  6
CONTINUOUS
 10
0.896933
 20
-3.142386
  0
VERTEX
  8
PLAN_1
  6
CONTINUOUS
 10
0.894878
 20
-3.136220
  0
VERTEX
  8
PLAN_1
  6
CONTINUOUS
 10
0.892823
 20
-3.130874
  0
VERTEX
  8
PLAN_1
  6
CONTINUOUS
 10
0.889945
 20
-3.126354
  0
VERTEX
  8
PLAN_1
  6
CONTINUOUS
 10
0.887067
 20
-3.122244
  0
VERTEX
  8
PLAN_1
  6
CONTINUOUS
 10
0.883780
 20
-3.118543
  0
VERTEX
  8
PLAN_1
  6
CONTINUOUS
 10
0.880079
 20
-3.115665
  0
VERTEX
  8
PLAN_1
  6
CONTINUOUS
 10
0.875969
 20
-3.113201
  0
VERTEX
  8
PLAN_1
  6
CONTINUOUS
 10
0.871449
 20
-3.111555
  0
VERTEX
  8
PLAN_1
  6
CONTINUOUS
 10
0.866925
 20
-3.110732
  0
VERTEX
  8
PLAN_1
  6
CONTINUOUS
 10
0.861996
 20
-3.110323
  0
SEQEND
  8
0
  0
POLYLINE
  8
PLAN_1
  6
CONTINUOUS
 66
     1
 40
0.003000
 41
0.003000
  0
VERTEX
  8
PLAN_1
  6
CONTINUOUS
 10
1.038744
 20
-3.283374
  0
VERTEX
  8
PLAN_1
  6
CONTINUOUS
 10
1.012437
 20
-3.283374
  0
VERTEX
  8
PLAN_1
  6
CONTINUOUS
 10
1.012437
 20
-3.144850
  0
VERTEX
  8
PLAN_1
  6
CONTINUOUS
 10
0.967220
 20
-3.144850
  0
VERTEX
  8
PLAN_1
  6
CONTINUOUS
 10
0.967220
 20
-3.125531
  0
VERTEX
  8
PLAN_1
  6
CONTINUOUS
 10
0.977909
 20
-3.124709
  0
VERTEX
  8
PLAN_1
  6
CONTINUOUS
 10
0.987362
 20
-3.123067
  0
VERTEX
  8
PLAN_1
  6
CONTINUOUS
 10
0.991886
 20
-3.122244
  0
VERTEX
  8
PLAN_1
  6
CONTINUOUS
 10
0.995583
 20
-3.121012
  0
VERTEX
  8
PLAN_1
  6
CONTINUOUS
 10
0.998874
 20
-3.119776
  0
VERTEX
  8
PLAN_1
  6
CONTINUOUS
 10
1.002161
 20
-3.118134
  0
VERTEX
  8
PLAN_1
  6
CONTINUOUS
 10
1.005039
 20
-3.116079
  0
VERTEX
  8
PLAN_1
  6
CONTINUOUS
 10
1.007917
 20
-3.113610
  0
VERTEX
  8
PLAN_1
  6
CONTINUOUS
 10
1.010382
 20
-3.110732
  0
VERTEX
  8
PLAN_1
  6
CONTINUOUS
 10
1.012437
 20
-3.107445
  0
VERTEX
  8
PLAN_1
  6
CONTINUOUS
 10
1.014492
 20
-3.103335
  0
VERTEX
  8
PLAN_1
  6
CONTINUOUS
 10
1.016138
 20
-3.098815
  0
VERTEX
  8
PLAN_1
  6
CONTINUOUS
 10
1.018193
 20
-3.093882
  0
VERTEX
  8
PLAN_1
  6
CONTINUOUS
 10
1.019425
 20
-3.088126
  0
VERTEX
  8
PLAN_1
  6
CONTINUOUS
 10
1.038744
 20
-3.088126
  0
VERTEX
  8
PLAN_1
  6
CONTINUOUS
 10
1.038744
 20
-3.283374
  0
SEQEND
  8
0
  0
POLYLINE
  8
PLAN_1
  6
CONTINUOUS
 66
     1
 40
0.003000
 41
0.003000
  0
VERTEX
  8
PLAN_1
  6
CONTINUOUS
 10
1.104921
 20
-3.155126
  0
VERTEX
  8
PLAN_1
  6
CONTINUOUS
 10
1.105335
 20
-3.148551
  0
VERTEX
  8
PLAN_1
  6
CONTINUOUS
 10
1.106154
 20
-3.141972
  0
VERTEX
  8
PLAN_1
  6
CONTINUOUS
 10
1.107390
 20
-3.135807
  0
VERTEX
  8
PLAN_1
  6
CONTINUOUS
 10
1.109031
 20
-3.129642
  0
VERTEX
  8
PLAN_1
  6
CONTINUOUS
 10
1.111500
 20
-3.123886
  0
VERTEX
  8
PLAN_1
  6
CONTINUOUS
 10
1.113965
 20
-3.118543
  0
VERTEX
  8
PLAN_1
  6
CONTINUOUS
 10
1.117252
 20
-3.113201
  0
VERTEX
  8
PLAN_1
  6
CONTINUOUS
 10
1.120953
 20
-3.108268
  0
VERTEX
  8
PLAN_1
  6
CONTINUOUS
 10
1.125063
 20
-3.104157
  0
VERTEX
  8
PLAN_1
  6
CONTINUOUS
 10
1.129996
 20
-3.100047
  0
VERTEX
  8
PLAN_1
  6
CONTINUOUS
 10
1.134929
 20
-3.096760
  0
VERTEX
  8
PLAN_1
  6
CONTINUOUS
 10
1.140681
 20
-3.093882
  0
VERTEX
  8
PLAN_1
  6
CONTINUOUS
 10
1.146850
 20
-3.091413
  0
VERTEX
  8
PLAN_1
  6
CONTINUOUS
 10
1.153425
 20
-3.089772
  0
VERTEX
  8
PLAN_1
  6
CONTINUOUS
 10
1.160413
 20
-3.088539
  0
VERTEX
  8
PLAN_1
  6
CONTINUOUS
 10
1.167811
 20
-3.088126
  0
VERTEX
  8
PLAN_1
  6
CONTINUOUS
 10
1.173567
 20
-3.088539
  0
VERTEX
  8
PLAN_1
  6
CONTINUOUS
 10
1.178909
 20
-3.088949
  0
VERTEX
  8
PLAN_1
  6
CONTINUOUS
 10
1.183843
 20
-3.089772
  0
VERTEX
  8
PLAN_1
  6
CONTINUOUS
 10
1.188776
 20
-3.091004
  0
VERTEX
  8
PLAN_1
  6
CONTINUOUS
 10
1.192886
 20
-3.092236
  0
VERTEX
  8
PLAN_1
  6
CONTINUOUS
 10
1.196996
 20
-3.093882
  0
VERTEX
  8
PLAN_1
  6
CONTINUOUS
 10
1.201106
 20
-3.095937
  0
VERTEX
  8
PLAN_1
  6
CONTINUOUS
 10
1.204807
 20
-3.097992
  0
VERTEX
  8
PLAN_1
  6
CONTINUOUS
 10
1.208094
 20
-3.100457
  0
VERTEX
  8
PLAN_1
  6
CONTINUOUS
 10
1.211382
 20
-3.102925
  0
VERTEX
  8
PLAN_1
  6
CONTINUOUS
 10
1.214260
 20
-3.105803
  0
VERTEX
  8
PLAN_1
  6
CONTINUOUS
 10
1.216724
 20
-3.108677
  0
VERTEX
  8
PLAN_1
  6
CONTINUOUS
 10
1.219193
 20
-3.111555
  0
VERTEX
  8
PLAN_1
  6
CONTINUOUS
 10
1.221248
 20
-3.114843
  0
VERTEX
  8
PLAN_1
  6
CONTINUOUS
 10
1.223303
 20
-3.118134
  0
VERTEX
  8
PLAN_1
  6
CONTINUOUS
 10
1.225358
 20
-3.121831
  0
VERTEX
  8
PLAN_1
  6
CONTINUOUS
 10
1.228236
 20
-3.128819
  0
VERTEX
  8
PLAN_1
  6
CONTINUOUS
 10
1.230701
 20
-3.136220
  0
VERTEX
  8
PLAN_1
  6
CONTINUOUS
 10
1.232756
 20
-3.143618
  0
VERTEX
  8
PLAN_1
  6
CONTINUOUS
 10
1.233988
 20
-3.151429
  0
VERTEX
  8
PLAN_1
  6
CONTINUOUS
 10
1.235224
 20
-3.158827
  0
VERTEX
  8
PLAN_1
  6
CONTINUOUS
 10
1.235634
 20
-3.165815
  0
VERTEX
  8
PLAN_1
  6
CONTINUOUS
 10
1.236047
 20
-3.172390
  0
VERTEX
  8
PLAN_1
  6
CONTINUOUS
 10
1.236047
 20
-3.178969
  0
VERTEX
  8
PLAN_1
  6
CONTINUOUS
 10
1.235634
 20
-3.189654
  0
VERTEX
  8
PLAN_1
  6
CONTINUOUS
 10
1.234402
 20
-3.204862
  0
VERTEX
  8
PLAN_1
  6
CONTINUOUS
 10
1.233169
 20
-3.213496
  0
VERTEX
  8
PLAN_1
  6
CONTINUOUS
 10
1.231524
 20
-3.222539
  0
VERTEX
  8
PLAN_1
  6
CONTINUOUS
 10
1.229059
 20
-3.231992
  0
VERTEX
  8
PLAN_1
  6
CONTINUOUS
 10
1.225768
 20
-3.241445
  0
VERTEX
  8
PLAN_1
  6
CONTINUOUS
 10
1.224126
 20
-3.246378
  0
VERTEX
  8
PLAN_1
  6
CONTINUOUS
 10
1.222071
 20
-3.250902
  0
VERTEX
  8
PLAN_1
  6
CONTINUOUS
 10
1.219602
 20
-3.255012
  0
VERTEX
  8
PLAN_1
  6
CONTINUOUS
 10
1.217138
 20
-3.259531
  0
VERTEX
  8
PLAN_1
  6
CONTINUOUS
 10
1.214669
 20
-3.263642
  0
VERTEX
  8
PLAN_1
  6
CONTINUOUS
 10
1.211382
 20
-3.267343
  0
VERTEX
  8
PLAN_1
  6
CONTINUOUS
 10
1.208094
 20
-3.271043
  0
VERTEX
  8
PLAN_1
  6
CONTINUOUS
 10
1.204807
 20
-3.274331
  0
VERTEX
  8
PLAN_1
  6
CONTINUOUS
 10
1.200697
 20
-3.277618
  0
VERTEX
  8
PLAN_1
  6
CONTINUOUS
 10
1.196587
 20
-3.280496
  0
VERTEX
  8
PLAN_1
  6
CONTINUOUS
 10
1.192476
 20
-3.282961
  0
VERTEX
  8
PLAN_1
  6
CONTINUOUS
 10
1.187543
 20
-3.285016
  0
VERTEX
  8
PLAN_1
  6
CONTINUOUS
 10
1.182610
 20
-3.286661
  0
VERTEX
  8
PLAN_1
  6
CONTINUOUS
 10
1.177268
 20
-3.287894
  0
VERTEX
  8
PLAN_1
  6
CONTINUOUS
 10
1.171512
 20
-3.288307
  0
VERTEX
  8
PLAN_1
  6
CONTINUOUS
 10
1.165346
 20
-3.288717
  0
VERTEX
  8
PLAN_1
  6
CONTINUOUS
 10
1.157126
 20
-3.288307
  0
VERTEX
  8
PLAN_1
  6
CONTINUOUS
 10
1.149724
 20
-3.287071
  0
VERTEX
  8
PLAN_1
  6
CONTINUOUS
 10
1.142740
 20
-3.285429
  0
VERTEX
  8
PLAN_1
  6
CONTINUOUS
 10
1.136984
 20
-3.283374
  0
VERTEX
  8
PLAN_1
  6
CONTINUOUS
 10
1.131642
 20
-3.280496
  0
VERTEX
  8
PLAN_1
  6
CONTINUOUS
 10
1.126709
 20
-3.277209
  0
VERTEX
  8
PLAN_1
  6
CONTINUOUS
 10
1.122598
 20
-3.273508
  0
VERTEX
  8
PLAN_1
  6
CONTINUOUS
 10
1.119307
 20
-3.269807
  0
VERTEX
  8
PLAN_1
  6
CONTINUOUS
 10
1.116020
 20
-3.265697
  0
VERTEX
  8
PLAN_1
  6
CONTINUOUS
 10
1.113555
 20
-3.261177
  0
VERTEX
  8
PLAN_1
  6
CONTINUOUS
 10
1.111500
 20
-3.257067
  0
VERTEX
  8
PLAN_1
  6
CONTINUOUS
 10
1.109854
 20
-3.252543
  0
VERTEX
  8
PLAN_1
  6
CONTINUOUS
 10
1.108622
 20
-3.248433
  0
VERTEX
  8
PLAN_1
  6
CONTINUOUS
 10
1.107799
 20
-3.244323
  0
VERTEX
  8
PLAN_1
  6
CONTINUOUS
 10
1.107390
 20
-3.240213
  0
VERTEX
  8
PLAN_1
  6
CONTINUOUS
 10
1.107390
 20
-3.236512
  0
VERTEX
  8
PLAN_1
  6
CONTINUOUS
 10
1.131642
 20
-3.236512
  0
VERTEX
  8
PLAN_1
  6
CONTINUOUS
 10
1.132051
 20
-3.240213
  0
VERTEX
  8
PLAN_1
  6
CONTINUOUS
 10
1.132874
 20
-3.243500
  0
VERTEX
  8
PLAN_1
  6
CONTINUOUS
 10
1.133697
 20
-3.246791
  0
VERTEX
  8
PLAN_1
  6
CONTINUOUS
 10
1.134516
 20
-3.249665
  0
VERTEX
  8
PLAN_1
  6
CONTINUOUS
 10
1.136161
 20
-3.252543
  0
VERTEX
  8
PLAN_1
  6
CONTINUOUS
 10
1.137394
 20
-3.255421
  0
VERTEX
  8
PLAN_1
  6
CONTINUOUS
 10
1.139449
 20
-3.257890
  0
VERTEX
  8
PLAN_1
  6
CONTINUOUS
 10
1.141094
 20
-3.259945
  0
VERTEX
  8
PLAN_1
  6
CONTINUOUS
 10
1.143559
 20
-3.262000
  0
VERTEX
  8
PLAN_1
  6
CONTINUOUS
 10
1.146028
 20
-3.263642
  0
VERTEX
  8
PLAN_1
  6
CONTINUOUS
 10
1.148492
 20
-3.264874
  0
VERTEX
  8
PLAN_1
  6
CONTINUOUS
 10
1.151370
 20
-3.266110
  0
VERTEX
  8
PLAN_1
  6
CONTINUOUS
 10
1.154248
 20
-3.267343
  0
VERTEX
  8
PLAN_1
  6
CONTINUOUS
 10
1.157535
 20
-3.267752
  0
VERTEX
  8
PLAN_1
  6
CONTINUOUS
 10
1.161236
 20
-3.268165
  0
VERTEX
  8
PLAN_1
  6
CONTINUOUS
 10
1.164933
 20
-3.268575
  0
VERTEX
  8
PLAN_1
  6
CONTINUOUS
 10
1.169457
 20
-3.268165
  0
VERTEX
  8
PLAN_1
  6
CONTINUOUS
 10
1.173976
 20
-3.267343
  0
VERTEX
  8
PLAN_1
  6
CONTINUOUS
 10
1.178500
 20
-3.266110
  0
VERTEX
  8
PLAN_1
  6
CONTINUOUS
 10
1.182610
 20
-3.264055
  0
VERTEX
  8
PLAN_1
  6
CONTINUOUS
 10
1.186307
 20
-3.261587
  0
VERTEX
  8
PLAN_1
  6
CONTINUOUS
 10
1.189598
 20
-3.258709
  0
VERTEX
  8
PLAN_1
  6
CONTINUOUS
 10
1.192886
 20
-3.255012
  0
VERTEX
  8
PLAN_1
  6
CONTINUOUS
 10
1.195764
 20
-3.250902
  0
VERTEX
  8
PLAN_1
  6
CONTINUOUS
 10
1.198642
 20
-3.245969
  0
VERTEX
  8
PLAN_1
  6
CONTINUOUS
 10
1.201106
 20
-3.240626
  0
VERTEX
  8
PLAN_1
  6
CONTINUOUS
 10
1.203575
 20
-3.234870
  0
VERTEX
  8
PLAN_1
  6
CONTINUOUS
 10
1.205630
 20
-3.228291
  0
VERTEX
  8
PLAN_1
  6
CONTINUOUS
 10
1.207272
 20
-3.220894
  0
VERTEX
  8
PLAN_1
  6
CONTINUOUS
 10
1.208917
 20
-3.213083
  0
VERTEX
  8
PLAN_1
  6
CONTINUOUS
 10
1.210559
 20
-3.204453
  0
VERTEX
  8
PLAN_1
  6
CONTINUOUS
 10
1.211795
 20
-3.195409
  0
VERTEX
  8
PLAN_1
  6
CONTINUOUS
 10
1.210972
 20
-3.195000
  0
VERTEX
  8
PLAN_1
  6
CONTINUOUS
 10
1.209740
 20
-3.197465
  0
VERTEX
  8
PLAN_1
  6
CONTINUOUS
 10
1.207685
 20
-3.200343
  0
VERTEX
  8
PLAN_1
  6
CONTINUOUS
 10
1.206039
 20
-3.202807
  0
VERTEX
  8
PLAN_1
  6
CONTINUOUS
 10
1.203575
 20
-3.204862
  0
VERTEX
  8
PLAN_1
  6
CONTINUOUS
 10
1.201106
 20
-3.206917
  0
VERTEX
  8
PLAN_1
  6
CONTINUOUS
 10
1.198642
 20
-3.208972
  0
VERTEX
  8
PLAN_1
  6
CONTINUOUS
 10
1.195764
 20
-3.210618
  0
VERTEX
  8
PLAN_1
  6
CONTINUOUS
 10
1.192886
 20
-3.212264
  0
VERTEX
  8
PLAN_1
  6
CONTINUOUS
 10
1.186720
 20
-3.214728
  0
VERTEX
  8
PLAN_1
  6
CONTINUOUS
 10
1.180142
 20
-3.216783
  0
VERTEX
  8
PLAN_1
  6
CONTINUOUS
 10
1.173157
 20
-3.218016
  0
VERTEX
  8
PLAN_1
  6
CONTINUOUS
 10
1.166579
 20
-3.218016
  0
VERTEX
  8
PLAN_1
  6
CONTINUOUS
 10
1.159591
 20
-3.218016
  0
VERTEX
  8
PLAN_1
  6
CONTINUOUS
 10
1.153425
 20
-3.217193
  0
VERTEX
  8
PLAN_1
  6
CONTINUOUS
 10
1.147260
 20
-3.215551
  0
VERTEX
  8
PLAN_1
  6
CONTINUOUS
 10
1.141504
 20
-3.213906
  0
VERTEX
  8
PLAN_1
  6
CONTINUOUS
 10
1.136161
 20
-3.211441
  0
VERTEX
  8
PLAN_1
  6
CONTINUOUS
 10
1.131228
 20
-3.208563
  0
VERTEX
  8
PLAN_1
  6
CONTINUOUS
 10
1.126295
 20
-3.205276
  0
VERTEX
  8
PLAN_1
  6
CONTINUOUS
 10
1.122185
 20
-3.201165
  0
VERTEX
  8
PLAN_1
  6
CONTINUOUS
 10
1.118488
 20
-3.197055
  0
VERTEX
  8
PLAN_1
  6
CONTINUOUS
 10
1.114787
 20
-3.192122
  0
VERTEX
  8
PLAN_1
  6
CONTINUOUS
 10
1.111909
 20
-3.187189
  0
VERTEX
  8
PLAN_1
  6
CONTINUOUS
 10
1.109445
 20
-3.181433
  0
VERTEX
  8
PLAN_1
  6
CONTINUOUS
 10
1.107799
 20
-3.175268
  0
VERTEX
  8
PLAN_1
  6
CONTINUOUS
 10
1.106154
 20
-3.169102
  0
VERTEX
  8
PLAN_1
  6
CONTINUOUS
 10
1.105335
 20
-3.162528
  0
VERTEX
  8
PLAN_1
  6
CONTINUOUS
 10
1.104921
 20
-3.155126
  0
SEQEND
  8
0
  0
POLYLINE
  8
PLAN_1
  6
CONTINUOUS
 66
     1
 40
0.003000
 41
0.003000
  0
VERTEX
  8
PLAN_1
  6
CONTINUOUS
 10
1.207685
 20
-3.151839
  0
VERTEX
  8
PLAN_1
  6
CONTINUOUS
 10
1.207272
 20
-3.147728
  0
VERTEX
  8
PLAN_1
  6
CONTINUOUS
 10
1.206862
 20
-3.143618
  0
VERTEX
  8
PLAN_1
  6
CONTINUOUS
 10
1.206449
 20
-3.139917
  0
VERTEX
  8
PLAN_1
  6
CONTINUOUS
 10
1.205217
 20
-3.135807
  0
VERTEX
  8
PLAN_1
  6
CONTINUOUS
 10
1.203984
 20
-3.132520
  0
VERTEX
  8
PLAN_1
  6
CONTINUOUS
 10
1.202339
 20
-3.128819
  0
VERTEX
  8
PLAN_1
  6
CONTINUOUS
 10
1.200697
 20
-3.125531
  0
VERTEX
  8
PLAN_1
  6
CONTINUOUS
 10
1.198228
 20
-3.122654
  0
VERTEX
  8
PLAN_1
  6
CONTINUOUS
 10
1.195764
 20
-3.120189
  0
VERTEX
  8
PLAN_1
  6
CONTINUOUS
 10
1.192886
 20
-3.117720
  0
VERTEX
  8
PLAN_1
  6
CONTINUOUS
 10
1.189598
 20
-3.115256
  0
VERTEX
  8
PLAN_1
  6
CONTINUOUS
 10
1.185898
 20
-3.113610
  0
VERTEX
  8
PLAN_1
  6
CONTINUOUS
 10
1.182197
 20
-3.112378
  0
VERTEX
  8
PLAN_1
  6
CONTINUOUS
 10
1.177677
 20
-3.111146
  0
VERTEX
  8
PLAN_1
  6
CONTINUOUS
 10
1.173157
 20
-3.110323
  0
VERTEX
  8
PLAN_1
  6
CONTINUOUS
 10
1.168224
 20
-3.110323
  0
VERTEX
  8
PLAN_1
  6
CONTINUOUS
 10
1.163701
 20
-3.110323
  0
VERTEX
  8
PLAN_1
  6
CONTINUOUS
 10
1.160004
 20
-3.111146
  0
VERTEX
  8
PLAN_1
  6
CONTINUOUS
 10
1.156303
 20
-3.111969
  0
VERTEX
  8
PLAN_1
  6
CONTINUOUS
 10
1.152602
 20
-3.113610
  0
VERTEX
  8
PLAN_1
  6
CONTINUOUS
 10
1.149315
 20
-3.115256
  0
VERTEX
  8
PLAN_1
  6
CONTINUOUS
 10
1.146028
 20
-3.117311
  0
VERTEX
  8
PLAN_1
  6
CONTINUOUS
 10
1.143150
 20
-3.119776
  0
VERTEX
  8
PLAN_1
  6
CONTINUOUS
 10
1.140681
 20
-3.122244
  0
VERTEX
  8
PLAN_1
  6
CONTINUOUS
 10
1.138217
 20
-3.125531
  0
VERTEX
  8
PLAN_1
  6
CONTINUOUS
 10
1.136161
 20
-3.128819
  0
VERTEX
  8
PLAN_1
  6
CONTINUOUS
 10
1.134516
 20
-3.132520
  0
VERTEX
  8
PLAN_1
  6
CONTINUOUS
 10
1.132874
 20
-3.136220
  0
VERTEX
  8
PLAN_1
  6
CONTINUOUS
 10
1.132051
 20
-3.140331
  0
VERTEX
  8
PLAN_1
  6
CONTINUOUS
 10
1.130819
 20
-3.144850
  0
VERTEX
  8
PLAN_1
  6
CONTINUOUS
 10
1.130406
 20
-3.149374
  0
VERTEX
  8
PLAN_1
  6
CONTINUOUS
 10
1.130406
 20
-3.153894
  0
VERTEX
  8
PLAN_1
  6
CONTINUOUS
 10
1.130406
 20
-3.160882
  0
VERTEX
  8
PLAN_1
  6
CONTINUOUS
 10
1.131228
 20
-3.166638
  0
VERTEX
  8
PLAN_1
  6
CONTINUOUS
 10
1.132461
 20
-3.171980
  0
VERTEX
  8
PLAN_1
  6
CONTINUOUS
 10
1.134106
 20
-3.176500
  0
VERTEX
  8
PLAN_1
  6
CONTINUOUS
 10
1.136161
 20
-3.180610
  0
VERTEX
  8
PLAN_1
  6
CONTINUOUS
 10
1.138626
 20
-3.183902
  0
VERTEX
  8
PLAN_1
  6
CONTINUOUS
 10
1.141094
 20
-3.186776
  0
VERTEX
  8
PLAN_1
  6
CONTINUOUS
 10
1.143972
 20
-3.189244
  0
VERTEX
  8
PLAN_1
  6
CONTINUOUS
 10
1.147260
 20
-3.191299
  0
VERTEX
  8
PLAN_1
  6
CONTINUOUS
 10
1.150138
 20
-3.192945
  0
VERTEX
  8
PLAN_1
  6
CONTINUOUS
 10
1.153425
 20
-3.194177
  0
VERTEX
  8
PLAN_1
  6
CONTINUOUS
 10
1.156713
 20
-3.195000
  0
VERTEX
  8
PLAN_1
  6
CONTINUOUS
 10
1.163701
 20
-3.195819
  0
VERTEX
  8
PLAN_1
  6
CONTINUOUS
 10
1.169866
 20
-3.196232
  0
VERTEX
  8
PLAN_1
  6
CONTINUOUS
 10
1.175213
 20
-3.195819
  0
VERTEX
  8
PLAN_1
  6
CONTINUOUS
 10
1.181378
 20
-3.194587
  0
VERTEX
  8
PLAN_1
  6
CONTINUOUS
 10
1.184252
 20
-3.193764
  0
VERTEX
  8
PLAN_1
  6
CONTINUOUS
 10
1.187543
 20
-3.192531
  0
VERTEX
  8
PLAN_1
  6
CONTINUOUS
 10
1.190421
 20
-3.190886
  0
VERTEX
  8
PLAN_1
  6
CONTINUOUS
 10
1.193709
 20
-3.188421
  0
VERTEX
  8
PLAN_1
  6
CONTINUOUS
 10
1.196173
 20
-3.185957
  0
VERTEX
  8
PLAN_1
  6
CONTINUOUS
 10
1.199051
 20
-3.183079
  0
VERTEX
  8
PLAN_1
  6
CONTINUOUS
 10
1.201516
 20
-3.179378
  0
VERTEX
  8
PLAN_1
  6
CONTINUOUS
 10
1.203575
 20
-3.175268
  0
VERTEX
  8
PLAN_1
  6
CONTINUOUS
 10
1.205217
 20
-3.170335
  0
VERTEX
  8
PLAN_1
  6
CONTINUOUS
 10
1.206449
 20
-3.164992
  0
VERTEX
  8
PLAN_1
  6
CONTINUOUS
 10
1.207272
 20
-3.158827
  0
VERTEX
  8
PLAN_1
  6
CONTINUOUS
 10
1.207685
 20
-3.151839
  0
SEQEND
  8
0
  0
POLYLINE
  8
PLAN_1
  6
CONTINUOUS
 66
     1
 40
0.003000
 41
0.003000
  0
VERTEX
  8
PLAN_1
  6
CONTINUOUS
 10
1.299346
 20
-3.283374
  0
VERTEX
  8
PLAN_1
  6
CONTINUOUS
 10
1.272217
 20
-3.283374
  0
VERTEX
  8
PLAN_1
  6
CONTINUOUS
 10
1.272217
 20
-3.084016
  0
VERTEX
  8
PLAN_1
  6
CONTINUOUS
 10
1.364291
 20
-3.084016
  0
VERTEX
  8
PLAN_1
  6
CONTINUOUS
 10
1.370457
 20
-3.084425
  0
VERTEX
  8
PLAN_1
  6
CONTINUOUS
 10
1.376622
 20
-3.084839
  0
VERTEX
  8
PLAN_1
  6
CONTINUOUS
 10
1.382378
 20
-3.085661
  0
VERTEX
  8
PLAN_1
  6
CONTINUOUS
 10
1.388543
 20
-3.086484
  0
VERTEX
  8
PLAN_1
  6
CONTINUOUS
 10
1.393886
 20
-3.088126
  0
VERTEX
  8
PLAN_1
  6
CONTINUOUS
 10
1.399642
 20
-3.090181
  0
VERTEX
  8
PLAN_1
  6
CONTINUOUS
 10
1.404575
 20
-3.092236
  0
VERTEX
  8
PLAN_1
  6
CONTINUOUS
 10
1.409508
 20
-3.095114
  0
VERTEX
  8
PLAN_1
  6
CONTINUOUS
 10
1.413618
 20
-3.098402
  0
VERTEX
  8
PLAN_1
  6
CONTINUOUS
 10
1.417728
 20
-3.102102
  0
VERTEX
  8
PLAN_1
  6
CONTINUOUS
 10
1.421425
 20
-3.106622
  0
VERTEX
  8
PLAN_1
  6
CONTINUOUS
 10
1.424303
 20
-3.111555
  0
VERTEX
  8
PLAN_1
  6
CONTINUOUS
 10
1.426772
 20
-3.117311
  0
VERTEX
  8
PLAN_1
  6
CONTINUOUS
 10
1.428413
 20
-3.123476
  0
VERTEX
  8
PLAN_1
  6
CONTINUOUS
 10
1.429646
 20
-3.130051
  0
VERTEX
  8
PLAN_1
  6
CONTINUOUS
 10
1.430059
 20
-3.137862
  0
VERTEX
  8
PLAN_1
  6
CONTINUOUS
 10
1.429646
 20
-3.143205
  0
VERTEX
  8
PLAN_1
  6
CONTINUOUS
 10
1.429236
 20
-3.147728
  0
VERTEX
  8
PLAN_1
  6
CONTINUOUS
 10
1.428413
 20
-3.152248
  0
VERTEX
  8
PLAN_1
  6
CONTINUOUS
 10
1.427181
 20
-3.156358
  0
VERTEX
  8
PLAN_1
  6
CONTINUOUS
 10
1.425949
 20
-3.160469
  0
VERTEX
  8
PLAN_1
  6
CONTINUOUS
 10
1.424303
 20
-3.163760
  0
VERTEX
  8
PLAN_1
  6
CONTINUOUS
 10
1.422661
 20
-3.167047
  0
VERTEX
  8
PLAN_1
  6
CONTINUOUS
 10
1.420606
 20
-3.169925
  0
VERTEX
  8
PLAN_1
  6
CONTINUOUS
 10
1.418551
 20
-3.172390
  0
VERTEX
  8
PLAN_1
  6
CONTINUOUS
 10
1.416492
 20
-3.174858
  0
VERTEX
  8
PLAN_1
  6
CONTINUOUS
 10
1.414028
 20
-3.176913
  0
VERTEX
  8
PLAN_1
  6
CONTINUOUS
 10
1.411972
 20
-3.178969
  0
VERTEX
  8
PLAN_1
  6
CONTINUOUS
 10
1.407039
 20
-3.182665
  0
VERTEX
  8
PLAN_1
  6
CONTINUOUS
 10
1.402106
 20
-3.185543
  0
VERTEX
  8
PLAN_1
  6
CONTINUOUS
 10
1.406217
 20
-3.187189
  0
VERTEX
  8
PLAN_1
  6
CONTINUOUS
 10
1.410327
 20
-3.189244
  0
VERTEX
  8
PLAN_1
  6
CONTINUOUS
 10
1.412382
 20
-3.190476
  0
VERTEX
  8
PLAN_1
  6
CONTINUOUS
 10
1.414437
 20
-3.192122
  0
VERTEX
  8
PLAN_1
  6
CONTINUOUS
 10
1.416083
 20
-3.193764
  0
VERTEX
  8
PLAN_1
  6
CONTINUOUS
 10
1.417728
 20
-3.195409
  0
VERTEX
  8
PLAN_1
  6
CONTINUOUS
 10
1.419370
 20
-3.197874
  0
VERTEX
  8
PLAN_1
  6
CONTINUOUS
 10
1.421016
 20
-3.199929
  0
VERTEX
  8
PLAN_1
  6
CONTINUOUS
 10
1.422248
 20
-3.202807
  0
VERTEX
  8
PLAN_1
  6
CONTINUOUS
 10
1.423480
 20
-3.206094
  0
VERTEX
  8
PLAN_1
  6
CONTINUOUS
 10
1.424303
 20
-3.209386
  0
VERTEX
  8
PLAN_1
  6
CONTINUOUS
 10
1.425126
 20
-3.213496
  0
VERTEX
  8
PLAN_1
  6
CONTINUOUS
 10
1.425535
 20
-3.218016
  0
VERTEX
  8
PLAN_1
  6
CONTINUOUS
 10
1.425949
 20
-3.222949
  0
VERTEX
  8
PLAN_1
  6
CONTINUOUS
 10
1.427591
 20
-3.259122
  0
VERTEX
  8
PLAN_1
  6
CONTINUOUS
 10
1.428004
 20
-3.262819
  0
VERTEX
  8
PLAN_1
  6
CONTINUOUS
 10
1.428004
 20
-3.266110
  0
VERTEX
  8
PLAN_1
  6
CONTINUOUS
 10
1.428827
 20
-3.268988
  0
VERTEX
  8
PLAN_1
  6
CONTINUOUS
 10
1.429646
 20
-3.271453
  0
VERTEX
  8
PLAN_1
  6
CONTINUOUS
 10
1.430882
 20
-3.273508
  0
VERTEX
  8
PLAN_1
  6
CONTINUOUS
 10
1.432524
 20
-3.275563
  0
VERTEX
  8
PLAN_1
  6
CONTINUOUS
 10
1.434992
 20
-3.277209
  0
VERTEX
  8
PLAN_1
  6
CONTINUOUS
 10
1.437457
 20
-3.278850
  0
VERTEX
  8
PLAN_1
  6
CONTINUOUS
 10
1.437457
 20
-3.283374
  0
VERTEX
  8
PLAN_1
  6
CONTINUOUS
 10
1.404575
 20
-3.283374
  0
VERTEX
  8
PLAN_1
  6
CONTINUOUS
 10
1.403343
 20
-3.278028
  0
VERTEX
  8
PLAN_1
  6
CONTINUOUS
 10
1.402106
 20
-3.271453
  0
VERTEX
  8
PLAN_1
  6
CONTINUOUS
 10
1.401283
 20
-3.264055
  0
VERTEX
  8
PLAN_1
  6
CONTINUOUS
 10
1.400874
 20
-3.256654
  0
VERTEX
  8
PLAN_1
  6
CONTINUOUS
 10
1.400465
 20
-3.249256
  0
VERTEX
  8
PLAN_1
  6
CONTINUOUS
 10
1.400051
 20
-3.242681
  0
VERTEX
  8
PLAN_1
  6
CONTINUOUS
 10
1.400051
 20
-3.237335
  0
VERTEX
  8
PLAN_1
  6
CONTINUOUS
 10
1.400051
 20
-3.233638
  0
VERTEX
  8
PLAN_1
  6
CONTINUOUS
 10
1.399642
 20
-3.227059
  0
VERTEX
  8
PLAN_1
  6
CONTINUOUS
 10
1.398819
 20
-3.220894
  0
VERTEX
  8
PLAN_1
  6
CONTINUOUS
 10
1.397996
 20
-3.218016
  0
VERTEX
  8
PLAN_1
  6
CONTINUOUS
 10
1.397173
 20
-3.215138
  0
VERTEX
  8
PLAN_1
  6
CONTINUOUS
 10
1.395941
 20
-3.212264
  0
VERTEX
  8
PLAN_1
  6
CONTINUOUS
 10
1.394299
 20
-3.209386
  0
VERTEX
  8
PLAN_1
  6
CONTINUOUS
 10
1.392244
 20
-3.206917
  0
VERTEX
  8
PLAN_1
  6
CONTINUOUS
 10
1.389776
 20
-3.204862
  0
VERTEX
  8
PLAN_1
  6
CONTINUOUS
 10
1.386898
 20
-3.202807
  0
VERTEX
  8
PLAN_1
  6
CONTINUOUS
 10
1.383610
 20
-3.201165
  0
VERTEX
  8
PLAN_1
  6
CONTINUOUS
 10
1.379500
 20
-3.199929
  0
VERTEX
  8
PLAN_1
  6
CONTINUOUS
 10
1.374980
 20
-3.198697
  0
VERTEX
  8
PLAN_1
  6
CONTINUOUS
 10
1.370047
 20
-3.198287
  0
VERTEX
  8
PLAN_1
  6
CONTINUOUS
 10
1.364291
 20
-3.197874
  0
VERTEX
  8
PLAN_1
  6
CONTINUOUS
 10
1.299346
 20
-3.197874
  0
VERTEX
  8
PLAN_1
  6
CONTINUOUS
 10
1.299346
 20
-3.283374
  0
SEQEND
  8
0
  0
POLYLINE
  8
PLAN_1
  6
CONTINUOUS
 66
     1
 40
0.003000
 41
0.003000
  0
VERTEX
  8
PLAN_1
  6
CONTINUOUS
 10
1.299346
 20
-3.174858
  0
VERTEX
  8
PLAN_1
  6
CONTINUOUS
 10
1.361413
 20
-3.174858
  0
VERTEX
  8
PLAN_1
  6
CONTINUOUS
 10
1.368811
 20
-3.174445
  0
VERTEX
  8
PLAN_1
  6
CONTINUOUS
 10
1.376213
 20
-3.173622
  0
VERTEX
  8
PLAN_1
  6
CONTINUOUS
 10
1.379909
 20
-3.172803
  0
VERTEX
  8
PLAN_1
  6
CONTINUOUS
 10
1.383201
 20
-3.171980
  0
VERTEX
  8
PLAN_1
  6
CONTINUOUS
 10
1.386075
 20
-3.170335
  0
VERTEX
  8
PLAN_1
  6
CONTINUOUS
 10
1.389366
 20
-3.168693
  0
VERTEX
  8
PLAN_1
  6
CONTINUOUS
 10
1.391831
 20
-3.166638
  0
VERTEX
  8
PLAN_1
  6
CONTINUOUS
 10
1.394299
 20
-3.164169
  0
VERTEX
  8
PLAN_1
  6
CONTINUOUS
 10
1.396764
 20
-3.161705
  0
VERTEX
  8
PLAN_1
  6
CONTINUOUS
 10
1.398409
 20
-3.158413
  0
VERTEX
  8
PLAN_1
  6
CONTINUOUS
 10
1.400051
 20
-3.154717
  0
VERTEX
  8
PLAN_1
  6
CONTINUOUS
 10
1.401283
 20
-3.150606
  0
VERTEX
  8
PLAN_1
  6
CONTINUOUS
 10
1.401697
 20
-3.145673
  0
VERTEX
  8
PLAN_1
  6
CONTINUOUS
 10
1.402106
 20
-3.140331
  0
VERTEX
  8
PLAN_1
  6
CONTINUOUS
 10
1.401697
 20
-3.134984
  0
VERTEX
  8
PLAN_1
  6
CONTINUOUS
 10
1.401283
 20
-3.130051
  0
VERTEX
  8
PLAN_1
  6
CONTINUOUS
 10
1.400051
 20
-3.125941
  0
VERTEX
  8
PLAN_1
  6
CONTINUOUS
 10
1.398409
 20
-3.122244
  0
VERTEX
  8
PLAN_1
  6
CONTINUOUS
 10
1.396354
 20
-3.118957
  0
VERTEX
  8
PLAN_1
  6
CONTINUOUS
 10
1.394299
 20
-3.116488
  0
VERTEX
  8
PLAN_1
  6
CONTINUOUS
 10
1.391831
 20
-3.114024
  0
VERTEX
  8
PLAN_1
  6
CONTINUOUS
 10
1.389366
 20
-3.112378
  0
VERTEX
  8
PLAN_1
  6
CONTINUOUS
 10
1.386488
 20
-3.110732
  0
VERTEX
  8
PLAN_1
  6
CONTINUOUS
 10
1.383610
 20
-3.109500
  0
VERTEX
  8
PLAN_1
  6
CONTINUOUS
 10
1.380323
 20
-3.108677
  0
VERTEX
  8
PLAN_1
  6
CONTINUOUS
 10
1.377445
 20
-3.108268
  0
VERTEX
  8
PLAN_1
  6
CONTINUOUS
 10
1.371689
 20
-3.107445
  0
VERTEX
  8
PLAN_1
  6
CONTINUOUS
 10
1.366346
 20
-3.107035
  0
VERTEX
  8
PLAN_1
  6
CONTINUOUS
 10
1.299346
 20
-3.107035
  0
VERTEX
  8
PLAN_1
  6
CONTINUOUS
 10
1.299346
 20
-3.174858
  0
SEQEND
  8
0
  0
SOLID
  8
PLAN_1
 10
1.501169
 20
-3.283374
 11
1.472398
 21
-3.283374
 12
1.501169
 22
-3.254189
 13
1.472398
 23
-3.254189
  0
POLYLINE
  8
PLAN_1
  6
CONTINUOUS
 66
     1
 40
0.003000
 41
0.003000
  0
VERTEX
  8
PLAN_1
  6
CONTINUOUS
 10
1.501169
 20
-3.283374
  0
VERTEX
  8
PLAN_1
  6
CONTINUOUS
 10
1.472398
 20
-3.283374
  0
VERTEX
  8
PLAN_1
  6
CONTINUOUS
 10
1.472398
 20
-3.254189
  0
VERTEX
  8
PLAN_1
  6
CONTINUOUS
 10
1.501169
 20
-3.254189
  0
VERTEX
  8
PLAN_1
  6
CONTINUOUS
 10
1.501169
 20
-3.283374
  0
SEQEND
  8
0
  0
POLYLINE
  8
PLAN_1
  6
CONTINUOUS
 66
     1
 40
0.003000
 41
0.003000
  0
VERTEX
  8
PLAN_1
  6
CONTINUOUS
 10
1.696417
 20
-3.283374
  0
VERTEX
  8
PLAN_1
  6
CONTINUOUS
 10
1.549260
 20
-3.283374
  0
VERTEX
  8
PLAN_1
  6
CONTINUOUS
 10
1.549260
 20
-3.084016
  0
VERTEX
  8
PLAN_1
  6
CONTINUOUS
 10
1.694362
 20
-3.084016
  0
VERTEX
  8
PLAN_1
  6
CONTINUOUS
 10
1.694362
 20
-3.107858
  0
VERTEX
  8
PLAN_1
  6
CONTINUOUS
 10
1.576390
 20
-3.107858
  0
VERTEX
  8
PLAN_1
  6
CONTINUOUS
 10
1.576390
 20
-3.169102
  0
VERTEX
  8
PLAN_1
  6
CONTINUOUS
 10
1.685319
 20
-3.169102
  0
VERTEX
  8
PLAN_1
  6
CONTINUOUS
 10
1.685319
 20
-3.192945
  0
VERTEX
  8
PLAN_1
  6
CONTINUOUS
 10
1.576390
 20
-3.192945
  0
VERTEX
  8
PLAN_1
  6
CONTINUOUS
 10
1.576390
 20
-3.259531
  0
VERTEX
  8
PLAN_1
  6
CONTINUOUS
 10
1.696417
 20
-3.259531
  0
VERTEX
  8
PLAN_1
  6
CONTINUOUS
 10
1.696417
 20
-3.283374
  0
SEQEND
  8
0
  0
POLYLINE
  8
PLAN_1
  6
CONTINUOUS
 66
     1
 40
0.003000
 41
0.003000
  0
VERTEX
  8
PLAN_1
  6
CONTINUOUS
 10
1.761362
 20
-3.283374
  0
VERTEX
  8
PLAN_1
  6
CONTINUOUS
 10
1.734642
 20
-3.283374
  0
VERTEX
  8
PLAN_1
  6
CONTINUOUS
 10
1.734642
 20
-3.084016
  0
VERTEX
  8
PLAN_1
  6
CONTINUOUS
 10
1.824252
 20
-3.084016
  0
VERTEX
  8
PLAN_1
  6
CONTINUOUS
 10
1.830827
 20
-3.084425
  0
VERTEX
  8
PLAN_1
  6
CONTINUOUS
 10
1.837406
 20
-3.085248
  0
VERTEX
  8
PLAN_1
  6
CONTINUOUS
 10
1.843157
 20
-3.086484
  0
VERTEX
  8
PLAN_1
  6
CONTINUOUS
 10
1.848913
 20
-3.088539
  0
VERTEX
  8
PLAN_1
  6
CONTINUOUS
 10
1.854256
 20
-3.090594
  0
VERTEX
  8
PLAN_1
  6
CONTINUOUS
 10
1.859189
 20
-3.093469
  0
VERTEX
  8
PLAN_1
  6
CONTINUOUS
 10
1.863713
 20
-3.096760
  0
VERTEX
  8
PLAN_1
  6
CONTINUOUS
 10
1.867409
 20
-3.100047
  0
VERTEX
  8
PLAN_1
  6
CONTINUOUS
 10
1.871110
 20
-3.104157
  0
VERTEX
  8
PLAN_1
  6
CONTINUOUS
 10
1.874398
 20
-3.108268
  0
VERTEX
  8
PLAN_1
  6
CONTINUOUS
 10
1.876866
 20
-3.112787
  0
VERTEX
  8
PLAN_1
  6
CONTINUOUS
 10
1.879331
 20
-3.117720
  0
VERTEX
  8
PLAN_1
  6
CONTINUOUS
 10
1.880976
 20
-3.123067
  0
VERTEX
  8
PLAN_1
  6
CONTINUOUS
 10
1.882209
 20
-3.128409
  0
VERTEX
  8
PLAN_1
  6
CONTINUOUS
 10
1.883031
 20
-3.134165
  0
VERTEX
  8
PLAN_1
  6
CONTINUOUS
 10
1.883441
 20
-3.140331
  0
VERTEX
  8
PLAN_1
  6
CONTINUOUS
 10
1.883031
 20
-3.145260
  0
VERTEX
  8
PLAN_1
  6
CONTINUOUS
 10
1.882618
 20
-3.150606
  0
VERTEX
  8
PLAN_1
  6
CONTINUOUS
 10
1.881386
 20
-3.155949
  0
VERTEX
  8
PLAN_1
  6
CONTINUOUS
 10
1.880154
 20
-3.161291
  0
VERTEX
  8
PLAN_1
  6
CONTINUOUS
 10
1.878508
 20
-3.166224
  0
VERTEX
  8
PLAN_1
  6
CONTINUOUS
 10
1.876043
 20
-3.171157
  0
VERTEX
  8
PLAN_1
  6
CONTINUOUS
 10
1.873165
 20
-3.175677
  0
VERTEX
  8
PLAN_1
  6
CONTINUOUS
 10
1.869878
 20
-3.180201
  0
VERTEX
  8
PLAN_1
  6
CONTINUOUS
 10
1.866177
 20
-3.184311
  0
VERTEX
  8
PLAN_1
  6
CONTINUOUS
 10
1.862067
 20
-3.188012
  0
VERTEX
  8
PLAN_1
  6
CONTINUOUS
 10
1.857134
 20
-3.191299
  0
VERTEX
  8
PLAN_1
  6
CONTINUOUS
 10
1.851791
 20
-3.194177
  0
VERTEX
  8
PLAN_1
  6
CONTINUOUS
 10
1.845626
 20
-3.196232
  0
VERTEX
  8
PLAN_1
  6
CONTINUOUS
 10
1.839047
 20
-3.197874
  0
VERTEX
  8
PLAN_1
  6
CONTINUOUS
 10
1.832059
 20
-3.199110
  0
VERTEX
  8
PLAN_1
  6
CONTINUOUS
 10
1.824252
 20
-3.199520
  0
VERTEX
  8
PLAN_1
  6
CONTINUOUS
 10
1.761362
 20
-3.199520
  0
VERTEX
  8
PLAN_1
  6
CONTINUOUS
 10
1.761362
 20
-3.283374
  0
SEQEND
  8
0
  0
POLYLINE
  8
PLAN_1
  6
CONTINUOUS
 66
     1
 40
0.003000
 41
0.003000
  0
VERTEX
  8
PLAN_1
  6
CONTINUOUS
 10
1.761362
 20
-3.176500
  0
VERTEX
  8
PLAN_1
  6
CONTINUOUS
 10
1.815209
 20
-3.176500
  0
VERTEX
  8
PLAN_1
  6
CONTINUOUS
 10
1.819319
 20
-3.176091
  0
VERTEX
  8
PLAN_1
  6
CONTINUOUS
 10
1.823839
 20
-3.175677
  0
VERTEX
  8
PLAN_1
  6
CONTINUOUS
 10
1.827539
 20
-3.175268
  0
VERTEX
  8
PLAN_1
  6
CONTINUOUS
 10
1.831650
 20
-3.174445
  0
VERTEX
  8
PLAN_1
  6
CONTINUOUS
 10
1.834937
 20
-3.173622
  0
VERTEX
  8
PLAN_1
  6
CONTINUOUS
 10
1.838638
 20
-3.171980
  0
VERTEX
  8
PLAN_1
  6
CONTINUOUS
 10
1.841516
 20
-3.170335
  0
VERTEX
  8
PLAN_1
  6
CONTINUOUS
 10
1.844390
 20
-3.168693
  0
VERTEX
  8
PLAN_1
  6
CONTINUOUS
 10
1.846858
 20
-3.166224
  0
VERTEX
  8
PLAN_1
  6
CONTINUOUS
 10
1.848913
 20
-3.163760
  0
VERTEX
  8
PLAN_1
  6
CONTINUOUS
 10
1.850969
 20
-3.160882
  0
VERTEX
  8
PLAN_1
  6
CONTINUOUS
 10
1.852614
 20
-3.157594
  0
VERTEX
  8
PLAN_1
  6
CONTINUOUS
 10
1.853846
 20
-3.153894
  0
VERTEX
  8
PLAN_1
  6
CONTINUOUS
 10
1.854669
 20
-3.149783
  0
VERTEX
  8
PLAN_1
  6
CONTINUOUS
 10
1.855488
 20
-3.145260
  0
VERTEX
  8
PLAN_1
  6
CONTINUOUS
 10
1.855488
 20
-3.140331
  0
VERTEX
  8
PLAN_1
  6
CONTINUOUS
 10
1.855488
 20
-3.135807
  0
VERTEX
  8
PLAN_1
  6
CONTINUOUS
 10
1.854669
 20
-3.131697
  0
VERTEX
  8
PLAN_1
  6
CONTINUOUS
 10
1.853846
 20
-3.127996
  0
VERTEX
  8
PLAN_1
  6
CONTINUOUS
 10
1.852614
 20
-3.124709
  0
VERTEX
  8
PLAN_1
  6
CONTINUOUS
 10
1.850969
 20
-3.121421
  0
VERTEX
  8
PLAN_1
  6
CONTINUOUS
 10
1.848913
 20
-3.118957
  0
VERTEX
  8
PLAN_1
  6
CONTINUOUS
 10
1.846858
 20
-3.116488
  0
VERTEX
  8
PLAN_1
  6
CONTINUOUS
 10
1.843980
 20
-3.114433
  0
VERTEX
  8
PLAN_1
  6
CONTINUOUS
 10
1.841516
 20
-3.112787
  0
VERTEX
  8
PLAN_1
  6
CONTINUOUS
 10
1.838224
 20
-3.111146
  0
VERTEX
  8
PLAN_1
  6
CONTINUOUS
 10
1.834937
 20
-3.109913
  0
VERTEX
  8
PLAN_1
  6
CONTINUOUS
 10
1.831650
 20
-3.108677
  0
VERTEX
  8
PLAN_1
  6
CONTINUOUS
 10
1.827949
 20
-3.108268
  0
VERTEX
  8
PLAN_1
  6
CONTINUOUS
 10
1.824252
 20
-3.107445
  0
VERTEX
  8
PLAN_1
  6
CONTINUOUS
 10
1.820142
 20
-3.107445
  0
VERTEX
  8
PLAN_1
  6
CONTINUOUS
 10
1.816031
 20
-3.107035
  0
VERTEX
  8
PLAN_1
  6
CONTINUOUS
 10
1.761362
 20
-3.107035
  0
VERTEX
  8
PLAN_1
  6
CONTINUOUS
 10
1.761362
 20
-3.176500
  0
SEQEND
  8
0
  0
POLYLINE
  8
PLAN_1
  6
CONTINUOUS
 66
     1
 40
0.003000
 41
0.003000
  0
VERTEX
  8
PLAN_1
  6
CONTINUOUS
 10
2.037173
 20
-3.142386
  0
VERTEX
  8
PLAN_1
  6
CONTINUOUS
 10
2.036760
 20
-3.137039
  0
VERTEX
  8
PLAN_1
  6
CONTINUOUS
 10
2.035528
 20
-3.131697
  0
VERTEX
  8
PLAN_1
  6
CONTINUOUS
 10
2.033882
 20
-3.127177
  0
VERTEX
  8
PLAN_1
  6
CONTINUOUS
 10
2.032240
 20
-3.123067
  0
VERTEX
  8
PLAN_1
  6
CONTINUOUS
 10
2.029772
 20
-3.119366
  0
VERTEX
  8
PLAN_1
  6
CONTINUOUS
 10
2.026894
 20
-3.116079
  0
VERTEX
  8
PLAN_1
  6
CONTINUOUS
 10
2.023606
 20
-3.113201
  0
VERTEX
  8
PLAN_1
  6
CONTINUOUS
 10
2.020319
 20
-3.110732
  0
VERTEX
  8
PLAN_1
  6
CONTINUOUS
 10
2.016618
 20
-3.108268
  0
VERTEX
  8
PLAN_1
  6
CONTINUOUS
 10
2.012921
 20
-3.106622
  0
VERTEX
  8
PLAN_1
  6
CONTINUOUS
 10
2.008811
 20
-3.104980
  0
VERTEX
  8
PLAN_1
  6
CONTINUOUS
 10
2.004701
 20
-3.103748
  0
VERTEX
  8
PLAN_1
  6
CONTINUOUS
 10
2.000591
 20
-3.102925
  0
VERTEX
  8
PLAN_1
  6
CONTINUOUS
 10
1.996476
 20
-3.102512
  0
VERTEX
  8
PLAN_1
  6
CONTINUOUS
 10
1.991957
 20
-3.102102
  0
VERTEX
  8
PLAN_1
  6
CONTINUOUS
 10
1.987846
 20
-3.102102
  0
VERTEX
  8
PLAN_1
  6
CONTINUOUS
 10
1.980858
 20
-3.102102
  0
VERTEX
  8
PLAN_1
  6
CONTINUOUS
 10
1.973461
 20
-3.103335
  0
VERTEX
  8
PLAN_1
  6
CONTINUOUS
 10
1.969760
 20
-3.103748
  0
VERTEX
  8
PLAN_1
  6
CONTINUOUS
 10
1.966059
 20
-3.104980
  0
VERTEX
  8
PLAN_1
  6
CONTINUOUS
 10
1.962362
 20
-3.106213
  0
VERTEX
  8
PLAN_1
  6
CONTINUOUS
 10
1.958661
 20
-3.108268
  0
VERTEX
  8
PLAN_1
  6
CONTINUOUS
 10
1.955374
 20
-3.109913
  0
VERTEX
  8
PLAN_1
  6
CONTINUOUS
 10
1.952087
 20
-3.112378
  0
VERTEX
  8
PLAN_1
  6
CONTINUOUS
 10
1.949209
 20
-3.115256
  0
VERTEX
  8
PLAN_1
  6
CONTINUOUS
 10
1.947154
 20
-3.118543
  0
VERTEX
  8
PLAN_1
  6
CONTINUOUS
 10
1.945098
 20
-3.122244
  0
VERTEX
  8
PLAN_1
  6
CONTINUOUS
 10
1.943453
 20
-3.126764
  0
VERTEX
  8
PLAN_1
  6
CONTINUOUS
 10
1.942630
 20
-3.131697
  0
VERTEX
  8
PLAN_1
  6
CONTINUOUS
 10
1.942220
 20
-3.137039
  0
VERTEX
  8
PLAN_1
  6
CONTINUOUS
 10
1.942220
 20
-3.139917
  0
VERTEX
  8
PLAN_1
  6
CONTINUOUS
 10
1.942630
 20
-3.142795
  0
VERTEX
  8
PLAN_1
  6
CONTINUOUS
 10
1.943453
 20
-3.145260
  0
VERTEX
  8
PLAN_1
  6
CONTINUOUS
 10
1.944276
 20
-3.147728
  0
VERTEX
  8
PLAN_1
  6
CONTINUOUS
 10
1.945508
 20
-3.149783
  0
VERTEX
  8
PLAN_1
  6
CONTINUOUS
 10
1.946740
 20
-3.151429
  0
VERTEX
  8
PLAN_1
  6
CONTINUOUS
 10
1.947976
 20
-3.153484
  0
VERTEX
  8
PLAN_1
  6
CONTINUOUS
 10
1.949618
 20
-3.154717
  0
VERTEX
  8
PLAN_1
  6
CONTINUOUS
 10
1.953319
 20
-3.157594
  0
VERTEX
  8
PLAN_1
  6
CONTINUOUS
 10
1.957429
 20
-3.159236
  0
VERTEX
  8
PLAN_1
  6
CONTINUOUS
 10
1.961539
 20
-3.160882
  0
VERTEX
  8
PLAN_1
  6
CONTINUOUS
 10
1.966059
 20
-3.162114
  0
VERTEX
  8
PLAN_1
  6
CONTINUOUS
 10
2.022783
 20
-3.175268
  0
VERTEX
  8
PLAN_1
  6
CONTINUOUS
 10
2.027717
 20
-3.176500
  0
VERTEX
  8
PLAN_1
  6
CONTINUOUS
 10
2.032240
 20
-3.177736
  0
VERTEX
  8
PLAN_1
  6
CONTINUOUS
 10
2.036350
 20
-3.179791
  0
VERTEX
  8
PLAN_1
  6
CONTINUOUS
 10
2.040870
 20
-3.181846
  0
VERTEX
  8
PLAN_1
  6
CONTINUOUS
 10
2.044571
 20
-3.183902
  0
VERTEX
  8
PLAN_1
  6
CONTINUOUS
 10
2.048272
 20
-3.186366
  0
VERTEX
  8
PLAN_1
  6
CONTINUOUS
 10
2.051969
 20
-3.189244
  0
VERTEX
  8
PLAN_1
  6
CONTINUOUS
 10
2.055256
 20
-3.192122
  0
VERTEX
  8
PLAN_1
  6
CONTINUOUS
 10
2.058134
 20
-3.195819
  0
VERTEX
  8
PLAN_1
  6
CONTINUOUS
 10
2.060602
 20
-3.199520
  0
VERTEX
  8
PLAN_1
  6
CONTINUOUS
 10
2.062657
 20
-3.203220
  0
VERTEX
  8
PLAN_1
  6
CONTINUOUS
 10
2.064713
 20
-3.207740
  0
VERTEX
  8
PLAN_1
  6
CONTINUOUS
 10
2.065945
 20
-3.212264
  0
VERTEX
  8
PLAN_1
  6
CONTINUOUS
 10
2.067177
 20
-3.217193
  0
VERTEX
  8
PLAN_1
  6
CONTINUOUS
 10
2.067591
 20
-3.222949
  0
VERTEX
  8
PLAN_1
  6
CONTINUOUS
 10
2.068000
 20
-3.228291
  0
VERTEX
  8
PLAN_1
  6
CONTINUOUS
 10
2.068000
 20
-3.232815
  0
VERTEX
  8
PLAN_1
  6
CONTINUOUS
 10
2.067591
 20
-3.236925
  0
VERTEX
  8
PLAN_1
  6
CONTINUOUS
 10
2.066768
 20
-3.241035
  0
VERTEX
  8
PLAN_1
  6
CONTINUOUS
 10
2.065945
 20
-3.244736
  0
VERTEX
  8
PLAN_1
  6
CONTINUOUS
 10
2.065122
 20
-3.248024
  0
VERTEX
  8
PLAN_1
  6
CONTINUOUS
 10
2.063890
 20
-3.251720
  0
VERTEX
  8
PLAN_1
  6
CONTINUOUS
 10
2.062244
 20
-3.254598
  0
VERTEX
  8
PLAN_1
  6
CONTINUOUS
 10
2.060602
 20
-3.257890
  0
VERTEX
  8
PLAN_1
  6
CONTINUOUS
 10
2.058957
 20
-3.260764
  0
VERTEX
  8
PLAN_1
  6
CONTINUOUS
 10
2.056902
 20
-3.263232
  0
VERTEX
  8
PLAN_1
  6
CONTINUOUS
 10
2.054437
 20
-3.266110
  0
VERTEX
  8
PLAN_1
  6
CONTINUOUS
 10
2.052382
 20
-3.268165
  0
VERTEX
  8
PLAN_1
  6
CONTINUOUS
 10
2.047449
 20
-3.272685
  0
VERTEX
  8
PLAN_1
  6
CONTINUOUS
 10
2.041693
 20
-3.276386
  0
VERTEX
  8
PLAN_1
  6
CONTINUOUS
 10
2.035937
 20
-3.279264
  0
VERTEX
  8
PLAN_1
  6
CONTINUOUS
 10
2.029772
 20
-3.282138
  0
VERTEX
  8
PLAN_1
  6
CONTINUOUS
 10
2.023197
 20
-3.284197
  0
VERTEX
  8
PLAN_1
  6
CONTINUOUS
 10
2.016618
 20
-3.285839
  0
VERTEX
  8
PLAN_1
  6
CONTINUOUS
 10
2.010043
 20
-3.287071
  0
VERTEX
  8
PLAN_1
  6
CONTINUOUS
 10
2.003055
 20
-3.287894
  0
VERTEX
  8
PLAN_1
  6
CONTINUOUS
 10
1.996476
 20
-3.288717
  0
VERTEX
  8
PLAN_1
  6
CONTINUOUS
 10
1.989902
 20
-3.288717
  0
VERTEX
  8
PLAN_1
  6
CONTINUOUS
 10
1.983323
 20
-3.288717
  0
VERTEX
  8
PLAN_1
  6
CONTINUOUS
 10
1.977157
 20
-3.288307
  0
VERTEX
  8
PLAN_1
  6
CONTINUOUS
 10
1.971406
 20
-3.287484
  0
VERTEX
  8
PLAN_1
  6
CONTINUOUS
 10
1.966059
 20
-3.286661
  0
VERTEX
  8
PLAN_1
  6
CONTINUOUS
 10
1.961539
 20
-3.285839
  0
VERTEX
  8
PLAN_1
  6
CONTINUOUS
 10
1.957020
 20
-3.284606
  0
VERTEX
  8
PLAN_1
  6
CONTINUOUS
 10
1.952906
 20
-3.283374
  0
VERTEX
  8
PLAN_1
  6
CONTINUOUS
 10
1.949209
 20
-3.282138
  0
VERTEX
  8
PLAN_1
  6
CONTINUOUS
 10
1.943043
 20
-3.279264
  0
VERTEX
  8
PLAN_1
  6
CONTINUOUS
 10
1.937697
 20
-3.275972
  0
VERTEX
  8
PLAN_1
  6
CONTINUOUS
 10
1.933587
 20
-3.272685
  0
VERTEX
  8
PLAN_1
  6
CONTINUOUS
 10
1.929890
 20
-3.269398
  0
VERTEX
  8
PLAN_1
  6
CONTINUOUS
 10
1.926602
 20
-3.266520
  0
VERTEX
  8
PLAN_1
  6
CONTINUOUS
 10
1.924134
 20
-3.263642
  0
VERTEX
  8
PLAN_1
  6
CONTINUOUS
 10
1.921669
 20
-3.260764
  0
VERTEX
  8
PLAN_1
  6
CONTINUOUS
 10
1.919614
 20
-3.257890
  0
VERTEX
  8
PLAN_1
  6
CONTINUOUS
 10
1.917559
 20
-3.255012
  0
VERTEX
  8
PLAN_1
  6
CONTINUOUS
 10
1.915913
 20
-3.251720
  0
VERTEX
  8
PLAN_1
  6
CONTINUOUS
 10
1.914681
 20
-3.248846
  0
VERTEX
  8
PLAN_1
  6
CONTINUOUS
 10
1.913449
 20
-3.245555
  0
VERTEX
  8
PLAN_1
  6
CONTINUOUS
 10
1.911394
 20
-3.239390
  0
VERTEX
  8
PLAN_1
  6
CONTINUOUS
 10
1.910157
 20
-3.232815
  0
VERTEX
  8
PLAN_1
  6
CONTINUOUS
 10
1.909748
 20
-3.225827
  0
VERTEX
  8
PLAN_1
  6
CONTINUOUS
 10
1.909339
 20
-3.219248
  0
VERTEX
  8
PLAN_1
  6
CONTINUOUS
 10
1.934823
 20
-3.219248
  0
VERTEX
  8
PLAN_1
  6
CONTINUOUS
 10
1.935232
 20
-3.225417
  0
VERTEX
  8
PLAN_1
  6
CONTINUOUS
 10
1.936055
 20
-3.231583
  0
VERTEX
  8
PLAN_1
  6
CONTINUOUS
 10
1.937697
 20
-3.236925
  0
VERTEX
  8
PLAN_1
  6
CONTINUOUS
 10
1.939756
 20
-3.241445
  0
VERTEX
  8
PLAN_1
  6
CONTINUOUS
 10
1.942220
 20
-3.245969
  0
VERTEX
  8
PLAN_1
  6
CONTINUOUS
 10
1.945508
 20
-3.249665
  0
VERTEX
  8
PLAN_1
  6
CONTINUOUS
 10
1.948795
 20
-3.252957
  0
VERTEX
  8
PLAN_1
  6
CONTINUOUS
 10
1.952496
 20
-3.255835
  0
VERTEX
  8
PLAN_1
  6
CONTINUOUS
 10
1.956606
 20
-3.258299
  0
VERTEX
  8
PLAN_1
  6
CONTINUOUS
 10
1.961130
 20
-3.260354
  0
VERTEX
  8
PLAN_1
  6
CONTINUOUS
 10
1.965650
 20
-3.262000
  0
VERTEX
  8
PLAN_1
  6
CONTINUOUS
 10
1.970173
 20
-3.263642
  0
VERTEX
  8
PLAN_1
  6
CONTINUOUS
 10
1.975102
 20
-3.264465
  0
VERTEX
  8
PLAN_1
  6
CONTINUOUS
 10
1.980035
 20
-3.265287
  0
VERTEX
  8
PLAN_1
  6
CONTINUOUS
 10
1.984969
 20
-3.265697
  0
VERTEX
  8
PLAN_1
  6
CONTINUOUS
 10
1.989902
 20
-3.265697
  0
VERTEX
  8
PLAN_1
  6
CONTINUOUS
 10
1.997713
 20
-3.265287
  0
VERTEX
  8
PLAN_1
  6
CONTINUOUS
 10
2.005933
 20
-3.264465
  0
VERTEX
  8
PLAN_1
  6
CONTINUOUS
 10
2.010453
 20
-3.263642
  0
VERTEX
  8
PLAN_1
  6
CONTINUOUS
 10
2.014563
 20
-3.262409
  0
VERTEX
  8
PLAN_1
  6
CONTINUOUS
 10
2.019087
 20
-3.261177
  0
VERTEX
  8
PLAN_1
  6
CONTINUOUS
 10
2.023197
 20
-3.259531
  0
VERTEX
  8
PLAN_1
  6
CONTINUOUS
 10
2.026894
 20
-3.257476
  0
VERTEX
  8
PLAN_1
  6
CONTINUOUS
 10
2.030594
 20
-3.255421
  0
VERTEX
  8
PLAN_1
  6
CONTINUOUS
 10
2.033882
 20
-3.252543
  0
VERTEX
  8
PLAN_1
  6
CONTINUOUS
 10
2.036350
 20
-3.249256
  0
VERTEX
  8
PLAN_1
  6
CONTINUOUS
 10
2.038815
 20
-3.245969
  0
VERTEX
  8
PLAN_1
  6
CONTINUOUS
 10
2.040461
 20
-3.241858
  0
VERTEX
  8
PLAN_1
  6
CONTINUOUS
 10
2.041693
 20
-3.237335
  0
VERTEX
  8
PLAN_1
  6
CONTINUOUS
 10
2.042102
 20
-3.231992
  0
VERTEX
  8
PLAN_1
  6
CONTINUOUS
 10
2.041693
 20
-3.228291
  0
VERTEX
  8
PLAN_1
  6
CONTINUOUS
 10
2.041283
 20
-3.225004
  0
VERTEX
  8
PLAN_1
  6
CONTINUOUS
 10
2.040870
 20
-3.221717
  0
VERTEX
  8
PLAN_1
  6
CONTINUOUS
 10
2.040047
 20
-3.218839
  0
VERTEX
  8
PLAN_1
  6
CONTINUOUS
 10
2.038815
 20
-3.216374
  0
VERTEX
  8
PLAN_1
  6
CONTINUOUS
 10
2.037173
 20
-3.213906
  0
VERTEX
  8
PLAN_1
  6
CONTINUOUS
 10
2.035118
 20
-3.211441
  0
VERTEX
  8
PLAN_1
  6
CONTINUOUS
 10
2.033063
 20
-3.209386
  0
VERTEX
  8
PLAN_1
  6
CONTINUOUS
 10
2.030185
 20
-3.207740
  0
VERTEX
  8
PLAN_1
  6
CONTINUOUS
 10
2.027307
 20
-3.206094
  0
VERTEX
  8
PLAN_1
  6
CONTINUOUS
 10
2.023606
 20
-3.204453
  0
VERTEX
  8
PLAN_1
  6
CONTINUOUS
 10
2.019909
 20
-3.202807
  0
VERTEX
  8
PLAN_1
  6
CONTINUOUS
 10
2.010866
 20
-3.199929
  0
VERTEX
  8
PLAN_1
  6
CONTINUOUS
 10
1.999354
 20
-3.196642
  0
VERTEX
  8
PLAN_1
  6
CONTINUOUS
 10
1.958661
 20
-3.187598
  0
VERTEX
  8
PLAN_1
  6
CONTINUOUS
 10
1.952906
 20
-3.185957
  0
VERTEX
  8
PLAN_1
  6
CONTINUOUS
 10
1.946331
 20
-3.183488
  0
VERTEX
  8
PLAN_1
  6
CONTINUOUS
 10
1.943043
 20
-3.182256
  0
VERTEX
  8
PLAN_1
  6
CONTINUOUS
 10
1.939343
 20
-3.180201
  0
VERTEX
  8
PLAN_1
  6
CONTINUOUS
 10
1.936055
 20
-3.178146
  0
VERTEX
  8
PLAN_1
  6
CONTINUOUS
 10
1.932354
 20
-3.175677
  0
VERTEX
  8
PLAN_1
  6
CONTINUOUS
 10
1.929067
 20
-3.173213
  0
VERTEX
  8
PLAN_1
  6
CONTINUOUS
 10
1.926189
 20
-3.169925
  0
VERTEX
  8
PLAN_1
  6
CONTINUOUS
 10
1.923311
 20
-3.166224
  0
VERTEX
  8
PLAN_1
  6
CONTINUOUS
 10
1.920846
 20
-3.162114
  0
VERTEX
  8
PLAN_1
  6
CONTINUOUS
 10
1.918791
 20
-3.157594
  0
VERTEX
  8
PLAN_1
  6
CONTINUOUS
 10
1.917559
 20
-3.152248
  0
VERTEX
  8
PLAN_1
  6
CONTINUOUS
 10
1.916323
 20
-3.146906
  0
VERTEX
  8
PLAN_1
  6
CONTINUOUS
 10
1.916323
 20
-3.140331
  0
VERTEX
  8
PLAN_1
  6
CONTINUOUS
 10
1.916323
 20
-3.134575
  0
VERTEX
  8
PLAN_1
  6
CONTINUOUS
 10
1.917146
 20
-3.128819
  0
VERTEX
  8
PLAN_1
  6
CONTINUOUS
 10
1.918378
 20
-3.123476
  0
VERTEX
  8
PLAN_1
  6
CONTINUOUS
 10
1.920024
 20
-3.117720
  0
VERTEX
  8
PLAN_1
  6
CONTINUOUS
 10
1.922488
 20
-3.112378
  0
VERTEX
  8
PLAN_1
  6
CONTINUOUS
 10
1.924957
 20
-3.107445
  0
VERTEX
  8
PLAN_1
  6
CONTINUOUS
 10
1.928657
 20
-3.102512
  0
VERTEX
  8
PLAN_1
  6
CONTINUOUS
 10
1.932354
 20
-3.097992
  0
VERTEX
  8
PLAN_1
  6
CONTINUOUS
 10
1.936878
 20
-3.093882
  0
VERTEX
  8
PLAN_1
  6
CONTINUOUS
 10
1.941811
 20
-3.090181
  0
VERTEX
  8
PLAN_1
  6
CONTINUOUS
 10
1.947563
 20
-3.086894
  0
VERTEX
  8
PLAN_1
  6
CONTINUOUS
 10
1.953728
 20
-3.084016
  0
VERTEX
  8
PLAN_1
  6
CONTINUOUS
 10
1.960307
 20
-3.081961
  0
VERTEX
  8
PLAN_1
  6
CONTINUOUS
 10
1.968114
 20
-3.080315
  0
VERTEX
  8
PLAN_1
  6
CONTINUOUS
 10
1.975925
 20
-3.079083
  0
VERTEX
  8
PLAN_1
  6
CONTINUOUS
 10
1.984559
 20
-3.079083
  0
VERTEX
  8
PLAN_1
  6
CONTINUOUS
 10
1.991134
 20
-3.079083
  0
VERTEX
  8
PLAN_1
  6
CONTINUOUS
 10
1.996890
 20
-3.079496
  0
VERTEX
  8
PLAN_1
  6
CONTINUOUS
 10
2.002646
 20
-3.079906
  0
VERTEX
  8
PLAN_1
  6
CONTINUOUS
 10
2.007988
 20
-3.080728
  0
VERTEX
  8
PLAN_1
  6
CONTINUOUS
 10
2.012921
 20
-3.081551
  0
VERTEX
  8
PLAN_1
  6
CONTINUOUS
 10
2.017854
 20
-3.082783
  0
VERTEX
  8
PLAN_1
  6
CONTINUOUS
 10
2.021965
 20
-3.084425
  0
VERTEX
  8
PLAN_1
  6
CONTINUOUS
 10
2.026075
 20
-3.085661
  0
VERTEX
  8
PLAN_1
  6
CONTINUOUS
 10
2.029772
 20
-3.087303
  0
VERTEX
  8
PLAN_1
  6
CONTINUOUS
 10
2.033472
 20
-3.089358
  0
VERTEX
  8
PLAN_1
  6
CONTINUOUS
 10
2.036760
 20
-3.091004
  0
VERTEX
  8
PLAN_1
  6
CONTINUOUS
 10
2.039638
 20
-3.093059
  0
VERTEX
  8
PLAN_1
  6
CONTINUOUS
 10
2.042516
 20
-3.095524
  0
VERTEX
  8
PLAN_1
  6
CONTINUOUS
 10
2.044980
 20
-3.097579
  0
VERTEX
  8
PLAN_1
  6
CONTINUOUS
 10
2.047035
 20
-3.100047
  0
VERTEX
  8
PLAN_1
  6
CONTINUOUS
 10
2.049091
 20
-3.102512
  0
VERTEX
  8
PLAN_1
  6
CONTINUOUS
 10
2.052791
 20
-3.107445
  0
VERTEX
  8
PLAN_1
  6
CONTINUOUS
 10
2.055669
 20
-3.112787
  0
VERTEX
  8
PLAN_1
  6
CONTINUOUS
 10
2.058134
 20
-3.118134
  0
VERTEX
  8
PLAN_1
  6
CONTINUOUS
 10
2.059780
 20
-3.123067
  0
VERTEX
  8
PLAN_1
  6
CONTINUOUS
 10
2.061012
 20
-3.128409
  0
VERTEX
  8
PLAN_1
  6
CONTINUOUS
 10
2.061835
 20
-3.133343
  0
VERTEX
  8
PLAN_1
  6
CONTINUOUS
 10
2.062244
 20
-3.138276
  0
VERTEX
  8
PLAN_1
  6
CONTINUOUS
 10
2.062244
 20
-3.142386
  0
VERTEX
  8
PLAN_1
  6
CONTINUOUS
 10
2.037173
 20
-3.142386
  0
SEQEND
  8
0
  0
POLYLINE
  8
PLAN_1
  6
CONTINUOUS
 66
     1
 40
0.008220
 41
0.008220
  0
VERTEX
  8
PLAN_1
  6
CONTINUOUS
 10
-0.657638
 20
2.012118
  0
VERTEX
  8
PLAN_1
  6
CONTINUOUS
 10
-0.657638
 20
2.234902
  0
VERTEX
  8
PLAN_1
  6
CONTINUOUS
 10
-1.797055
 20
2.234902
  0
VERTEX
  8
PLAN_1
  6
CONTINUOUS
 10
-1.797055
 20
2.012118
  0
VERTEX
  8
PLAN_1
  6
CONTINUOUS
 10
-0.657638
 20
2.012118
  0
SEQEND
  8
0
  0
POLYLINE
  8
PLAN_1
  6
CONTINUOUS
 66
     1
 40
0.008220
 41
0.008220
  0
VERTEX
  8
PLAN_1
  6
CONTINUOUS
 10
-0.805614
 20
2.559217
  0
VERTEX
  8
PLAN_1
  6
CONTINUOUS
 10
-0.805614
 20
2.601555
  0
VERTEX
  8
PLAN_1
  6
CONTINUOUS
 10
-1.649488
 20
2.601555
  0
VERTEX
  8
PLAN_1
  6
CONTINUOUS
 10
-1.649488
 20
2.559217
  0
SEQEND
  8
0
  0
POLYLINE
  8
PLAN_1
  6
CONTINUOUS
 66
     1
 40
0.008220
 41
0.008220
  0
VERTEX
  8
PLAN_1
  6
CONTINUOUS
 10
-1.562760
 20
2.495917
  0
VERTEX
  8
PLAN_1
  6
CONTINUOUS
 10
-0.805614
 20
2.495917
  0
SEQEND
  8
0
  0
POLYLINE
  8
PLAN_1
  6
CONTINUOUS
 66
     1
 40
0.008220
 41
0.008220
  0
VERTEX
  8
PLAN_1
  6
CONTINUOUS
 10
-1.592764
 20
2.829685
  0
VERTEX
  8
PLAN_1
  6
CONTINUOUS
 10
-1.591941
 20
2.832150
  0
VERTEX
  8
PLAN_1
  6
CONTINUOUS
 10
-1.590709
 20
2.835028
  0
VERTEX
  8
PLAN_1
  6
CONTINUOUS
 10
-1.589476
 20
2.837496
  0
VERTEX
  8
PLAN_1
  6
CONTINUOUS
 10
-1.587831
 20
2.839551
  0
VERTEX
  8
PLAN_1
  6
CONTINUOUS
 10
-1.586189
 20
2.842016
  0
VERTEX
  8
PLAN_1
  6
CONTINUOUS
 10
-1.584134
 20
2.844071
  0
VERTEX
  8
PLAN_1
  6
CONTINUOUS
 10
-1.582079
 20
2.845717
  0
VERTEX
  8
PLAN_1
  6
CONTINUOUS
 10
-1.580024
 20
2.847772
  0
VERTEX
  8
PLAN_1
  6
CONTINUOUS
 10
-1.577555
 20
2.849004
  0
VERTEX
  8
PLAN_1
  6
CONTINUOUS
 10
-1.575091
 20
2.850650
  0
VERTEX
  8
PLAN_1
  6
CONTINUOUS
 10
-1.572622
 20
2.851882
  0
VERTEX
  8
PLAN_1
  6
CONTINUOUS
 10
-1.570157
 20
2.852705
  0
VERTEX
  8
PLAN_1
  6
CONTINUOUS
 10
-1.567280
 20
2.853528
  0
VERTEX
  8
PLAN_1
  6
CONTINUOUS
 10
-1.564402
 20
2.854346
  0
VERTEX
  8
PLAN_1
  6
CONTINUOUS
 10
-1.561524
 20
2.854346
  0
VERTEX
  8
PLAN_1
  6
CONTINUOUS
 10
-1.558650
 20
2.854760
  0
SEQEND
  8
0
  0
POLYLINE
  8
PLAN_1
  6
CONTINUOUS
 66
     1
 40
0.008220
 41
0.008220
  0
VERTEX
  8
PLAN_1
  6
CONTINUOUS
 10
-1.558650
 20
2.854760
  0
VERTEX
  8
PLAN_1
  6
CONTINUOUS
 10
-0.895220
 20
2.854760
  0
SEQEND
  8
0
  0
POLYLINE
  8
PLAN_1
  6
CONTINUOUS
 66
     1
 40
0.008220
 41
0.008220
  0
VERTEX
  8
PLAN_1
  6
CONTINUOUS
 10
-0.895220
 20
2.854760
  0
VERTEX
  8
PLAN_1
  6
CONTINUOUS
 10
-0.891524
 20
2.854346
  0
VERTEX
  8
PLAN_1
  6
CONTINUOUS
 10
-0.887823
 20
2.853937
  0
VERTEX
  8
PLAN_1
  6
CONTINUOUS
 10
-0.884535
 20
2.853114
  0
VERTEX
  8
PLAN_1
  6
CONTINUOUS
 10
-0.881248
 20
2.851882
  0
VERTEX
  8
PLAN_1
  6
CONTINUOUS
 10
-0.877957
 20
2.850236
  0
VERTEX
  8
PLAN_1
  6
CONTINUOUS
 10
-0.875079
 20
2.848594
  0
VERTEX
  8
PLAN_1
  6
CONTINUOUS
 10
-0.872205
 20
2.846539
  0
VERTEX
  8
PLAN_1
  6
CONTINUOUS
 10
-0.869736
 20
2.844071
  0
VERTEX
  8
PLAN_1
  6
CONTINUOUS
 10
-0.867272
 20
2.841606
  0
VERTEX
  8
PLAN_1
  6
CONTINUOUS
 10
-0.865217
 20
2.838728
  0
VERTEX
  8
PLAN_1
  6
CONTINUOUS
 10
-0.863571
 20
2.835850
  0
VERTEX
  8
PLAN_1
  6
CONTINUOUS
 10
-0.861925
 20
2.832563
  0
VERTEX
  8
PLAN_1
  6
CONTINUOUS
 10
-0.860693
 20
2.829276
  0
VERTEX
  8
PLAN_1
  6
CONTINUOUS
 10
-0.859870
 20
2.825575
  0
VERTEX
  8
PLAN_1
  6
CONTINUOUS
 10
-0.859461
 20
2.822287
  0
VERTEX
  8
PLAN_1
  6
CONTINUOUS
 10
-0.859051
 20
2.818587
  0
SEQEND
  8
0
  0
POLYLINE
  8
PLAN_1
  6
CONTINUOUS
 66
     1
 40
0.008220
 41
0.008220
  0
VERTEX
  8
PLAN_1
  6
CONTINUOUS
 10
-0.859051
 20
2.818587
  0
VERTEX
  8
PLAN_1
  6
CONTINUOUS
 10
-0.805614
 20
2.601555
  0
VERTEX
  8
PLAN_1
  6
CONTINUOUS
 10
-1.649488
 20
2.601555
  0
VERTEX
  8
PLAN_1
  6
CONTINUOUS
 10
-1.592764
 20
2.829685
  0
SEQEND
  8
0
  0
POLYLINE
  8
PLAN_1
  6
CONTINUOUS
 66
     1
 40
0.008220
 41
0.008220
  0
VERTEX
  8
PLAN_1
  6
CONTINUOUS
 10
-1.016480
 20
2.961630
  0
VERTEX
  8
PLAN_1
  6
CONTINUOUS
 10
-1.025933
 20
2.969850
  0
VERTEX
  8
PLAN_1
  6
CONTINUOUS
 10
-1.036209
 20
2.977661
  0
VERTEX
  8
PLAN_1
  6
CONTINUOUS
 10
-1.047307
 20
2.985059
  0
VERTEX
  8
PLAN_1
  6
CONTINUOUS
 10
-1.058406
 20
2.991638
  0
VERTEX
  8
PLAN_1
  6
CONTINUOUS
 10
-1.070327
 20
2.998213
  0
VERTEX
  8
PLAN_1
  6
CONTINUOUS
 10
-1.082657
 20
3.004378
  0
VERTEX
  8
PLAN_1
  6
CONTINUOUS
 10
-1.095402
 20
3.009724
  0
VERTEX
  8
PLAN_1
  6
CONTINUOUS
 10
-1.108965
 20
3.014654
  0
VERTEX
  8
PLAN_1
  6
CONTINUOUS
 10
-1.122531
 20
3.019177
  0
VERTEX
  8
PLAN_1
  6
CONTINUOUS
 10
-1.136504
 20
3.022878
  0
VERTEX
  8
PLAN_1
  6
CONTINUOUS
 10
-1.150890
 20
3.026575
  0
VERTEX
  8
PLAN_1
  6
CONTINUOUS
 10
-1.165689
 20
3.029043
  0
VERTEX
  8
PLAN_1
  6
CONTINUOUS
 10
-1.180488
 20
3.031508
  0
VERTEX
  8
PLAN_1
  6
CONTINUOUS
 10
-1.196106
 20
3.033154
  0
VERTEX
  8
PLAN_1
  6
CONTINUOUS
 10
-1.211724
 20
3.033972
  0
VERTEX
  8
PLAN_1
  6
CONTINUOUS
 10
-1.227346
 20
3.034386
  0
VERTEX
  8
PLAN_1
  6
CONTINUOUS
 10
-1.243378
 20
3.033972
  0
VERTEX
  8
PLAN_1
  6
CONTINUOUS
 10
-1.258996
 20
3.033154
  0
VERTEX
  8
PLAN_1
  6
CONTINUOUS
 10
-1.274205
 20
3.031508
  0
VERTEX
  8
PLAN_1
  6
CONTINUOUS
 10
-1.289004
 20
3.029043
  0
VERTEX
  8
PLAN_1
  6
CONTINUOUS
 10
-1.303799
 20
3.026575
  0
VERTEX
  8
PLAN_1
  6
CONTINUOUS
 10
-1.318185
 20
3.022878
  0
VERTEX
  8
PLAN_1
  6
CONTINUOUS
 10
-1.332161
 20
3.019177
  0
VERTEX
  8
PLAN_1
  6
CONTINUOUS
 10
-1.346138
 20
3.014654
  0
VERTEX
  8
PLAN_1
  6
CONTINUOUS
 10
-1.359291
 20
3.009724
  0
VERTEX
  8
PLAN_1
  6
CONTINUOUS
 10
-1.372035
 20
3.003969
  0
VERTEX
  8
PLAN_1
  6
CONTINUOUS
 10
-1.384366
 20
2.998213
  0
VERTEX
  8
PLAN_1
  6
CONTINUOUS
 10
-1.396283
 20
2.991638
  0
VERTEX
  8
PLAN_1
  6
CONTINUOUS
 10
-1.407795
 20
2.984650
  0
VERTEX
  8
PLAN_1
  6
CONTINUOUS
 10
-1.418480
 20
2.977661
  0
VERTEX
  8
PLAN_1
  6
CONTINUOUS
 10
-1.428760
 20
2.969850
  0
VERTEX
  8
PLAN_1
  6
CONTINUOUS
 10
-1.438622
 20
2.961630
  0
SEQEND
  8
0
  0
POLYLINE
  8
PLAN_1
  6
CONTINUOUS
 66
     1
 40
0.008220
 41
0.008220
  0
VERTEX
  8
PLAN_1
  6
CONTINUOUS
 10
-1.438622
 20
2.961630
  0
VERTEX
  8
PLAN_1
  6
CONTINUOUS
 10
-1.438213
 20
2.854760
  0
VERTEX
  8
PLAN_1
  6
CONTINUOUS
 10
-1.016480
 20
2.854760
  0
VERTEX
  8
PLAN_1
  6
CONTINUOUS
 10
-1.016480
 20
2.961630
  0
SEQEND
  8
0
  0
POLYLINE
  8
PLAN_1
  6
CONTINUOUS
 66
     1
 40
0.008220
 41
0.008220
  0
VERTEX
  8
PLAN_1
  6
CONTINUOUS
 10
-1.562760
 20
2.559217
  0
VERTEX
  8
PLAN_1
  6
CONTINUOUS
 10
-1.562760
 20
2.495917
  0
VERTEX
  8
PLAN_1
  6
CONTINUOUS
 10
-1.795000
 20
2.495917
  0
VERTEX
  8
PLAN_1
  6
CONTINUOUS
 10
-1.795000
 20
2.559217
  0
VERTEX
  8
PLAN_1
  6
CONTINUOUS
 10
-1.700870
 20
2.558807
  0
VERTEX
  8
PLAN_1
  6
CONTINUOUS
 10
-1.700870
 20
2.526335
  0
VERTEX
  8
PLAN_1
  6
CONTINUOUS
 10
-1.656886
 20
2.526335
  0
VERTEX
  8
PLAN_1
  6
CONTINUOUS
 10
-1.656886
 20
2.558807
  0
VERTEX
  8
PLAN_1
  6
CONTINUOUS
 10
-1.562760
 20
2.559217
  0
SEQEND
  8
0
  0
POLYLINE
  8
PLAN_1
  6
CONTINUOUS
 66
     1
 40
0.008220
 41
0.008220
  0
VERTEX
  8
PLAN_1
  6
CONTINUOUS
 10
-0.658461
 20
2.558807
  0
VERTEX
  8
PLAN_1
  6
CONTINUOUS
 10
-0.658461
 20
2.495504
  0
VERTEX
  8
PLAN_1
  6
CONTINUOUS
 10
-0.890287
 20
2.495504
  0
VERTEX
  8
PLAN_1
  6
CONTINUOUS
 10
-0.890287
 20
2.558807
  0
VERTEX
  8
PLAN_1
  6
CONTINUOUS
 10
-0.796571
 20
2.558394
  0
VERTEX
  8
PLAN_1
  6
CONTINUOUS
 10
-0.796571
 20
2.525921
  0
VERTEX
  8
PLAN_1
  6
CONTINUOUS
 10
-0.752177
 20
2.525921
  0
VERTEX
  8
PLAN_1
  6
CONTINUOUS
 10
-0.752177
 20
2.558394
  0
VERTEX
  8
PLAN_1
  6
CONTINUOUS
 10
-0.658461
 20
2.558807
  0
SEQEND
  8
0
  0
POLYLINE
  8
PLAN_1
  6
CONTINUOUS
 66
     1
 40
0.008220
 41
0.008220
  0
VERTEX
  8
PLAN_1
  6
CONTINUOUS
 10
-1.754717
 20
1.897024
  0
VERTEX
  8
PLAN_1
  6
CONTINUOUS
 10
-1.754307
 20
1.981701
  0
VERTEX
  8
PLAN_1
  6
CONTINUOUS
 10
-1.796642
 20
1.981701
  0
SEQEND
  8
0
  0
POLYLINE
  8
PLAN_1
  6
CONTINUOUS
 66
     1
 40
0.008220
 41
0.008220
  0
VERTEX
  8
PLAN_1
  6
CONTINUOUS
 10
-0.701618
 20
1.897024
  0
VERTEX
  8
PLAN_1
  6
CONTINUOUS
 10
-0.701618
 20
1.981701
  0
VERTEX
  8
PLAN_1
  6
CONTINUOUS
 10
-0.659283
 20
1.981701
  0
SEQEND
  8
0
  0
POLYLINE
  8
PLAN_1
  6
CONTINUOUS
 66
     1
 40
0.008220
 41
0.008220
  0
VERTEX
  8
PLAN_1
  6
CONTINUOUS
 10
-1.016480
 20
2.962043
  0
VERTEX
  8
PLAN_1
  6
CONTINUOUS
 10
-1.438213
 20
2.962043
  0
SEQEND
  8
0
  0
POLYLINE
  8
PLAN_1
  6
CONTINUOUS
 66
     1
 40
0.008220
 41
0.008220
  0
VERTEX
  8
PLAN_1
  6
CONTINUOUS
 10
-0.738614
 20
1.848933
  0
VERTEX
  8
PLAN_1
  6
CONTINUOUS
 10
-0.738614
 20
1.897437
  0
VERTEX
  8
PLAN_1
  6
CONTINUOUS
 10
-1.730465
 20
1.897437
  0
VERTEX
  8
PLAN_1
  6
CONTINUOUS
 10
-1.730465
 20
1.848933
  0
VERTEX
  8
PLAN_1
  6
CONTINUOUS
 10
-0.738614
 20
1.848933
  0
SEQEND
  8
0
  0
POLYLINE
  8
PLAN_1
  6
CONTINUOUS
 66
     1
 40
0.008220
 41
0.008220
  0
VERTEX
  8
PLAN_1
  6
CONTINUOUS
 10
-1.671276
 20
1.573945
  0
VERTEX
  8
PLAN_1
  6
CONTINUOUS
 10
-1.630992
 20
1.534071
  0
VERTEX
  8
PLAN_1
  6
CONTINUOUS
 10
-0.833976
 20
1.534071
  0
VERTEX
  8
PLAN_1
  6
CONTINUOUS
 10
-0.794106
 20
1.573945
  0
SEQEND
  8
0
  0
POLYLINE
  8
PLAN_1
  6
CONTINUOUS
 66
     1
 40
0.008220
 41
0.008220
  0
VERTEX
  8
PLAN_1
  6
CONTINUOUS
 10
-1.578378
 20
1.534071
  0
VERTEX
  8
PLAN_1
  6
CONTINUOUS
 10
-1.526177
 20
1.336358
  0
VERTEX
  8
PLAN_1
  6
CONTINUOUS
 10
-0.946602
 20
1.336358
  0
VERTEX
  8
PLAN_1
  6
CONTINUOUS
 10
-0.881657
 20
1.534071
  0
VERTEX
  8
PLAN_1
  6
CONTINUOUS
 10
-1.578378
 20
1.534071
  0
SEQEND
  8
0
  0
POLYLINE
  8
PLAN_1
  6
CONTINUOUS
 66
     1
 40
0.006984
 41
0.006984
  0
VERTEX
  8
PLAN_1
  6
CONTINUOUS
 10
-1.531929
 20
1.531193
  0
VERTEX
  8
PLAN_1
  6
CONTINUOUS
 10
-1.481783
 20
1.336358
  0
SEQEND
  8
0
  0
POLYLINE
  8
PLAN_1
  6
CONTINUOUS
 66
     1
 40
0.006984
 41
0.006984
  0
VERTEX
  8
PLAN_1
  6
CONTINUOUS
 10
-1.498224
 20
1.531193
  0
VERTEX
  8
PLAN_1
  6
CONTINUOUS
 10
-1.448079
 20
1.336358
  0
SEQEND
  8
0
  0
POLYLINE
  8
PLAN_1
  6
CONTINUOUS
 66
     1
 40
0.006984
 41
0.006984
  0
VERTEX
  8
PLAN_1
  6
CONTINUOUS
 10
-0.946602
 20
1.533248
  0
VERTEX
  8
PLAN_1
  6
CONTINUOUS
 10
-0.996748
 20
1.338004
  0
SEQEND
  8
0
  0
POLYLINE
  8
PLAN_1
  6
CONTINUOUS
 66
     1
 40
0.006984
 41
0.006984
  0
VERTEX
  8
PLAN_1
  6
CONTINUOUS
 10
-0.979898
 20
1.533248
  0
VERTEX
  8
PLAN_1
  6
CONTINUOUS
 10
-1.030043
 20
1.338004
  0
SEQEND
  8
0
  0
POLYLINE
  8
PLAN_1
  6
CONTINUOUS
 66
     1
 40
0.008220
 41
0.008220
  0
VERTEX
  8
PLAN_1
  6
CONTINUOUS
 10
-0.794106
 20
1.573945
  0
VERTEX
  8
PLAN_1
  6
CONTINUOUS
 10
-0.794106
 20
1.848933
  0
VERTEX
  8
PLAN_1
  6
CONTINUOUS
 10
-1.671276
 20
1.848933
  0
VERTEX
  8
PLAN_1
  6
CONTINUOUS
 10
-1.671276
 20
1.573945
  0
VERTEX
  8
PLAN_1
  6
CONTINUOUS
 10
-0.794106
 20
1.573945
  0
SEQEND
  8
0
  0
POLYLINE
  8
PLAN_1
  6
CONTINUOUS
 66
     1
 40
0.008220
 41
0.008220
  0
VERTEX
  8
PLAN_1
  6
CONTINUOUS
 10
-1.794587
 20
2.498795
  0
VERTEX
  8
PLAN_1
  6
CONTINUOUS
 10
-1.794587
 20
2.234902
  0
VERTEX
  8
PLAN_1
  6
CONTINUOUS
 10
-0.657638
 20
2.234902
  0
VERTEX
  8
PLAN_1
  6
CONTINUOUS
 10
-0.657638
 20
2.498795
  0
SEQEND
  8
0
  0
POLYLINE
  8
PLAN_1
  6
CONTINUOUS
 66
     1
 40
0.004110
 41
0.004110
  0
VERTEX
  8
PLAN_1
  6
CONTINUOUS
 10
-0.698331
 20
1.696433
  0
VERTEX
  8
PLAN_1
  6
CONTINUOUS
 10
-0.445126
 20
1.696433
  0
SEQEND
  8
0
  0
POLYLINE
  8
PLAN_1
  6
CONTINUOUS
 66
     1
 40
0.004110
 41
0.004110
  0
VERTEX
  8
PLAN_1
  6
CONTINUOUS
 10
-1.918311
 20
1.698079
  0
VERTEX
  8
PLAN_1
  6
CONTINUOUS
 10
-1.665110
 20
1.698079
  0
SEQEND
  8
0
  0
POLYLINE
  8
PLAN_1
 62
     5
  6
CONTINUOUS
 66
     1
 40
0.003000
 41
0.003000
  0
VERTEX
  8
PLAN_1
 62
     5
  6
CONTINUOUS
 10
-2.060945
 20
1.213866
  0
VERTEX
  8
PLAN_1
 62
     5
  6
CONTINUOUS
 10
-2.060945
 20
1.222091
  0
SEQEND
  8
0
  0
POLYLINE
  8
PLAN_1
 62
     5
  6
CONTINUOUS
 66
     1
 40
0.003000
 41
0.003000
  0
VERTEX
  8
PLAN_1
 62
     5
  6
CONTINUOUS
 10
-2.060945
 20
1.230311
  0
VERTEX
  8
PLAN_1
 62
     5
  6
CONTINUOUS
 10
-2.060945
 20
1.238941
  0
SEQEND
  8
0
  0
POLYLINE
  8
PLAN_1
 62
     5
  6
CONTINUOUS
 66
     1
 40
0.003000
 41
0.003000
  0
VERTEX
  8
PLAN_1
 62
     5
  6
CONTINUOUS
 10
-2.060945
 20
1.247161
  0
VERTEX
  8
PLAN_1
 62
     5
  6
CONTINUOUS
 10
-2.060945
 20
1.255382
  0
SEQEND
  8
0
  0
POLYLINE
  8
PLAN_1
 62
     5
  6
CONTINUOUS
 66
     1
 40
0.003000
 41
0.003000
  0
VERTEX
  8
PLAN_1
 62
     5
  6
CONTINUOUS
 10
-2.060945
 20
1.263606
  0
VERTEX
  8
PLAN_1
 62
     5
  6
CONTINUOUS
 10
-2.060945
 20
1.272236
  0
SEQEND
  8
0
  0
POLYLINE
  8
PLAN_1
 62
     5
  6
CONTINUOUS
 66
     1
 40
0.003000
 41
0.003000
  0
VERTEX
  8
PLAN_1
 62
     5
  6
CONTINUOUS
 10
-2.060945
 20
1.280457
  0
VERTEX
  8
PLAN_1
 62
     5
  6
CONTINUOUS
 10
-2.060945
 20
1.288677
  0
SEQEND
  8
0
  0
POLYLINE
  8
PLAN_1
 62
     5
  6
CONTINUOUS
 66
     1
 40
0.003000
 41
0.003000
  0
VERTEX
  8
PLAN_1
 62
     5
  6
CONTINUOUS
 10
-2.060945
 20
1.296898
  0
VERTEX
  8
PLAN_1
 62
     5
  6
CONTINUOUS
 10
-2.060945
 20
1.305531
  0
SEQEND
  8
0
  0
POLYLINE
  8
PLAN_1
 62
     5
  6
CONTINUOUS
 66
     1
 40
0.003000
 41
0.003000
  0
VERTEX
  8
PLAN_1
 62
     5
  6
CONTINUOUS
 10
-2.060945
 20
1.313752
  0
VERTEX
  8
PLAN_1
 62
     5
  6
CONTINUOUS
 10
-2.060945
 20
1.321972
  0
SEQEND
  8
0
  0
POLYLINE
  8
PLAN_1
 62
     5
  6
CONTINUOUS
 66
     1
 40
0.003000
 41
0.003000
  0
VERTEX
  8
PLAN_1
 62
     5
  6
CONTINUOUS
 10
-2.060945
 20
1.330193
  0
VERTEX
  8
PLAN_1
 62
     5
  6
CONTINUOUS
 10
-2.060945
 20
1.338827
  0
SEQEND
  8
0
  0
POLYLINE
  8
PLAN_1
 62
     5
  6
CONTINUOUS
 66
     1
 40
0.003000
 41
0.003000
  0
VERTEX
  8
PLAN_1
 62
     5
  6
CONTINUOUS
 10
-2.060945
 20
1.347047
  0
VERTEX
  8
PLAN_1
 62
     5
  6
CONTINUOUS
 10
-2.060945
 20
1.355268
  0
SEQEND
  8
0
  0
POLYLINE
  8
PLAN_1
 62
     5
  6
CONTINUOUS
 66
     1
 40
0.003000
 41
0.003000
  0
VERTEX
  8
PLAN_1
 62
     5
  6
CONTINUOUS
 10
-2.060945
 20
1.363898
  0
VERTEX
  8
PLAN_1
 62
     5
  6
CONTINUOUS
 10
-2.060945
 20
1.372122
  0
SEQEND
  8
0
  0
POLYLINE
  8
PLAN_1
 62
     5
  6
CONTINUOUS
 66
     1
 40
0.003000
 41
0.003000
  0
VERTEX
  8
PLAN_1
 62
     5
  6
CONTINUOUS
 10
-2.060945
 20
1.380343
  0
VERTEX
  8
PLAN_1
 62
     5
  6
CONTINUOUS
 10
-2.060945
 20
1.388563
  0
SEQEND
  8
0
  0
POLYLINE
  8
PLAN_1
 62
     5
  6
CONTINUOUS
 66
     1
 40
0.003000
 41
0.003000
  0
VERTEX
  8
PLAN_1
 62
     5
  6
CONTINUOUS
 10
-2.060945
 20
1.397193
  0
VERTEX
  8
PLAN_1
 62
     5
  6
CONTINUOUS
 10
-2.060945
 20
1.405413
  0
SEQEND
  8
0
  0
POLYLINE
  8
PLAN_1
 62
     5
  6
CONTINUOUS
 66
     1
 40
0.003000
 41
0.003000
  0
VERTEX
  8
PLAN_1
 62
     5
  6
CONTINUOUS
 10
-2.060945
 20
1.413634
  0
VERTEX
  8
PLAN_1
 62
     5
  6
CONTINUOUS
 10
-2.060945
 20
1.421858
  0
SEQEND
  8
0
  0
POLYLINE
  8
PLAN_1
 62
     5
  6
CONTINUOUS
 66
     1
 40
0.003000
 41
0.003000
  0
VERTEX
  8
PLAN_1
 62
     5
  6
CONTINUOUS
 10
-2.060945
 20
1.430488
  0
VERTEX
  8
PLAN_1
 62
     5
  6
CONTINUOUS
 10
-2.060945
 20
1.438709
  0
SEQEND
  8
0
  0
POLYLINE
  8
PLAN_1
 62
     5
  6
CONTINUOUS
 66
     1
 40
0.003000
 41
0.003000
  0
VERTEX
  8
PLAN_1
 62
     5
  6
CONTINUOUS
 10
-2.060945
 20
1.446929
  0
VERTEX
  8
PLAN_1
 62
     5
  6
CONTINUOUS
 10
-2.060945
 20
1.455150
  0
SEQEND
  8
0
  0
POLYLINE
  8
PLAN_1
 62
     5
  6
CONTINUOUS
 66
     1
 40
0.003000
 41
0.003000
  0
VERTEX
  8
PLAN_1
 62
     5
  6
CONTINUOUS
 10
-2.060945
 20
1.463783
  0
VERTEX
  8
PLAN_1
 62
     5
  6
CONTINUOUS
 10
-2.060945
 20
1.472004
  0
SEQEND
  8
0
  0
POLYLINE
  8
PLAN_1
 62
     5
  6
CONTINUOUS
 66
     1
 40
0.003000
 41
0.003000
  0
VERTEX
  8
PLAN_1
 62
     5
  6
CONTINUOUS
 10
-2.060945
 20
1.480224
  0
VERTEX
  8
PLAN_1
 62
     5
  6
CONTINUOUS
 10
-2.060945
 20
1.488445
  0
SEQEND
  8
0
  0
POLYLINE
  8
PLAN_1
 62
     5
  6
CONTINUOUS
 66
     1
 40
0.003000
 41
0.003000
  0
VERTEX
  8
PLAN_1
 62
     5
  6
CONTINUOUS
 10
-2.059713
 20
1.495846
  0
VERTEX
  8
PLAN_1
 62
     5
  6
CONTINUOUS
 10
-2.051492
 20
1.495846
  0
SEQEND
  8
0
  0
POLYLINE
  8
PLAN_1
 62
     5
  6
CONTINUOUS
 66
     1
 40
0.003000
 41
0.003000
  0
VERTEX
  8
PLAN_1
 62
     5
  6
CONTINUOUS
 10
-2.042858
 20
1.495846
  0
VERTEX
  8
PLAN_1
 62
     5
  6
CONTINUOUS
 10
-2.034638
 20
1.495846
  0
SEQEND
  8
0
  0
POLYLINE
  8
PLAN_1
 62
     5
  6
CONTINUOUS
 66
     1
 40
0.003000
 41
0.003000
  0
VERTEX
  8
PLAN_1
 62
     5
  6
CONTINUOUS
 10
-2.026417
 20
1.495846
  0
VERTEX
  8
PLAN_1
 62
     5
  6
CONTINUOUS
 10
-2.018197
 20
1.495846
  0
SEQEND
  8
0
  0
POLYLINE
  8
PLAN_1
 62
     5
  6
CONTINUOUS
 66
     1
 40
0.003000
 41
0.003000
  0
VERTEX
  8
PLAN_1
 62
     5
  6
CONTINUOUS
 10
-2.009563
 20
1.495846
  0
VERTEX
  8
PLAN_1
 62
     5
  6
CONTINUOUS
 10
-2.001343
 20
1.495846
  0
SEQEND
  8
0
  0
POLYLINE
  8
PLAN_1
 62
     5
  6
CONTINUOUS
 66
     1
 40
0.003000
 41
0.003000
  0
VERTEX
  8
PLAN_1
 62
     5
  6
CONTINUOUS
 10
-1.993122
 20
1.495846
  0
VERTEX
  8
PLAN_1
 62
     5
  6
CONTINUOUS
 10
-1.984902
 20
1.495846
  0
SEQEND
  8
0
  0
POLYLINE
  8
PLAN_1
 62
     5
  6
CONTINUOUS
 66
     1
 40
0.003000
 41
0.003000
  0
VERTEX
  8
PLAN_1
 62
     5
  6
CONTINUOUS
 10
-1.976268
 20
1.495846
  0
VERTEX
  8
PLAN_1
 62
     5
  6
CONTINUOUS
 10
-1.968047
 20
1.495846
  0
SEQEND
  8
0
  0
POLYLINE
  8
PLAN_1
 62
     5
  6
CONTINUOUS
 66
     1
 40
0.003000
 41
0.003000
  0
VERTEX
  8
PLAN_1
 62
     5
  6
CONTINUOUS
 10
-1.959827
 20
1.495846
  0
VERTEX
  8
PLAN_1
 62
     5
  6
CONTINUOUS
 10
-1.951606
 20
1.495846
  0
SEQEND
  8
0
  0
POLYLINE
  8
PLAN_1
 62
     5
  6
CONTINUOUS
 66
     1
 40
0.003000
 41
0.003000
  0
VERTEX
  8
PLAN_1
 62
     5
  6
CONTINUOUS
 10
-1.942976
 20
1.495846
  0
VERTEX
  8
PLAN_1
 62
     5
  6
CONTINUOUS
 10
-1.934756
 20
1.495846
  0
SEQEND
  8
0
  0
POLYLINE
  8
PLAN_1
 62
     5
  6
CONTINUOUS
 66
     1
 40
0.003000
 41
0.003000
  0
VERTEX
  8
PLAN_1
 62
     5
  6
CONTINUOUS
 10
-1.926531
 20
1.495846
  0
VERTEX
  8
PLAN_1
 62
     5
  6
CONTINUOUS
 10
-1.917902
 20
1.495846
  0
SEQEND
  8
0
  0
POLYLINE
  8
PLAN_1
 62
     5
  6
CONTINUOUS
 66
     1
 40
0.003000
 41
0.003000
  0
VERTEX
  8
PLAN_1
 62
     5
  6
CONTINUOUS
 10
-1.909681
 20
1.495846
  0
VERTEX
  8
PLAN_1
 62
     5
  6
CONTINUOUS
 10
-1.901461
 20
1.495846
  0
SEQEND
  8
0
  0
POLYLINE
  8
PLAN_1
 62
     5
  6
CONTINUOUS
 66
     1
 40
0.003000
 41
0.003000
  0
VERTEX
  8
PLAN_1
 62
     5
  6
CONTINUOUS
 10
-1.893240
 20
1.495846
  0
VERTEX
  8
PLAN_1
 62
     5
  6
CONTINUOUS
 10
-1.884606
 20
1.495846
  0
SEQEND
  8
0
  0
POLYLINE
  8
PLAN_1
 62
     5
  6
CONTINUOUS
 66
     1
 40
0.003000
 41
0.003000
  0
VERTEX
  8
PLAN_1
 62
     5
  6
CONTINUOUS
 10
-1.876386
 20
1.495846
  0
VERTEX
  8
PLAN_1
 62
     5
  6
CONTINUOUS
 10
-1.868165
 20
1.495846
  0
SEQEND
  8
0
  0
POLYLINE
  8
PLAN_1
 62
     5
  6
CONTINUOUS
 66
     1
 40
0.003000
 41
0.003000
  0
VERTEX
  8
PLAN_1
 62
     5
  6
CONTINUOUS
 10
-1.859945
 20
1.495846
  0
VERTEX
  8
PLAN_1
 62
     5
  6
CONTINUOUS
 10
-1.851311
 20
1.495846
  0
SEQEND
  8
0
  0
POLYLINE
  8
PLAN_1
 62
     5
  6
CONTINUOUS
 66
     1
 40
0.003000
 41
0.003000
  0
VERTEX
  8
PLAN_1
 62
     5
  6
CONTINUOUS
 10
-1.843091
 20
1.495846
  0
VERTEX
  8
PLAN_1
 62
     5
  6
CONTINUOUS
 10
-1.834870
 20
1.495846
  0
SEQEND
  8
0
  0
POLYLINE
  8
PLAN_1
 62
     5
  6
CONTINUOUS
 66
     1
 40
0.003000
 41
0.003000
  0
VERTEX
  8
PLAN_1
 62
     5
  6
CONTINUOUS
 10
-1.826650
 20
1.495846
  0
VERTEX
  8
PLAN_1
 62
     5
  6
CONTINUOUS
 10
-1.818016
 20
1.495846
  0
SEQEND
  8
0
  0
POLYLINE
  8
PLAN_1
 62
     5
  6
CONTINUOUS
 66
     1
 40
0.003000
 41
0.003000
  0
VERTEX
  8
PLAN_1
 62
     5
  6
CONTINUOUS
 10
-1.809795
 20
1.495846
  0
VERTEX
  8
PLAN_1
 62
     5
  6
CONTINUOUS
 10
-1.801575
 20
1.495846
  0
SEQEND
  8
0
  0
POLYLINE
  8
PLAN_1
 62
     5
  6
CONTINUOUS
 66
     1
 40
0.003000
 41
0.003000
  0
VERTEX
  8
PLAN_1
 62
     5
  6
CONTINUOUS
 10
-1.800752
 20
1.503244
  0
VERTEX
  8
PLAN_1
 62
     5
  6
CONTINUOUS
 10
-1.800752
 20
1.511465
  0
SEQEND
  8
0
  0
POLYLINE
  8
PLAN_1
 62
     5
  6
CONTINUOUS
 66
     1
 40
0.003000
 41
0.003000
  0
VERTEX
  8
PLAN_1
 62
     5
  6
CONTINUOUS
 10
-1.800752
 20
1.519685
  0
VERTEX
  8
PLAN_1
 62
     5
  6
CONTINUOUS
 10
-1.800752
 20
1.528319
  0
SEQEND
  8
0
  0
POLYLINE
  8
PLAN_1
 62
     5
  6
CONTINUOUS
 66
     1
 40
0.003000
 41
0.003000
  0
VERTEX
  8
PLAN_1
 62
     5
  6
CONTINUOUS
 10
-1.800752
 20
1.536539
  0
VERTEX
  8
PLAN_1
 62
     5
  6
CONTINUOUS
 10
-1.800752
 20
1.544760
  0
SEQEND
  8
0
  0
POLYLINE
  8
PLAN_1
 62
     5
  6
CONTINUOUS
 66
     1
 40
0.003000
 41
0.003000
  0
VERTEX
  8
PLAN_1
 62
     5
  6
CONTINUOUS
 10
-1.800752
 20
1.553390
  0
VERTEX
  8
PLAN_1
 62
     5
  6
CONTINUOUS
 10
-1.800752
 20
1.561610
  0
SEQEND
  8
0
  0
POLYLINE
  8
PLAN_1
 62
     5
  6
CONTINUOUS
 66
     1
 40
0.003000
 41
0.003000
  0
VERTEX
  8
PLAN_1
 62
     5
  6
CONTINUOUS
 10
-1.800752
 20
1.569835
  0
VERTEX
  8
PLAN_1
 62
     5
  6
CONTINUOUS
 10
-1.800752
 20
1.578055
  0
SEQEND
  8
0
  0
POLYLINE
  8
PLAN_1
 62
     5
  6
CONTINUOUS
 66
     1
 40
0.003000
 41
0.003000
  0
VERTEX
  8
PLAN_1
 62
     5
  6
CONTINUOUS
 10
-1.800752
 20
1.586685
  0
VERTEX
  8
PLAN_1
 62
     5
  6
CONTINUOUS
 10
-1.800752
 20
1.594906
  0
SEQEND
  8
0
  0
POLYLINE
  8
PLAN_1
 62
     5
  6
CONTINUOUS
 66
     1
 40
0.003000
 41
0.003000
  0
VERTEX
  8
PLAN_1
 62
     5
  6
CONTINUOUS
 10
-1.800752
 20
1.603126
  0
VERTEX
  8
PLAN_1
 62
     5
  6
CONTINUOUS
 10
-1.800752
 20
1.611346
  0
SEQEND
  8
0
  0
POLYLINE
  8
PLAN_1
 62
     5
  6
CONTINUOUS
 66
     1
 40
0.003000
 41
0.003000
  0
VERTEX
  8
PLAN_1
 62
     5
  6
CONTINUOUS
 10
-1.800752
 20
1.619980
  0
VERTEX
  8
PLAN_1
 62
     5
  6
CONTINUOUS
 10
-1.800752
 20
1.628201
  0
SEQEND
  8
0
  0
POLYLINE
  8
PLAN_1
 62
     5
  6
CONTINUOUS
 66
     1
 40
0.003000
 41
0.003000
  0
VERTEX
  8
PLAN_1
 62
     5
  6
CONTINUOUS
 10
-1.800752
 20
1.636421
  0
VERTEX
  8
PLAN_1
 62
     5
  6
CONTINUOUS
 10
-1.800752
 20
1.644642
  0
SEQEND
  8
0
  0
POLYLINE
  8
PLAN_1
 62
     5
  6
CONTINUOUS
 66
     1
 40
0.003000
 41
0.003000
  0
VERTEX
  8
PLAN_1
 62
     5
  6
CONTINUOUS
 10
-1.800752
 20
1.653276
  0
VERTEX
  8
PLAN_1
 62
     5
  6
CONTINUOUS
 10
-1.800752
 20
1.661496
  0
SEQEND
  8
0
  0
POLYLINE
  8
PLAN_1
 62
     5
  6
CONTINUOUS
 66
     1
 40
0.003000
 41
0.003000
  0
VERTEX
  8
PLAN_1
 62
     5
  6
CONTINUOUS
 10
-1.800752
 20
1.669717
  0
VERTEX
  8
PLAN_1
 62
     5
  6
CONTINUOUS
 10
-1.800752
 20
1.677937
  0
SEQEND
  8
0
  0
POLYLINE
  8
PLAN_1
 62
     5
  6
CONTINUOUS
 66
     1
 40
0.003000
 41
0.003000
  0
VERTEX
  8
PLAN_1
 62
     5
  6
CONTINUOUS
 10
-1.800752
 20
1.686571
  0
VERTEX
  8
PLAN_1
 62
     5
  6
CONTINUOUS
 10
-1.800752
 20
1.694791
  0
SEQEND
  8
0
  0
POLYLINE
  8
PLAN_1
 62
     5
  6
CONTINUOUS
 66
     1
 40
0.003000
 41
0.003000
  0
VERTEX
  8
PLAN_1
 62
     5
  6
CONTINUOUS
 10
-1.800752
 20
1.703012
  0
VERTEX
  8
PLAN_1
 62
     5
  6
CONTINUOUS
 10
-1.800752
 20
1.711232
  0
SEQEND
  8
0
  0
POLYLINE
  8
PLAN_1
 62
     5
  6
CONTINUOUS
 66
     1
 40
0.003000
 41
0.003000
  0
VERTEX
  8
PLAN_1
 62
     5
  6
CONTINUOUS
 10
-1.800752
 20
1.719866
  0
VERTEX
  8
PLAN_1
 62
     5
  6
CONTINUOUS
 10
-1.800752
 20
1.728087
  0
SEQEND
  8
0
  0
POLYLINE
  8
PLAN_1
 62
     5
  6
CONTINUOUS
 66
     1
 40
0.003000
 41
0.003000
  0
VERTEX
  8
PLAN_1
 62
     5
  6
CONTINUOUS
 10
-1.800752
 20
1.736307
  0
VERTEX
  8
PLAN_1
 62
     5
  6
CONTINUOUS
 10
-1.800752
 20
1.744937
  0
SEQEND
  8
0
  0
POLYLINE
  8
PLAN_1
 62
     5
  6
CONTINUOUS
 66
     1
 40
0.003000
 41
0.003000
  0
VERTEX
  8
PLAN_1
 62
     5
  6
CONTINUOUS
 10
-1.800752
 20
1.753157
  0
VERTEX
  8
PLAN_1
 62
     5
  6
CONTINUOUS
 10
-1.800752
 20
1.761378
  0
SEQEND
  8
0
  0
POLYLINE
  8
PLAN_1
 62
     5
  6
CONTINUOUS
 66
     1
 40
0.003000
 41
0.003000
  0
VERTEX
  8
PLAN_1
 62
     5
  6
CONTINUOUS
 10
-1.800752
 20
1.769602
  0
VERTEX
  8
PLAN_1
 62
     5
  6
CONTINUOUS
 10
-1.800752
 20
1.778232
  0
SEQEND
  8
0
  0
POLYLINE
  8
PLAN_1
 62
     5
  6
CONTINUOUS
 66
     1
 40
0.003000
 41
0.003000
  0
VERTEX
  8
PLAN_1
 62
     5
  6
CONTINUOUS
 10
-1.800752
 20
1.786453
  0
VERTEX
  8
PLAN_1
 62
     5
  6
CONTINUOUS
 10
-1.800752
 20
1.794673
  0
SEQEND
  8
0
  0
POLYLINE
  8
PLAN_1
 62
     5
  6
CONTINUOUS
 66
     1
 40
0.003000
 41
0.003000
  0
VERTEX
  8
PLAN_1
 62
     5
  6
CONTINUOUS
 10
-1.800752
 20
1.802894
  0
VERTEX
  8
PLAN_1
 62
     5
  6
CONTINUOUS
 10
-1.800752
 20
1.811528
  0
SEQEND
  8
0
  0
POLYLINE
  8
PLAN_1
 62
     5
  6
CONTINUOUS
 66
     1
 40
0.003000
 41
0.003000
  0
VERTEX
  8
PLAN_1
 62
     5
  6
CONTINUOUS
 10
-1.800752
 20
1.819748
  0
VERTEX
  8
PLAN_1
 62
     5
  6
CONTINUOUS
 10
-1.800752
 20
1.827969
  0
SEQEND
  8
0
  0
POLYLINE
  8
PLAN_1
 62
     5
  6
CONTINUOUS
 66
     1
 40
0.003000
 41
0.003000
  0
VERTEX
  8
PLAN_1
 62
     5
  6
CONTINUOUS
 10
-1.800752
 20
1.836189
  0
VERTEX
  8
PLAN_1
 62
     5
  6
CONTINUOUS
 10
-1.800752
 20
1.844823
  0
SEQEND
  8
0
  0
POLYLINE
  8
PLAN_1
 62
     5
  6
CONTINUOUS
 66
     1
 40
0.003000
 41
0.003000
  0
VERTEX
  8
PLAN_1
 62
     5
  6
CONTINUOUS
 10
-1.800752
 20
1.853043
  0
VERTEX
  8
PLAN_1
 62
     5
  6
CONTINUOUS
 10
-1.800752
 20
1.861264
  0
SEQEND
  8
0
  0
POLYLINE
  8
PLAN_1
 62
     5
  6
CONTINUOUS
 66
     1
 40
0.003000
 41
0.003000
  0
VERTEX
  8
PLAN_1
 62
     5
  6
CONTINUOUS
 10
-1.800752
 20
1.869484
  0
VERTEX
  8
PLAN_1
 62
     5
  6
CONTINUOUS
 10
-1.800752
 20
1.878118
  0
SEQEND
  8
0
  0
POLYLINE
  8
PLAN_1
 62
     5
  6
CONTINUOUS
 66
     1
 40
0.003000
 41
0.003000
  0
VERTEX
  8
PLAN_1
 62
     5
  6
CONTINUOUS
 10
-1.800752
 20
1.886339
  0
VERTEX
  8
PLAN_1
 62
     5
  6
CONTINUOUS
 10
-1.800752
 20
1.894559
  0
SEQEND
  8
0
  0
POLYLINE
  8
PLAN_1
 62
     5
  6
CONTINUOUS
 66
     1
 40
0.003000
 41
0.003000
  0
VERTEX
  8
PLAN_1
 62
     5
  6
CONTINUOUS
 10
-1.796642
 20
1.898669
  0
VERTEX
  8
PLAN_1
 62
     5
  6
CONTINUOUS
 10
-1.788012
 20
1.898669
  0
SEQEND
  8
0
  0
POLYLINE
  8
PLAN_1
 62
     5
  6
CONTINUOUS
 66
     1
 40
0.003000
 41
0.003000
  0
VERTEX
  8
PLAN_1
 62
     5
  6
CONTINUOUS
 10
-1.779791
 20
1.898669
  0
VERTEX
  8
PLAN_1
 62
     5
  6
CONTINUOUS
 10
-1.771571
 20
1.898669
  0
SEQEND
  8
0
  0
POLYLINE
  8
PLAN_1
 62
     5
  6
CONTINUOUS
 66
     1
 40
0.003000
 41
0.003000
  0
VERTEX
  8
PLAN_1
 62
     5
  6
CONTINUOUS
 10
-1.762937
 20
1.898669
  0
VERTEX
  8
PLAN_1
 62
     5
  6
CONTINUOUS
 10
-1.754717
 20
1.898669
  0
SEQEND
  8
0
  0
POLYLINE
  8
PLAN_1
 62
     5
  6
CONTINUOUS
 66
     1
 40
0.003000
 41
0.003000
  0
VERTEX
  8
PLAN_1
 62
     5
  6
CONTINUOUS
 10
-1.746496
 20
1.898669
  0
VERTEX
  8
PLAN_1
 62
     5
  6
CONTINUOUS
 10
-1.738276
 20
1.898669
  0
SEQEND
  8
0
  0
POLYLINE
  8
PLAN_1
 62
     5
  6
CONTINUOUS
 66
     1
 40
0.003000
 41
0.003000
  0
VERTEX
  8
PLAN_1
 62
     5
  6
CONTINUOUS
 10
-1.729642
 20
1.898669
  0
VERTEX
  8
PLAN_1
 62
     5
  6
CONTINUOUS
 10
-1.721421
 20
1.898669
  0
SEQEND
  8
0
  0
POLYLINE
  8
PLAN_1
 62
     5
  6
CONTINUOUS
 66
     1
 40
0.003000
 41
0.003000
  0
VERTEX
  8
PLAN_1
 62
     5
  6
CONTINUOUS
 10
-1.713201
 20
1.898669
  0
VERTEX
  8
PLAN_1
 62
     5
  6
CONTINUOUS
 10
-1.704980
 20
1.898669
  0
SEQEND
  8
0
  0
POLYLINE
  8
PLAN_1
 62
     5
  6
CONTINUOUS
 66
     1
 40
0.003000
 41
0.003000
  0
VERTEX
  8
PLAN_1
 62
     5
  6
CONTINUOUS
 10
-1.696346
 20
1.898669
  0
VERTEX
  8
PLAN_1
 62
     5
  6
CONTINUOUS
 10
-1.688126
 20
1.898669
  0
SEQEND
  8
0
  0
POLYLINE
  8
PLAN_1
 62
     5
  6
CONTINUOUS
 66
     1
 40
0.003000
 41
0.003000
  0
VERTEX
  8
PLAN_1
 62
     5
  6
CONTINUOUS
 10
-1.679906
 20
1.898669
  0
VERTEX
  8
PLAN_1
 62
     5
  6
CONTINUOUS
 10
-1.671685
 20
1.898669
  0
SEQEND
  8
0
  0
POLYLINE
  8
PLAN_1
 62
     5
  6
CONTINUOUS
 66
     1
 40
0.003000
 41
0.003000
  0
VERTEX
  8
PLAN_1
 62
     5
  6
CONTINUOUS
 10
-1.663055
 20
1.898669
  0
VERTEX
  8
PLAN_1
 62
     5
  6
CONTINUOUS
 10
-1.654831
 20
1.898669
  0
SEQEND
  8
0
  0
POLYLINE
  8
PLAN_1
 62
     5
  6
CONTINUOUS
 66
     1
 40
0.003000
 41
0.003000
  0
VERTEX
  8
PLAN_1
 62
     5
  6
CONTINUOUS
 10
-1.646610
 20
1.898669
  0
VERTEX
  8
PLAN_1
 62
     5
  6
CONTINUOUS
 10
-1.638390
 20
1.898669
  0
SEQEND
  8
0
  0
POLYLINE
  8
PLAN_1
 62
     5
  6
CONTINUOUS
 66
     1
 40
0.003000
 41
0.003000
  0
VERTEX
  8
PLAN_1
 62
     5
  6
CONTINUOUS
 10
-1.629760
 20
1.898669
  0
VERTEX
  8
PLAN_1
 62
     5
  6
CONTINUOUS
 10
-1.621539
 20
1.898669
  0
SEQEND
  8
0
  0
POLYLINE
  8
PLAN_1
 62
     5
  6
CONTINUOUS
 66
     1
 40
0.003000
 41
0.003000
  0
VERTEX
  8
PLAN_1
 62
     5
  6
CONTINUOUS
 10
-1.613319
 20
1.898669
  0
VERTEX
  8
PLAN_1
 62
     5
  6
CONTINUOUS
 10
-1.604685
 20
1.898669
  0
SEQEND
  8
0
  0
POLYLINE
  8
PLAN_1
 62
     5
  6
CONTINUOUS
 66
     1
 40
0.003000
 41
0.003000
  0
VERTEX
  8
PLAN_1
 62
     5
  6
CONTINUOUS
 10
-1.596465
 20
1.898669
  0
VERTEX
  8
PLAN_1
 62
     5
  6
CONTINUOUS
 10
-1.588244
 20
1.898669
  0
SEQEND
  8
0
  0
POLYLINE
  8
PLAN_1
 62
     5
  6
CONTINUOUS
 66
     1
 40
0.003000
 41
0.003000
  0
VERTEX
  8
PLAN_1
 62
     5
  6
CONTINUOUS
 10
-1.580024
 20
1.898669
  0
VERTEX
  8
PLAN_1
 62
     5
  6
CONTINUOUS
 10
-1.571390
 20
1.898669
  0
SEQEND
  8
0
  0
POLYLINE
  8
PLAN_1
 62
     5
  6
CONTINUOUS
 66
     1
 40
0.003000
 41
0.003000
  0
VERTEX
  8
PLAN_1
 62
     5
  6
CONTINUOUS
 10
-1.563169
 20
1.898669
  0
VERTEX
  8
PLAN_1
 62
     5
  6
CONTINUOUS
 10
-1.554949
 20
1.898669
  0
SEQEND
  8
0
  0
POLYLINE
  8
PLAN_1
 62
     5
  6
CONTINUOUS
 66
     1
 40
0.003000
 41
0.003000
  0
VERTEX
  8
PLAN_1
 62
     5
  6
CONTINUOUS
 10
-1.546728
 20
1.898669
  0
VERTEX
  8
PLAN_1
 62
     5
  6
CONTINUOUS
 10
-1.538094
 20
1.898669
  0
SEQEND
  8
0
  0
POLYLINE
  8
PLAN_1
 62
     5
  6
CONTINUOUS
 66
     1
 40
0.003000
 41
0.003000
  0
VERTEX
  8
PLAN_1
 62
     5
  6
CONTINUOUS
 10
-1.529874
 20
1.898669
  0
VERTEX
  8
PLAN_1
 62
     5
  6
CONTINUOUS
 10
-1.521654
 20
1.898669
  0
SEQEND
  8
0
  0
POLYLINE
  8
PLAN_1
 62
     5
  6
CONTINUOUS
 66
     1
 40
0.003000
 41
0.003000
  0
VERTEX
  8
PLAN_1
 62
     5
  6
CONTINUOUS
 10
-1.513433
 20
1.898669
  0
VERTEX
  8
PLAN_1
 62
     5
  6
CONTINUOUS
 10
-1.504803
 20
1.898669
  0
SEQEND
  8
0
  0
POLYLINE
  8
PLAN_1
 62
     5
  6
CONTINUOUS
 66
     1
 40
0.003000
 41
0.003000
  0
VERTEX
  8
PLAN_1
 62
     5
  6
CONTINUOUS
 10
-1.496579
 20
1.898669
  0
VERTEX
  8
PLAN_1
 62
     5
  6
CONTINUOUS
 10
-1.488358
 20
1.898669
  0
SEQEND
  8
0
  0
POLYLINE
  8
PLAN_1
 62
     5
  6
CONTINUOUS
 66
     1
 40
0.003000
 41
0.003000
  0
VERTEX
  8
PLAN_1
 62
     5
  6
CONTINUOUS
 10
-1.480138
 20
1.898669
  0
VERTEX
  8
PLAN_1
 62
     5
  6
CONTINUOUS
 10
-1.471508
 20
1.898669
  0
SEQEND
  8
0
  0
POLYLINE
  8
PLAN_1
 62
     5
  6
CONTINUOUS
 66
     1
 40
0.003000
 41
0.003000
  0
VERTEX
  8
PLAN_1
 62
     5
  6
CONTINUOUS
 10
-1.463287
 20
1.898669
  0
VERTEX
  8
PLAN_1
 62
     5
  6
CONTINUOUS
 10
-1.455063
 20
1.898669
  0
SEQEND
  8
0
  0
POLYLINE
  8
PLAN_1
 62
     5
  6
CONTINUOUS
 66
     1
 40
0.003000
 41
0.003000
  0
VERTEX
  8
PLAN_1
 62
     5
  6
CONTINUOUS
 10
-1.446433
 20
1.898669
  0
VERTEX
  8
PLAN_1
 62
     5
  6
CONTINUOUS
 10
-1.438213
 20
1.898669
  0
SEQEND
  8
0
  0
POLYLINE
  8
PLAN_1
 62
     5
  6
CONTINUOUS
 66
     1
 40
0.003000
 41
0.003000
  0
VERTEX
  8
PLAN_1
 62
     5
  6
CONTINUOUS
 10
-1.429992
 20
1.898669
  0
VERTEX
  8
PLAN_1
 62
     5
  6
CONTINUOUS
 10
-1.421772
 20
1.898669
  0
SEQEND
  8
0
  0
POLYLINE
  8
PLAN_1
 62
     5
  6
CONTINUOUS
 66
     1
 40
0.003000
 41
0.003000
  0
VERTEX
  8
PLAN_1
 62
     5
  6
CONTINUOUS
 10
-1.413138
 20
1.898669
  0
VERTEX
  8
PLAN_1
 62
     5
  6
CONTINUOUS
 10
-1.404917
 20
1.898669
  0
SEQEND
  8
0
  0
POLYLINE
  8
PLAN_1
 62
     5
  6
CONTINUOUS
 66
     1
 40
0.003000
 41
0.003000
  0
VERTEX
  8
PLAN_1
 62
     5
  6
CONTINUOUS
 10
-1.396697
 20
1.898669
  0
VERTEX
  8
PLAN_1
 62
     5
  6
CONTINUOUS
 10
-1.388476
 20
1.898669
  0
SEQEND
  8
0
  0
POLYLINE
  8
PLAN_1
 62
     5
  6
CONTINUOUS
 66
     1
 40
0.003000
 41
0.003000
  0
VERTEX
  8
PLAN_1
 62
     5
  6
CONTINUOUS
 10
-1.379843
 20
1.898669
  0
VERTEX
  8
PLAN_1
 62
     5
  6
CONTINUOUS
 10
-1.371622
 20
1.898669
  0
SEQEND
  8
0
  0
POLYLINE
  8
PLAN_1
 62
     5
  6
CONTINUOUS
 66
     1
 40
0.003000
 41
0.003000
  0
VERTEX
  8
PLAN_1
 62
     5
  6
CONTINUOUS
 10
-1.363402
 20
1.898669
  0
VERTEX
  8
PLAN_1
 62
     5
  6
CONTINUOUS
 10
-1.355181
 20
1.898669
  0
SEQEND
  8
0
  0
POLYLINE
  8
PLAN_1
 62
     5
  6
CONTINUOUS
 66
     1
 40
0.003000
 41
0.003000
  0
VERTEX
  8
PLAN_1
 62
     5
  6
CONTINUOUS
 10
-1.346547
 20
1.898669
  0
VERTEX
  8
PLAN_1
 62
     5
  6
CONTINUOUS
 10
-1.338327
 20
1.898669
  0
SEQEND
  8
0
  0
POLYLINE
  8
PLAN_1
 62
     5
  6
CONTINUOUS
 66
     1
 40
0.003000
 41
0.003000
  0
VERTEX
  8
PLAN_1
 62
     5
  6
CONTINUOUS
 10
-1.330106
 20
1.898669
  0
VERTEX
  8
PLAN_1
 62
     5
  6
CONTINUOUS
 10
-1.321886
 20
1.898669
  0
SEQEND
  8
0
  0
POLYLINE
  8
PLAN_1
 62
     5
  6
CONTINUOUS
 66
     1
 40
0.003000
 41
0.003000
  0
VERTEX
  8
PLAN_1
 62
     5
  6
CONTINUOUS
 10
-1.313256
 20
1.898669
  0
VERTEX
  8
PLAN_1
 62
     5
  6
CONTINUOUS
 10
-1.305031
 20
1.898669
  0
SEQEND
  8
0
  0
POLYLINE
  8
PLAN_1
 62
     5
  6
CONTINUOUS
 66
     1
 40
0.003000
 41
0.003000
  0
VERTEX
  8
PLAN_1
 62
     5
  6
CONTINUOUS
 10
-1.296811
 20
1.898669
  0
VERTEX
  8
PLAN_1
 62
     5
  6
CONTINUOUS
 10
-1.288181
 20
1.898669
  0
SEQEND
  8
0
  0
POLYLINE
  8
PLAN_1
 62
     5
  6
CONTINUOUS
 66
     1
 40
0.003000
 41
0.003000
  0
VERTEX
  8
PLAN_1
 62
     5
  6
CONTINUOUS
 10
-1.279961
 20
1.898669
  0
VERTEX
  8
PLAN_1
 62
     5
  6
CONTINUOUS
 10
-1.271740
 20
1.898669
  0
SEQEND
  8
0
  0
POLYLINE
  8
PLAN_1
 62
     5
  6
CONTINUOUS
 66
     1
 40
0.003000
 41
0.003000
  0
VERTEX
  8
PLAN_1
 62
     5
  6
CONTINUOUS
 10
-1.263520
 20
1.898669
  0
VERTEX
  8
PLAN_1
 62
     5
  6
CONTINUOUS
 10
-1.254886
 20
1.898669
  0
SEQEND
  8
0
  0
POLYLINE
  8
PLAN_1
 62
     5
  6
CONTINUOUS
 66
     1
 40
0.003000
 41
0.003000
  0
VERTEX
  8
PLAN_1
 62
     5
  6
CONTINUOUS
 10
-1.246665
 20
1.898669
  0
VERTEX
  8
PLAN_1
 62
     5
  6
CONTINUOUS
 10
-1.238445
 20
1.898669
  0
SEQEND
  8
0
  0
POLYLINE
  8
PLAN_1
 62
     5
  6
CONTINUOUS
 66
     1
 40
0.003000
 41
0.003000
  0
VERTEX
  8
PLAN_1
 62
     5
  6
CONTINUOUS
 10
-1.230224
 20
1.898669
  0
VERTEX
  8
PLAN_1
 62
     5
  6
CONTINUOUS
 10
-1.221591
 20
1.898669
  0
SEQEND
  8
0
  0
POLYLINE
  8
PLAN_1
 62
     5
  6
CONTINUOUS
 66
     1
 40
0.003000
 41
0.003000
  0
VERTEX
  8
PLAN_1
 62
     5
  6
CONTINUOUS
 10
-1.213370
 20
1.898669
  0
VERTEX
  8
PLAN_1
 62
     5
  6
CONTINUOUS
 10
-1.205150
 20
1.898669
  0
SEQEND
  8
0
  0
POLYLINE
  8
PLAN_1
 62
     5
  6
CONTINUOUS
 66
     1
 40
0.003000
 41
0.003000
  0
VERTEX
  8
PLAN_1
 62
     5
  6
CONTINUOUS
 10
-1.196929
 20
1.898669
  0
VERTEX
  8
PLAN_1
 62
     5
  6
CONTINUOUS
 10
-1.188295
 20
1.898669
  0
SEQEND
  8
0
  0
POLYLINE
  8
PLAN_1
 62
     5
  6
CONTINUOUS
 66
     1
 40
0.003000
 41
0.003000
  0
VERTEX
  8
PLAN_1
 62
     5
  6
CONTINUOUS
 10
-1.180075
 20
1.898669
  0
VERTEX
  8
PLAN_1
 62
     5
  6
CONTINUOUS
 10
-1.171854
 20
1.898669
  0
SEQEND
  8
0
  0
POLYLINE
  8
PLAN_1
 62
     5
  6
CONTINUOUS
 66
     1
 40
0.003000
 41
0.003000
  0
VERTEX
  8
PLAN_1
 62
     5
  6
CONTINUOUS
 10
-1.163634
 20
1.898669
  0
VERTEX
  8
PLAN_1
 62
     5
  6
CONTINUOUS
 10
-1.155004
 20
1.898669
  0
SEQEND
  8
0
  0
POLYLINE
  8
PLAN_1
 62
     5
  6
CONTINUOUS
 66
     1
 40
0.003000
 41
0.003000
  0
VERTEX
  8
PLAN_1
 62
     5
  6
CONTINUOUS
 10
-1.146780
 20
1.898669
  0
VERTEX
  8
PLAN_1
 62
     5
  6
CONTINUOUS
 10
-1.138559
 20
1.898669
  0
SEQEND
  8
0
  0
POLYLINE
  8
PLAN_1
 62
     5
  6
CONTINUOUS
 66
     1
 40
0.003000
 41
0.003000
  0
VERTEX
  8
PLAN_1
 62
     5
  6
CONTINUOUS
 10
-1.130339
 20
1.898669
  0
VERTEX
  8
PLAN_1
 62
     5
  6
CONTINUOUS
 10
-1.121709
 20
1.898669
  0
SEQEND
  8
0
  0
POLYLINE
  8
PLAN_1
 62
     5
  6
CONTINUOUS
 66
     1
 40
0.003000
 41
0.003000
  0
VERTEX
  8
PLAN_1
 62
     5
  6
CONTINUOUS
 10
-1.113488
 20
1.898669
  0
VERTEX
  8
PLAN_1
 62
     5
  6
CONTINUOUS
 10
-1.105264
 20
1.898669
  0
SEQEND
  8
0
  0
POLYLINE
  8
PLAN_1
 62
     5
  6
CONTINUOUS
 66
     1
 40
0.003000
 41
0.003000
  0
VERTEX
  8
PLAN_1
 62
     5
  6
CONTINUOUS
 10
-1.096634
 20
1.898669
  0
VERTEX
  8
PLAN_1
 62
     5
  6
CONTINUOUS
 10
-1.088413
 20
1.898669
  0
SEQEND
  8
0
  0
POLYLINE
  8
PLAN_1
 62
     5
  6
CONTINUOUS
 66
     1
 40
0.003000
 41
0.003000
  0
VERTEX
  8
PLAN_1
 62
     5
  6
CONTINUOUS
 10
-1.080193
 20
1.898669
  0
VERTEX
  8
PLAN_1
 62
     5
  6
CONTINUOUS
 10
-1.071972
 20
1.898669
  0
SEQEND
  8
0
  0
POLYLINE
  8
PLAN_1
 62
     5
  6
CONTINUOUS
 66
     1
 40
0.003000
 41
0.003000
  0
VERTEX
  8
PLAN_1
 62
     5
  6
CONTINUOUS
 10
-1.063339
 20
1.898669
  0
VERTEX
  8
PLAN_1
 62
     5
  6
CONTINUOUS
 10
-1.055118
 20
1.898669
  0
SEQEND
  8
0
  0
POLYLINE
  8
PLAN_1
 62
     5
  6
CONTINUOUS
 66
     1
 40
0.003000
 41
0.003000
  0
VERTEX
  8
PLAN_1
 62
     5
  6
CONTINUOUS
 10
-1.046898
 20
1.898669
  0
VERTEX
  8
PLAN_1
 62
     5
  6
CONTINUOUS
 10
-1.038677
 20
1.898669
  0
SEQEND
  8
0
  0
POLYLINE
  8
PLAN_1
 62
     5
  6
CONTINUOUS
 66
     1
 40
0.003000
 41
0.003000
  0
VERTEX
  8
PLAN_1
 62
     5
  6
CONTINUOUS
 10
-1.030043
 20
1.898669
  0
VERTEX
  8
PLAN_1
 62
     5
  6
CONTINUOUS
 10
-1.021823
 20
1.898669
  0
SEQEND
  8
0
  0
POLYLINE
  8
PLAN_1
 62
     5
  6
CONTINUOUS
 66
     1
 40
0.003000
 41
0.003000
  0
VERTEX
  8
PLAN_1
 62
     5
  6
CONTINUOUS
 10
-1.013602
 20
1.898669
  0
VERTEX
  8
PLAN_1
 62
     5
  6
CONTINUOUS
 10
-1.005382
 20
1.898669
  0
SEQEND
  8
0
  0
POLYLINE
  8
PLAN_1
 62
     5
  6
CONTINUOUS
 66
     1
 40
0.003000
 41
0.003000
  0
VERTEX
  8
PLAN_1
 62
     5
  6
CONTINUOUS
 10
-0.996748
 20
1.898669
  0
VERTEX
  8
PLAN_1
 62
     5
  6
CONTINUOUS
 10
-0.988528
 20
1.898669
  0
SEQEND
  8
0
  0
POLYLINE
  8
PLAN_1
 62
     5
  6
CONTINUOUS
 66
     1
 40
0.003000
 41
0.003000
  0
VERTEX
  8
PLAN_1
 62
     5
  6
CONTINUOUS
 10
-0.980307
 20
1.898669
  0
VERTEX
  8
PLAN_1
 62
     5
  6
CONTINUOUS
 10
-0.972087
 20
1.898669
  0
SEQEND
  8
0
  0
POLYLINE
  8
PLAN_1
 62
     5
  6
CONTINUOUS
 66
     1
 40
0.003000
 41
0.003000
  0
VERTEX
  8
PLAN_1
 62
     5
  6
CONTINUOUS
 10
-0.963457
 20
1.898669
  0
VERTEX
  8
PLAN_1
 62
     5
  6
CONTINUOUS
 10
-0.955236
 20
1.898669
  0
SEQEND
  8
0
  0
POLYLINE
  8
PLAN_1
 62
     5
  6
CONTINUOUS
 66
     1
 40
0.003000
 41
0.003000
  0
VERTEX
  8
PLAN_1
 62
     5
  6
CONTINUOUS
 10
-0.947012
 20
1.898669
  0
VERTEX
  8
PLAN_1
 62
     5
  6
CONTINUOUS
 10
-0.938382
 20
1.898669
  0
SEQEND
  8
0
  0
POLYLINE
  8
PLAN_1
 62
     5
  6
CONTINUOUS
 66
     1
 40
0.003000
 41
0.003000
  0
VERTEX
  8
PLAN_1
 62
     5
  6
CONTINUOUS
 10
-0.930161
 20
1.898669
  0
VERTEX
  8
PLAN_1
 62
     5
  6
CONTINUOUS
 10
-0.921941
 20
1.898669
  0
SEQEND
  8
0
  0
POLYLINE
  8
PLAN_1
 62
     5
  6
CONTINUOUS
 66
     1
 40
0.003000
 41
0.003000
  0
VERTEX
  8
PLAN_1
 62
     5
  6
CONTINUOUS
 10
-0.913720
 20
1.898669
  0
VERTEX
  8
PLAN_1
 62
     5
  6
CONTINUOUS
 10
-0.905087
 20
1.898669
  0
SEQEND
  8
0
  0
POLYLINE
  8
PLAN_1
 62
     5
  6
CONTINUOUS
 66
     1
 40
0.003000
 41
0.003000
  0
VERTEX
  8
PLAN_1
 62
     5
  6
CONTINUOUS
 10
-0.896866
 20
1.898669
  0
VERTEX
  8
PLAN_1
 62
     5
  6
CONTINUOUS
 10
-0.888646
 20
1.898669
  0
SEQEND
  8
0
  0
POLYLINE
  8
PLAN_1
 62
     5
  6
CONTINUOUS
 66
     1
 40
0.003000
 41
0.003000
  0
VERTEX
  8
PLAN_1
 62
     5
  6
CONTINUOUS
 10
-0.880425
 20
1.898669
  0
VERTEX
  8
PLAN_1
 62
     5
  6
CONTINUOUS
 10
-0.871791
 20
1.898669
  0
SEQEND
  8
0
  0
POLYLINE
  8
PLAN_1
 62
     5
  6
CONTINUOUS
 66
     1
 40
0.003000
 41
0.003000
  0
VERTEX
  8
PLAN_1
 62
     5
  6
CONTINUOUS
 10
-0.863571
 20
1.898669
  0
VERTEX
  8
PLAN_1
 62
     5
  6
CONTINUOUS
 10
-0.855350
 20
1.898669
  0
SEQEND
  8
0
  0
POLYLINE
  8
PLAN_1
 62
     5
  6
CONTINUOUS
 66
     1
 40
0.003000
 41
0.003000
  0
VERTEX
  8
PLAN_1
 62
     5
  6
CONTINUOUS
 10
-0.847130
 20
1.898669
  0
VERTEX
  8
PLAN_1
 62
     5
  6
CONTINUOUS
 10
-0.838496
 20
1.898669
  0
SEQEND
  8
0
  0
POLYLINE
  8
PLAN_1
 62
     5
  6
CONTINUOUS
 66
     1
 40
0.003000
 41
0.003000
  0
VERTEX
  8
PLAN_1
 62
     5
  6
CONTINUOUS
 10
-0.830276
 20
1.898669
  0
VERTEX
  8
PLAN_1
 62
     5
  6
CONTINUOUS
 10
-0.822055
 20
1.898669
  0
SEQEND
  8
0
  0
POLYLINE
  8
PLAN_1
 62
     5
  6
CONTINUOUS
 66
     1
 40
0.003000
 41
0.003000
  0
VERTEX
  8
PLAN_1
 62
     5
  6
CONTINUOUS
 10
-0.813835
 20
1.898669
  0
VERTEX
  8
PLAN_1
 62
     5
  6
CONTINUOUS
 10
-0.805205
 20
1.898669
  0
SEQEND
  8
0
  0
POLYLINE
  8
PLAN_1
 62
     5
  6
CONTINUOUS
 66
     1
 40
0.003000
 41
0.003000
  0
VERTEX
  8
PLAN_1
 62
     5
  6
CONTINUOUS
 10
-0.796980
 20
1.898669
  0
VERTEX
  8
PLAN_1
 62
     5
  6
CONTINUOUS
 10
-0.788760
 20
1.898669
  0
SEQEND
  8
0
  0
POLYLINE
  8
PLAN_1
 62
     5
  6
CONTINUOUS
 66
     1
 40
0.003000
 41
0.003000
  0
VERTEX
  8
PLAN_1
 62
     5
  6
CONTINUOUS
 10
-0.780130
 20
1.898669
  0
VERTEX
  8
PLAN_1
 62
     5
  6
CONTINUOUS
 10
-0.771909
 20
1.898669
  0
SEQEND
  8
0
  0
POLYLINE
  8
PLAN_1
 62
     5
  6
CONTINUOUS
 66
     1
 40
0.003000
 41
0.003000
  0
VERTEX
  8
PLAN_1
 62
     5
  6
CONTINUOUS
 10
-0.763689
 20
1.898669
  0
VERTEX
  8
PLAN_1
 62
     5
  6
CONTINUOUS
 10
-0.755469
 20
1.898669
  0
SEQEND
  8
0
  0
POLYLINE
  8
PLAN_1
 62
     5
  6
CONTINUOUS
 66
     1
 40
0.003000
 41
0.003000
  0
VERTEX
  8
PLAN_1
 62
     5
  6
CONTINUOUS
 10
-0.746835
 20
1.898669
  0
VERTEX
  8
PLAN_1
 62
     5
  6
CONTINUOUS
 10
-0.738614
 20
1.898669
  0
SEQEND
  8
0
  0
POLYLINE
  8
PLAN_1
 62
     5
  6
CONTINUOUS
 66
     1
 40
0.003000
 41
0.003000
  0
VERTEX
  8
PLAN_1
 62
     5
  6
CONTINUOUS
 10
-0.730394
 20
1.898669
  0
VERTEX
  8
PLAN_1
 62
     5
  6
CONTINUOUS
 10
-0.722173
 20
1.898669
  0
SEQEND
  8
0
  0
POLYLINE
  8
PLAN_1
 62
     5
  6
CONTINUOUS
 66
     1
 40
0.003000
 41
0.003000
  0
VERTEX
  8
PLAN_1
 62
     5
  6
CONTINUOUS
 10
-0.713539
 20
1.898669
  0
VERTEX
  8
PLAN_1
 62
     5
  6
CONTINUOUS
 10
-0.705319
 20
1.898669
  0
SEQEND
  8
0
  0
POLYLINE
  8
PLAN_1
 62
     5
  6
CONTINUOUS
 66
     1
 40
0.003000
 41
0.003000
  0
VERTEX
  8
PLAN_1
 62
     5
  6
CONTINUOUS
 10
-0.697098
 20
1.898669
  0
VERTEX
  8
PLAN_1
 62
     5
  6
CONTINUOUS
 10
-0.688878
 20
1.898669
  0
SEQEND
  8
0
  0
POLYLINE
  8
PLAN_1
 62
     5
  6
CONTINUOUS
 66
     1
 40
0.003000
 41
0.003000
  0
VERTEX
  8
PLAN_1
 62
     5
  6
CONTINUOUS
 10
-0.680244
 20
1.898669
  0
VERTEX
  8
PLAN_1
 62
     5
  6
CONTINUOUS
 10
-0.672024
 20
1.898669
  0
SEQEND
  8
0
  0
POLYLINE
  8
PLAN_1
 62
     5
  6
CONTINUOUS
 66
     1
 40
0.003000
 41
0.003000
  0
VERTEX
  8
PLAN_1
 62
     5
  6
CONTINUOUS
 10
-0.663803
 20
1.898669
  0
VERTEX
  8
PLAN_1
 62
     5
  6
CONTINUOUS
 10
-0.655583
 20
1.898669
  0
SEQEND
  8
0
  0
POLYLINE
  8
PLAN_1
 62
     5
  6
CONTINUOUS
 66
     1
 40
0.003000
 41
0.003000
  0
VERTEX
  8
PLAN_1
 62
     5
  6
CONTINUOUS
 10
-0.646949
 20
1.898669
  0
VERTEX
  8
PLAN_1
 62
     5
  6
CONTINUOUS
 10
-0.638728
 20
1.898669
  0
SEQEND
  8
0
  0
POLYLINE
  8
PLAN_1
 62
     5
  6
CONTINUOUS
 66
     1
 40
0.003000
 41
0.003000
  0
VERTEX
  8
PLAN_1
 62
     5
  6
CONTINUOUS
 10
-0.630508
 20
1.898669
  0
VERTEX
  8
PLAN_1
 62
     5
  6
CONTINUOUS
 10
-0.621878
 20
1.898669
  0
SEQEND
  8
0
  0
POLYLINE
  8
PLAN_1
 62
     5
  6
CONTINUOUS
 66
     1
 40
0.003000
 41
0.003000
  0
VERTEX
  8
PLAN_1
 62
     5
  6
CONTINUOUS
 10
-0.613657
 20
1.898669
  0
VERTEX
  8
PLAN_1
 62
     5
  6
CONTINUOUS
 10
-0.605437
 20
1.898669
  0
SEQEND
  8
0
  0
POLYLINE
  8
PLAN_1
 62
     5
  6
CONTINUOUS
 66
     1
 40
0.003000
 41
0.003000
  0
VERTEX
  8
PLAN_1
 62
     5
  6
CONTINUOUS
 10
-0.597213
 20
1.898669
  0
VERTEX
  8
PLAN_1
 62
     5
  6
CONTINUOUS
 10
-0.588583
 20
1.898669
  0
SEQEND
  8
0
  0
POLYLINE
  8
PLAN_1
 62
     5
  6
CONTINUOUS
 66
     1
 40
0.003000
 41
0.003000
  0
VERTEX
  8
PLAN_1
 62
     5
  6
CONTINUOUS
 10
-0.586114
 20
1.892913
  0
VERTEX
  8
PLAN_1
 62
     5
  6
CONTINUOUS
 10
-0.586114
 20
1.884693
  0
SEQEND
  8
0
  0
POLYLINE
  8
PLAN_1
 62
     5
  6
CONTINUOUS
 66
     1
 40
0.003000
 41
0.003000
  0
VERTEX
  8
PLAN_1
 62
     5
  6
CONTINUOUS
 10
-0.586114
 20
1.876063
  0
VERTEX
  8
PLAN_1
 62
     5
  6
CONTINUOUS
 10
-0.586114
 20
1.867839
  0
SEQEND
  8
0
  0
POLYLINE
  8
PLAN_1
 62
     5
  6
CONTINUOUS
 66
     1
 40
0.003000
 41
0.003000
  0
VERTEX
  8
PLAN_1
 62
     5
  6
CONTINUOUS
 10
-0.586114
 20
1.859618
  0
VERTEX
  8
PLAN_1
 62
     5
  6
CONTINUOUS
 10
-0.586114
 20
1.851398
  0
SEQEND
  8
0
  0
POLYLINE
  8
PLAN_1
 62
     5
  6
CONTINUOUS
 66
     1
 40
0.003000
 41
0.003000
  0
VERTEX
  8
PLAN_1
 62
     5
  6
CONTINUOUS
 10
-0.586114
 20
1.842768
  0
VERTEX
  8
PLAN_1
 62
     5
  6
CONTINUOUS
 10
-0.586114
 20
1.834547
  0
SEQEND
  8
0
  0
POLYLINE
  8
PLAN_1
 62
     5
  6
CONTINUOUS
 66
     1
 40
0.003000
 41
0.003000
  0
VERTEX
  8
PLAN_1
 62
     5
  6
CONTINUOUS
 10
-0.586114
 20
1.826323
  0
VERTEX
  8
PLAN_1
 62
     5
  6
CONTINUOUS
 10
-0.586114
 20
1.818102
  0
SEQEND
  8
0
  0
POLYLINE
  8
PLAN_1
 62
     5
  6
CONTINUOUS
 66
     1
 40
0.003000
 41
0.003000
  0
VERTEX
  8
PLAN_1
 62
     5
  6
CONTINUOUS
 10
-0.586114
 20
1.809472
  0
VERTEX
  8
PLAN_1
 62
     5
  6
CONTINUOUS
 10
-0.586114
 20
1.801252
  0
SEQEND
  8
0
  0
POLYLINE
  8
PLAN_1
 62
     5
  6
CONTINUOUS
 66
     1
 40
0.003000
 41
0.003000
  0
VERTEX
  8
PLAN_1
 62
     5
  6
CONTINUOUS
 10
-0.586114
 20
1.793031
  0
VERTEX
  8
PLAN_1
 62
     5
  6
CONTINUOUS
 10
-0.586114
 20
1.784811
  0
SEQEND
  8
0
  0
POLYLINE
  8
PLAN_1
 62
     5
  6
CONTINUOUS
 66
     1
 40
0.003000
 41
0.003000
  0
VERTEX
  8
PLAN_1
 62
     5
  6
CONTINUOUS
 10
-0.586114
 20
1.776177
  0
VERTEX
  8
PLAN_1
 62
     5
  6
CONTINUOUS
 10
-0.586114
 20
1.767957
  0
SEQEND
  8
0
  0
POLYLINE
  8
PLAN_1
 62
     5
  6
CONTINUOUS
 66
     1
 40
0.003000
 41
0.003000
  0
VERTEX
  8
PLAN_1
 62
     5
  6
CONTINUOUS
 10
-0.586114
 20
1.759736
  0
VERTEX
  8
PLAN_1
 62
     5
  6
CONTINUOUS
 10
-0.586114
 20
1.751102
  0
SEQEND
  8
0
  0
POLYLINE
  8
PLAN_1
 62
     5
  6
CONTINUOUS
 66
     1
 40
0.003000
 41
0.003000
  0
VERTEX
  8
PLAN_1
 62
     5
  6
CONTINUOUS
 10
-0.586114
 20
1.742882
  0
VERTEX
  8
PLAN_1
 62
     5
  6
CONTINUOUS
 10
-0.586114
 20
1.734661
  0
SEQEND
  8
0
  0
POLYLINE
  8
PLAN_1
 62
     5
  6
CONTINUOUS
 66
     1
 40
0.003000
 41
0.003000
  0
VERTEX
  8
PLAN_1
 62
     5
  6
CONTINUOUS
 10
-0.586114
 20
1.726441
  0
VERTEX
  8
PLAN_1
 62
     5
  6
CONTINUOUS
 10
-0.586114
 20
1.717807
  0
SEQEND
  8
0
  0
POLYLINE
  8
PLAN_1
 62
     5
  6
CONTINUOUS
 66
     1
 40
0.003000
 41
0.003000
  0
VERTEX
  8
PLAN_1
 62
     5
  6
CONTINUOUS
 10
-0.586114
 20
1.709587
  0
VERTEX
  8
PLAN_1
 62
     5
  6
CONTINUOUS
 10
-0.586114
 20
1.701366
  0
SEQEND
  8
0
  0
POLYLINE
  8
PLAN_1
 62
     5
  6
CONTINUOUS
 66
     1
 40
0.003000
 41
0.003000
  0
VERTEX
  8
PLAN_1
 62
     5
  6
CONTINUOUS
 10
-0.586114
 20
1.693146
  0
VERTEX
  8
PLAN_1
 62
     5
  6
CONTINUOUS
 10
-0.586114
 20
1.684516
  0
SEQEND
  8
0
  0
POLYLINE
  8
PLAN_1
 62
     5
  6
CONTINUOUS
 66
     1
 40
0.003000
 41
0.003000
  0
VERTEX
  8
PLAN_1
 62
     5
  6
CONTINUOUS
 10
-0.586114
 20
1.676295
  0
VERTEX
  8
PLAN_1
 62
     5
  6
CONTINUOUS
 10
-0.586114
 20
1.668071
  0
SEQEND
  8
0
  0
POLYLINE
  8
PLAN_1
 62
     5
  6
CONTINUOUS
 66
     1
 40
0.003000
 41
0.003000
  0
VERTEX
  8
PLAN_1
 62
     5
  6
CONTINUOUS
 10
-0.586114
 20
1.659850
  0
VERTEX
  8
PLAN_1
 62
     5
  6
CONTINUOUS
 10
-0.586114
 20
1.651220
  0
SEQEND
  8
0
  0
POLYLINE
  8
PLAN_1
 62
     5
  6
CONTINUOUS
 66
     1
 40
0.003000
 41
0.003000
  0
VERTEX
  8
PLAN_1
 62
     5
  6
CONTINUOUS
 10
-0.586114
 20
1.643000
  0
VERTEX
  8
PLAN_1
 62
     5
  6
CONTINUOUS
 10
-0.586114
 20
1.634780
  0
SEQEND
  8
0
  0
POLYLINE
  8
PLAN_1
 62
     5
  6
CONTINUOUS
 66
     1
 40
0.003000
 41
0.003000
  0
VERTEX
  8
PLAN_1
 62
     5
  6
CONTINUOUS
 10
-0.586114
 20
1.626555
  0
VERTEX
  8
PLAN_1
 62
     5
  6
CONTINUOUS
 10
-0.586114
 20
1.617925
  0
SEQEND
  8
0
  0
POLYLINE
  8
PLAN_1
 62
     5
  6
CONTINUOUS
 66
     1
 40
0.003000
 41
0.003000
  0
VERTEX
  8
PLAN_1
 62
     5
  6
CONTINUOUS
 10
-0.586114
 20
1.609705
  0
VERTEX
  8
PLAN_1
 62
     5
  6
CONTINUOUS
 10
-0.586114
 20
1.601484
  0
SEQEND
  8
0
  0
POLYLINE
  8
PLAN_1
 62
     5
  6
CONTINUOUS
 66
     1
 40
0.003000
 41
0.003000
  0
VERTEX
  8
PLAN_1
 62
     5
  6
CONTINUOUS
 10
-0.586114
 20
1.593264
  0
VERTEX
  8
PLAN_1
 62
     5
  6
CONTINUOUS
 10
-0.586114
 20
1.584630
  0
SEQEND
  8
0
  0
POLYLINE
  8
PLAN_1
 62
     5
  6
CONTINUOUS
 66
     1
 40
0.003000
 41
0.003000
  0
VERTEX
  8
PLAN_1
 62
     5
  6
CONTINUOUS
 10
-0.586114
 20
1.576409
  0
VERTEX
  8
PLAN_1
 62
     5
  6
CONTINUOUS
 10
-0.586114
 20
1.568189
  0
SEQEND
  8
0
  0
POLYLINE
  8
PLAN_1
 62
     5
  6
CONTINUOUS
 66
     1
 40
0.003000
 41
0.003000
  0
VERTEX
  8
PLAN_1
 62
     5
  6
CONTINUOUS
 10
-0.586114
 20
1.559555
  0
VERTEX
  8
PLAN_1
 62
     5
  6
CONTINUOUS
 10
-0.586114
 20
1.551335
  0
SEQEND
  8
0
  0
POLYLINE
  8
PLAN_1
 62
     5
  6
CONTINUOUS
 66
     1
 40
0.003000
 41
0.003000
  0
VERTEX
  8
PLAN_1
 62
     5
  6
CONTINUOUS
 10
-0.586114
 20
1.543114
  0
VERTEX
  8
PLAN_1
 62
     5
  6
CONTINUOUS
 10
-0.586114
 20
1.534894
  0
SEQEND
  8
0
  0
POLYLINE
  8
PLAN_1
 62
     5
  6
CONTINUOUS
 66
     1
 40
0.003000
 41
0.003000
  0
VERTEX
  8
PLAN_1
 62
     5
  6
CONTINUOUS
 10
-0.586114
 20
1.526264
  0
VERTEX
  8
PLAN_1
 62
     5
  6
CONTINUOUS
 10
-0.586114
 20
1.518039
  0
SEQEND
  8
0
  0
POLYLINE
  8
PLAN_1
 62
     5
  6
CONTINUOUS
 66
     1
 40
0.003000
 41
0.003000
  0
VERTEX
  8
PLAN_1
 62
     5
  6
CONTINUOUS
 10
-0.586114
 20
1.509819
  0
VERTEX
  8
PLAN_1
 62
     5
  6
CONTINUOUS
 10
-0.586114
 20
1.501598
  0
SEQEND
  8
0
  0
POLYLINE
  8
PLAN_1
 62
     5
  6
CONTINUOUS
 66
     1
 40
0.003000
 41
0.003000
  0
VERTEX
  8
PLAN_1
 62
     5
  6
CONTINUOUS
 10
-0.586114
 20
1.492969
  0
VERTEX
  8
PLAN_1
 62
     5
  6
CONTINUOUS
 10
-0.586114
 20
1.484748
  0
SEQEND
  8
0
  0
POLYLINE
  8
PLAN_1
 62
     5
  6
CONTINUOUS
 66
     1
 40
0.003000
 41
0.003000
  0
VERTEX
  8
PLAN_1
 62
     5
  6
CONTINUOUS
 10
-0.586114
 20
1.476528
  0
VERTEX
  8
PLAN_1
 62
     5
  6
CONTINUOUS
 10
-0.586114
 20
1.468303
  0
SEQEND
  8
0
  0
POLYLINE
  8
PLAN_1
 62
     5
  6
CONTINUOUS
 66
     1
 40
0.003000
 41
0.003000
  0
VERTEX
  8
PLAN_1
 62
     5
  6
CONTINUOUS
 10
-0.586114
 20
1.459673
  0
VERTEX
  8
PLAN_1
 62
     5
  6
CONTINUOUS
 10
-0.586114
 20
1.451453
  0
SEQEND
  8
0
  0
POLYLINE
  8
PLAN_1
 62
     5
  6
CONTINUOUS
 66
     1
 40
0.003000
 41
0.003000
  0
VERTEX
  8
PLAN_1
 62
     5
  6
CONTINUOUS
 10
-0.586114
 20
1.443232
  0
VERTEX
  8
PLAN_1
 62
     5
  6
CONTINUOUS
 10
-0.586114
 20
1.435012
  0
SEQEND
  8
0
  0
POLYLINE
  8
PLAN_1
 62
     5
  6
CONTINUOUS
 66
     1
 40
0.003000
 41
0.003000
  0
VERTEX
  8
PLAN_1
 62
     5
  6
CONTINUOUS
 10
-0.586114
 20
1.426378
  0
VERTEX
  8
PLAN_1
 62
     5
  6
CONTINUOUS
 10
-0.586114
 20
1.418157
  0
SEQEND
  8
0
  0
POLYLINE
  8
PLAN_1
 62
     5
  6
CONTINUOUS
 66
     1
 40
0.003000
 41
0.003000
  0
VERTEX
  8
PLAN_1
 62
     5
  6
CONTINUOUS
 10
-0.586114
 20
1.409937
  0
VERTEX
  8
PLAN_1
 62
     5
  6
CONTINUOUS
 10
-0.586114
 20
1.401303
  0
SEQEND
  8
0
  0
POLYLINE
  8
PLAN_1
 62
     5
  6
CONTINUOUS
 66
     1
 40
0.003000
 41
0.003000
  0
VERTEX
  8
PLAN_1
 62
     5
  6
CONTINUOUS
 10
-0.586114
 20
1.393083
  0
VERTEX
  8
PLAN_1
 62
     5
  6
CONTINUOUS
 10
-0.586114
 20
1.384862
  0
SEQEND
  8
0
  0
POLYLINE
  8
PLAN_1
 62
     5
  6
CONTINUOUS
 66
     1
 40
0.003000
 41
0.003000
  0
VERTEX
  8
PLAN_1
 62
     5
  6
CONTINUOUS
 10
-0.586114
 20
1.376642
  0
VERTEX
  8
PLAN_1
 62
     5
  6
CONTINUOUS
 10
-0.586114
 20
1.368012
  0
SEQEND
  8
0
  0
POLYLINE
  8
PLAN_1
 62
     5
  6
CONTINUOUS
 66
     1
 40
0.003000
 41
0.003000
  0
VERTEX
  8
PLAN_1
 62
     5
  6
CONTINUOUS
 10
-0.586114
 20
1.359787
  0
VERTEX
  8
PLAN_1
 62
     5
  6
CONTINUOUS
 10
-0.586114
 20
1.351567
  0
SEQEND
  8
0
  0
POLYLINE
  8
PLAN_1
 62
     5
  6
CONTINUOUS
 66
     1
 40
0.003000
 41
0.003000
  0
VERTEX
  8
PLAN_1
 62
     5
  6
CONTINUOUS
 10
-0.586114
 20
1.343346
  0
VERTEX
  8
PLAN_1
 62
     5
  6
CONTINUOUS
 10
-0.586114
 20
1.334717
  0
SEQEND
  8
0
  0
POLYLINE
  8
PLAN_1
 62
     5
  6
CONTINUOUS
 66
     1
 40
0.003000
 41
0.003000
  0
VERTEX
  8
PLAN_1
 62
     5
  6
CONTINUOUS
 10
-0.586114
 20
1.326496
  0
VERTEX
  8
PLAN_1
 62
     5
  6
CONTINUOUS
 10
-0.586114
 20
1.318272
  0
SEQEND
  8
0
  0
POLYLINE
  8
PLAN_1
 62
     5
  6
CONTINUOUS
 66
     1
 40
0.003000
 41
0.003000
  0
VERTEX
  8
PLAN_1
 62
     5
  6
CONTINUOUS
 10
-0.586114
 20
1.310051
  0
VERTEX
  8
PLAN_1
 62
     5
  6
CONTINUOUS
 10
-0.586114
 20
1.301421
  0
SEQEND
  8
0
  0
POLYLINE
  8
PLAN_1
 62
     5
  6
CONTINUOUS
 66
     1
 40
0.003000
 41
0.003000
  0
VERTEX
  8
PLAN_1
 62
     5
  6
CONTINUOUS
 10
-0.586114
 20
1.293201
  0
VERTEX
  8
PLAN_1
 62
     5
  6
CONTINUOUS
 10
-0.586114
 20
1.284980
  0
SEQEND
  8
0
  0
POLYLINE
  8
PLAN_1
 62
     5
  6
CONTINUOUS
 66
     1
 40
0.003000
 41
0.003000
  0
VERTEX
  8
PLAN_1
 62
     5
  6
CONTINUOUS
 10
-0.586114
 20
1.276760
  0
VERTEX
  8
PLAN_1
 62
     5
  6
CONTINUOUS
 10
-0.586114
 20
1.268126
  0
SEQEND
  8
0
  0
POLYLINE
  8
PLAN_1
 62
     5
  6
CONTINUOUS
 66
     1
 40
0.003000
 41
0.003000
  0
VERTEX
  8
PLAN_1
 62
     5
  6
CONTINUOUS
 10
-0.586114
 20
1.259906
  0
VERTEX
  8
PLAN_1
 62
     5
  6
CONTINUOUS
 10
-0.586114
 20
1.251685
  0
SEQEND
  8
0
  0
POLYLINE
  8
PLAN_1
 62
     5
  6
CONTINUOUS
 66
     1
 40
0.003000
 41
0.003000
  0
VERTEX
  8
PLAN_1
 62
     5
  6
CONTINUOUS
 10
-0.586114
 20
1.243051
  0
VERTEX
  8
PLAN_1
 62
     5
  6
CONTINUOUS
 10
-0.586114
 20
1.234831
  0
SEQEND
  8
0
  0
POLYLINE
  8
PLAN_1
 62
     5
  6
CONTINUOUS
 66
     1
 40
0.003000
 41
0.003000
  0
VERTEX
  8
PLAN_1
 62
     5
  6
CONTINUOUS
 10
-0.586114
 20
1.226610
  0
VERTEX
  8
PLAN_1
 62
     5
  6
CONTINUOUS
 10
-0.586114
 20
1.218390
  0
SEQEND
  8
0
  0
POLYLINE
  8
PLAN_1
 62
     2
  6
CONTINUOUS
 66
     1
 40
0.004110
 41
0.004110
  0
VERTEX
  8
PLAN_1
 62
     2
  6
CONTINUOUS
 10
-1.187063
 20
3.191406
  0
VERTEX
  8
PLAN_1
 62
     2
  6
CONTINUOUS
 10
-0.616122
 20
3.191406
  0
SEQEND
  8
0
  0
SOLID
  8
PLAN_1
 62
     2
 10
-0.586528
 20
3.191406
 11
-0.645717
 21
3.207024
 12
-0.586528
 22
3.191406
 13
-0.645717
 23
3.175374
  0
POLYLINE
  8
PLAN_1
 62
     2
  6
CONTINUOUS
 66
     1
 40
0.003000
 41
0.003000
  0
VERTEX
  8
PLAN_1
 62
     2
  6
CONTINUOUS
 10
-0.586528
 20
3.191406
  0
VERTEX
  8
PLAN_1
 62
     2
  6
CONTINUOUS
 10
-0.645717
 20
3.207024
  0
VERTEX
  8
PLAN_1
 62
     2
  6
CONTINUOUS
 10
-0.645717
 20
3.175374
  0
VERTEX
  8
PLAN_1
 62
     2
  6
CONTINUOUS
 10
-0.586528
 20
3.191406
  0
SEQEND
  8
0
  0
SOLID
  8
PLAN_1
 62
     2
 10
-1.216657
 20
3.191406
 11
-1.157878
 21
3.207024
 12
-1.216657
 22
3.191406
 13
-1.157878
 23
3.175374
  0
POLYLINE
  8
PLAN_1
 62
     2
  6
CONTINUOUS
 66
     1
 40
0.003000
 41
0.003000
  0
VERTEX
  8
PLAN_1
 62
     2
  6
CONTINUOUS
 10
-1.216657
 20
3.191406
  0
VERTEX
  8
PLAN_1
 62
     2
  6
CONTINUOUS
 10
-1.157878
 20
3.207024
  0
VERTEX
  8
PLAN_1
 62
     2
  6
CONTINUOUS
 10
-1.157878
 20
3.175374
  0
VERTEX
  8
PLAN_1
 62
     2
  6
CONTINUOUS
 10
-1.216657
 20
3.191406
  0
SEQEND
  8
0
  0
POLYLINE
  8
PLAN_1
 62
     2
  6
CONTINUOUS
 66
     1
 40
0.004110
 41
0.004110
  0
VERTEX
  8
PLAN_1
 62
     2
  6
CONTINUOUS
 10
-1.216657
 20
3.214835
  0
VERTEX
  8
PLAN_1
 62
     2
  6
CONTINUOUS
 10
-1.216657
 20
3.058638
  0
SEQEND
  8
0
  0
POLYLINE
  8
PLAN_1
 62
     2
  6
CONTINUOUS
 66
     1
 40
0.004110
 41
0.004110
  0
VERTEX
  8
PLAN_1
 62
     2
  6
CONTINUOUS
 10
-0.586528
 20
3.214835
  0
VERTEX
  8
PLAN_1
 62
     2
  6
CONTINUOUS
 10
-0.586528
 20
1.922098
  0
SEQEND
  8
0
  0
POLYLINE
  8
PLAN_1
 62
     2
  6
CONTINUOUS
 66
     1
 40
0.003000
 41
0.003000
  0
VERTEX
  8
PLAN_1
 62
     2
  6
CONTINUOUS
 10
-0.922350
 20
3.214835
  0
VERTEX
  8
PLAN_1
 62
     2
  6
CONTINUOUS
 10
-0.931803
 20
3.214835
  0
VERTEX
  8
PLAN_1
 62
     2
  6
CONTINUOUS
 10
-0.931803
 20
3.266626
  0
VERTEX
  8
PLAN_1
 62
     2
  6
CONTINUOUS
 10
-0.949067
 20
3.266626
  0
VERTEX
  8
PLAN_1
 62
     2
  6
CONTINUOUS
 10
-0.949067
 20
3.274024
  0
VERTEX
  8
PLAN_1
 62
     2
  6
CONTINUOUS
 10
-0.944957
 20
3.274437
  0
VERTEX
  8
PLAN_1
 62
     2
  6
CONTINUOUS
 10
-0.941260
 20
3.274846
  0
VERTEX
  8
PLAN_1
 62
     2
  6
CONTINUOUS
 10
-0.938382
 20
3.275669
  0
VERTEX
  8
PLAN_1
 62
     2
  6
CONTINUOUS
 10
-0.935913
 20
3.276902
  0
VERTEX
  8
PLAN_1
 62
     2
  6
CONTINUOUS
 10
-0.933858
 20
3.278547
  0
VERTEX
  8
PLAN_1
 62
     2
  6
CONTINUOUS
 10
-0.931803
 20
3.281012
  0
VERTEX
  8
PLAN_1
 62
     2
  6
CONTINUOUS
 10
-0.930571
 20
3.283890
  0
VERTEX
  8
PLAN_1
 62
     2
  6
CONTINUOUS
 10
-0.929339
 20
3.288000
  0
VERTEX
  8
PLAN_1
 62
     2
  6
CONTINUOUS
 10
-0.922350
 20
3.288000
  0
VERTEX
  8
PLAN_1
 62
     2
  6
CONTINUOUS
 10
-0.922350
 20
3.214835
  0
SEQEND
  8
0
  0
POLYLINE
  8
PLAN_1
 62
     2
  6
CONTINUOUS
 66
     1
 40
0.003000
 41
0.003000
  0
VERTEX
  8
PLAN_1
 62
     2
  6
CONTINUOUS
 10
-0.858228
 20
3.268681
  0
VERTEX
  8
PLAN_1
 62
     2
  6
CONTINUOUS
 10
-0.858638
 20
3.270736
  0
VERTEX
  8
PLAN_1
 62
     2
  6
CONTINUOUS
 10
-0.859461
 20
3.273201
  0
VERTEX
  8
PLAN_1
 62
     2
  6
CONTINUOUS
 10
-0.860693
 20
3.274846
  0
VERTEX
  8
PLAN_1
 62
     2
  6
CONTINUOUS
 10
-0.861925
 20
3.276492
  0
VERTEX
  8
PLAN_1
 62
     2
  6
CONTINUOUS
 10
-0.863571
 20
3.277724
  0
VERTEX
  8
PLAN_1
 62
     2
  6
CONTINUOUS
 10
-0.865626
 20
3.278957
  0
VERTEX
  8
PLAN_1
 62
     2
  6
CONTINUOUS
 10
-0.868094
 20
3.279366
  0
VERTEX
  8
PLAN_1
 62
     2
  6
CONTINUOUS
 10
-0.870969
 20
3.279780
  0
VERTEX
  8
PLAN_1
 62
     2
  6
CONTINUOUS
 10
-0.873437
 20
3.279366
  0
VERTEX
  8
PLAN_1
 62
     2
  6
CONTINUOUS
 10
-0.875492
 20
3.278957
  0
VERTEX
  8
PLAN_1
 62
     2
  6
CONTINUOUS
 10
-0.877957
 20
3.278134
  0
VERTEX
  8
PLAN_1
 62
     2
  6
CONTINUOUS
 10
-0.879602
 20
3.276492
  0
VERTEX
  8
PLAN_1
 62
     2
  6
CONTINUOUS
 10
-0.881248
 20
3.274846
  0
VERTEX
  8
PLAN_1
 62
     2
  6
CONTINUOUS
 10
-0.882480
 20
3.273201
  0
VERTEX
  8
PLAN_1
 62
     2
  6
CONTINUOUS
 10
-0.883713
 20
3.271146
  0
VERTEX
  8
PLAN_1
 62
     2
  6
CONTINUOUS
 10
-0.884945
 20
3.269091
  0
VERTEX
  8
PLAN_1
 62
     2
  6
CONTINUOUS
 10
-0.886591
 20
3.264571
  0
VERTEX
  8
PLAN_1
 62
     2
  6
CONTINUOUS
 10
-0.887413
 20
3.260047
  0
VERTEX
  8
PLAN_1
 62
     2
  6
CONTINUOUS
 10
-0.888232
 20
3.255937
  0
VERTEX
  8
PLAN_1
 62
     2
  6
CONTINUOUS
 10
-0.888232
 20
3.252650
  0
VERTEX
  8
PLAN_1
 62
     2
  6
CONTINUOUS
 10
-0.887823
 20
3.252650
  0
VERTEX
  8
PLAN_1
 62
     2
  6
CONTINUOUS
 10
-0.887000
 20
3.253882
  0
VERTEX
  8
PLAN_1
 62
     2
  6
CONTINUOUS
 10
-0.885768
 20
3.255528
  0
VERTEX
  8
PLAN_1
 62
     2
  6
CONTINUOUS
 10
-0.884122
 20
3.257173
  0
VERTEX
  8
PLAN_1
 62
     2
  6
CONTINUOUS
 10
-0.882067
 20
3.258406
  0
VERTEX
  8
PLAN_1
 62
     2
  6
CONTINUOUS
 10
-0.880012
 20
3.259638
  0
VERTEX
  8
PLAN_1
 62
     2
  6
CONTINUOUS
 10
-0.877134
 20
3.260461
  0
VERTEX
  8
PLAN_1
 62
     2
  6
CONTINUOUS
 10
-0.874260
 20
3.261283
  0
VERTEX
  8
PLAN_1
 62
     2
  6
CONTINUOUS
 10
-0.870559
 20
3.261283
  0
VERTEX
  8
PLAN_1
 62
     2
  6
CONTINUOUS
 10
-0.866858
 20
3.261283
  0
VERTEX
  8
PLAN_1
 62
     2
  6
CONTINUOUS
 10
-0.863161
 20
3.260461
  0
VERTEX
  8
PLAN_1
 62
     2
  6
CONTINUOUS
 10
-0.859461
 20
3.258815
  0
VERTEX
  8
PLAN_1
 62
     2
  6
CONTINUOUS
 10
-0.855760
 20
3.256350
  0
VERTEX
  8
PLAN_1
 62
     2
  6
CONTINUOUS
 10
-0.854118
 20
3.255118
  0
VERTEX
  8
PLAN_1
 62
     2
  6
CONTINUOUS
 10
-0.852472
 20
3.253472
  0
VERTEX
  8
PLAN_1
 62
     2
  6
CONTINUOUS
 10
-0.851240
 20
3.251417
  0
VERTEX
  8
PLAN_1
 62
     2
  6
CONTINUOUS
 10
-0.850008
 20
3.249362
  0
VERTEX
  8
PLAN_1
 62
     2
  6
CONTINUOUS
 10
-0.849185
 20
3.246894
  0
VERTEX
  8
PLAN_1
 62
     2
  6
CONTINUOUS
 10
-0.848362
 20
3.244429
  0
VERTEX
  8
PLAN_1
 62
     2
  6
CONTINUOUS
 10
-0.847953
 20
3.241551
  0
VERTEX
  8
PLAN_1
 62
     2
  6
CONTINUOUS
 10
-0.847539
 20
3.238264
  0
VERTEX
  8
PLAN_1
 62
     2
  6
CONTINUOUS
 10
-0.847953
 20
3.235386
  0
VERTEX
  8
PLAN_1
 62
     2
  6
CONTINUOUS
 10
-0.847953
 20
3.232921
  0
VERTEX
  8
PLAN_1
 62
     2
  6
CONTINUOUS
 10
-0.848776
 20
3.230453
  0
VERTEX
  8
PLAN_1
 62
     2
  6
CONTINUOUS
 10
-0.849185
 20
3.228398
  0
VERTEX
  8
PLAN_1
 62
     2
  6
CONTINUOUS
 10
-0.850417
 20
3.226343
  0
VERTEX
  8
PLAN_1
 62
     2
  6
CONTINUOUS
 10
-0.851650
 20
3.223878
  0
VERTEX
  8
PLAN_1
 62
     2
  6
CONTINUOUS
 10
-0.852886
 20
3.221823
  0
VERTEX
  8
PLAN_1
 62
     2
  6
CONTINUOUS
 10
-0.854528
 20
3.219768
  0
VERTEX
  8
PLAN_1
 62
     2
  6
CONTINUOUS
 10
-0.856173
 20
3.218531
  0
VERTEX
  8
PLAN_1
 62
     2
  6
CONTINUOUS
 10
-0.857815
 20
3.216890
  0
VERTEX
  8
PLAN_1
 62
     2
  6
CONTINUOUS
 10
-0.859461
 20
3.215657
  0
VERTEX
  8
PLAN_1
 62
     2
  6
CONTINUOUS
 10
-0.861516
 20
3.214835
  0
VERTEX
  8
PLAN_1
 62
     2
  6
CONTINUOUS
 10
-0.863984
 20
3.214012
  0
VERTEX
  8
PLAN_1
 62
     2
  6
CONTINUOUS
 10
-0.866449
 20
3.213189
  0
VERTEX
  8
PLAN_1
 62
     2
  6
CONTINUOUS
 10
-0.869736
 20
3.213189
  0
VERTEX
  8
PLAN_1
 62
     2
  6
CONTINUOUS
 10
-0.873024
 20
3.212780
  0
VERTEX
  8
PLAN_1
 62
     2
  6
CONTINUOUS
 10
-0.875492
 20
3.213189
  0
VERTEX
  8
PLAN_1
 62
     2
  6
CONTINUOUS
 10
-0.877957
 20
3.213602
  0
VERTEX
  8
PLAN_1
 62
     2
  6
CONTINUOUS
 10
-0.880425
 20
3.214012
  0
VERTEX
  8
PLAN_1
 62
     2
  6
CONTINUOUS
 10
-0.882890
 20
3.215244
  0
VERTEX
  8
PLAN_1
 62
     2
  6
CONTINUOUS
 10
-0.885358
 20
3.216476
  0
VERTEX
  8
PLAN_1
 62
     2
  6
CONTINUOUS
 10
-0.887823
 20
3.218531
  0
VERTEX
  8
PLAN_1
 62
     2
  6
CONTINUOUS
 10
-0.889878
 20
3.220591
  0
VERTEX
  8
PLAN_1
 62
     2
  6
CONTINUOUS
 10
-0.891933
 20
3.223465
  0
VERTEX
  8
PLAN_1
 62
     2
  6
CONTINUOUS
 10
-0.893579
 20
3.226343
  0
VERTEX
  8
PLAN_1
 62
     2
  6
CONTINUOUS
 10
-0.894811
 20
3.228811
  0
VERTEX
  8
PLAN_1
 62
     2
  6
CONTINUOUS
 10
-0.895634
 20
3.232098
  0
VERTEX
  8
PLAN_1
 62
     2
  6
CONTINUOUS
 10
-0.896457
 20
3.234976
  0
VERTEX
  8
PLAN_1
 62
     2
  6
CONTINUOUS
 10
-0.896866
 20
3.238264
  0
VERTEX
  8
PLAN_1
 62
     2
  6
CONTINUOUS
 10
-0.897276
 20
3.241965
  0
VERTEX
  8
PLAN_1
 62
     2
  6
CONTINUOUS
 10
-0.897689
 20
3.245252
  0
VERTEX
  8
PLAN_1
 62
     2
  6
CONTINUOUS
 10
-0.897689
 20
3.248949
  0
VERTEX
  8
PLAN_1
 62
     2
  6
CONTINUOUS
 10
-0.897276
 20
3.255118
  0
VERTEX
  8
PLAN_1
 62
     2
  6
CONTINUOUS
 10
-0.896457
 20
3.261693
  0
VERTEX
  8
PLAN_1
 62
     2
  6
CONTINUOUS
 10
-0.895634
 20
3.264980
  0
VERTEX
  8
PLAN_1
 62
     2
  6
CONTINUOUS
 10
-0.894811
 20
3.268272
  0
VERTEX
  8
PLAN_1
 62
     2
  6
CONTINUOUS
 10
-0.893579
 20
3.271559
  0
VERTEX
  8
PLAN_1
 62
     2
  6
CONTINUOUS
 10
-0.892343
 20
3.274437
  0
VERTEX
  8
PLAN_1
 62
     2
  6
CONTINUOUS
 10
-0.890701
 20
3.277311
  0
VERTEX
  8
PLAN_1
 62
     2
  6
CONTINUOUS
 10
-0.888646
 20
3.279780
  0
VERTEX
  8
PLAN_1
 62
     2
  6
CONTINUOUS
 10
-0.886591
 20
3.282244
  0
VERTEX
  8
PLAN_1
 62
     2
  6
CONTINUOUS
 10
-0.884122
 20
3.284299
  0
VERTEX
  8
PLAN_1
 62
     2
  6
CONTINUOUS
 10
-0.881248
 20
3.285945
  0
VERTEX
  8
PLAN_1
 62
     2
  6
CONTINUOUS
 10
-0.877957
 20
3.287177
  0
VERTEX
  8
PLAN_1
 62
     2
  6
CONTINUOUS
 10
-0.874669
 20
3.287591
  0
VERTEX
  8
PLAN_1
 62
     2
  6
CONTINUOUS
 10
-0.870559
 20
3.288000
  0
VERTEX
  8
PLAN_1
 62
     2
  6
CONTINUOUS
 10
-0.867272
 20
3.287591
  0
VERTEX
  8
PLAN_1
 62
     2
  6
CONTINUOUS
 10
-0.863984
 20
3.287177
  0
VERTEX
  8
PLAN_1
 62
     2
  6
CONTINUOUS
 10
-0.860283
 20
3.285945
  0
VERTEX
  8
PLAN_1
 62
     2
  6
CONTINUOUS
 10
-0.856996
 20
3.283890
  0
VERTEX
  8
PLAN_1
 62
     2
  6
CONTINUOUS
 10
-0.855760
 20
3.282657
  0
VERTEX
  8
PLAN_1
 62
     2
  6
CONTINUOUS
 10
-0.854118
 20
3.281425
  0
VERTEX
  8
PLAN_1
 62
     2
  6
CONTINUOUS
 10
-0.852886
 20
3.279780
  0
VERTEX
  8
PLAN_1
 62
     2
  6
CONTINUOUS
 10
-0.851650
 20
3.277724
  0
VERTEX
  8
PLAN_1
 62
     2
  6
CONTINUOUS
 10
-0.850831
 20
3.275669
  0
VERTEX
  8
PLAN_1
 62
     2
  6
CONTINUOUS
 10
-0.850008
 20
3.273614
  0
VERTEX
  8
PLAN_1
 62
     2
  6
CONTINUOUS
 10
-0.849594
 20
3.271146
  0
VERTEX
  8
PLAN_1
 62
     2
  6
CONTINUOUS
 10
-0.849185
 20
3.268681
  0
VERTEX
  8
PLAN_1
 62
     2
  6
CONTINUOUS
 10
-0.858228
 20
3.268681
  0
SEQEND
  8
0
  0
POLYLINE
  8
PLAN_1
 62
     2
  6
CONTINUOUS
 66
     1
 40
0.003000
 41
0.003000
  0
VERTEX
  8
PLAN_1
 62
     2
  6
CONTINUOUS
 10
-0.871382
 20
3.221000
  0
VERTEX
  8
PLAN_1
 62
     2
  6
CONTINUOUS
 10
-0.868504
 20
3.221409
  0
VERTEX
  8
PLAN_1
 62
     2
  6
CONTINUOUS
 10
-0.865626
 20
3.222232
  0
VERTEX
  8
PLAN_1
 62
     2
  6
CONTINUOUS
 10
-0.863161
 20
3.223878
  0
VERTEX
  8
PLAN_1
 62
     2
  6
CONTINUOUS
 10
-0.861106
 20
3.225933
  0
VERTEX
  8
PLAN_1
 62
     2
  6
CONTINUOUS
 10
-0.859461
 20
3.228398
  0
VERTEX
  8
PLAN_1
 62
     2
  6
CONTINUOUS
 10
-0.858228
 20
3.231276
  0
VERTEX
  8
PLAN_1
 62
     2
  6
CONTINUOUS
 10
-0.857406
 20
3.234154
  0
VERTEX
  8
PLAN_1
 62
     2
  6
CONTINUOUS
 10
-0.856996
 20
3.237854
  0
VERTEX
  8
PLAN_1
 62
     2
  6
CONTINUOUS
 10
-0.857406
 20
3.240319
  0
VERTEX
  8
PLAN_1
 62
     2
  6
CONTINUOUS
 10
-0.857815
 20
3.242783
  0
VERTEX
  8
PLAN_1
 62
     2
  6
CONTINUOUS
 10
-0.859051
 20
3.245661
  0
VERTEX
  8
PLAN_1
 62
     2
  6
CONTINUOUS
 10
-0.860283
 20
3.248130
  0
VERTEX
  8
PLAN_1
 62
     2
  6
CONTINUOUS
 10
-0.862339
 20
3.250185
  0
VERTEX
  8
PLAN_1
 62
     2
  6
CONTINUOUS
 10
-0.864803
 20
3.251827
  0
VERTEX
  8
PLAN_1
 62
     2
  6
CONTINUOUS
 10
-0.866449
 20
3.252240
  0
VERTEX
  8
PLAN_1
 62
     2
  6
CONTINUOUS
 10
-0.868094
 20
3.253063
  0
VERTEX
  8
PLAN_1
 62
     2
  6
CONTINUOUS
 10
-0.869736
 20
3.253063
  0
VERTEX
  8
PLAN_1
 62
     2
  6
CONTINUOUS
 10
-0.871791
 20
3.253063
  0
VERTEX
  8
PLAN_1
 62
     2
  6
CONTINUOUS
 10
-0.875492
 20
3.253063
  0
VERTEX
  8
PLAN_1
 62
     2
  6
CONTINUOUS
 10
-0.878370
 20
3.251827
  0
VERTEX
  8
PLAN_1
 62
     2
  6
CONTINUOUS
 10
-0.881248
 20
3.250594
  0
VERTEX
  8
PLAN_1
 62
     2
  6
CONTINUOUS
 10
-0.883303
 20
3.248539
  0
VERTEX
  8
PLAN_1
 62
     2
  6
CONTINUOUS
 10
-0.884945
 20
3.246075
  0
VERTEX
  8
PLAN_1
 62
     2
  6
CONTINUOUS
 10
-0.886177
 20
3.243606
  0
VERTEX
  8
PLAN_1
 62
     2
  6
CONTINUOUS
 10
-0.886591
 20
3.240319
  0
VERTEX
  8
PLAN_1
 62
     2
  6
CONTINUOUS
 10
-0.887000
 20
3.237441
  0
VERTEX
  8
PLAN_1
 62
     2
  6
CONTINUOUS
 10
-0.886591
 20
3.234563
  0
VERTEX
  8
PLAN_1
 62
     2
  6
CONTINUOUS
 10
-0.886177
 20
3.231685
  0
VERTEX
  8
PLAN_1
 62
     2
  6
CONTINUOUS
 10
-0.884945
 20
3.228811
  0
VERTEX
  8
PLAN_1
 62
     2
  6
CONTINUOUS
 10
-0.883303
 20
3.226343
  0
VERTEX
  8
PLAN_1
 62
     2
  6
CONTINUOUS
 10
-0.881248
 20
3.224287
  0
VERTEX
  8
PLAN_1
 62
     2
  6
CONTINUOUS
 10
-0.878370
 20
3.222646
  0
VERTEX
  8
PLAN_1
 62
     2
  6
CONTINUOUS
 10
-0.875492
 20
3.221409
  0
VERTEX
  8
PLAN_1
 62
     2
  6
CONTINUOUS
 10
-0.871382
 20
3.221000
  0
SEQEND
  8
0
  0
ENDSEC
  0
EOF
