  0
SECTION
  2
HEADER
  9
$ACADVER
  1
AC1006
  9
$EXTMIN
 10
-2.203000
 20
-3.289709
  9
$EXTMAX
 10
2.205000
 20
3.298000
  9
$LTSCALE
 40
0.000394
  9
$PDMODE
 70
    35
  9
$PDSIZE
 40
0.000315
  0
ENDSEC
  0
SECTION
  2
TABLES
  0
TABLE
  2
LTYPE
 70
     9
  0
LTYPE
  2
CONTINUOUS
 70
    64
  3
Solid line
 72
    65
 73
     0
 40
0.000000
  0
LTYPE
  2
DASHED
 70
    64
  3
__ __ __ __ __ __ __ __ __ __ __ __ __ __ __
 72
    65
 73
     2
 40
0.000003
 49
0.000002
 49
-0.000001
  0
LTYPE
  2
HIDDEN
 70
    64
  3
 _ _ _ _ _ _ _ _ _ _ _ _ _ _ _ _ _ _ _ _ _ _
 72
    65
 73
     2
 40
0.000001
 49
0.000001
 49
-0.000000
  0
LTYPE
  2
CENTER
 70
    64
  3
____ _ ____ _ ____ _ ____ _ ____ _ ____ _ ____
 72
    65
 73
     4
 40
0.000008
 49
0.000005
 49
-0.000001
 49
0.000001
 49
-0.000001
  0
LTYPE
  2
PHANTOM
 70
    64
  3
_____ _ _ _____ _ _ _____ _ _ _____ _ _ ____
 72
    65
 73
     6
 40
0.000010
 49
0.000005
 49
-0.000001
 49
0.000001
 49
-0.000001
 49
0.000001
 49
-0.000001
  0
LTYPE
  2
DOT
 70
    64
  3
...............................................
 72
    65
 73
     2
 40
0.000001
 49
0.000000
 49
-0.000001
  0
LTYPE
  2
DASHDOT
 70
    64
  3
__ . __ . __ . __ . __ . __ . __ . __ . __ . __
 72
    65
 73
     4
 40
0.000004
 49
0.000002
 49
-0.000001
 49
0.000000
 49
-0.000001
  0
LTYPE
  2
BORDER
 70
    64
  3
__ __ . __ __ . __ __ . __ __ . __ __ . __ __
 72
    65
 73
     6
 40
0.000007
 49
0.000002
 49
-0.000001
 49
0.000002
 49
-0.000001
 49
0.000000
 49
-0.000001
  0
LTYPE
  2
DIVIDE
 70
    64
  3
__ . . __ . . __ . . __ . . __ . . __ . . __
 72
    65
 73
     6
 40
0.000005
 49
0.000002
 49
-0.000001
 49
0.000000
 49
-0.000001
 49
0.000000
 49
-0.000001
  0
LTYPE
  2
DOTDOT
 70
    64
  3
 . .  . .  . .  . .  . .  . . 
 72
    65
 73
     5
 40
0.000002
 49
-0.000001
 49
0.000000
 49
-0.000001
 49
0.000000
 49
-0.000001
  0
ENDTAB
  0
TABLE
  2
STYLE
 70
     0
  0
ENDTAB
  0
TABLE
  2
LAYER
 70
     3
  0
LAYER
  2
FOREGROUND
 70
    64
 62
     7
  6
CONTINUOUS
  0
LAYER
  2
BACKGROUND
 70
    65
 62
    -7
  6
CONTINUOUS
  0
LAYER
  2
PLAN_1
 70
    64
 62
     7
  6
CONTINUOUS
  0
ENDTAB
  0
ENDSEC
  0
SECTION
  2
ENTITIES
  0
POLYLINE
  8
PLAN_1
  6
CONTINUOUS
 66
     1
 40
0.003000
 41
0.003000
  0
VERTEX
  8
PLAN_1
  6
CONTINUOUS
 10
0.344795
 20
-3.255122
  0
VERTEX
  8
PLAN_1
  6
CONTINUOUS
 10
0.187925
 20
-3.255122
  0
VERTEX
  8
PLAN_1
  6
CONTINUOUS
 10
0.187925
 20
-3.232476
  0
VERTEX
  8
PLAN_1
  6
CONTINUOUS
 10
0.309799
 20
-3.079724
  0
VERTEX
  8
PLAN_1
  6
CONTINUOUS
 10
0.196984
 20
-3.079724
  0
VERTEX
  8
PLAN_1
  6
CONTINUOUS
 10
0.196984
 20
-3.055843
  0
VERTEX
  8
PLAN_1
  6
CONTINUOUS
 10
0.344795
 20
-3.055843
  0
VERTEX
  8
PLAN_1
  6
CONTINUOUS
 10
0.344795
 20
-3.078902
  0
VERTEX
  8
PLAN_1
  6
CONTINUOUS
 10
0.222098
 20
-3.231240
  0
VERTEX
  8
PLAN_1
  6
CONTINUOUS
 10
0.344795
 20
-3.231240
  0
VERTEX
  8
PLAN_1
  6
CONTINUOUS
 10
0.344795
 20
-3.255122
  0
SEQEND
  8
0
  0
POLYLINE
  8
PLAN_1
  6
CONTINUOUS
 66
     1
 40
0.003000
 41
0.003000
  0
VERTEX
  8
PLAN_1
  6
CONTINUOUS
 10
0.511961
 20
-3.115547
  0
VERTEX
  8
PLAN_1
  6
CONTINUOUS
 10
0.510311
 20
-3.109370
  0
VERTEX
  8
PLAN_1
  6
CONTINUOUS
 10
0.508252
 20
-3.104016
  0
VERTEX
  8
PLAN_1
  6
CONTINUOUS
 10
0.505783
 20
-3.099075
  0
VERTEX
  8
PLAN_1
  6
CONTINUOUS
 10
0.502902
 20
-3.094547
  0
VERTEX
  8
PLAN_1
  6
CONTINUOUS
 10
0.499606
 20
-3.090429
  0
VERTEX
  8
PLAN_1
  6
CONTINUOUS
 10
0.495902
 20
-3.087134
  0
VERTEX
  8
PLAN_1
  6
CONTINUOUS
 10
0.492197
 20
-3.084252
  0
VERTEX
  8
PLAN_1
  6
CONTINUOUS
 10
0.488492
 20
-3.081783
  0
VERTEX
  8
PLAN_1
  6
CONTINUOUS
 10
0.484374
 20
-3.079724
  0
VERTEX
  8
PLAN_1
  6
CONTINUOUS
 10
0.480256
 20
-3.078079
  0
VERTEX
  8
PLAN_1
  6
CONTINUOUS
 10
0.476138
 20
-3.076843
  0
VERTEX
  8
PLAN_1
  6
CONTINUOUS
 10
0.472020
 20
-3.076020
  0
VERTEX
  8
PLAN_1
  6
CONTINUOUS
 10
0.463787
 20
-3.074783
  0
VERTEX
  8
PLAN_1
  6
CONTINUOUS
 10
0.456374
 20
-3.074374
  0
VERTEX
  8
PLAN_1
  6
CONTINUOUS
 10
0.449374
 20
-3.074783
  0
VERTEX
  8
PLAN_1
  6
CONTINUOUS
 10
0.443201
 20
-3.075606
  0
VERTEX
  8
PLAN_1
  6
CONTINUOUS
 10
0.436610
 20
-3.077256
  0
VERTEX
  8
PLAN_1
  6
CONTINUOUS
 10
0.430846
 20
-3.079311
  0
VERTEX
  8
PLAN_1
  6
CONTINUOUS
 10
0.425083
 20
-3.082197
  0
VERTEX
  8
PLAN_1
  6
CONTINUOUS
 10
0.419732
 20
-3.085488
  0
VERTEX
  8
PLAN_1
  6
CONTINUOUS
 10
0.414791
 20
-3.089606
  0
VERTEX
  8
PLAN_1
  6
CONTINUOUS
 10
0.410260
 20
-3.094134
  0
VERTEX
  8
PLAN_1
  6
CONTINUOUS
 10
0.405732
 20
-3.099488
  0
VERTEX
  8
PLAN_1
  6
CONTINUOUS
 10
0.402028
 20
-3.105252
  0
VERTEX
  8
PLAN_1
  6
CONTINUOUS
 10
0.398732
 20
-3.111839
  0
VERTEX
  8
PLAN_1
  6
CONTINUOUS
 10
0.396264
 20
-3.118839
  0
VERTEX
  8
PLAN_1
  6
CONTINUOUS
 10
0.393791
 20
-3.126661
  0
VERTEX
  8
PLAN_1
  6
CONTINUOUS
 10
0.392146
 20
-3.134898
  0
VERTEX
  8
PLAN_1
  6
CONTINUOUS
 10
0.391323
 20
-3.143957
  0
VERTEX
  8
PLAN_1
  6
CONTINUOUS
 10
0.390909
 20
-3.153425
  0
VERTEX
  8
PLAN_1
  6
CONTINUOUS
 10
0.391323
 20
-3.162071
  0
VERTEX
  8
PLAN_1
  6
CONTINUOUS
 10
0.391732
 20
-3.170307
  0
VERTEX
  8
PLAN_1
  6
CONTINUOUS
 10
0.392969
 20
-3.178539
  0
VERTEX
  8
PLAN_1
  6
CONTINUOUS
 10
0.394205
 20
-3.186362
  0
VERTEX
  8
PLAN_1
  6
CONTINUOUS
 10
0.396264
 20
-3.193362
  0
VERTEX
  8
PLAN_1
  6
CONTINUOUS
 10
0.398732
 20
-3.200362
  0
VERTEX
  8
PLAN_1
  6
CONTINUOUS
 10
0.402028
 20
-3.206539
  0
VERTEX
  8
PLAN_1
  6
CONTINUOUS
 10
0.405319
 20
-3.212713
  0
VERTEX
  8
PLAN_1
  6
CONTINUOUS
 10
0.407378
 20
-3.215185
  0
VERTEX
  8
PLAN_1
  6
CONTINUOUS
 10
0.409850
 20
-3.217654
  0
VERTEX
  8
PLAN_1
  6
CONTINUOUS
 10
0.411909
 20
-3.220126
  0
VERTEX
  8
PLAN_1
  6
CONTINUOUS
 10
0.414378
 20
-3.222594
  0
VERTEX
  8
PLAN_1
  6
CONTINUOUS
 10
0.416850
 20
-3.224654
  0
VERTEX
  8
PLAN_1
  6
CONTINUOUS
 10
0.419732
 20
-3.226713
  0
VERTEX
  8
PLAN_1
  6
CONTINUOUS
 10
0.422614
 20
-3.228358
  0
VERTEX
  8
PLAN_1
  6
CONTINUOUS
 10
0.425906
 20
-3.230008
  0
VERTEX
  8
PLAN_1
  6
CONTINUOUS
 10
0.429201
 20
-3.231654
  0
VERTEX
  8
PLAN_1
  6
CONTINUOUS
 10
0.432496
 20
-3.232890
  0
VERTEX
  8
PLAN_1
  6
CONTINUOUS
 10
0.436201
 20
-3.233713
  0
VERTEX
  8
PLAN_1
  6
CONTINUOUS
 10
0.439906
 20
-3.234949
  0
VERTEX
  8
PLAN_1
  6
CONTINUOUS
 10
0.444024
 20
-3.235358
  0
VERTEX
  8
PLAN_1
  6
CONTINUOUS
 10
0.448142
 20
-3.236181
  0
VERTEX
  8
PLAN_1
  6
CONTINUOUS
 10
0.452669
 20
-3.236181
  0
VERTEX
  8
PLAN_1
  6
CONTINUOUS
 10
0.457197
 20
-3.236594
  0
VERTEX
  8
PLAN_1
  6
CONTINUOUS
 10
0.460492
 20
-3.236181
  0
VERTEX
  8
PLAN_1
  6
CONTINUOUS
 10
0.464197
 20
-3.235772
  0
VERTEX
  8
PLAN_1
  6
CONTINUOUS
 10
0.467906
 20
-3.235358
  0
VERTEX
  8
PLAN_1
  6
CONTINUOUS
 10
0.472020
 20
-3.234535
  0
VERTEX
  8
PLAN_1
  6
CONTINUOUS
 10
0.476138
 20
-3.232890
  0
VERTEX
  8
PLAN_1
  6
CONTINUOUS
 10
0.480256
 20
-3.231240
  0
VERTEX
  8
PLAN_1
  6
CONTINUOUS
 10
0.484374
 20
-3.229185
  0
VERTEX
  8
PLAN_1
  6
CONTINUOUS
 10
0.488492
 20
-3.226299
  0
VERTEX
  8
PLAN_1
  6
CONTINUOUS
 10
0.492606
 20
-3.223417
  0
VERTEX
  8
PLAN_1
  6
CONTINUOUS
 10
0.496315
 20
-3.219303
  0
VERTEX
  8
PLAN_1
  6
CONTINUOUS
 10
0.500020
 20
-3.214772
  0
VERTEX
  8
PLAN_1
  6
CONTINUOUS
 10
0.503724
 20
-3.209831
  0
VERTEX
  8
PLAN_1
  6
CONTINUOUS
 10
0.506606
 20
-3.204067
  0
VERTEX
  8
PLAN_1
  6
CONTINUOUS
 10
0.509488
 20
-3.197480
  0
VERTEX
  8
PLAN_1
  6
CONTINUOUS
 10
0.511961
 20
-3.190067
  0
VERTEX
  8
PLAN_1
  6
CONTINUOUS
 10
0.514020
 20
-3.181835
  0
VERTEX
  8
PLAN_1
  6
CONTINUOUS
 10
0.539957
 20
-3.181835
  0
VERTEX
  8
PLAN_1
  6
CONTINUOUS
 10
0.538720
 20
-3.188421
  0
VERTEX
  8
PLAN_1
  6
CONTINUOUS
 10
0.537488
 20
-3.195008
  0
VERTEX
  8
PLAN_1
  6
CONTINUOUS
 10
0.535839
 20
-3.201185
  0
VERTEX
  8
PLAN_1
  6
CONTINUOUS
 10
0.533780
 20
-3.206539
  0
VERTEX
  8
PLAN_1
  6
CONTINUOUS
 10
0.531311
 20
-3.211890
  0
VERTEX
  8
PLAN_1
  6
CONTINUOUS
 10
0.529252
 20
-3.216831
  0
VERTEX
  8
PLAN_1
  6
CONTINUOUS
 10
0.526370
 20
-3.221362
  0
VERTEX
  8
PLAN_1
  6
CONTINUOUS
 10
0.523898
 20
-3.225890
  0
VERTEX
  8
PLAN_1
  6
CONTINUOUS
 10
0.521016
 20
-3.229594
  0
VERTEX
  8
PLAN_1
  6
CONTINUOUS
 10
0.517724
 20
-3.233299
  0
VERTEX
  8
PLAN_1
  6
CONTINUOUS
 10
0.514843
 20
-3.236594
  0
VERTEX
  8
PLAN_1
  6
CONTINUOUS
 10
0.511547
 20
-3.239476
  0
VERTEX
  8
PLAN_1
  6
CONTINUOUS
 10
0.508252
 20
-3.242358
  0
VERTEX
  8
PLAN_1
  6
CONTINUOUS
 10
0.504961
 20
-3.244831
  0
VERTEX
  8
PLAN_1
  6
CONTINUOUS
 10
0.501256
 20
-3.247299
  0
VERTEX
  8
PLAN_1
  6
CONTINUOUS
 10
0.497961
 20
-3.249358
  0
VERTEX
  8
PLAN_1
  6
CONTINUOUS
 10
0.490961
 20
-3.252654
  0
VERTEX
  8
PLAN_1
  6
CONTINUOUS
 10
0.483961
 20
-3.255122
  0
VERTEX
  8
PLAN_1
  6
CONTINUOUS
 10
0.477374
 20
-3.257181
  0
VERTEX
  8
PLAN_1
  6
CONTINUOUS
 10
0.471197
 20
-3.258417
  0
VERTEX
  8
PLAN_1
  6
CONTINUOUS
 10
0.460492
 20
-3.260063
  0
VERTEX
  8
PLAN_1
  6
CONTINUOUS
 10
0.453083
 20
-3.260476
  0
VERTEX
  8
PLAN_1
  6
CONTINUOUS
 10
0.444437
 20
-3.260063
  0
VERTEX
  8
PLAN_1
  6
CONTINUOUS
 10
0.436201
 20
-3.258827
  0
VERTEX
  8
PLAN_1
  6
CONTINUOUS
 10
0.427965
 20
-3.257181
  0
VERTEX
  8
PLAN_1
  6
CONTINUOUS
 10
0.419732
 20
-3.254299
  0
VERTEX
  8
PLAN_1
  6
CONTINUOUS
 10
0.416028
 20
-3.253063
  0
VERTEX
  8
PLAN_1
  6
CONTINUOUS
 10
0.411909
 20
-3.251004
  0
VERTEX
  8
PLAN_1
  6
CONTINUOUS
 10
0.408201
 20
-3.249358
  0
VERTEX
  8
PLAN_1
  6
CONTINUOUS
 10
0.404496
 20
-3.246886
  0
VERTEX
  8
PLAN_1
  6
CONTINUOUS
 10
0.401205
 20
-3.244417
  0
VERTEX
  8
PLAN_1
  6
CONTINUOUS
 10
0.397496
 20
-3.241949
  0
VERTEX
  8
PLAN_1
  6
CONTINUOUS
 10
0.394205
 20
-3.239063
  0
VERTEX
  8
PLAN_1
  6
CONTINUOUS
 10
0.390909
 20
-3.236181
  0
VERTEX
  8
PLAN_1
  6
CONTINUOUS
 10
0.388028
 20
-3.232890
  0
VERTEX
  8
PLAN_1
  6
CONTINUOUS
 10
0.385146
 20
-3.229185
  0
VERTEX
  8
PLAN_1
  6
CONTINUOUS
 10
0.382264
 20
-3.225476
  0
VERTEX
  8
PLAN_1
  6
CONTINUOUS
 10
0.379791
 20
-3.221362
  0
VERTEX
  8
PLAN_1
  6
CONTINUOUS
 10
0.377323
 20
-3.217244
  0
VERTEX
  8
PLAN_1
  6
CONTINUOUS
 10
0.374854
 20
-3.212713
  0
VERTEX
  8
PLAN_1
  6
CONTINUOUS
 10
0.372795
 20
-3.208185
  0
VERTEX
  8
PLAN_1
  6
CONTINUOUS
 10
0.370736
 20
-3.203244
  0
VERTEX
  8
PLAN_1
  6
CONTINUOUS
 10
0.369087
 20
-3.197890
  0
VERTEX
  8
PLAN_1
  6
CONTINUOUS
 10
0.367441
 20
-3.192539
  0
VERTEX
  8
PLAN_1
  6
CONTINUOUS
 10
0.366205
 20
-3.186776
  0
VERTEX
  8
PLAN_1
  6
CONTINUOUS
 10
0.365382
 20
-3.181012
  0
VERTEX
  8
PLAN_1
  6
CONTINUOUS
 10
0.364559
 20
-3.174421
  0
VERTEX
  8
PLAN_1
  6
CONTINUOUS
 10
0.363736
 20
-3.168248
  0
VERTEX
  8
PLAN_1
  6
CONTINUOUS
 10
0.363323
 20
-3.161248
  0
VERTEX
  8
PLAN_1
  6
CONTINUOUS
 10
0.363323
 20
-3.154248
  0
VERTEX
  8
PLAN_1
  6
CONTINUOUS
 10
0.363323
 20
-3.148484
  0
VERTEX
  8
PLAN_1
  6
CONTINUOUS
 10
0.363736
 20
-3.143130
  0
VERTEX
  8
PLAN_1
  6
CONTINUOUS
 10
0.364146
 20
-3.137366
  0
VERTEX
  8
PLAN_1
  6
CONTINUOUS
 10
0.364972
 20
-3.132016
  0
VERTEX
  8
PLAN_1
  6
CONTINUOUS
 10
0.365795
 20
-3.127075
  0
VERTEX
  8
PLAN_1
  6
CONTINUOUS
 10
0.367028
 20
-3.122134
  0
VERTEX
  8
PLAN_1
  6
CONTINUOUS
 10
0.368264
 20
-3.117193
  0
VERTEX
  8
PLAN_1
  6
CONTINUOUS
 10
0.369500
 20
-3.112252
  0
VERTEX
  8
PLAN_1
  6
CONTINUOUS
 10
0.371146
 20
-3.107720
  0
VERTEX
  8
PLAN_1
  6
CONTINUOUS
 10
0.373205
 20
-3.103193
  0
VERTEX
  8
PLAN_1
  6
CONTINUOUS
 10
0.375264
 20
-3.098665
  0
VERTEX
  8
PLAN_1
  6
CONTINUOUS
 10
0.377323
 20
-3.094547
  0
VERTEX
  8
PLAN_1
  6
CONTINUOUS
 10
0.379791
 20
-3.090429
  0
VERTEX
  8
PLAN_1
  6
CONTINUOUS
 10
0.382264
 20
-3.086724
  0
VERTEX
  8
PLAN_1
  6
CONTINUOUS
 10
0.385146
 20
-3.083020
  0
VERTEX
  8
PLAN_1
  6
CONTINUOUS
 10
0.388028
 20
-3.079311
  0
VERTEX
  8
PLAN_1
  6
CONTINUOUS
 10
0.390909
 20
-3.076020
  0
VERTEX
  8
PLAN_1
  6
CONTINUOUS
 10
0.394205
 20
-3.072724
  0
VERTEX
  8
PLAN_1
  6
CONTINUOUS
 10
0.397909
 20
-3.069843
  0
VERTEX
  8
PLAN_1
  6
CONTINUOUS
 10
0.401205
 20
-3.066961
  0
VERTEX
  8
PLAN_1
  6
CONTINUOUS
 10
0.404909
 20
-3.064492
  0
VERTEX
  8
PLAN_1
  6
CONTINUOUS
 10
0.409028
 20
-3.062020
  0
VERTEX
  8
PLAN_1
  6
CONTINUOUS
 10
0.413142
 20
-3.059961
  0
VERTEX
  8
PLAN_1
  6
CONTINUOUS
 10
0.417260
 20
-3.057902
  0
VERTEX
  8
PLAN_1
  6
CONTINUOUS
 10
0.421378
 20
-3.056256
  0
VERTEX
  8
PLAN_1
  6
CONTINUOUS
 10
0.425906
 20
-3.054610
  0
VERTEX
  8
PLAN_1
  6
CONTINUOUS
 10
0.430846
 20
-3.053374
  0
VERTEX
  8
PLAN_1
  6
CONTINUOUS
 10
0.435378
 20
-3.052551
  0
VERTEX
  8
PLAN_1
  6
CONTINUOUS
 10
0.440319
 20
-3.051728
  0
VERTEX
  8
PLAN_1
  6
CONTINUOUS
 10
0.445669
 20
-3.050902
  0
VERTEX
  8
PLAN_1
  6
CONTINUOUS
 10
0.451024
 20
-3.050492
  0
VERTEX
  8
PLAN_1
  6
CONTINUOUS
 10
0.456374
 20
-3.050492
  0
VERTEX
  8
PLAN_1
  6
CONTINUOUS
 10
0.465433
 20
-3.050902
  0
VERTEX
  8
PLAN_1
  6
CONTINUOUS
 10
0.474492
 20
-3.051728
  0
VERTEX
  8
PLAN_1
  6
CONTINUOUS
 10
0.482315
 20
-3.053787
  0
VERTEX
  8
PLAN_1
  6
CONTINUOUS
 10
0.490138
 20
-3.055843
  0
VERTEX
  8
PLAN_1
  6
CONTINUOUS
 10
0.497138
 20
-3.058724
  0
VERTEX
  8
PLAN_1
  6
CONTINUOUS
 10
0.503724
 20
-3.062433
  0
VERTEX
  8
PLAN_1
  6
CONTINUOUS
 10
0.509488
 20
-3.066138
  0
VERTEX
  8
PLAN_1
  6
CONTINUOUS
 10
0.514843
 20
-3.070665
  0
VERTEX
  8
PLAN_1
  6
CONTINUOUS
 10
0.519783
 20
-3.075197
  0
VERTEX
  8
PLAN_1
  6
CONTINUOUS
 10
0.523898
 20
-3.080547
  0
VERTEX
  8
PLAN_1
  6
CONTINUOUS
 10
0.527606
 20
-3.085902
  0
VERTEX
  8
PLAN_1
  6
CONTINUOUS
 10
0.530898
 20
-3.091665
  0
VERTEX
  8
PLAN_1
  6
CONTINUOUS
 10
0.533370
 20
-3.097429
  0
VERTEX
  8
PLAN_1
  6
CONTINUOUS
 10
0.535429
 20
-3.103193
  0
VERTEX
  8
PLAN_1
  6
CONTINUOUS
 10
0.537075
 20
-3.109370
  0
VERTEX
  8
PLAN_1
  6
CONTINUOUS
 10
0.537898
 20
-3.115547
  0
VERTEX
  8
PLAN_1
  6
CONTINUOUS
 10
0.511961
 20
-3.115547
  0
SEQEND
  8
0
  0
POLYLINE
  8
PLAN_1
  6
CONTINUOUS
 66
     1
 40
0.003000
 41
0.003000
  0
VERTEX
  8
PLAN_1
  6
CONTINUOUS
 10
0.599657
 20
-3.255122
  0
VERTEX
  8
PLAN_1
  6
CONTINUOUS
 10
0.572484
 20
-3.255122
  0
VERTEX
  8
PLAN_1
  6
CONTINUOUS
 10
0.572484
 20
-3.055843
  0
VERTEX
  8
PLAN_1
  6
CONTINUOUS
 10
0.599657
 20
-3.055843
  0
VERTEX
  8
PLAN_1
  6
CONTINUOUS
 10
0.599657
 20
-3.152189
  0
VERTEX
  8
PLAN_1
  6
CONTINUOUS
 10
0.696004
 20
-3.055843
  0
VERTEX
  8
PLAN_1
  6
CONTINUOUS
 10
0.733059
 20
-3.055843
  0
VERTEX
  8
PLAN_1
  6
CONTINUOUS
 10
0.650299
 20
-3.136130
  0
VERTEX
  8
PLAN_1
  6
CONTINUOUS
 10
0.735528
 20
-3.255122
  0
VERTEX
  8
PLAN_1
  6
CONTINUOUS
 10
0.700531
 20
-3.255122
  0
VERTEX
  8
PLAN_1
  6
CONTINUOUS
 10
0.630949
 20
-3.155071
  0
VERTEX
  8
PLAN_1
  6
CONTINUOUS
 10
0.599657
 20
-3.185130
  0
VERTEX
  8
PLAN_1
  6
CONTINUOUS
 10
0.599657
 20
-3.255122
  0
SEQEND
  8
0
  0
POLYLINE
  8
PLAN_1
  6
CONTINUOUS
 66
     1
 40
0.003000
 41
0.003000
  0
VERTEX
  8
PLAN_1
  6
CONTINUOUS
 10
0.907634
 20
-3.255122
  0
VERTEX
  8
PLAN_1
  6
CONTINUOUS
 10
0.760646
 20
-3.255122
  0
VERTEX
  8
PLAN_1
  6
CONTINUOUS
 10
0.760646
 20
-3.055843
  0
VERTEX
  8
PLAN_1
  6
CONTINUOUS
 10
0.905575
 20
-3.055843
  0
VERTEX
  8
PLAN_1
  6
CONTINUOUS
 10
0.905575
 20
-3.079724
  0
VERTEX
  8
PLAN_1
  6
CONTINUOUS
 10
0.787409
 20
-3.079724
  0
VERTEX
  8
PLAN_1
  6
CONTINUOUS
 10
0.787409
 20
-3.140661
  0
VERTEX
  8
PLAN_1
  6
CONTINUOUS
 10
0.896516
 20
-3.140661
  0
VERTEX
  8
PLAN_1
  6
CONTINUOUS
 10
0.896516
 20
-3.164543
  0
VERTEX
  8
PLAN_1
  6
CONTINUOUS
 10
0.787409
 20
-3.164543
  0
VERTEX
  8
PLAN_1
  6
CONTINUOUS
 10
0.787409
 20
-3.231240
  0
VERTEX
  8
PLAN_1
  6
CONTINUOUS
 10
0.907634
 20
-3.231240
  0
VERTEX
  8
PLAN_1
  6
CONTINUOUS
 10
0.907634
 20
-3.255122
  0
SEQEND
  8
0
  0
POLYLINE
  8
PLAN_1
  6
CONTINUOUS
 66
     1
 40
0.003000
 41
0.003000
  0
VERTEX
  8
PLAN_1
  6
CONTINUOUS
 10
1.037740
 20
-3.111839
  0
VERTEX
  8
PLAN_1
  6
CONTINUOUS
 10
1.036094
 20
-3.105665
  0
VERTEX
  8
PLAN_1
  6
CONTINUOUS
 10
1.034035
 20
-3.099898
  0
VERTEX
  8
PLAN_1
  6
CONTINUOUS
 10
1.032799
 20
-3.097429
  0
VERTEX
  8
PLAN_1
  6
CONTINUOUS
 10
1.031154
 20
-3.094961
  0
VERTEX
  8
PLAN_1
  6
CONTINUOUS
 10
1.029504
 20
-3.092488
  0
VERTEX
  8
PLAN_1
  6
CONTINUOUS
 10
1.027449
 20
-3.090429
  0
VERTEX
  8
PLAN_1
  6
CONTINUOUS
 10
1.025390
 20
-3.088370
  0
VERTEX
  8
PLAN_1
  6
CONTINUOUS
 10
1.022917
 20
-3.086724
  0
VERTEX
  8
PLAN_1
  6
CONTINUOUS
 10
1.020449
 20
-3.085488
  0
VERTEX
  8
PLAN_1
  6
CONTINUOUS
 10
1.017567
 20
-3.084252
  0
VERTEX
  8
PLAN_1
  6
CONTINUOUS
 10
1.014685
 20
-3.083020
  0
VERTEX
  8
PLAN_1
  6
CONTINUOUS
 10
1.011390
 20
-3.082606
  0
VERTEX
  8
PLAN_1
  6
CONTINUOUS
 10
1.007685
 20
-3.082197
  0
VERTEX
  8
PLAN_1
  6
CONTINUOUS
 10
1.003980
 20
-3.081783
  0
VERTEX
  8
PLAN_1
  6
CONTINUOUS
 10
1.000685
 20
-3.082197
  0
VERTEX
  8
PLAN_1
  6
CONTINUOUS
 10
0.997390
 20
-3.082606
  0
VERTEX
  8
PLAN_1
  6
CONTINUOUS
 10
0.994098
 20
-3.083020
  0
VERTEX
  8
PLAN_1
  6
CONTINUOUS
 10
0.991217
 20
-3.084252
  0
VERTEX
  8
PLAN_1
  6
CONTINUOUS
 10
0.988335
 20
-3.085488
  0
VERTEX
  8
PLAN_1
  6
CONTINUOUS
 10
0.985449
 20
-3.086724
  0
VERTEX
  8
PLAN_1
  6
CONTINUOUS
 10
0.982980
 20
-3.088370
  0
VERTEX
  8
PLAN_1
  6
CONTINUOUS
 10
0.980508
 20
-3.090429
  0
VERTEX
  8
PLAN_1
  6
CONTINUOUS
 10
0.976394
 20
-3.094547
  0
VERTEX
  8
PLAN_1
  6
CONTINUOUS
 10
0.972685
 20
-3.099075
  0
VERTEX
  8
PLAN_1
  6
CONTINUOUS
 10
0.969394
 20
-3.104429
  0
VERTEX
  8
PLAN_1
  6
CONTINUOUS
 10
0.966512
 20
-3.110193
  0
VERTEX
  8
PLAN_1
  6
CONTINUOUS
 10
0.964039
 20
-3.115957
  0
VERTEX
  8
PLAN_1
  6
CONTINUOUS
 10
0.962394
 20
-3.122134
  0
VERTEX
  8
PLAN_1
  6
CONTINUOUS
 10
0.960748
 20
-3.128307
  0
VERTEX
  8
PLAN_1
  6
CONTINUOUS
 10
0.959512
 20
-3.134075
  0
VERTEX
  8
PLAN_1
  6
CONTINUOUS
 10
0.958689
 20
-3.139839
  0
VERTEX
  8
PLAN_1
  6
CONTINUOUS
 10
0.958276
 20
-3.145189
  0
VERTEX
  8
PLAN_1
  6
CONTINUOUS
 10
0.957866
 20
-3.149720
  0
VERTEX
  8
PLAN_1
  6
CONTINUOUS
 10
0.957866
 20
-3.153835
  0
VERTEX
  8
PLAN_1
  6
CONTINUOUS
 10
0.958276
 20
-3.154661
  0
VERTEX
  8
PLAN_1
  6
CONTINUOUS
 10
0.960748
 20
-3.150543
  0
VERTEX
  8
PLAN_1
  6
CONTINUOUS
 10
0.964453
 20
-3.146425
  0
VERTEX
  8
PLAN_1
  6
CONTINUOUS
 10
0.968571
 20
-3.142307
  0
VERTEX
  8
PLAN_1
  6
CONTINUOUS
 10
0.973512
 20
-3.138602
  0
VERTEX
  8
PLAN_1
  6
CONTINUOUS
 10
0.976803
 20
-3.136957
  0
VERTEX
  8
PLAN_1
  6
CONTINUOUS
 10
0.979685
 20
-3.135307
  0
VERTEX
  8
PLAN_1
  6
CONTINUOUS
 10
0.983394
 20
-3.134075
  0
VERTEX
  8
PLAN_1
  6
CONTINUOUS
 10
0.987098
 20
-3.132839
  0
VERTEX
  8
PLAN_1
  6
CONTINUOUS
 10
0.990803
 20
-3.132016
  0
VERTEX
  8
PLAN_1
  6
CONTINUOUS
 10
0.995331
 20
-3.131193
  0
VERTEX
  8
PLAN_1
  6
CONTINUOUS
 10
0.999862
 20
-3.130780
  0
VERTEX
  8
PLAN_1
  6
CONTINUOUS
 10
1.004390
 20
-3.130780
  0
VERTEX
  8
PLAN_1
  6
CONTINUOUS
 10
1.009331
 20
-3.130780
  0
VERTEX
  8
PLAN_1
  6
CONTINUOUS
 10
1.013858
 20
-3.131602
  0
VERTEX
  8
PLAN_1
  6
CONTINUOUS
 10
1.019213
 20
-3.132425
  0
VERTEX
  8
PLAN_1
  6
CONTINUOUS
 10
1.024154
 20
-3.133661
  0
VERTEX
  8
PLAN_1
  6
CONTINUOUS
 10
1.029504
 20
-3.135720
  0
VERTEX
  8
PLAN_1
  6
CONTINUOUS
 10
1.034445
 20
-3.137780
  0
VERTEX
  8
PLAN_1
  6
CONTINUOUS
 10
1.039386
 20
-3.140661
  0
VERTEX
  8
PLAN_1
  6
CONTINUOUS
 10
1.043917
 20
-3.143957
  0
VERTEX
  8
PLAN_1
  6
CONTINUOUS
 10
1.048445
 20
-3.148071
  0
VERTEX
  8
PLAN_1
  6
CONTINUOUS
 10
1.052563
 20
-3.152602
  0
VERTEX
  8
PLAN_1
  6
CONTINUOUS
 10
1.056268
 20
-3.157543
  0
VERTEX
  8
PLAN_1
  6
CONTINUOUS
 10
1.059563
 20
-3.163307
  0
VERTEX
  8
PLAN_1
  6
CONTINUOUS
 10
1.062031
 20
-3.169480
  0
VERTEX
  8
PLAN_1
  6
CONTINUOUS
 10
1.064091
 20
-3.176480
  0
VERTEX
  8
PLAN_1
  6
CONTINUOUS
 10
1.064504
 20
-3.180189
  0
VERTEX
  8
PLAN_1
  6
CONTINUOUS
 10
1.065327
 20
-3.184303
  0
VERTEX
  8
PLAN_1
  6
CONTINUOUS
 10
1.065327
 20
-3.188421
  0
VERTEX
  8
PLAN_1
  6
CONTINUOUS
 10
1.065740
 20
-3.192539
  0
VERTEX
  8
PLAN_1
  6
CONTINUOUS
 10
1.065327
 20
-3.199949
  0
VERTEX
  8
PLAN_1
  6
CONTINUOUS
 10
1.064504
 20
-3.206539
  0
VERTEX
  8
PLAN_1
  6
CONTINUOUS
 10
1.063268
 20
-3.213126
  0
VERTEX
  8
PLAN_1
  6
CONTINUOUS
 10
1.061209
 20
-3.218890
  0
VERTEX
  8
PLAN_1
  6
CONTINUOUS
 10
1.058740
 20
-3.225067
  0
VERTEX
  8
PLAN_1
  6
CONTINUOUS
 10
1.055445
 20
-3.230417
  0
VERTEX
  8
PLAN_1
  6
CONTINUOUS
 10
1.051740
 20
-3.236181
  0
VERTEX
  8
PLAN_1
  6
CONTINUOUS
 10
1.047209
 20
-3.241535
  0
VERTEX
  8
PLAN_1
  6
CONTINUOUS
 10
1.043094
 20
-3.245654
  0
VERTEX
  8
PLAN_1
  6
CONTINUOUS
 10
1.038976
 20
-3.249358
  0
VERTEX
  8
PLAN_1
  6
CONTINUOUS
 10
1.034035
 20
-3.252240
  0
VERTEX
  8
PLAN_1
  6
CONTINUOUS
 10
1.028681
 20
-3.255122
  0
VERTEX
  8
PLAN_1
  6
CONTINUOUS
 10
1.022508
 20
-3.257181
  0
VERTEX
  8
PLAN_1
  6
CONTINUOUS
 10
1.015508
 20
-3.258827
  0
VERTEX
  8
PLAN_1
  6
CONTINUOUS
 10
1.007272
 20
-3.260063
  0
VERTEX
  8
PLAN_1
  6
CONTINUOUS
 10
0.997803
 20
-3.260476
  0
VERTEX
  8
PLAN_1
  6
CONTINUOUS
 10
0.991626
 20
-3.260063
  0
VERTEX
  8
PLAN_1
  6
CONTINUOUS
 10
0.985449
 20
-3.258827
  0
VERTEX
  8
PLAN_1
  6
CONTINUOUS
 10
0.982157
 20
-3.258004
  0
VERTEX
  8
PLAN_1
  6
CONTINUOUS
 10
0.978862
 20
-3.257181
  0
VERTEX
  8
PLAN_1
  6
CONTINUOUS
 10
0.975571
 20
-3.255945
  0
VERTEX
  8
PLAN_1
  6
CONTINUOUS
 10
0.972276
 20
-3.254299
  0
VERTEX
  8
PLAN_1
  6
CONTINUOUS
 10
0.968571
 20
-3.252654
  0
VERTEX
  8
PLAN_1
  6
CONTINUOUS
 10
0.965276
 20
-3.250594
  0
VERTEX
  8
PLAN_1
  6
CONTINUOUS
 10
0.961980
 20
-3.248122
  0
VERTEX
  8
PLAN_1
  6
CONTINUOUS
 10
0.959098
 20
-3.245654
  0
VERTEX
  8
PLAN_1
  6
CONTINUOUS
 10
0.955807
 20
-3.242772
  0
VERTEX
  8
PLAN_1
  6
CONTINUOUS
 10
0.952925
 20
-3.239476
  0
VERTEX
  8
PLAN_1
  6
CONTINUOUS
 10
0.950043
 20
-3.235772
  0
VERTEX
  8
PLAN_1
  6
CONTINUOUS
 10
0.947571
 20
-3.232067
  0
VERTEX
  8
PLAN_1
  6
CONTINUOUS
 10
0.945512
 20
-3.228358
  0
VERTEX
  8
PLAN_1
  6
CONTINUOUS
 10
0.943453
 20
-3.225067
  0
VERTEX
  8
PLAN_1
  6
CONTINUOUS
 10
0.941807
 20
-3.220949
  0
VERTEX
  8
PLAN_1
  6
CONTINUOUS
 10
0.940161
 20
-3.217244
  0
VERTEX
  8
PLAN_1
  6
CONTINUOUS
 10
0.937689
 20
-3.209421
  0
VERTEX
  8
PLAN_1
  6
CONTINUOUS
 10
0.935630
 20
-3.200776
  0
VERTEX
  8
PLAN_1
  6
CONTINUOUS
 10
0.933984
 20
-3.192126
  0
VERTEX
  8
PLAN_1
  6
CONTINUOUS
 10
0.933161
 20
-3.183071
  0
VERTEX
  8
PLAN_1
  6
CONTINUOUS
 10
0.932748
 20
-3.173598
  0
VERTEX
  8
PLAN_1
  6
CONTINUOUS
 10
0.932339
 20
-3.164130
  0
VERTEX
  8
PLAN_1
  6
CONTINUOUS
 10
0.932748
 20
-3.155894
  0
VERTEX
  8
PLAN_1
  6
CONTINUOUS
 10
0.933161
 20
-3.147661
  0
VERTEX
  8
PLAN_1
  6
CONTINUOUS
 10
0.933984
 20
-3.138602
  0
VERTEX
  8
PLAN_1
  6
CONTINUOUS
 10
0.935630
 20
-3.129957
  0
VERTEX
  8
PLAN_1
  6
CONTINUOUS
 10
0.937280
 20
-3.121311
  0
VERTEX
  8
PLAN_1
  6
CONTINUOUS
 10
0.939748
 20
-3.112661
  0
VERTEX
  8
PLAN_1
  6
CONTINUOUS
 10
0.943043
 20
-3.104016
  0
VERTEX
  8
PLAN_1
  6
CONTINUOUS
 10
0.946748
 20
-3.096193
  0
VERTEX
  8
PLAN_1
  6
CONTINUOUS
 10
0.948807
 20
-3.092075
  0
VERTEX
  8
PLAN_1
  6
CONTINUOUS
 10
0.950866
 20
-3.088370
  0
VERTEX
  8
PLAN_1
  6
CONTINUOUS
 10
0.953335
 20
-3.085079
  0
VERTEX
  8
PLAN_1
  6
CONTINUOUS
 10
0.956217
 20
-3.081783
  0
VERTEX
  8
PLAN_1
  6
CONTINUOUS
 10
0.959098
 20
-3.078488
  0
VERTEX
  8
PLAN_1
  6
CONTINUOUS
 10
0.961980
 20
-3.075606
  0
VERTEX
  8
PLAN_1
  6
CONTINUOUS
 10
0.965276
 20
-3.072724
  0
VERTEX
  8
PLAN_1
  6
CONTINUOUS
 10
0.968571
 20
-3.070256
  0
VERTEX
  8
PLAN_1
  6
CONTINUOUS
 10
0.972276
 20
-3.067783
  0
VERTEX
  8
PLAN_1
  6
CONTINUOUS
 10
0.976394
 20
-3.065724
  0
VERTEX
  8
PLAN_1
  6
CONTINUOUS
 10
0.980508
 20
-3.064079
  0
VERTEX
  8
PLAN_1
  6
CONTINUOUS
 10
0.984626
 20
-3.062843
  0
VERTEX
  8
PLAN_1
  6
CONTINUOUS
 10
0.989157
 20
-3.061610
  0
VERTEX
  8
PLAN_1
  6
CONTINUOUS
 10
0.994098
 20
-3.060783
  0
VERTEX
  8
PLAN_1
  6
CONTINUOUS
 10
0.999039
 20
-3.059961
  0
VERTEX
  8
PLAN_1
  6
CONTINUOUS
 10
1.004390
 20
-3.059961
  0
VERTEX
  8
PLAN_1
  6
CONTINUOUS
 10
1.008921
 20
-3.059961
  0
VERTEX
  8
PLAN_1
  6
CONTINUOUS
 10
1.013449
 20
-3.060374
  0
VERTEX
  8
PLAN_1
  6
CONTINUOUS
 10
1.017976
 20
-3.061197
  0
VERTEX
  8
PLAN_1
  6
CONTINUOUS
 10
1.022508
 20
-3.062433
  0
VERTEX
  8
PLAN_1
  6
CONTINUOUS
 10
1.027035
 20
-3.064079
  0
VERTEX
  8
PLAN_1
  6
CONTINUOUS
 10
1.031976
 20
-3.065724
  0
VERTEX
  8
PLAN_1
  6
CONTINUOUS
 10
1.036094
 20
-3.068197
  0
VERTEX
  8
PLAN_1
  6
CONTINUOUS
 10
1.040622
 20
-3.071079
  0
VERTEX
  8
PLAN_1
  6
CONTINUOUS
 10
1.044740
 20
-3.074374
  0
VERTEX
  8
PLAN_1
  6
CONTINUOUS
 10
1.048445
 20
-3.078079
  0
VERTEX
  8
PLAN_1
  6
CONTINUOUS
 10
1.051740
 20
-3.082197
  0
VERTEX
  8
PLAN_1
  6
CONTINUOUS
 10
1.054622
 20
-3.087134
  0
VERTEX
  8
PLAN_1
  6
CONTINUOUS
 10
1.057091
 20
-3.092488
  0
VERTEX
  8
PLAN_1
  6
CONTINUOUS
 10
1.059150
 20
-3.098252
  0
VERTEX
  8
PLAN_1
  6
CONTINUOUS
 10
1.060799
 20
-3.104839
  0
VERTEX
  8
PLAN_1
  6
CONTINUOUS
 10
1.061622
 20
-3.111839
  0
VERTEX
  8
PLAN_1
  6
CONTINUOUS
 10
1.037740
 20
-3.111839
  0
SEQEND
  8
0
  0
POLYLINE
  8
PLAN_1
  6
CONTINUOUS
 66
     1
 40
0.003000
 41
0.003000
  0
VERTEX
  8
PLAN_1
  6
CONTINUOUS
 10
1.001921
 20
-3.238240
  0
VERTEX
  8
PLAN_1
  6
CONTINUOUS
 10
1.006449
 20
-3.238240
  0
VERTEX
  8
PLAN_1
  6
CONTINUOUS
 10
1.010567
 20
-3.237417
  0
VERTEX
  8
PLAN_1
  6
CONTINUOUS
 10
1.014272
 20
-3.236594
  0
VERTEX
  8
PLAN_1
  6
CONTINUOUS
 10
1.017976
 20
-3.234949
  0
VERTEX
  8
PLAN_1
  6
CONTINUOUS
 10
1.021272
 20
-3.233299
  0
VERTEX
  8
PLAN_1
  6
CONTINUOUS
 10
1.024567
 20
-3.231240
  0
VERTEX
  8
PLAN_1
  6
CONTINUOUS
 10
1.027449
 20
-3.228772
  0
VERTEX
  8
PLAN_1
  6
CONTINUOUS
 10
1.029917
 20
-3.225890
  0
VERTEX
  8
PLAN_1
  6
CONTINUOUS
 10
1.032390
 20
-3.223008
  0
VERTEX
  8
PLAN_1
  6
CONTINUOUS
 10
1.034445
 20
-3.219303
  0
VERTEX
  8
PLAN_1
  6
CONTINUOUS
 10
1.036094
 20
-3.215594
  0
VERTEX
  8
PLAN_1
  6
CONTINUOUS
 10
1.037740
 20
-3.211890
  0
VERTEX
  8
PLAN_1
  6
CONTINUOUS
 10
1.038976
 20
-3.207772
  0
VERTEX
  8
PLAN_1
  6
CONTINUOUS
 10
1.039799
 20
-3.203244
  0
VERTEX
  8
PLAN_1
  6
CONTINUOUS
 10
1.040213
 20
-3.198717
  0
VERTEX
  8
PLAN_1
  6
CONTINUOUS
 10
1.040213
 20
-3.193776
  0
VERTEX
  8
PLAN_1
  6
CONTINUOUS
 10
1.040213
 20
-3.190480
  0
VERTEX
  8
PLAN_1
  6
CONTINUOUS
 10
1.039799
 20
-3.187185
  0
VERTEX
  8
PLAN_1
  6
CONTINUOUS
 10
1.039386
 20
-3.183480
  0
VERTEX
  8
PLAN_1
  6
CONTINUOUS
 10
1.038563
 20
-3.180189
  0
VERTEX
  8
PLAN_1
  6
CONTINUOUS
 10
1.037331
 20
-3.176480
  0
VERTEX
  8
PLAN_1
  6
CONTINUOUS
 10
1.035681
 20
-3.173189
  0
VERTEX
  8
PLAN_1
  6
CONTINUOUS
 10
1.034035
 20
-3.169894
  0
VERTEX
  8
PLAN_1
  6
CONTINUOUS
 10
1.031976
 20
-3.166598
  0
VERTEX
  8
PLAN_1
  6
CONTINUOUS
 10
1.029504
 20
-3.163717
  0
VERTEX
  8
PLAN_1
  6
CONTINUOUS
 10
1.026622
 20
-3.161248
  0
VERTEX
  8
PLAN_1
  6
CONTINUOUS
 10
1.023331
 20
-3.158776
  0
VERTEX
  8
PLAN_1
  6
CONTINUOUS
 10
1.020035
 20
-3.156717
  0
VERTEX
  8
PLAN_1
  6
CONTINUOUS
 10
1.015917
 20
-3.155071
  0
VERTEX
  8
PLAN_1
  6
CONTINUOUS
 10
1.011390
 20
-3.153835
  0
VERTEX
  8
PLAN_1
  6
CONTINUOUS
 10
1.006449
 20
-3.153012
  0
VERTEX
  8
PLAN_1
  6
CONTINUOUS
 10
1.001094
 20
-3.152602
  0
VERTEX
  8
PLAN_1
  6
CONTINUOUS
 10
0.996157
 20
-3.153012
  0
VERTEX
  8
PLAN_1
  6
CONTINUOUS
 10
0.991626
 20
-3.153425
  0
VERTEX
  8
PLAN_1
  6
CONTINUOUS
 10
0.987098
 20
-3.154661
  0
VERTEX
  8
PLAN_1
  6
CONTINUOUS
 10
0.983394
 20
-3.155894
  0
VERTEX
  8
PLAN_1
  6
CONTINUOUS
 10
0.979685
 20
-3.157953
  0
VERTEX
  8
PLAN_1
  6
CONTINUOUS
 10
0.976394
 20
-3.160012
  0
VERTEX
  8
PLAN_1
  6
CONTINUOUS
 10
0.973512
 20
-3.162484
  0
VERTEX
  8
PLAN_1
  6
CONTINUOUS
 10
0.971039
 20
-3.165366
  0
VERTEX
  8
PLAN_1
  6
CONTINUOUS
 10
0.968571
 20
-3.168248
  0
VERTEX
  8
PLAN_1
  6
CONTINUOUS
 10
0.966512
 20
-3.171539
  0
VERTEX
  8
PLAN_1
  6
CONTINUOUS
 10
0.964862
 20
-3.174835
  0
VERTEX
  8
PLAN_1
  6
CONTINUOUS
 10
0.963630
 20
-3.178539
  0
VERTEX
  8
PLAN_1
  6
CONTINUOUS
 10
0.962394
 20
-3.182657
  0
VERTEX
  8
PLAN_1
  6
CONTINUOUS
 10
0.961571
 20
-3.186776
  0
VERTEX
  8
PLAN_1
  6
CONTINUOUS
 10
0.961157
 20
-3.190894
  0
VERTEX
  8
PLAN_1
  6
CONTINUOUS
 10
0.961157
 20
-3.195008
  0
VERTEX
  8
PLAN_1
  6
CONTINUOUS
 10
0.961157
 20
-3.199126
  0
VERTEX
  8
PLAN_1
  6
CONTINUOUS
 10
0.961571
 20
-3.202831
  0
VERTEX
  8
PLAN_1
  6
CONTINUOUS
 10
0.962394
 20
-3.206949
  0
VERTEX
  8
PLAN_1
  6
CONTINUOUS
 10
0.963217
 20
-3.210654
  0
VERTEX
  8
PLAN_1
  6
CONTINUOUS
 10
0.964862
 20
-3.214362
  0
VERTEX
  8
PLAN_1
  6
CONTINUOUS
 10
0.966512
 20
-3.218067
  0
VERTEX
  8
PLAN_1
  6
CONTINUOUS
 10
0.968571
 20
-3.221362
  0
VERTEX
  8
PLAN_1
  6
CONTINUOUS
 10
0.970630
 20
-3.224654
  0
VERTEX
  8
PLAN_1
  6
CONTINUOUS
 10
0.973512
 20
-3.227535
  0
VERTEX
  8
PLAN_1
  6
CONTINUOUS
 10
0.976394
 20
-3.230008
  0
VERTEX
  8
PLAN_1
  6
CONTINUOUS
 10
0.979685
 20
-3.232476
  0
VERTEX
  8
PLAN_1
  6
CONTINUOUS
 10
0.983803
 20
-3.234535
  0
VERTEX
  8
PLAN_1
  6
CONTINUOUS
 10
0.987508
 20
-3.236181
  0
VERTEX
  8
PLAN_1
  6
CONTINUOUS
 10
0.992039
 20
-3.237417
  0
VERTEX
  8
PLAN_1
  6
CONTINUOUS
 10
0.996980
 20
-3.238240
  0
VERTEX
  8
PLAN_1
  6
CONTINUOUS
 10
1.001921
 20
-3.238240
  0
SEQEND
  8
0
  0
POLYLINE
  8
PLAN_1
  6
CONTINUOUS
 66
     1
 40
0.003000
 41
0.003000
  0
VERTEX
  8
PLAN_1
  6
CONTINUOUS
 10
1.192965
 20
-3.207362
  0
VERTEX
  8
PLAN_1
  6
CONTINUOUS
 10
1.192965
 20
-3.255122
  0
VERTEX
  8
PLAN_1
  6
CONTINUOUS
 10
1.168260
 20
-3.255122
  0
VERTEX
  8
PLAN_1
  6
CONTINUOUS
 10
1.168260
 20
-3.207362
  0
VERTEX
  8
PLAN_1
  6
CONTINUOUS
 10
1.083031
 20
-3.207362
  0
VERTEX
  8
PLAN_1
  6
CONTINUOUS
 10
1.083031
 20
-3.183894
  0
VERTEX
  8
PLAN_1
  6
CONTINUOUS
 10
1.172378
 20
-3.059961
  0
VERTEX
  8
PLAN_1
  6
CONTINUOUS
 10
1.192965
 20
-3.059961
  0
VERTEX
  8
PLAN_1
  6
CONTINUOUS
 10
1.192965
 20
-3.186362
  0
VERTEX
  8
PLAN_1
  6
CONTINUOUS
 10
1.221374
 20
-3.186362
  0
VERTEX
  8
PLAN_1
  6
CONTINUOUS
 10
1.221374
 20
-3.207362
  0
VERTEX
  8
PLAN_1
  6
CONTINUOUS
 10
1.192965
 20
-3.207362
  0
SEQEND
  8
0
  0
SOLID
  8
PLAN_1
 10
1.105677
 20
-3.186362
 11
1.168260
 21
-3.186362
 12
1.167846
 22
-3.097843
 13
1.168260
 23
-3.097843
  0
POLYLINE
  8
PLAN_1
  6
CONTINUOUS
 66
     1
 40
0.003000
 41
0.003000
  0
VERTEX
  8
PLAN_1
  6
CONTINUOUS
 10
1.105677
 20
-3.186362
  0
VERTEX
  8
PLAN_1
  6
CONTINUOUS
 10
1.168260
 20
-3.186362
  0
VERTEX
  8
PLAN_1
  6
CONTINUOUS
 10
1.168260
 20
-3.097843
  0
VERTEX
  8
PLAN_1
  6
CONTINUOUS
 10
1.167846
 20
-3.097843
  0
VERTEX
  8
PLAN_1
  6
CONTINUOUS
 10
1.105677
 20
-3.186362
  0
SEQEND
  8
0
  0
SOLID
  8
PLAN_1
 10
1.230429
 20
-3.289709
 11
1.230429
 21
-3.275709
 12
1.384831
 22
-3.289709
 13
1.384831
 23
-3.275709
  0
POLYLINE
  8
PLAN_1
  6
CONTINUOUS
 66
     1
 40
0.003000
 41
0.003000
  0
VERTEX
  8
PLAN_1
  6
CONTINUOUS
 10
1.230429
 20
-3.289709
  0
VERTEX
  8
PLAN_1
  6
CONTINUOUS
 10
1.230429
 20
-3.275709
  0
VERTEX
  8
PLAN_1
  6
CONTINUOUS
 10
1.384831
 20
-3.275709
  0
VERTEX
  8
PLAN_1
  6
CONTINUOUS
 10
1.384831
 20
-3.289709
  0
VERTEX
  8
PLAN_1
  6
CONTINUOUS
 10
1.230429
 20
-3.289709
  0
SEQEND
  8
0
  0
POLYLINE
  8
PLAN_1
  6
CONTINUOUS
 66
     1
 40
0.003000
 41
0.003000
  0
VERTEX
  8
PLAN_1
  6
CONTINUOUS
 10
1.436295
 20
-3.255122
  0
VERTEX
  8
PLAN_1
  6
CONTINUOUS
 10
1.409535
 20
-3.255122
  0
VERTEX
  8
PLAN_1
  6
CONTINUOUS
 10
1.409535
 20
-3.055843
  0
VERTEX
  8
PLAN_1
  6
CONTINUOUS
 10
1.501350
 20
-3.055843
  0
VERTEX
  8
PLAN_1
  6
CONTINUOUS
 10
1.507528
 20
-3.055843
  0
VERTEX
  8
PLAN_1
  6
CONTINUOUS
 10
1.513701
 20
-3.056256
  0
VERTEX
  8
PLAN_1
  6
CONTINUOUS
 10
1.519878
 20
-3.057079
  0
VERTEX
  8
PLAN_1
  6
CONTINUOUS
 10
1.525642
 20
-3.058315
  0
VERTEX
  8
PLAN_1
  6
CONTINUOUS
 10
1.531406
 20
-3.059551
  0
VERTEX
  8
PLAN_1
  6
CONTINUOUS
 10
1.536760
 20
-3.061610
  0
VERTEX
  8
PLAN_1
  6
CONTINUOUS
 10
1.541701
 20
-3.064079
  0
VERTEX
  8
PLAN_1
  6
CONTINUOUS
 10
1.546642
 20
-3.066551
  0
VERTEX
  8
PLAN_1
  6
CONTINUOUS
 10
1.550760
 20
-3.069843
  0
VERTEX
  8
PLAN_1
  6
CONTINUOUS
 10
1.554874
 20
-3.073961
  0
VERTEX
  8
PLAN_1
  6
CONTINUOUS
 10
1.558583
 20
-3.078079
  0
VERTEX
  8
PLAN_1
  6
CONTINUOUS
 10
1.561465
 20
-3.083020
  0
VERTEX
  8
PLAN_1
  6
CONTINUOUS
 10
1.563933
 20
-3.088783
  0
VERTEX
  8
PLAN_1
  6
CONTINUOUS
 10
1.565579
 20
-3.094961
  0
VERTEX
  8
PLAN_1
  6
CONTINUOUS
 10
1.566815
 20
-3.101957
  0
VERTEX
  8
PLAN_1
  6
CONTINUOUS
 10
1.566815
 20
-3.109370
  0
VERTEX
  8
PLAN_1
  6
CONTINUOUS
 10
1.566815
 20
-3.114720
  0
VERTEX
  8
PLAN_1
  6
CONTINUOUS
 10
1.566406
 20
-3.119661
  0
VERTEX
  8
PLAN_1
  6
CONTINUOUS
 10
1.565579
 20
-3.124193
  0
VERTEX
  8
PLAN_1
  6
CONTINUOUS
 10
1.564346
 20
-3.128307
  0
VERTEX
  8
PLAN_1
  6
CONTINUOUS
 10
1.563110
 20
-3.132016
  0
VERTEX
  8
PLAN_1
  6
CONTINUOUS
 10
1.561465
 20
-3.135307
  0
VERTEX
  8
PLAN_1
  6
CONTINUOUS
 10
1.559815
 20
-3.138602
  0
VERTEX
  8
PLAN_1
  6
CONTINUOUS
 10
1.557756
 20
-3.141484
  0
VERTEX
  8
PLAN_1
  6
CONTINUOUS
 10
1.555701
 20
-3.143957
  0
VERTEX
  8
PLAN_1
  6
CONTINUOUS
 10
1.553642
 20
-3.146425
  0
VERTEX
  8
PLAN_1
  6
CONTINUOUS
 10
1.551169
 20
-3.148484
  0
VERTEX
  8
PLAN_1
  6
CONTINUOUS
 10
1.549110
 20
-3.150543
  0
VERTEX
  8
PLAN_1
  6
CONTINUOUS
 10
1.544169
 20
-3.154248
  0
VERTEX
  8
PLAN_1
  6
CONTINUOUS
 10
1.539228
 20
-3.157130
  0
VERTEX
  8
PLAN_1
  6
CONTINUOUS
 10
1.543346
 20
-3.158776
  0
VERTEX
  8
PLAN_1
  6
CONTINUOUS
 10
1.547465
 20
-3.160835
  0
VERTEX
  8
PLAN_1
  6
CONTINUOUS
 10
1.549524
 20
-3.162071
  0
VERTEX
  8
PLAN_1
  6
CONTINUOUS
 10
1.551583
 20
-3.163717
  0
VERTEX
  8
PLAN_1
  6
CONTINUOUS
 10
1.553228
 20
-3.165366
  0
VERTEX
  8
PLAN_1
  6
CONTINUOUS
 10
1.554874
 20
-3.167012
  0
VERTEX
  8
PLAN_1
  6
CONTINUOUS
 10
1.556524
 20
-3.169480
  0
VERTEX
  8
PLAN_1
  6
CONTINUOUS
 10
1.558169
 20
-3.171539
  0
VERTEX
  8
PLAN_1
  6
CONTINUOUS
 10
1.559406
 20
-3.174421
  0
VERTEX
  8
PLAN_1
  6
CONTINUOUS
 10
1.560642
 20
-3.177717
  0
VERTEX
  8
PLAN_1
  6
CONTINUOUS
 10
1.561465
 20
-3.181012
  0
VERTEX
  8
PLAN_1
  6
CONTINUOUS
 10
1.562287
 20
-3.185130
  0
VERTEX
  8
PLAN_1
  6
CONTINUOUS
 10
1.562697
 20
-3.189657
  0
VERTEX
  8
PLAN_1
  6
CONTINUOUS
 10
1.563110
 20
-3.194598
  0
VERTEX
  8
PLAN_1
  6
CONTINUOUS
 10
1.564756
 20
-3.230417
  0
VERTEX
  8
PLAN_1
  6
CONTINUOUS
 10
1.564756
 20
-3.234535
  0
VERTEX
  8
PLAN_1
  6
CONTINUOUS
 10
1.565169
 20
-3.237831
  0
VERTEX
  8
PLAN_1
  6
CONTINUOUS
 10
1.565992
 20
-3.240713
  0
VERTEX
  8
PLAN_1
  6
CONTINUOUS
 10
1.566815
 20
-3.243181
  0
VERTEX
  8
PLAN_1
  6
CONTINUOUS
 10
1.568051
 20
-3.245240
  0
VERTEX
  8
PLAN_1
  6
CONTINUOUS
 10
1.569697
 20
-3.246886
  0
VERTEX
  8
PLAN_1
  6
CONTINUOUS
 10
1.571756
 20
-3.248945
  0
VERTEX
  8
PLAN_1
  6
CONTINUOUS
 10
1.574638
 20
-3.250594
  0
VERTEX
  8
PLAN_1
  6
CONTINUOUS
 10
1.574638
 20
-3.255122
  0
VERTEX
  8
PLAN_1
  6
CONTINUOUS
 10
1.541701
 20
-3.255122
  0
VERTEX
  8
PLAN_1
  6
CONTINUOUS
 10
1.540465
 20
-3.249772
  0
VERTEX
  8
PLAN_1
  6
CONTINUOUS
 10
1.539228
 20
-3.243181
  0
VERTEX
  8
PLAN_1
  6
CONTINUOUS
 10
1.538406
 20
-3.235772
  0
VERTEX
  8
PLAN_1
  6
CONTINUOUS
 10
1.537996
 20
-3.228358
  0
VERTEX
  8
PLAN_1
  6
CONTINUOUS
 10
1.537583
 20
-3.220949
  0
VERTEX
  8
PLAN_1
  6
CONTINUOUS
 10
1.537169
 20
-3.214362
  0
VERTEX
  8
PLAN_1
  6
CONTINUOUS
 10
1.537169
 20
-3.209008
  0
VERTEX
  8
PLAN_1
  6
CONTINUOUS
 10
1.537169
 20
-3.204890
  0
VERTEX
  8
PLAN_1
  6
CONTINUOUS
 10
1.536760
 20
-3.198717
  0
VERTEX
  8
PLAN_1
  6
CONTINUOUS
 10
1.535937
 20
-3.192539
  0
VERTEX
  8
PLAN_1
  6
CONTINUOUS
 10
1.535114
 20
-3.189657
  0
VERTEX
  8
PLAN_1
  6
CONTINUOUS
 10
1.534287
 20
-3.186776
  0
VERTEX
  8
PLAN_1
  6
CONTINUOUS
 10
1.533055
 20
-3.183894
  0
VERTEX
  8
PLAN_1
  6
CONTINUOUS
 10
1.531406
 20
-3.181012
  0
VERTEX
  8
PLAN_1
  6
CONTINUOUS
 10
1.529346
 20
-3.178539
  0
VERTEX
  8
PLAN_1
  6
CONTINUOUS
 10
1.526878
 20
-3.176480
  0
VERTEX
  8
PLAN_1
  6
CONTINUOUS
 10
1.523996
 20
-3.174421
  0
VERTEX
  8
PLAN_1
  6
CONTINUOUS
 10
1.520701
 20
-3.172776
  0
VERTEX
  8
PLAN_1
  6
CONTINUOUS
 10
1.516583
 20
-3.171539
  0
VERTEX
  8
PLAN_1
  6
CONTINUOUS
 10
1.512469
 20
-3.170307
  0
VERTEX
  8
PLAN_1
  6
CONTINUOUS
 10
1.507114
 20
-3.169894
  0
VERTEX
  8
PLAN_1
  6
CONTINUOUS
 10
1.501350
 20
-3.169480
  0
VERTEX
  8
PLAN_1
  6
CONTINUOUS
 10
1.436295
 20
-3.169480
  0
VERTEX
  8
PLAN_1
  6
CONTINUOUS
 10
1.436295
 20
-3.255122
  0
SEQEND
  8
0
  0
POLYLINE
  8
PLAN_1
  6
CONTINUOUS
 66
     1
 40
0.003000
 41
0.003000
  0
VERTEX
  8
PLAN_1
  6
CONTINUOUS
 10
1.436295
 20
-3.146425
  0
VERTEX
  8
PLAN_1
  6
CONTINUOUS
 10
1.498882
 20
-3.146425
  0
VERTEX
  8
PLAN_1
  6
CONTINUOUS
 10
1.506291
 20
-3.146425
  0
VERTEX
  8
PLAN_1
  6
CONTINUOUS
 10
1.513291
 20
-3.145189
  0
VERTEX
  8
PLAN_1
  6
CONTINUOUS
 10
1.516996
 20
-3.144366
  0
VERTEX
  8
PLAN_1
  6
CONTINUOUS
 10
1.520291
 20
-3.143543
  0
VERTEX
  8
PLAN_1
  6
CONTINUOUS
 10
1.523583
 20
-3.141898
  0
VERTEX
  8
PLAN_1
  6
CONTINUOUS
 10
1.526465
 20
-3.140248
  0
VERTEX
  8
PLAN_1
  6
CONTINUOUS
 10
1.528937
 20
-3.138189
  0
VERTEX
  8
PLAN_1
  6
CONTINUOUS
 10
1.531819
 20
-3.135720
  0
VERTEX
  8
PLAN_1
  6
CONTINUOUS
 10
1.533878
 20
-3.133248
  0
VERTEX
  8
PLAN_1
  6
CONTINUOUS
 10
1.535524
 20
-3.129957
  0
VERTEX
  8
PLAN_1
  6
CONTINUOUS
 10
1.537169
 20
-3.126252
  0
VERTEX
  8
PLAN_1
  6
CONTINUOUS
 10
1.538406
 20
-3.122134
  0
VERTEX
  8
PLAN_1
  6
CONTINUOUS
 10
1.538819
 20
-3.117193
  0
VERTEX
  8
PLAN_1
  6
CONTINUOUS
 10
1.539228
 20
-3.112252
  0
VERTEX
  8
PLAN_1
  6
CONTINUOUS
 10
1.538819
 20
-3.106488
  0
VERTEX
  8
PLAN_1
  6
CONTINUOUS
 10
1.538406
 20
-3.101957
  0
VERTEX
  8
PLAN_1
  6
CONTINUOUS
 10
1.537169
 20
-3.097429
  0
VERTEX
  8
PLAN_1
  6
CONTINUOUS
 10
1.535524
 20
-3.093724
  0
VERTEX
  8
PLAN_1
  6
CONTINUOUS
 10
1.533465
 20
-3.090843
  0
VERTEX
  8
PLAN_1
  6
CONTINUOUS
 10
1.531406
 20
-3.087961
  0
VERTEX
  8
PLAN_1
  6
CONTINUOUS
 10
1.528937
 20
-3.085902
  0
VERTEX
  8
PLAN_1
  6
CONTINUOUS
 10
1.526465
 20
-3.083843
  0
VERTEX
  8
PLAN_1
  6
CONTINUOUS
 10
1.523583
 20
-3.082197
  0
VERTEX
  8
PLAN_1
  6
CONTINUOUS
 10
1.520701
 20
-3.081370
  0
VERTEX
  8
PLAN_1
  6
CONTINUOUS
 10
1.517819
 20
-3.080138
  0
VERTEX
  8
PLAN_1
  6
CONTINUOUS
 10
1.514528
 20
-3.079724
  0
VERTEX
  8
PLAN_1
  6
CONTINUOUS
 10
1.508760
 20
-3.078902
  0
VERTEX
  8
PLAN_1
  6
CONTINUOUS
 10
1.503409
 20
-3.078902
  0
VERTEX
  8
PLAN_1
  6
CONTINUOUS
 10
1.436295
 20
-3.078902
  0
VERTEX
  8
PLAN_1
  6
CONTINUOUS
 10
1.436295
 20
-3.146425
  0
SEQEND
  8
0
  0
SOLID
  8
PLAN_1
 10
1.638457
 20
-3.255122
 11
1.609638
 21
-3.255122
 12
1.638457
 22
-3.225476
 13
1.609638
 23
-3.225476
  0
POLYLINE
  8
PLAN_1
  6
CONTINUOUS
 66
     1
 40
0.003000
 41
0.003000
  0
VERTEX
  8
PLAN_1
  6
CONTINUOUS
 10
1.638457
 20
-3.255122
  0
VERTEX
  8
PLAN_1
  6
CONTINUOUS
 10
1.609638
 20
-3.255122
  0
VERTEX
  8
PLAN_1
  6
CONTINUOUS
 10
1.609638
 20
-3.225476
  0
VERTEX
  8
PLAN_1
  6
CONTINUOUS
 10
1.638457
 20
-3.225476
  0
VERTEX
  8
PLAN_1
  6
CONTINUOUS
 10
1.638457
 20
-3.255122
  0
SEQEND
  8
0
  0
POLYLINE
  8
PLAN_1
  6
CONTINUOUS
 66
     1
 40
0.003000
 41
0.003000
  0
VERTEX
  8
PLAN_1
  6
CONTINUOUS
 10
1.833618
 20
-3.255122
  0
VERTEX
  8
PLAN_1
  6
CONTINUOUS
 10
1.686217
 20
-3.255122
  0
VERTEX
  8
PLAN_1
  6
CONTINUOUS
 10
1.686217
 20
-3.055843
  0
VERTEX
  8
PLAN_1
  6
CONTINUOUS
 10
1.831559
 20
-3.055843
  0
VERTEX
  8
PLAN_1
  6
CONTINUOUS
 10
1.831559
 20
-3.079724
  0
VERTEX
  8
PLAN_1
  6
CONTINUOUS
 10
1.713394
 20
-3.079724
  0
VERTEX
  8
PLAN_1
  6
CONTINUOUS
 10
1.713394
 20
-3.140661
  0
VERTEX
  8
PLAN_1
  6
CONTINUOUS
 10
1.822500
 20
-3.140661
  0
VERTEX
  8
PLAN_1
  6
CONTINUOUS
 10
1.822500
 20
-3.164543
  0
VERTEX
  8
PLAN_1
  6
CONTINUOUS
 10
1.713394
 20
-3.164543
  0
VERTEX
  8
PLAN_1
  6
CONTINUOUS
 10
1.713394
 20
-3.231240
  0
VERTEX
  8
PLAN_1
  6
CONTINUOUS
 10
1.833618
 20
-3.231240
  0
VERTEX
  8
PLAN_1
  6
CONTINUOUS
 10
1.833618
 20
-3.255122
  0
SEQEND
  8
0
  0
POLYLINE
  8
PLAN_1
  6
CONTINUOUS
 66
     1
 40
0.003000
 41
0.003000
  0
VERTEX
  8
PLAN_1
  6
CONTINUOUS
 10
1.898673
 20
-3.255122
  0
VERTEX
  8
PLAN_1
  6
CONTINUOUS
 10
1.871496
 20
-3.255122
  0
VERTEX
  8
PLAN_1
  6
CONTINUOUS
 10
1.871496
 20
-3.055843
  0
VERTEX
  8
PLAN_1
  6
CONTINUOUS
 10
1.961256
 20
-3.055843
  0
VERTEX
  8
PLAN_1
  6
CONTINUOUS
 10
1.967843
 20
-3.055843
  0
VERTEX
  8
PLAN_1
  6
CONTINUOUS
 10
1.974429
 20
-3.056669
  0
VERTEX
  8
PLAN_1
  6
CONTINUOUS
 10
1.980193
 20
-3.058315
  0
VERTEX
  8
PLAN_1
  6
CONTINUOUS
 10
1.985961
 20
-3.059961
  0
VERTEX
  8
PLAN_1
  6
CONTINUOUS
 10
1.991311
 20
-3.062433
  0
VERTEX
  8
PLAN_1
  6
CONTINUOUS
 10
1.996252
 20
-3.064902
  0
VERTEX
  8
PLAN_1
  6
CONTINUOUS
 10
2.000780
 20
-3.068197
  0
VERTEX
  8
PLAN_1
  6
CONTINUOUS
 10
2.004488
 20
-3.071902
  0
VERTEX
  8
PLAN_1
  6
CONTINUOUS
 10
2.008193
 20
-3.075606
  0
VERTEX
  8
PLAN_1
  6
CONTINUOUS
 10
2.011484
 20
-3.080138
  0
VERTEX
  8
PLAN_1
  6
CONTINUOUS
 10
2.013957
 20
-3.084665
  0
VERTEX
  8
PLAN_1
  6
CONTINUOUS
 10
2.016425
 20
-3.089606
  0
VERTEX
  8
PLAN_1
  6
CONTINUOUS
 10
2.018075
 20
-3.094547
  0
VERTEX
  8
PLAN_1
  6
CONTINUOUS
 10
2.019307
 20
-3.100311
  0
VERTEX
  8
PLAN_1
  6
CONTINUOUS
 10
2.020134
 20
-3.106075
  0
VERTEX
  8
PLAN_1
  6
CONTINUOUS
 10
2.020543
 20
-3.111839
  0
VERTEX
  8
PLAN_1
  6
CONTINUOUS
 10
2.020134
 20
-3.117193
  0
VERTEX
  8
PLAN_1
  6
CONTINUOUS
 10
2.019720
 20
-3.122134
  0
VERTEX
  8
PLAN_1
  6
CONTINUOUS
 10
2.018484
 20
-3.127484
  0
VERTEX
  8
PLAN_1
  6
CONTINUOUS
 10
2.017252
 20
-3.132839
  0
VERTEX
  8
PLAN_1
  6
CONTINUOUS
 10
2.015193
 20
-3.137780
  0
VERTEX
  8
PLAN_1
  6
CONTINUOUS
 10
2.013134
 20
-3.142720
  0
VERTEX
  8
PLAN_1
  6
CONTINUOUS
 10
2.010252
 20
-3.147248
  0
VERTEX
  8
PLAN_1
  6
CONTINUOUS
 10
2.006957
 20
-3.151780
  0
VERTEX
  8
PLAN_1
  6
CONTINUOUS
 10
2.003252
 20
-3.155894
  0
VERTEX
  8
PLAN_1
  6
CONTINUOUS
 10
1.999134
 20
-3.159602
  0
VERTEX
  8
PLAN_1
  6
CONTINUOUS
 10
1.994193
 20
-3.162894
  0
VERTEX
  8
PLAN_1
  6
CONTINUOUS
 10
1.988843
 20
-3.165776
  0
VERTEX
  8
PLAN_1
  6
CONTINUOUS
 10
1.982665
 20
-3.167835
  0
VERTEX
  8
PLAN_1
  6
CONTINUOUS
 10
1.976079
 20
-3.169480
  0
VERTEX
  8
PLAN_1
  6
CONTINUOUS
 10
1.969079
 20
-3.170717
  0
VERTEX
  8
PLAN_1
  6
CONTINUOUS
 10
1.961256
 20
-3.171130
  0
VERTEX
  8
PLAN_1
  6
CONTINUOUS
 10
1.898673
 20
-3.171130
  0
VERTEX
  8
PLAN_1
  6
CONTINUOUS
 10
1.898673
 20
-3.255122
  0
SEQEND
  8
0
  0
POLYLINE
  8
PLAN_1
  6
CONTINUOUS
 66
     1
 40
0.003000
 41
0.003000
  0
VERTEX
  8
PLAN_1
  6
CONTINUOUS
 10
1.898673
 20
-3.148071
  0
VERTEX
  8
PLAN_1
  6
CONTINUOUS
 10
1.952197
 20
-3.148071
  0
VERTEX
  8
PLAN_1
  6
CONTINUOUS
 10
1.956315
 20
-3.147661
  0
VERTEX
  8
PLAN_1
  6
CONTINUOUS
 10
1.960843
 20
-3.147661
  0
VERTEX
  8
PLAN_1
  6
CONTINUOUS
 10
1.964961
 20
-3.146839
  0
VERTEX
  8
PLAN_1
  6
CONTINUOUS
 10
1.968665
 20
-3.146012
  0
VERTEX
  8
PLAN_1
  6
CONTINUOUS
 10
1.972370
 20
-3.145189
  0
VERTEX
  8
PLAN_1
  6
CONTINUOUS
 10
1.975665
 20
-3.143543
  0
VERTEX
  8
PLAN_1
  6
CONTINUOUS
 10
1.978547
 20
-3.141898
  0
VERTEX
  8
PLAN_1
  6
CONTINUOUS
 10
1.981429
 20
-3.140248
  0
VERTEX
  8
PLAN_1
  6
CONTINUOUS
 10
1.983902
 20
-3.137780
  0
VERTEX
  8
PLAN_1
  6
CONTINUOUS
 10
1.985961
 20
-3.135307
  0
VERTEX
  8
PLAN_1
  6
CONTINUOUS
 10
1.988016
 20
-3.132425
  0
VERTEX
  8
PLAN_1
  6
CONTINUOUS
 10
1.989665
 20
-3.129134
  0
VERTEX
  8
PLAN_1
  6
CONTINUOUS
 10
1.990898
 20
-3.125425
  0
VERTEX
  8
PLAN_1
  6
CONTINUOUS
 10
1.991724
 20
-3.121311
  0
VERTEX
  8
PLAN_1
  6
CONTINUOUS
 10
1.992547
 20
-3.116780
  0
VERTEX
  8
PLAN_1
  6
CONTINUOUS
 10
1.992547
 20
-3.112252
  0
VERTEX
  8
PLAN_1
  6
CONTINUOUS
 10
1.992547
 20
-3.107720
  0
VERTEX
  8
PLAN_1
  6
CONTINUOUS
 10
1.991724
 20
-3.103606
  0
VERTEX
  8
PLAN_1
  6
CONTINUOUS
 10
1.990898
 20
-3.099488
  0
VERTEX
  8
PLAN_1
  6
CONTINUOUS
 10
1.989665
 20
-3.096193
  0
VERTEX
  8
PLAN_1
  6
CONTINUOUS
 10
1.988016
 20
-3.093311
  0
VERTEX
  8
PLAN_1
  6
CONTINUOUS
 10
1.985961
 20
-3.090429
  0
VERTEX
  8
PLAN_1
  6
CONTINUOUS
 10
1.983902
 20
-3.087961
  0
VERTEX
  8
PLAN_1
  6
CONTINUOUS
 10
1.981429
 20
-3.085902
  0
VERTEX
  8
PLAN_1
  6
CONTINUOUS
 10
1.978547
 20
-3.084252
  0
VERTEX
  8
PLAN_1
  6
CONTINUOUS
 10
1.975252
 20
-3.082606
  0
VERTEX
  8
PLAN_1
  6
CONTINUOUS
 10
1.972370
 20
-3.081370
  0
VERTEX
  8
PLAN_1
  6
CONTINUOUS
 10
1.968665
 20
-3.080547
  0
VERTEX
  8
PLAN_1
  6
CONTINUOUS
 10
1.964961
 20
-3.079724
  0
VERTEX
  8
PLAN_1
  6
CONTINUOUS
 10
1.961256
 20
-3.079311
  0
VERTEX
  8
PLAN_1
  6
CONTINUOUS
 10
1.957138
 20
-3.078902
  0
VERTEX
  8
PLAN_1
  6
CONTINUOUS
 10
1.953020
 20
-3.078902
  0
VERTEX
  8
PLAN_1
  6
CONTINUOUS
 10
1.898673
 20
-3.078902
  0
VERTEX
  8
PLAN_1
  6
CONTINUOUS
 10
1.898673
 20
-3.148071
  0
SEQEND
  8
0
  0
POLYLINE
  8
PLAN_1
  6
CONTINUOUS
 66
     1
 40
0.003000
 41
0.003000
  0
VERTEX
  8
PLAN_1
  6
CONTINUOUS
 10
2.174122
 20
-3.113898
  0
VERTEX
  8
PLAN_1
  6
CONTINUOUS
 10
2.173709
 20
-3.108547
  0
VERTEX
  8
PLAN_1
  6
CONTINUOUS
 10
2.172472
 20
-3.103606
  0
VERTEX
  8
PLAN_1
  6
CONTINUOUS
 10
2.171236
 20
-3.098665
  0
VERTEX
  8
PLAN_1
  6
CONTINUOUS
 10
2.169181
 20
-3.094547
  0
VERTEX
  8
PLAN_1
  6
CONTINUOUS
 10
2.166709
 20
-3.090843
  0
VERTEX
  8
PLAN_1
  6
CONTINUOUS
 10
2.163827
 20
-3.087547
  0
VERTEX
  8
PLAN_1
  6
CONTINUOUS
 10
2.160945
 20
-3.084665
  0
VERTEX
  8
PLAN_1
  6
CONTINUOUS
 10
2.157240
 20
-3.082197
  0
VERTEX
  8
PLAN_1
  6
CONTINUOUS
 10
2.153945
 20
-3.080138
  0
VERTEX
  8
PLAN_1
  6
CONTINUOUS
 10
2.149827
 20
-3.078079
  0
VERTEX
  8
PLAN_1
  6
CONTINUOUS
 10
2.146122
 20
-3.076843
  0
VERTEX
  8
PLAN_1
  6
CONTINUOUS
 10
2.142004
 20
-3.075606
  0
VERTEX
  8
PLAN_1
  6
CONTINUOUS
 10
2.137476
 20
-3.074783
  0
VERTEX
  8
PLAN_1
  6
CONTINUOUS
 10
2.133358
 20
-3.073961
  0
VERTEX
  8
PLAN_1
  6
CONTINUOUS
 10
2.129240
 20
-3.073547
  0
VERTEX
  8
PLAN_1
  6
CONTINUOUS
 10
2.124713
 20
-3.073547
  0
VERTEX
  8
PLAN_1
  6
CONTINUOUS
 10
2.118126
 20
-3.073961
  0
VERTEX
  8
PLAN_1
  6
CONTINUOUS
 10
2.110713
 20
-3.074783
  0
VERTEX
  8
PLAN_1
  6
CONTINUOUS
 10
2.106594
 20
-3.075606
  0
VERTEX
  8
PLAN_1
  6
CONTINUOUS
 10
2.102890
 20
-3.076429
  0
VERTEX
  8
PLAN_1
  6
CONTINUOUS
 10
2.099185
 20
-3.078079
  0
VERTEX
  8
PLAN_1
  6
CONTINUOUS
 10
2.095890
 20
-3.079724
  0
VERTEX
  8
PLAN_1
  6
CONTINUOUS
 10
2.092185
 20
-3.081783
  0
VERTEX
  8
PLAN_1
  6
CONTINUOUS
 10
2.089303
 20
-3.084252
  0
VERTEX
  8
PLAN_1
  6
CONTINUOUS
 10
2.086421
 20
-3.087134
  0
VERTEX
  8
PLAN_1
  6
CONTINUOUS
 10
2.083953
 20
-3.090429
  0
VERTEX
  8
PLAN_1
  6
CONTINUOUS
 10
2.081894
 20
-3.094134
  0
VERTEX
  8
PLAN_1
  6
CONTINUOUS
 10
2.080657
 20
-3.098252
  0
VERTEX
  8
PLAN_1
  6
CONTINUOUS
 10
2.079421
 20
-3.103193
  0
VERTEX
  8
PLAN_1
  6
CONTINUOUS
 10
2.079421
 20
-3.108547
  0
VERTEX
  8
PLAN_1
  6
CONTINUOUS
 10
2.079421
 20
-3.111429
  0
VERTEX
  8
PLAN_1
  6
CONTINUOUS
 10
2.079835
 20
-3.114311
  0
VERTEX
  8
PLAN_1
  6
CONTINUOUS
 10
2.080657
 20
-3.116780
  0
VERTEX
  8
PLAN_1
  6
CONTINUOUS
 10
2.081480
 20
-3.119252
  0
VERTEX
  8
PLAN_1
  6
CONTINUOUS
 10
2.082303
 20
-3.121311
  0
VERTEX
  8
PLAN_1
  6
CONTINUOUS
 10
2.083539
 20
-3.123370
  0
VERTEX
  8
PLAN_1
  6
CONTINUOUS
 10
2.085185
 20
-3.125016
  0
VERTEX
  8
PLAN_1
  6
CONTINUOUS
 10
2.086835
 20
-3.126252
  0
VERTEX
  8
PLAN_1
  6
CONTINUOUS
 10
2.090126
 20
-3.129134
  0
VERTEX
  8
PLAN_1
  6
CONTINUOUS
 10
2.094244
 20
-3.131193
  0
VERTEX
  8
PLAN_1
  6
CONTINUOUS
 10
2.098362
 20
-3.132425
  0
VERTEX
  8
PLAN_1
  6
CONTINUOUS
 10
2.102890
 20
-3.133661
  0
VERTEX
  8
PLAN_1
  6
CONTINUOUS
 10
2.159709
 20
-3.146839
  0
VERTEX
  8
PLAN_1
  6
CONTINUOUS
 10
2.164650
 20
-3.148071
  0
VERTEX
  8
PLAN_1
  6
CONTINUOUS
 10
2.169181
 20
-3.149720
  0
VERTEX
  8
PLAN_1
  6
CONTINUOUS
 10
2.173709
 20
-3.151366
  0
VERTEX
  8
PLAN_1
  6
CONTINUOUS
 10
2.177827
 20
-3.153425
  0
VERTEX
  8
PLAN_1
  6
CONTINUOUS
 10
2.181531
 20
-3.155484
  0
VERTEX
  8
PLAN_1
  6
CONTINUOUS
 10
2.185236
 20
-3.157953
  0
VERTEX
  8
PLAN_1
  6
CONTINUOUS
 10
2.188941
 20
-3.160835
  0
VERTEX
  8
PLAN_1
  6
CONTINUOUS
 10
2.192236
 20
-3.163717
  0
VERTEX
  8
PLAN_1
  6
CONTINUOUS
 10
2.195118
 20
-3.167425
  0
VERTEX
  8
PLAN_1
  6
CONTINUOUS
 10
2.197591
 20
-3.170717
  0
VERTEX
  8
PLAN_1
  6
CONTINUOUS
 10
2.199646
 20
-3.174835
  0
VERTEX
  8
PLAN_1
  6
CONTINUOUS
 10
2.201705
 20
-3.179362
  0
VERTEX
  8
PLAN_1
  6
CONTINUOUS
 10
2.202941
 20
-3.183894
  0
VERTEX
  8
PLAN_1
  6
CONTINUOUS
 10
2.204177
 20
-3.188835
  0
VERTEX
  8
PLAN_1
  6
CONTINUOUS
 10
2.204587
 20
-3.194185
  0
VERTEX
  8
PLAN_1
  6
CONTINUOUS
 10
2.205000
 20
-3.199949
  0
VERTEX
  8
PLAN_1
  6
CONTINUOUS
 10
2.205000
 20
-3.204480
  0
VERTEX
  8
PLAN_1
  6
CONTINUOUS
 10
2.204587
 20
-3.208598
  0
VERTEX
  8
PLAN_1
  6
CONTINUOUS
 10
2.203764
 20
-3.212303
  0
VERTEX
  8
PLAN_1
  6
CONTINUOUS
 10
2.202941
 20
-3.216008
  0
VERTEX
  8
PLAN_1
  6
CONTINUOUS
 10
2.202118
 20
-3.219713
  0
VERTEX
  8
PLAN_1
  6
CONTINUOUS
 10
2.200882
 20
-3.223008
  0
VERTEX
  8
PLAN_1
  6
CONTINUOUS
 10
2.199236
 20
-3.226299
  0
VERTEX
  8
PLAN_1
  6
CONTINUOUS
 10
2.197591
 20
-3.229185
  0
VERTEX
  8
PLAN_1
  6
CONTINUOUS
 10
2.195941
 20
-3.232067
  0
VERTEX
  8
PLAN_1
  6
CONTINUOUS
 10
2.193882
 20
-3.234949
  0
VERTEX
  8
PLAN_1
  6
CONTINUOUS
 10
2.191823
 20
-3.237417
  0
VERTEX
  8
PLAN_1
  6
CONTINUOUS
 10
2.189354
 20
-3.239890
  0
VERTEX
  8
PLAN_1
  6
CONTINUOUS
 10
2.184413
 20
-3.244004
  0
VERTEX
  8
PLAN_1
  6
CONTINUOUS
 10
2.178650
 20
-3.247713
  0
VERTEX
  8
PLAN_1
  6
CONTINUOUS
 10
2.172886
 20
-3.251004
  0
VERTEX
  8
PLAN_1
  6
CONTINUOUS
 10
2.166709
 20
-3.253886
  0
VERTEX
  8
PLAN_1
  6
CONTINUOUS
 10
2.160122
 20
-3.255945
  0
VERTEX
  8
PLAN_1
  6
CONTINUOUS
 10
2.153535
 20
-3.257594
  0
VERTEX
  8
PLAN_1
  6
CONTINUOUS
 10
2.146945
 20
-3.258827
  0
VERTEX
  8
PLAN_1
  6
CONTINUOUS
 10
2.140358
 20
-3.259650
  0
VERTEX
  8
PLAN_1
  6
CONTINUOUS
 10
2.133358
 20
-3.260063
  0
VERTEX
  8
PLAN_1
  6
CONTINUOUS
 10
2.127181
 20
-3.260476
  0
VERTEX
  8
PLAN_1
  6
CONTINUOUS
 10
2.120185
 20
-3.260063
  0
VERTEX
  8
PLAN_1
  6
CONTINUOUS
 10
2.114008
 20
-3.259650
  0
VERTEX
  8
PLAN_1
  6
CONTINUOUS
 10
2.108654
 20
-3.259240
  0
VERTEX
  8
PLAN_1
  6
CONTINUOUS
 10
2.103303
 20
-3.258417
  0
VERTEX
  8
PLAN_1
  6
CONTINUOUS
 10
2.098362
 20
-3.257594
  0
VERTEX
  8
PLAN_1
  6
CONTINUOUS
 10
2.094244
 20
-3.256358
  0
VERTEX
  8
PLAN_1
  6
CONTINUOUS
 10
2.090126
 20
-3.255122
  0
VERTEX
  8
PLAN_1
  6
CONTINUOUS
 10
2.086421
 20
-3.253886
  0
VERTEX
  8
PLAN_1
  6
CONTINUOUS
 10
2.079835
 20
-3.250594
  0
VERTEX
  8
PLAN_1
  6
CONTINUOUS
 10
2.074894
 20
-3.247713
  0
VERTEX
  8
PLAN_1
  6
CONTINUOUS
 10
2.070362
 20
-3.244417
  0
VERTEX
  8
PLAN_1
  6
CONTINUOUS
 10
2.066657
 20
-3.241122
  0
VERTEX
  8
PLAN_1
  6
CONTINUOUS
 10
2.063776
 20
-3.238240
  0
VERTEX
  8
PLAN_1
  6
CONTINUOUS
 10
2.060894
 20
-3.235358
  0
VERTEX
  8
PLAN_1
  6
CONTINUOUS
 10
2.058835
 20
-3.232476
  0
VERTEX
  8
PLAN_1
  6
CONTINUOUS
 10
2.056366
 20
-3.229594
  0
VERTEX
  8
PLAN_1
  6
CONTINUOUS
 10
2.054717
 20
-3.226299
  0
VERTEX
  8
PLAN_1
  6
CONTINUOUS
 10
2.053071
 20
-3.223417
  0
VERTEX
  8
PLAN_1
  6
CONTINUOUS
 10
2.051425
 20
-3.220126
  0
VERTEX
  8
PLAN_1
  6
CONTINUOUS
 10
2.050189
 20
-3.217244
  0
VERTEX
  8
PLAN_1
  6
CONTINUOUS
 10
2.048543
 20
-3.210654
  0
VERTEX
  8
PLAN_1
  6
CONTINUOUS
 10
2.047307
 20
-3.204067
  0
VERTEX
  8
PLAN_1
  6
CONTINUOUS
 10
2.046894
 20
-3.197480
  0
VERTEX
  8
PLAN_1
  6
CONTINUOUS
 10
2.046484
 20
-3.190480
  0
VERTEX
  8
PLAN_1
  6
CONTINUOUS
 10
2.071598
 20
-3.190480
  0
VERTEX
  8
PLAN_1
  6
CONTINUOUS
 10
2.072012
 20
-3.197067
  0
VERTEX
  8
PLAN_1
  6
CONTINUOUS
 10
2.073244
 20
-3.202831
  0
VERTEX
  8
PLAN_1
  6
CONTINUOUS
 10
2.074480
 20
-3.208185
  0
VERTEX
  8
PLAN_1
  6
CONTINUOUS
 10
2.076953
 20
-3.213126
  0
VERTEX
  8
PLAN_1
  6
CONTINUOUS
 10
2.079421
 20
-3.217244
  0
VERTEX
  8
PLAN_1
  6
CONTINUOUS
 10
2.082303
 20
-3.221362
  0
VERTEX
  8
PLAN_1
  6
CONTINUOUS
 10
2.086008
 20
-3.224654
  0
VERTEX
  8
PLAN_1
  6
CONTINUOUS
 10
2.089717
 20
-3.227535
  0
VERTEX
  8
PLAN_1
  6
CONTINUOUS
 10
2.093831
 20
-3.230008
  0
VERTEX
  8
PLAN_1
  6
CONTINUOUS
 10
2.097949
 20
-3.232067
  0
VERTEX
  8
PLAN_1
  6
CONTINUOUS
 10
2.102480
 20
-3.233713
  0
VERTEX
  8
PLAN_1
  6
CONTINUOUS
 10
2.107421
 20
-3.234949
  0
VERTEX
  8
PLAN_1
  6
CONTINUOUS
 10
2.112362
 20
-3.236181
  0
VERTEX
  8
PLAN_1
  6
CONTINUOUS
 10
2.116890
 20
-3.236594
  0
VERTEX
  8
PLAN_1
  6
CONTINUOUS
 10
2.121831
 20
-3.237008
  0
VERTEX
  8
PLAN_1
  6
CONTINUOUS
 10
2.126772
 20
-3.237417
  0
VERTEX
  8
PLAN_1
  6
CONTINUOUS
 10
2.134594
 20
-3.237008
  0
VERTEX
  8
PLAN_1
  6
CONTINUOUS
 10
2.143240
 20
-3.236181
  0
VERTEX
  8
PLAN_1
  6
CONTINUOUS
 10
2.147358
 20
-3.235358
  0
VERTEX
  8
PLAN_1
  6
CONTINUOUS
 10
2.151886
 20
-3.234126
  0
VERTEX
  8
PLAN_1
  6
CONTINUOUS
 10
2.156004
 20
-3.232890
  0
VERTEX
  8
PLAN_1
  6
CONTINUOUS
 10
2.160122
 20
-3.231240
  0
VERTEX
  8
PLAN_1
  6
CONTINUOUS
 10
2.163827
 20
-3.229185
  0
VERTEX
  8
PLAN_1
  6
CONTINUOUS
 10
2.167531
 20
-3.226713
  0
VERTEX
  8
PLAN_1
  6
CONTINUOUS
 10
2.170827
 20
-3.224244
  0
VERTEX
  8
PLAN_1
  6
CONTINUOUS
 10
2.173295
 20
-3.220949
  0
VERTEX
  8
PLAN_1
  6
CONTINUOUS
 10
2.175768
 20
-3.217244
  0
VERTEX
  8
PLAN_1
  6
CONTINUOUS
 10
2.177413
 20
-3.213126
  0
VERTEX
  8
PLAN_1
  6
CONTINUOUS
 10
2.178650
 20
-3.208598
  0
VERTEX
  8
PLAN_1
  6
CONTINUOUS
 10
2.179059
 20
-3.203657
  0
VERTEX
  8
PLAN_1
  6
CONTINUOUS
 10
2.178650
 20
-3.199949
  0
VERTEX
  8
PLAN_1
  6
CONTINUOUS
 10
2.178236
 20
-3.196657
  0
VERTEX
  8
PLAN_1
  6
CONTINUOUS
 10
2.177827
 20
-3.193362
  0
VERTEX
  8
PLAN_1
  6
CONTINUOUS
 10
2.177004
 20
-3.190480
  0
VERTEX
  8
PLAN_1
  6
CONTINUOUS
 10
2.175768
 20
-3.188012
  0
VERTEX
  8
PLAN_1
  6
CONTINUOUS
 10
2.174122
 20
-3.185539
  0
VERTEX
  8
PLAN_1
  6
CONTINUOUS
 10
2.172063
 20
-3.183071
  0
VERTEX
  8
PLAN_1
  6
CONTINUOUS
 10
2.170004
 20
-3.181012
  0
VERTEX
  8
PLAN_1
  6
CONTINUOUS
 10
2.167122
 20
-3.179362
  0
VERTEX
  8
PLAN_1
  6
CONTINUOUS
 10
2.164240
 20
-3.177717
  0
VERTEX
  8
PLAN_1
  6
CONTINUOUS
 10
2.160945
 20
-3.175657
  0
VERTEX
  8
PLAN_1
  6
CONTINUOUS
 10
2.156827
 20
-3.174421
  0
VERTEX
  8
PLAN_1
  6
CONTINUOUS
 10
2.147768
 20
-3.171130
  0
VERTEX
  8
PLAN_1
  6
CONTINUOUS
 10
2.136654
 20
-3.168248
  0
VERTEX
  8
PLAN_1
  6
CONTINUOUS
 10
2.095480
 20
-3.159189
  0
VERTEX
  8
PLAN_1
  6
CONTINUOUS
 10
2.090126
 20
-3.157543
  0
VERTEX
  8
PLAN_1
  6
CONTINUOUS
 10
2.083539
 20
-3.155071
  0
VERTEX
  8
PLAN_1
  6
CONTINUOUS
 10
2.079835
 20
-3.153835
  0
VERTEX
  8
PLAN_1
  6
CONTINUOUS
 10
2.076539
 20
-3.151780
  0
VERTEX
  8
PLAN_1
  6
CONTINUOUS
 10
2.072835
 20
-3.149720
  0
VERTEX
  8
PLAN_1
  6
CONTINUOUS
 10
2.069539
 20
-3.147248
  0
VERTEX
  8
PLAN_1
  6
CONTINUOUS
 10
2.066248
 20
-3.144780
  0
VERTEX
  8
PLAN_1
  6
CONTINUOUS
 10
2.063366
 20
-3.141484
  0
VERTEX
  8
PLAN_1
  6
CONTINUOUS
 10
2.060480
 20
-3.137780
  0
VERTEX
  8
PLAN_1
  6
CONTINUOUS
 10
2.058012
 20
-3.133661
  0
VERTEX
  8
PLAN_1
  6
CONTINUOUS
 10
2.055953
 20
-3.129134
  0
VERTEX
  8
PLAN_1
  6
CONTINUOUS
 10
2.054307
 20
-3.123780
  0
VERTEX
  8
PLAN_1
  6
CONTINUOUS
 10
2.053484
 20
-3.118429
  0
VERTEX
  8
PLAN_1
  6
CONTINUOUS
 10
2.053071
 20
-3.112252
  0
VERTEX
  8
PLAN_1
  6
CONTINUOUS
 10
2.053484
 20
-3.106488
  0
VERTEX
  8
PLAN_1
  6
CONTINUOUS
 10
2.054307
 20
-3.100724
  0
VERTEX
  8
PLAN_1
  6
CONTINUOUS
 10
2.055543
 20
-3.094961
  0
VERTEX
  8
PLAN_1
  6
CONTINUOUS
 10
2.057189
 20
-3.089193
  0
VERTEX
  8
PLAN_1
  6
CONTINUOUS
 10
2.059248
 20
-3.083843
  0
VERTEX
  8
PLAN_1
  6
CONTINUOUS
 10
2.062130
 20
-3.078902
  0
VERTEX
  8
PLAN_1
  6
CONTINUOUS
 10
2.065421
 20
-3.073961
  0
VERTEX
  8
PLAN_1
  6
CONTINUOUS
 10
2.069539
 20
-3.069433
  0
VERTEX
  8
PLAN_1
  6
CONTINUOUS
 10
2.073657
 20
-3.065315
  0
VERTEX
  8
PLAN_1
  6
CONTINUOUS
 10
2.079012
 20
-3.061610
  0
VERTEX
  8
PLAN_1
  6
CONTINUOUS
 10
2.084362
 20
-3.058724
  0
VERTEX
  8
PLAN_1
  6
CONTINUOUS
 10
2.090539
 20
-3.055843
  0
VERTEX
  8
PLAN_1
  6
CONTINUOUS
 10
2.097539
 20
-3.053374
  0
VERTEX
  8
PLAN_1
  6
CONTINUOUS
 10
2.104949
 20
-3.051728
  0
VERTEX
  8
PLAN_1
  6
CONTINUOUS
 10
2.113185
 20
-3.050902
  0
VERTEX
  8
PLAN_1
  6
CONTINUOUS
 10
2.121831
 20
-3.050492
  0
VERTEX
  8
PLAN_1
  6
CONTINUOUS
 10
2.128008
 20
-3.050492
  0
VERTEX
  8
PLAN_1
  6
CONTINUOUS
 10
2.134181
 20
-3.050902
  0
VERTEX
  8
PLAN_1
  6
CONTINUOUS
 10
2.139535
 20
-3.051728
  0
VERTEX
  8
PLAN_1
  6
CONTINUOUS
 10
2.144886
 20
-3.052138
  0
VERTEX
  8
PLAN_1
  6
CONTINUOUS
 10
2.149827
 20
-3.053374
  0
VERTEX
  8
PLAN_1
  6
CONTINUOUS
 10
2.154768
 20
-3.054610
  0
VERTEX
  8
PLAN_1
  6
CONTINUOUS
 10
2.158886
 20
-3.055843
  0
VERTEX
  8
PLAN_1
  6
CONTINUOUS
 10
2.163004
 20
-3.057492
  0
VERTEX
  8
PLAN_1
  6
CONTINUOUS
 10
2.166709
 20
-3.059138
  0
VERTEX
  8
PLAN_1
  6
CONTINUOUS
 10
2.170413
 20
-3.060783
  0
VERTEX
  8
PLAN_1
  6
CONTINUOUS
 10
2.173709
 20
-3.062843
  0
VERTEX
  8
PLAN_1
  6
CONTINUOUS
 10
2.176591
 20
-3.064902
  0
VERTEX
  8
PLAN_1
  6
CONTINUOUS
 10
2.179472
 20
-3.066961
  0
VERTEX
  8
PLAN_1
  6
CONTINUOUS
 10
2.181945
 20
-3.069433
  0
VERTEX
  8
PLAN_1
  6
CONTINUOUS
 10
2.184413
 20
-3.071488
  0
VERTEX
  8
PLAN_1
  6
CONTINUOUS
 10
2.186472
 20
-3.073961
  0
VERTEX
  8
PLAN_1
  6
CONTINUOUS
 10
2.189768
 20
-3.078902
  0
VERTEX
  8
PLAN_1
  6
CONTINUOUS
 10
2.192650
 20
-3.084252
  0
VERTEX
  8
PLAN_1
  6
CONTINUOUS
 10
2.195118
 20
-3.089606
  0
VERTEX
  8
PLAN_1
  6
CONTINUOUS
 10
2.196764
 20
-3.094961
  0
VERTEX
  8
PLAN_1
  6
CONTINUOUS
 10
2.198000
 20
-3.099898
  0
VERTEX
  8
PLAN_1
  6
CONTINUOUS
 10
2.198823
 20
-3.104839
  0
VERTEX
  8
PLAN_1
  6
CONTINUOUS
 10
2.199236
 20
-3.109780
  0
VERTEX
  8
PLAN_1
  6
CONTINUOUS
 10
2.199646
 20
-3.113898
  0
VERTEX
  8
PLAN_1
  6
CONTINUOUS
 10
2.174122
 20
-3.113898
  0
SEQEND
  8
0
  0
POLYLINE
  8
PLAN_1
  6
CONTINUOUS
 66
     1
 40
0.008232
 41
0.008232
  0
VERTEX
  8
PLAN_1
  6
CONTINUOUS
 10
0.302386
 20
2.125390
  0
VERTEX
  8
PLAN_1
  6
CONTINUOUS
 10
0.302386
 20
3.039843
  0
VERTEX
  8
PLAN_1
  6
CONTINUOUS
 10
-1.003213
 20
3.039843
  0
VERTEX
  8
PLAN_1
  6
CONTINUOUS
 10
-1.003213
 20
2.125390
  0
VERTEX
  8
PLAN_1
  6
CONTINUOUS
 10
0.302386
 20
2.125390
  0
SEQEND
  8
0
  0
POLYLINE
  8
PLAN_1
  6
CONTINUOUS
 66
     1
 40
0.008232
 41
0.008232
  0
VERTEX
  8
PLAN_1
  6
CONTINUOUS
 10
-0.140634
 20
1.708717
  0
VERTEX
  8
PLAN_1
  6
CONTINUOUS
 10
-0.140634
 20
1.755240
  0
VERTEX
  8
PLAN_1
  6
CONTINUOUS
 10
-0.539602
 20
1.755240
  0
VERTEX
  8
PLAN_1
  6
CONTINUOUS
 10
-0.539602
 20
1.708717
  0
VERTEX
  8
PLAN_1
  6
CONTINUOUS
 10
-0.140634
 20
1.708717
  0
SEQEND
  8
0
  0
POLYLINE
  8
PLAN_1
  6
CONTINUOUS
 66
     1
 40
0.008232
 41
0.008232
  0
VERTEX
  8
PLAN_1
  6
CONTINUOUS
 10
0.195748
 20
2.100685
  0
VERTEX
  8
PLAN_1
  6
CONTINUOUS
 10
0.195748
 20
2.124154
  0
VERTEX
  8
PLAN_1
  6
CONTINUOUS
 10
-0.875988
 20
2.124154
  0
VERTEX
  8
PLAN_1
  6
CONTINUOUS
 10
-0.875988
 20
2.100685
  0
VERTEX
  8
PLAN_1
  6
CONTINUOUS
 10
0.195748
 20
2.100685
  0
SEQEND
  8
0
  0
POLYLINE
  8
PLAN_1
  6
CONTINUOUS
 66
     1
 40
0.008232
 41
0.008232
  0
VERTEX
  8
PLAN_1
  6
CONTINUOUS
 10
-0.040173
 20
1.755240
  0
VERTEX
  8
PLAN_1
  6
CONTINUOUS
 10
-0.040173
 20
2.100685
  0
VERTEX
  8
PLAN_1
  6
CONTINUOUS
 10
-0.659417
 20
2.100685
  0
VERTEX
  8
PLAN_1
  6
CONTINUOUS
 10
-0.659417
 20
1.755240
  0
VERTEX
  8
PLAN_1
  6
CONTINUOUS
 10
-0.040173
 20
1.755240
  0
SEQEND
  8
0
  0
POLYLINE
  8
PLAN_1
 62
     5
  6
CONTINUOUS
 66
     1
 40
0.003000
 41
0.003000
  0
VERTEX
  8
PLAN_1
 62
     5
  6
CONTINUOUS
 10
-1.169965
 20
1.425854
  0
VERTEX
  8
PLAN_1
 62
     5
  6
CONTINUOUS
 10
-1.169965
 20
1.434091
  0
SEQEND
  8
0
  0
POLYLINE
  8
PLAN_1
 62
     5
  6
CONTINUOUS
 66
     1
 40
0.003000
 41
0.003000
  0
VERTEX
  8
PLAN_1
 62
     5
  6
CONTINUOUS
 10
-1.169965
 20
1.442327
  0
VERTEX
  8
PLAN_1
 62
     5
  6
CONTINUOUS
 10
-1.169965
 20
1.450972
  0
SEQEND
  8
0
  0
POLYLINE
  8
PLAN_1
 62
     5
  6
CONTINUOUS
 66
     1
 40
0.003000
 41
0.003000
  0
VERTEX
  8
PLAN_1
 62
     5
  6
CONTINUOUS
 10
-1.169965
 20
1.459205
  0
VERTEX
  8
PLAN_1
 62
     5
  6
CONTINUOUS
 10
-1.169965
 20
1.467441
  0
SEQEND
  8
0
  0
POLYLINE
  8
PLAN_1
 62
     5
  6
CONTINUOUS
 66
     1
 40
0.003000
 41
0.003000
  0
VERTEX
  8
PLAN_1
 62
     5
  6
CONTINUOUS
 10
-1.169965
 20
1.475677
  0
VERTEX
  8
PLAN_1
 62
     5
  6
CONTINUOUS
 10
-1.169965
 20
1.483909
  0
SEQEND
  8
0
  0
POLYLINE
  8
PLAN_1
 62
     5
  6
CONTINUOUS
 66
     1
 40
0.003000
 41
0.003000
  0
VERTEX
  8
PLAN_1
 62
     5
  6
CONTINUOUS
 10
-1.169965
 20
1.492555
  0
VERTEX
  8
PLAN_1
 62
     5
  6
CONTINUOUS
 10
-1.169965
 20
1.500791
  0
SEQEND
  8
0
  0
POLYLINE
  8
PLAN_1
 62
     5
  6
CONTINUOUS
 66
     1
 40
0.003000
 41
0.003000
  0
VERTEX
  8
PLAN_1
 62
     5
  6
CONTINUOUS
 10
-1.169965
 20
1.509028
  0
VERTEX
  8
PLAN_1
 62
     5
  6
CONTINUOUS
 10
-1.169965
 20
1.517260
  0
SEQEND
  8
0
  0
POLYLINE
  8
PLAN_1
 62
     5
  6
CONTINUOUS
 66
     1
 40
0.003000
 41
0.003000
  0
VERTEX
  8
PLAN_1
 62
     5
  6
CONTINUOUS
 10
-1.169965
 20
1.525906
  0
VERTEX
  8
PLAN_1
 62
     5
  6
CONTINUOUS
 10
-1.169965
 20
1.534142
  0
SEQEND
  8
0
  0
POLYLINE
  8
PLAN_1
 62
     5
  6
CONTINUOUS
 66
     1
 40
0.003000
 41
0.003000
  0
VERTEX
  8
PLAN_1
 62
     5
  6
CONTINUOUS
 10
-1.169965
 20
1.542374
  0
VERTEX
  8
PLAN_1
 62
     5
  6
CONTINUOUS
 10
-1.169965
 20
1.550610
  0
SEQEND
  8
0
  0
POLYLINE
  8
PLAN_1
 62
     5
  6
CONTINUOUS
 66
     1
 40
0.003000
 41
0.003000
  0
VERTEX
  8
PLAN_1
 62
     5
  6
CONTINUOUS
 10
-1.169965
 20
1.558846
  0
VERTEX
  8
PLAN_1
 62
     5
  6
CONTINUOUS
 10
-1.169965
 20
1.567492
  0
SEQEND
  8
0
  0
POLYLINE
  8
PLAN_1
 62
     5
  6
CONTINUOUS
 66
     1
 40
0.003000
 41
0.003000
  0
VERTEX
  8
PLAN_1
 62
     5
  6
CONTINUOUS
 10
-1.169965
 20
1.575724
  0
VERTEX
  8
PLAN_1
 62
     5
  6
CONTINUOUS
 10
-1.169965
 20
1.583961
  0
SEQEND
  8
0
  0
POLYLINE
  8
PLAN_1
 62
     5
  6
CONTINUOUS
 66
     1
 40
0.003000
 41
0.003000
  0
VERTEX
  8
PLAN_1
 62
     5
  6
CONTINUOUS
 10
-1.169965
 20
1.592197
  0
VERTEX
  8
PLAN_1
 62
     5
  6
CONTINUOUS
 10
-1.169965
 20
1.600843
  0
SEQEND
  8
0
  0
POLYLINE
  8
PLAN_1
 62
     5
  6
CONTINUOUS
 66
     1
 40
0.003000
 41
0.003000
  0
VERTEX
  8
PLAN_1
 62
     5
  6
CONTINUOUS
 10
-1.169965
 20
1.609075
  0
VERTEX
  8
PLAN_1
 62
     5
  6
CONTINUOUS
 10
-1.169965
 20
1.617311
  0
SEQEND
  8
0
  0
POLYLINE
  8
PLAN_1
 62
     5
  6
CONTINUOUS
 66
     1
 40
0.003000
 41
0.003000
  0
VERTEX
  8
PLAN_1
 62
     5
  6
CONTINUOUS
 10
-1.169965
 20
1.625547
  0
VERTEX
  8
PLAN_1
 62
     5
  6
CONTINUOUS
 10
-1.169965
 20
1.634193
  0
SEQEND
  8
0
  0
POLYLINE
  8
PLAN_1
 62
     5
  6
CONTINUOUS
 66
     1
 40
0.003000
 41
0.003000
  0
VERTEX
  8
PLAN_1
 62
     5
  6
CONTINUOUS
 10
-1.169965
 20
1.642425
  0
VERTEX
  8
PLAN_1
 62
     5
  6
CONTINUOUS
 10
-1.169965
 20
1.650661
  0
SEQEND
  8
0
  0
POLYLINE
  8
PLAN_1
 62
     5
  6
CONTINUOUS
 66
     1
 40
0.003000
 41
0.003000
  0
VERTEX
  8
PLAN_1
 62
     5
  6
CONTINUOUS
 10
-1.169965
 20
1.658898
  0
VERTEX
  8
PLAN_1
 62
     5
  6
CONTINUOUS
 10
-1.169965
 20
1.667130
  0
SEQEND
  8
0
  0
POLYLINE
  8
PLAN_1
 62
     5
  6
CONTINUOUS
 66
     1
 40
0.003000
 41
0.003000
  0
VERTEX
  8
PLAN_1
 62
     5
  6
CONTINUOUS
 10
-1.169965
 20
1.675776
  0
VERTEX
  8
PLAN_1
 62
     5
  6
CONTINUOUS
 10
-1.169965
 20
1.684012
  0
SEQEND
  8
0
  0
POLYLINE
  8
PLAN_1
 62
     5
  6
CONTINUOUS
 66
     1
 40
0.003000
 41
0.003000
  0
VERTEX
  8
PLAN_1
 62
     5
  6
CONTINUOUS
 10
-1.169965
 20
1.692248
  0
VERTEX
  8
PLAN_1
 62
     5
  6
CONTINUOUS
 10
-1.169965
 20
1.700480
  0
SEQEND
  8
0
  0
POLYLINE
  8
PLAN_1
 62
     5
  6
CONTINUOUS
 66
     1
 40
0.003000
 41
0.003000
  0
VERTEX
  8
PLAN_1
 62
     5
  6
CONTINUOUS
 10
-1.169965
 20
1.709126
  0
VERTEX
  8
PLAN_1
 62
     5
  6
CONTINUOUS
 10
-1.169965
 20
1.717362
  0
SEQEND
  8
0
  0
POLYLINE
  8
PLAN_1
 62
     5
  6
CONTINUOUS
 66
     1
 40
0.003000
 41
0.003000
  0
VERTEX
  8
PLAN_1
 62
     5
  6
CONTINUOUS
 10
-1.169965
 20
1.725598
  0
VERTEX
  8
PLAN_1
 62
     5
  6
CONTINUOUS
 10
-1.169965
 20
1.733831
  0
SEQEND
  8
0
  0
POLYLINE
  8
PLAN_1
 62
     5
  6
CONTINUOUS
 66
     1
 40
0.003000
 41
0.003000
  0
VERTEX
  8
PLAN_1
 62
     5
  6
CONTINUOUS
 10
-1.169965
 20
1.742067
  0
VERTEX
  8
PLAN_1
 62
     5
  6
CONTINUOUS
 10
-1.169965
 20
1.750713
  0
SEQEND
  8
0
  0
POLYLINE
  8
PLAN_1
 62
     5
  6
CONTINUOUS
 66
     1
 40
0.003000
 41
0.003000
  0
VERTEX
  8
PLAN_1
 62
     5
  6
CONTINUOUS
 10
-1.169965
 20
1.758945
  0
VERTEX
  8
PLAN_1
 62
     5
  6
CONTINUOUS
 10
-1.169965
 20
1.767181
  0
SEQEND
  8
0
  0
POLYLINE
  8
PLAN_1
 62
     5
  6
CONTINUOUS
 66
     1
 40
0.003000
 41
0.003000
  0
VERTEX
  8
PLAN_1
 62
     5
  6
CONTINUOUS
 10
-1.169965
 20
1.775417
  0
VERTEX
  8
PLAN_1
 62
     5
  6
CONTINUOUS
 10
-1.169965
 20
1.784063
  0
SEQEND
  8
0
  0
POLYLINE
  8
PLAN_1
 62
     5
  6
CONTINUOUS
 66
     1
 40
0.003000
 41
0.003000
  0
VERTEX
  8
PLAN_1
 62
     5
  6
CONTINUOUS
 10
-1.169965
 20
1.792295
  0
VERTEX
  8
PLAN_1
 62
     5
  6
CONTINUOUS
 10
-1.169965
 20
1.800531
  0
SEQEND
  8
0
  0
POLYLINE
  8
PLAN_1
 62
     5
  6
CONTINUOUS
 66
     1
 40
0.003000
 41
0.003000
  0
VERTEX
  8
PLAN_1
 62
     5
  6
CONTINUOUS
 10
-1.169965
 20
1.808768
  0
VERTEX
  8
PLAN_1
 62
     5
  6
CONTINUOUS
 10
-1.169965
 20
1.817000
  0
SEQEND
  8
0
  0
POLYLINE
  8
PLAN_1
 62
     5
  6
CONTINUOUS
 66
     1
 40
0.003000
 41
0.003000
  0
VERTEX
  8
PLAN_1
 62
     5
  6
CONTINUOUS
 10
-1.169965
 20
1.825646
  0
VERTEX
  8
PLAN_1
 62
     5
  6
CONTINUOUS
 10
-1.169965
 20
1.833882
  0
SEQEND
  8
0
  0
POLYLINE
  8
PLAN_1
 62
     5
  6
CONTINUOUS
 66
     1
 40
0.003000
 41
0.003000
  0
VERTEX
  8
PLAN_1
 62
     5
  6
CONTINUOUS
 10
-1.169965
 20
1.842118
  0
VERTEX
  8
PLAN_1
 62
     5
  6
CONTINUOUS
 10
-1.169965
 20
1.850350
  0
SEQEND
  8
0
  0
POLYLINE
  8
PLAN_1
 62
     5
  6
CONTINUOUS
 66
     1
 40
0.003000
 41
0.003000
  0
VERTEX
  8
PLAN_1
 62
     5
  6
CONTINUOUS
 10
-1.169965
 20
1.858996
  0
VERTEX
  8
PLAN_1
 62
     5
  6
CONTINUOUS
 10
-1.169965
 20
1.867232
  0
SEQEND
  8
0
  0
POLYLINE
  8
PLAN_1
 62
     5
  6
CONTINUOUS
 66
     1
 40
0.003000
 41
0.003000
  0
VERTEX
  8
PLAN_1
 62
     5
  6
CONTINUOUS
 10
-1.169965
 20
1.875469
  0
VERTEX
  8
PLAN_1
 62
     5
  6
CONTINUOUS
 10
-1.169965
 20
1.883701
  0
SEQEND
  8
0
  0
POLYLINE
  8
PLAN_1
 62
     5
  6
CONTINUOUS
 66
     1
 40
0.003000
 41
0.003000
  0
VERTEX
  8
PLAN_1
 62
     5
  6
CONTINUOUS
 10
-1.169965
 20
1.892346
  0
VERTEX
  8
PLAN_1
 62
     5
  6
CONTINUOUS
 10
-1.169965
 20
1.900583
  0
SEQEND
  8
0
  0
POLYLINE
  8
PLAN_1
 62
     5
  6
CONTINUOUS
 66
     1
 40
0.003000
 41
0.003000
  0
VERTEX
  8
PLAN_1
 62
     5
  6
CONTINUOUS
 10
-1.169965
 20
1.908819
  0
VERTEX
  8
PLAN_1
 62
     5
  6
CONTINUOUS
 10
-1.169965
 20
1.917051
  0
SEQEND
  8
0
  0
POLYLINE
  8
PLAN_1
 62
     5
  6
CONTINUOUS
 66
     1
 40
0.003000
 41
0.003000
  0
VERTEX
  8
PLAN_1
 62
     5
  6
CONTINUOUS
 10
-1.169965
 20
1.925287
  0
VERTEX
  8
PLAN_1
 62
     5
  6
CONTINUOUS
 10
-1.169965
 20
1.933933
  0
SEQEND
  8
0
  0
POLYLINE
  8
PLAN_1
 62
     5
  6
CONTINUOUS
 66
     1
 40
0.003000
 41
0.003000
  0
VERTEX
  8
PLAN_1
 62
     5
  6
CONTINUOUS
 10
-1.169965
 20
1.942169
  0
VERTEX
  8
PLAN_1
 62
     5
  6
CONTINUOUS
 10
-1.169965
 20
1.950402
  0
SEQEND
  8
0
  0
POLYLINE
  8
PLAN_1
 62
     5
  6
CONTINUOUS
 66
     1
 40
0.003000
 41
0.003000
  0
VERTEX
  8
PLAN_1
 62
     5
  6
CONTINUOUS
 10
-1.169965
 20
1.958638
  0
VERTEX
  8
PLAN_1
 62
     5
  6
CONTINUOUS
 10
-1.169965
 20
1.967283
  0
SEQEND
  8
0
  0
POLYLINE
  8
PLAN_1
 62
     5
  6
CONTINUOUS
 66
     1
 40
0.003000
 41
0.003000
  0
VERTEX
  8
PLAN_1
 62
     5
  6
CONTINUOUS
 10
-1.169965
 20
1.975516
  0
VERTEX
  8
PLAN_1
 62
     5
  6
CONTINUOUS
 10
-1.169965
 20
1.983752
  0
SEQEND
  8
0
  0
POLYLINE
  8
PLAN_1
 62
     5
  6
CONTINUOUS
 66
     1
 40
0.003000
 41
0.003000
  0
VERTEX
  8
PLAN_1
 62
     5
  6
CONTINUOUS
 10
-1.169965
 20
1.991988
  0
VERTEX
  8
PLAN_1
 62
     5
  6
CONTINUOUS
 10
-1.169965
 20
2.000220
  0
SEQEND
  8
0
  0
POLYLINE
  8
PLAN_1
 62
     5
  6
CONTINUOUS
 66
     1
 40
0.003000
 41
0.003000
  0
VERTEX
  8
PLAN_1
 62
     5
  6
CONTINUOUS
 10
-1.169965
 20
2.008866
  0
VERTEX
  8
PLAN_1
 62
     5
  6
CONTINUOUS
 10
-1.169965
 20
2.017102
  0
SEQEND
  8
0
  0
POLYLINE
  8
PLAN_1
 62
     5
  6
CONTINUOUS
 66
     1
 40
0.003000
 41
0.003000
  0
VERTEX
  8
PLAN_1
 62
     5
  6
CONTINUOUS
 10
-1.169965
 20
2.025339
  0
VERTEX
  8
PLAN_1
 62
     5
  6
CONTINUOUS
 10
-1.169965
 20
2.033571
  0
SEQEND
  8
0
  0
POLYLINE
  8
PLAN_1
 62
     5
  6
CONTINUOUS
 66
     1
 40
0.003000
 41
0.003000
  0
VERTEX
  8
PLAN_1
 62
     5
  6
CONTINUOUS
 10
-1.169965
 20
2.042217
  0
VERTEX
  8
PLAN_1
 62
     5
  6
CONTINUOUS
 10
-1.169965
 20
2.050453
  0
SEQEND
  8
0
  0
POLYLINE
  8
PLAN_1
 62
     5
  6
CONTINUOUS
 66
     1
 40
0.003000
 41
0.003000
  0
VERTEX
  8
PLAN_1
 62
     5
  6
CONTINUOUS
 10
-1.169965
 20
2.058689
  0
VERTEX
  8
PLAN_1
 62
     5
  6
CONTINUOUS
 10
-1.169965
 20
2.066921
  0
SEQEND
  8
0
  0
POLYLINE
  8
PLAN_1
 62
     5
  6
CONTINUOUS
 66
     1
 40
0.003000
 41
0.003000
  0
VERTEX
  8
PLAN_1
 62
     5
  6
CONTINUOUS
 10
-1.169965
 20
2.075157
  0
VERTEX
  8
PLAN_1
 62
     5
  6
CONTINUOUS
 10
-1.169965
 20
2.083803
  0
SEQEND
  8
0
  0
POLYLINE
  8
PLAN_1
 62
     5
  6
CONTINUOUS
 66
     1
 40
0.003000
 41
0.003000
  0
VERTEX
  8
PLAN_1
 62
     5
  6
CONTINUOUS
 10
-1.169965
 20
2.092039
  0
VERTEX
  8
PLAN_1
 62
     5
  6
CONTINUOUS
 10
-1.169965
 20
2.100272
  0
SEQEND
  8
0
  0
POLYLINE
  8
PLAN_1
 62
     5
  6
CONTINUOUS
 66
     1
 40
0.003000
 41
0.003000
  0
VERTEX
  8
PLAN_1
 62
     5
  6
CONTINUOUS
 10
-1.169965
 20
2.108508
  0
VERTEX
  8
PLAN_1
 62
     5
  6
CONTINUOUS
 10
-1.169965
 20
2.117154
  0
SEQEND
  8
0
  0
POLYLINE
  8
PLAN_1
 62
     5
  6
CONTINUOUS
 66
     1
 40
0.003000
 41
0.003000
  0
VERTEX
  8
PLAN_1
 62
     5
  6
CONTINUOUS
 10
-1.169965
 20
2.125390
  0
VERTEX
  8
PLAN_1
 62
     5
  6
CONTINUOUS
 10
-1.161732
 20
2.125390
  0
SEQEND
  8
0
  0
POLYLINE
  8
PLAN_1
 62
     5
  6
CONTINUOUS
 66
     1
 40
0.003000
 41
0.003000
  0
VERTEX
  8
PLAN_1
 62
     5
  6
CONTINUOUS
 10
-1.153496
 20
2.125390
  0
VERTEX
  8
PLAN_1
 62
     5
  6
CONTINUOUS
 10
-1.144850
 20
2.125390
  0
SEQEND
  8
0
  0
POLYLINE
  8
PLAN_1
 62
     5
  6
CONTINUOUS
 66
     1
 40
0.003000
 41
0.003000
  0
VERTEX
  8
PLAN_1
 62
     5
  6
CONTINUOUS
 10
-1.136614
 20
2.125390
  0
VERTEX
  8
PLAN_1
 62
     5
  6
CONTINUOUS
 10
-1.128382
 20
2.125390
  0
SEQEND
  8
0
  0
POLYLINE
  8
PLAN_1
 62
     5
  6
CONTINUOUS
 66
     1
 40
0.003000
 41
0.003000
  0
VERTEX
  8
PLAN_1
 62
     5
  6
CONTINUOUS
 10
-1.120146
 20
2.125390
  0
VERTEX
  8
PLAN_1
 62
     5
  6
CONTINUOUS
 10
-1.111500
 20
2.125390
  0
SEQEND
  8
0
  0
POLYLINE
  8
PLAN_1
 62
     5
  6
CONTINUOUS
 66
     1
 40
0.003000
 41
0.003000
  0
VERTEX
  8
PLAN_1
 62
     5
  6
CONTINUOUS
 10
-1.103264
 20
2.125390
  0
VERTEX
  8
PLAN_1
 62
     5
  6
CONTINUOUS
 10
-1.095031
 20
2.125390
  0
SEQEND
  8
0
  0
POLYLINE
  8
PLAN_1
 62
     5
  6
CONTINUOUS
 66
     1
 40
0.003000
 41
0.003000
  0
VERTEX
  8
PLAN_1
 62
     5
  6
CONTINUOUS
 10
-1.086795
 20
2.125390
  0
VERTEX
  8
PLAN_1
 62
     5
  6
CONTINUOUS
 10
-1.078559
 20
2.125390
  0
SEQEND
  8
0
  0
POLYLINE
  8
PLAN_1
 62
     5
  6
CONTINUOUS
 66
     1
 40
0.003000
 41
0.003000
  0
VERTEX
  8
PLAN_1
 62
     5
  6
CONTINUOUS
 10
-1.069913
 20
2.125390
  0
VERTEX
  8
PLAN_1
 62
     5
  6
CONTINUOUS
 10
-1.061681
 20
2.125390
  0
SEQEND
  8
0
  0
POLYLINE
  8
PLAN_1
 62
     5
  6
CONTINUOUS
 66
     1
 40
0.003000
 41
0.003000
  0
VERTEX
  8
PLAN_1
 62
     5
  6
CONTINUOUS
 10
-1.053445
 20
2.125390
  0
VERTEX
  8
PLAN_1
 62
     5
  6
CONTINUOUS
 10
-1.045209
 20
2.125390
  0
SEQEND
  8
0
  0
POLYLINE
  8
PLAN_1
 62
     5
  6
CONTINUOUS
 66
     1
 40
0.003000
 41
0.003000
  0
VERTEX
  8
PLAN_1
 62
     5
  6
CONTINUOUS
 10
-1.036563
 20
2.125390
  0
VERTEX
  8
PLAN_1
 62
     5
  6
CONTINUOUS
 10
-1.028331
 20
2.125390
  0
SEQEND
  8
0
  0
POLYLINE
  8
PLAN_1
 62
     5
  6
CONTINUOUS
 66
     1
 40
0.003000
 41
0.003000
  0
VERTEX
  8
PLAN_1
 62
     5
  6
CONTINUOUS
 10
-1.020094
 20
2.125390
  0
VERTEX
  8
PLAN_1
 62
     5
  6
CONTINUOUS
 10
-1.011858
 20
2.125390
  0
SEQEND
  8
0
  0
POLYLINE
  8
PLAN_1
 62
     5
  6
CONTINUOUS
 66
     1
 40
0.003000
 41
0.003000
  0
VERTEX
  8
PLAN_1
 62
     5
  6
CONTINUOUS
 10
-1.003626
 20
2.125390
  0
VERTEX
  8
PLAN_1
 62
     5
  6
CONTINUOUS
 10
-0.994980
 20
2.125390
  0
SEQEND
  8
0
  0
POLYLINE
  8
PLAN_1
 62
     5
  6
CONTINUOUS
 66
     1
 40
0.003000
 41
0.003000
  0
VERTEX
  8
PLAN_1
 62
     5
  6
CONTINUOUS
 10
-0.986744
 20
2.125390
  0
VERTEX
  8
PLAN_1
 62
     5
  6
CONTINUOUS
 10
-0.978508
 20
2.125390
  0
SEQEND
  8
0
  0
POLYLINE
  8
PLAN_1
 62
     5
  6
CONTINUOUS
 66
     1
 40
0.003000
 41
0.003000
  0
VERTEX
  8
PLAN_1
 62
     5
  6
CONTINUOUS
 10
-0.970276
 20
2.125390
  0
VERTEX
  8
PLAN_1
 62
     5
  6
CONTINUOUS
 10
-0.961630
 20
2.125390
  0
SEQEND
  8
0
  0
POLYLINE
  8
PLAN_1
 62
     5
  6
CONTINUOUS
 66
     1
 40
0.003000
 41
0.003000
  0
VERTEX
  8
PLAN_1
 62
     5
  6
CONTINUOUS
 10
-0.953394
 20
2.125390
  0
VERTEX
  8
PLAN_1
 62
     5
  6
CONTINUOUS
 10
-0.945161
 20
2.125390
  0
SEQEND
  8
0
  0
POLYLINE
  8
PLAN_1
 62
     5
  6
CONTINUOUS
 66
     1
 40
0.003000
 41
0.003000
  0
VERTEX
  8
PLAN_1
 62
     5
  6
CONTINUOUS
 10
-0.936925
 20
2.125390
  0
VERTEX
  8
PLAN_1
 62
     5
  6
CONTINUOUS
 10
-0.928689
 20
2.125390
  0
SEQEND
  8
0
  0
POLYLINE
  8
PLAN_1
 62
     5
  6
CONTINUOUS
 66
     1
 40
0.003000
 41
0.003000
  0
VERTEX
  8
PLAN_1
 62
     5
  6
CONTINUOUS
 10
-0.920043
 20
2.125390
  0
VERTEX
  8
PLAN_1
 62
     5
  6
CONTINUOUS
 10
-0.911811
 20
2.125390
  0
SEQEND
  8
0
  0
POLYLINE
  8
PLAN_1
 62
     5
  6
CONTINUOUS
 66
     1
 40
0.003000
 41
0.003000
  0
VERTEX
  8
PLAN_1
 62
     5
  6
CONTINUOUS
 10
-0.903575
 20
2.125390
  0
VERTEX
  8
PLAN_1
 62
     5
  6
CONTINUOUS
 10
-0.895339
 20
2.125390
  0
SEQEND
  8
0
  0
POLYLINE
  8
PLAN_1
 62
     5
  6
CONTINUOUS
 66
     1
 40
0.003000
 41
0.003000
  0
VERTEX
  8
PLAN_1
 62
     5
  6
CONTINUOUS
 10
-0.886693
 20
2.125390
  0
VERTEX
  8
PLAN_1
 62
     5
  6
CONTINUOUS
 10
-0.878461
 20
2.125390
  0
SEQEND
  8
0
  0
POLYLINE
  8
PLAN_1
 62
     5
  6
CONTINUOUS
 66
     1
 40
0.003000
 41
0.003000
  0
VERTEX
  8
PLAN_1
 62
     5
  6
CONTINUOUS
 10
-0.870224
 20
2.125390
  0
VERTEX
  8
PLAN_1
 62
     5
  6
CONTINUOUS
 10
-0.861988
 20
2.125390
  0
SEQEND
  8
0
  0
POLYLINE
  8
PLAN_1
 62
     5
  6
CONTINUOUS
 66
     1
 40
0.003000
 41
0.003000
  0
VERTEX
  8
PLAN_1
 62
     5
  6
CONTINUOUS
 10
-0.853756
 20
2.125390
  0
VERTEX
  8
PLAN_1
 62
     5
  6
CONTINUOUS
 10
-0.845110
 20
2.125390
  0
SEQEND
  8
0
  0
POLYLINE
  8
PLAN_1
 62
     5
  6
CONTINUOUS
 66
     1
 40
0.003000
 41
0.003000
  0
VERTEX
  8
PLAN_1
 62
     5
  6
CONTINUOUS
 10
-0.836874
 20
2.125390
  0
VERTEX
  8
PLAN_1
 62
     5
  6
CONTINUOUS
 10
-0.828638
 20
2.125390
  0
SEQEND
  8
0
  0
POLYLINE
  8
PLAN_1
 62
     5
  6
CONTINUOUS
 66
     1
 40
0.003000
 41
0.003000
  0
VERTEX
  8
PLAN_1
 62
     5
  6
CONTINUOUS
 10
-0.820406
 20
2.125390
  0
VERTEX
  8
PLAN_1
 62
     5
  6
CONTINUOUS
 10
-0.811760
 20
2.125390
  0
SEQEND
  8
0
  0
POLYLINE
  8
PLAN_1
 62
     5
  6
CONTINUOUS
 66
     1
 40
0.003000
 41
0.003000
  0
VERTEX
  8
PLAN_1
 62
     5
  6
CONTINUOUS
 10
-0.803524
 20
2.125390
  0
VERTEX
  8
PLAN_1
 62
     5
  6
CONTINUOUS
 10
-0.795287
 20
2.125390
  0
SEQEND
  8
0
  0
POLYLINE
  8
PLAN_1
 62
     5
  6
CONTINUOUS
 66
     1
 40
0.003000
 41
0.003000
  0
VERTEX
  8
PLAN_1
 62
     5
  6
CONTINUOUS
 10
-0.787055
 20
2.125390
  0
VERTEX
  8
PLAN_1
 62
     5
  6
CONTINUOUS
 10
-0.778409
 20
2.125390
  0
SEQEND
  8
0
  0
POLYLINE
  8
PLAN_1
 62
     5
  6
CONTINUOUS
 66
     1
 40
0.003000
 41
0.003000
  0
VERTEX
  8
PLAN_1
 62
     5
  6
CONTINUOUS
 10
-0.770173
 20
2.125390
  0
VERTEX
  8
PLAN_1
 62
     5
  6
CONTINUOUS
 10
-0.761937
 20
2.125390
  0
SEQEND
  8
0
  0
POLYLINE
  8
PLAN_1
 62
     5
  6
CONTINUOUS
 66
     1
 40
0.003000
 41
0.003000
  0
VERTEX
  8
PLAN_1
 62
     5
  6
CONTINUOUS
 10
-0.753705
 20
2.125390
  0
VERTEX
  8
PLAN_1
 62
     5
  6
CONTINUOUS
 10
-0.745469
 20
2.125390
  0
SEQEND
  8
0
  0
POLYLINE
  8
PLAN_1
 62
     5
  6
CONTINUOUS
 66
     1
 40
0.003000
 41
0.003000
  0
VERTEX
  8
PLAN_1
 62
     5
  6
CONTINUOUS
 10
-0.736823
 20
2.125390
  0
VERTEX
  8
PLAN_1
 62
     5
  6
CONTINUOUS
 10
-0.728591
 20
2.125390
  0
SEQEND
  8
0
  0
POLYLINE
  8
PLAN_1
 62
     5
  6
CONTINUOUS
 66
     1
 40
0.003000
 41
0.003000
  0
VERTEX
  8
PLAN_1
 62
     5
  6
CONTINUOUS
 10
-0.720354
 20
2.125390
  0
VERTEX
  8
PLAN_1
 62
     5
  6
CONTINUOUS
 10
-0.712118
 20
2.125390
  0
SEQEND
  8
0
  0
POLYLINE
  8
PLAN_1
 62
     5
  6
CONTINUOUS
 66
     1
 40
0.003000
 41
0.003000
  0
VERTEX
  8
PLAN_1
 62
     5
  6
CONTINUOUS
 10
-0.703472
 20
2.125390
  0
VERTEX
  8
PLAN_1
 62
     5
  6
CONTINUOUS
 10
-0.695240
 20
2.125390
  0
SEQEND
  8
0
  0
POLYLINE
  8
PLAN_1
 62
     5
  6
CONTINUOUS
 66
     1
 40
0.003000
 41
0.003000
  0
VERTEX
  8
PLAN_1
 62
     5
  6
CONTINUOUS
 10
-0.687004
 20
2.125390
  0
VERTEX
  8
PLAN_1
 62
     5
  6
CONTINUOUS
 10
-0.678768
 20
2.125390
  0
SEQEND
  8
0
  0
POLYLINE
  8
PLAN_1
 62
     5
  6
CONTINUOUS
 66
     1
 40
0.003000
 41
0.003000
  0
VERTEX
  8
PLAN_1
 62
     5
  6
CONTINUOUS
 10
-0.670535
 20
2.125390
  0
VERTEX
  8
PLAN_1
 62
     5
  6
CONTINUOUS
 10
-0.661890
 20
2.125390
  0
SEQEND
  8
0
  0
POLYLINE
  8
PLAN_1
 62
     5
  6
CONTINUOUS
 66
     1
 40
0.003000
 41
0.003000
  0
VERTEX
  8
PLAN_1
 62
     5
  6
CONTINUOUS
 10
-0.653654
 20
2.125390
  0
VERTEX
  8
PLAN_1
 62
     5
  6
CONTINUOUS
 10
-0.645417
 20
2.125390
  0
SEQEND
  8
0
  0
POLYLINE
  8
PLAN_1
 62
     5
  6
CONTINUOUS
 66
     1
 40
0.003000
 41
0.003000
  0
VERTEX
  8
PLAN_1
 62
     5
  6
CONTINUOUS
 10
-0.637185
 20
2.125390
  0
VERTEX
  8
PLAN_1
 62
     5
  6
CONTINUOUS
 10
-0.628539
 20
2.125390
  0
SEQEND
  8
0
  0
POLYLINE
  8
PLAN_1
 62
     5
  6
CONTINUOUS
 66
     1
 40
0.003000
 41
0.003000
  0
VERTEX
  8
PLAN_1
 62
     5
  6
CONTINUOUS
 10
-0.620303
 20
2.125390
  0
VERTEX
  8
PLAN_1
 62
     5
  6
CONTINUOUS
 10
-0.612067
 20
2.125390
  0
SEQEND
  8
0
  0
POLYLINE
  8
PLAN_1
 62
     5
  6
CONTINUOUS
 66
     1
 40
0.003000
 41
0.003000
  0
VERTEX
  8
PLAN_1
 62
     5
  6
CONTINUOUS
 10
-0.603835
 20
2.125390
  0
VERTEX
  8
PLAN_1
 62
     5
  6
CONTINUOUS
 10
-0.595598
 20
2.125390
  0
SEQEND
  8
0
  0
POLYLINE
  8
PLAN_1
 62
     5
  6
CONTINUOUS
 66
     1
 40
0.003000
 41
0.003000
  0
VERTEX
  8
PLAN_1
 62
     5
  6
CONTINUOUS
 10
-0.586953
 20
2.125390
  0
VERTEX
  8
PLAN_1
 62
     5
  6
CONTINUOUS
 10
-0.578717
 20
2.125390
  0
SEQEND
  8
0
  0
POLYLINE
  8
PLAN_1
 62
     5
  6
CONTINUOUS
 66
     1
 40
0.003000
 41
0.003000
  0
VERTEX
  8
PLAN_1
 62
     5
  6
CONTINUOUS
 10
-0.570484
 20
2.125390
  0
VERTEX
  8
PLAN_1
 62
     5
  6
CONTINUOUS
 10
-0.562248
 20
2.125390
  0
SEQEND
  8
0
  0
POLYLINE
  8
PLAN_1
 62
     5
  6
CONTINUOUS
 66
     1
 40
0.003000
 41
0.003000
  0
VERTEX
  8
PLAN_1
 62
     5
  6
CONTINUOUS
 10
-0.553602
 20
2.125390
  0
VERTEX
  8
PLAN_1
 62
     5
  6
CONTINUOUS
 10
-0.545366
 20
2.125390
  0
SEQEND
  8
0
  0
POLYLINE
  8
PLAN_1
 62
     5
  6
CONTINUOUS
 66
     1
 40
0.003000
 41
0.003000
  0
VERTEX
  8
PLAN_1
 62
     5
  6
CONTINUOUS
 10
-0.537134
 20
2.125390
  0
VERTEX
  8
PLAN_1
 62
     5
  6
CONTINUOUS
 10
-0.528898
 20
2.125390
  0
SEQEND
  8
0
  0
POLYLINE
  8
PLAN_1
 62
     5
  6
CONTINUOUS
 66
     1
 40
0.003000
 41
0.003000
  0
VERTEX
  8
PLAN_1
 62
     5
  6
CONTINUOUS
 10
-0.520252
 20
2.125390
  0
VERTEX
  8
PLAN_1
 62
     5
  6
CONTINUOUS
 10
-0.512020
 20
2.125390
  0
SEQEND
  8
0
  0
POLYLINE
  8
PLAN_1
 62
     5
  6
CONTINUOUS
 66
     1
 40
0.003000
 41
0.003000
  0
VERTEX
  8
PLAN_1
 62
     5
  6
CONTINUOUS
 10
-0.503783
 20
2.125390
  0
VERTEX
  8
PLAN_1
 62
     5
  6
CONTINUOUS
 10
-0.495547
 20
2.125390
  0
SEQEND
  8
0
  0
POLYLINE
  8
PLAN_1
 62
     5
  6
CONTINUOUS
 66
     1
 40
0.003000
 41
0.003000
  0
VERTEX
  8
PLAN_1
 62
     5
  6
CONTINUOUS
 10
-0.487315
 20
2.125390
  0
VERTEX
  8
PLAN_1
 62
     5
  6
CONTINUOUS
 10
-0.478669
 20
2.125390
  0
SEQEND
  8
0
  0
POLYLINE
  8
PLAN_1
 62
     5
  6
CONTINUOUS
 66
     1
 40
0.003000
 41
0.003000
  0
VERTEX
  8
PLAN_1
 62
     5
  6
CONTINUOUS
 10
-0.470433
 20
2.125390
  0
VERTEX
  8
PLAN_1
 62
     5
  6
CONTINUOUS
 10
-0.462197
 20
2.125390
  0
SEQEND
  8
0
  0
POLYLINE
  8
PLAN_1
 62
     5
  6
CONTINUOUS
 66
     1
 40
0.003000
 41
0.003000
  0
VERTEX
  8
PLAN_1
 62
     5
  6
CONTINUOUS
 10
-0.453965
 20
2.125390
  0
VERTEX
  8
PLAN_1
 62
     5
  6
CONTINUOUS
 10
-0.445319
 20
2.125390
  0
SEQEND
  8
0
  0
POLYLINE
  8
PLAN_1
 62
     5
  6
CONTINUOUS
 66
     1
 40
0.003000
 41
0.003000
  0
VERTEX
  8
PLAN_1
 62
     5
  6
CONTINUOUS
 10
-0.437083
 20
2.125390
  0
VERTEX
  8
PLAN_1
 62
     5
  6
CONTINUOUS
 10
-0.428846
 20
2.125390
  0
SEQEND
  8
0
  0
POLYLINE
  8
PLAN_1
 62
     5
  6
CONTINUOUS
 66
     1
 40
0.003000
 41
0.003000
  0
VERTEX
  8
PLAN_1
 62
     5
  6
CONTINUOUS
 10
-0.420614
 20
2.125390
  0
VERTEX
  8
PLAN_1
 62
     5
  6
CONTINUOUS
 10
-0.412378
 20
2.125390
  0
SEQEND
  8
0
  0
POLYLINE
  8
PLAN_1
 62
     5
  6
CONTINUOUS
 66
     1
 40
0.003000
 41
0.003000
  0
VERTEX
  8
PLAN_1
 62
     5
  6
CONTINUOUS
 10
-0.403732
 20
2.125390
  0
VERTEX
  8
PLAN_1
 62
     5
  6
CONTINUOUS
 10
-0.395496
 20
2.125390
  0
SEQEND
  8
0
  0
POLYLINE
  8
PLAN_1
 62
     5
  6
CONTINUOUS
 66
     1
 40
0.003000
 41
0.003000
  0
VERTEX
  8
PLAN_1
 62
     5
  6
CONTINUOUS
 10
-0.387264
 20
2.125390
  0
VERTEX
  8
PLAN_1
 62
     5
  6
CONTINUOUS
 10
-0.379028
 20
2.125390
  0
SEQEND
  8
0
  0
POLYLINE
  8
PLAN_1
 62
     5
  6
CONTINUOUS
 66
     1
 40
0.003000
 41
0.003000
  0
VERTEX
  8
PLAN_1
 62
     5
  6
CONTINUOUS
 10
-0.370382
 20
2.125390
  0
VERTEX
  8
PLAN_1
 62
     5
  6
CONTINUOUS
 10
-0.362146
 20
2.125390
  0
SEQEND
  8
0
  0
POLYLINE
  8
PLAN_1
 62
     5
  6
CONTINUOUS
 66
     1
 40
0.003000
 41
0.003000
  0
VERTEX
  8
PLAN_1
 62
     5
  6
CONTINUOUS
 10
-0.353913
 20
2.125390
  0
VERTEX
  8
PLAN_1
 62
     5
  6
CONTINUOUS
 10
-0.345677
 20
2.125390
  0
SEQEND
  8
0
  0
POLYLINE
  8
PLAN_1
 62
     5
  6
CONTINUOUS
 66
     1
 40
0.003000
 41
0.003000
  0
VERTEX
  8
PLAN_1
 62
     5
  6
CONTINUOUS
 10
-0.337445
 20
2.125390
  0
VERTEX
  8
PLAN_1
 62
     5
  6
CONTINUOUS
 10
-0.328795
 20
2.125390
  0
SEQEND
  8
0
  0
POLYLINE
  8
PLAN_1
 62
     5
  6
CONTINUOUS
 66
     1
 40
0.003000
 41
0.003000
  0
VERTEX
  8
PLAN_1
 62
     5
  6
CONTINUOUS
 10
-0.320563
 20
2.125390
  0
VERTEX
  8
PLAN_1
 62
     5
  6
CONTINUOUS
 10
-0.312327
 20
2.125390
  0
SEQEND
  8
0
  0
POLYLINE
  8
PLAN_1
 62
     5
  6
CONTINUOUS
 66
     1
 40
0.003000
 41
0.003000
  0
VERTEX
  8
PLAN_1
 62
     5
  6
CONTINUOUS
 10
-0.304094
 20
2.125390
  0
VERTEX
  8
PLAN_1
 62
     5
  6
CONTINUOUS
 10
-0.295449
 20
2.125390
  0
SEQEND
  8
0
  0
POLYLINE
  8
PLAN_1
 62
     5
  6
CONTINUOUS
 66
     1
 40
0.003000
 41
0.003000
  0
VERTEX
  8
PLAN_1
 62
     5
  6
CONTINUOUS
 10
-0.287213
 20
2.125390
  0
VERTEX
  8
PLAN_1
 62
     5
  6
CONTINUOUS
 10
-0.278976
 20
2.125390
  0
SEQEND
  8
0
  0
POLYLINE
  8
PLAN_1
 62
     5
  6
CONTINUOUS
 66
     1
 40
0.003000
 41
0.003000
  0
VERTEX
  8
PLAN_1
 62
     5
  6
CONTINUOUS
 10
-0.270744
 20
2.125390
  0
VERTEX
  8
PLAN_1
 62
     5
  6
CONTINUOUS
 10
-0.262508
 20
2.125390
  0
SEQEND
  8
0
  0
POLYLINE
  8
PLAN_1
 62
     5
  6
CONTINUOUS
 66
     1
 40
0.003000
 41
0.003000
  0
VERTEX
  8
PLAN_1
 62
     5
  6
CONTINUOUS
 10
-0.253862
 20
2.125390
  0
VERTEX
  8
PLAN_1
 62
     5
  6
CONTINUOUS
 10
-0.245626
 20
2.125390
  0
SEQEND
  8
0
  0
POLYLINE
  8
PLAN_1
 62
     5
  6
CONTINUOUS
 66
     1
 40
0.003000
 41
0.003000
  0
VERTEX
  8
PLAN_1
 62
     5
  6
CONTINUOUS
 10
-0.237394
 20
2.125390
  0
VERTEX
  8
PLAN_1
 62
     5
  6
CONTINUOUS
 10
-0.229157
 20
2.125390
  0
SEQEND
  8
0
  0
POLYLINE
  8
PLAN_1
 62
     5
  6
CONTINUOUS
 66
     1
 40
0.003000
 41
0.003000
  0
VERTEX
  8
PLAN_1
 62
     5
  6
CONTINUOUS
 10
-0.220512
 20
2.125390
  0
VERTEX
  8
PLAN_1
 62
     5
  6
CONTINUOUS
 10
-0.212276
 20
2.125390
  0
SEQEND
  8
0
  0
POLYLINE
  8
PLAN_1
 62
     5
  6
CONTINUOUS
 66
     1
 40
0.003000
 41
0.003000
  0
VERTEX
  8
PLAN_1
 62
     5
  6
CONTINUOUS
 10
-0.204043
 20
2.125390
  0
VERTEX
  8
PLAN_1
 62
     5
  6
CONTINUOUS
 10
-0.195807
 20
2.125390
  0
SEQEND
  8
0
  0
POLYLINE
  8
PLAN_1
 62
     5
  6
CONTINUOUS
 66
     1
 40
0.003000
 41
0.003000
  0
VERTEX
  8
PLAN_1
 62
     5
  6
CONTINUOUS
 10
-0.187161
 20
2.125390
  0
VERTEX
  8
PLAN_1
 62
     5
  6
CONTINUOUS
 10
-0.178925
 20
2.125390
  0
SEQEND
  8
0
  0
POLYLINE
  8
PLAN_1
 62
     5
  6
CONTINUOUS
 66
     1
 40
0.003000
 41
0.003000
  0
VERTEX
  8
PLAN_1
 62
     5
  6
CONTINUOUS
 10
-0.170693
 20
2.125390
  0
VERTEX
  8
PLAN_1
 62
     5
  6
CONTINUOUS
 10
-0.162457
 20
2.125390
  0
SEQEND
  8
0
  0
POLYLINE
  8
PLAN_1
 62
     5
  6
CONTINUOUS
 66
     1
 40
0.003000
 41
0.003000
  0
VERTEX
  8
PLAN_1
 62
     5
  6
CONTINUOUS
 10
-0.154224
 20
2.125390
  0
VERTEX
  8
PLAN_1
 62
     5
  6
CONTINUOUS
 10
-0.145575
 20
2.125390
  0
SEQEND
  8
0
  0
POLYLINE
  8
PLAN_1
 62
     5
  6
CONTINUOUS
 66
     1
 40
0.003000
 41
0.003000
  0
VERTEX
  8
PLAN_1
 62
     5
  6
CONTINUOUS
 10
-0.137343
 20
2.125390
  0
VERTEX
  8
PLAN_1
 62
     5
  6
CONTINUOUS
 10
-0.129106
 20
2.125390
  0
SEQEND
  8
0
  0
POLYLINE
  8
PLAN_1
 62
     5
  6
CONTINUOUS
 66
     1
 40
0.003000
 41
0.003000
  0
VERTEX
  8
PLAN_1
 62
     5
  6
CONTINUOUS
 10
-0.120874
 20
2.125390
  0
VERTEX
  8
PLAN_1
 62
     5
  6
CONTINUOUS
 10
-0.112224
 20
2.125390
  0
SEQEND
  8
0
  0
POLYLINE
  8
PLAN_1
 62
     5
  6
CONTINUOUS
 66
     1
 40
0.003000
 41
0.003000
  0
VERTEX
  8
PLAN_1
 62
     5
  6
CONTINUOUS
 10
-0.103992
 20
2.125390
  0
VERTEX
  8
PLAN_1
 62
     5
  6
CONTINUOUS
 10
-0.095756
 20
2.125390
  0
SEQEND
  8
0
  0
POLYLINE
  8
PLAN_1
 62
     5
  6
CONTINUOUS
 66
     1
 40
0.003000
 41
0.003000
  0
VERTEX
  8
PLAN_1
 62
     5
  6
CONTINUOUS
 10
-0.087524
 20
2.125390
  0
VERTEX
  8
PLAN_1
 62
     5
  6
CONTINUOUS
 10
-0.079287
 20
2.125390
  0
SEQEND
  8
0
  0
POLYLINE
  8
PLAN_1
 62
     5
  6
CONTINUOUS
 66
     1
 40
0.003000
 41
0.003000
  0
VERTEX
  8
PLAN_1
 62
     5
  6
CONTINUOUS
 10
-0.070642
 20
2.125390
  0
VERTEX
  8
PLAN_1
 62
     5
  6
CONTINUOUS
 10
-0.062406
 20
2.125390
  0
SEQEND
  8
0
  0
POLYLINE
  8
PLAN_1
 62
     5
  6
CONTINUOUS
 66
     1
 40
0.003000
 41
0.003000
  0
VERTEX
  8
PLAN_1
 62
     5
  6
CONTINUOUS
 10
-0.054173
 20
2.125390
  0
VERTEX
  8
PLAN_1
 62
     5
  6
CONTINUOUS
 10
-0.045937
 20
2.125390
  0
SEQEND
  8
0
  0
POLYLINE
  8
PLAN_1
 62
     5
  6
CONTINUOUS
 66
     1
 40
0.003000
 41
0.003000
  0
VERTEX
  8
PLAN_1
 62
     5
  6
CONTINUOUS
 10
-0.037291
 20
2.125390
  0
VERTEX
  8
PLAN_1
 62
     5
  6
CONTINUOUS
 10
-0.029055
 20
2.125390
  0
SEQEND
  8
0
  0
POLYLINE
  8
PLAN_1
 62
     5
  6
CONTINUOUS
 66
     1
 40
0.003000
 41
0.003000
  0
VERTEX
  8
PLAN_1
 62
     5
  6
CONTINUOUS
 10
-0.020823
 20
2.125390
  0
VERTEX
  8
PLAN_1
 62
     5
  6
CONTINUOUS
 10
-0.012587
 20
2.125390
  0
SEQEND
  8
0
  0
POLYLINE
  8
PLAN_1
 62
     5
  6
CONTINUOUS
 66
     1
 40
0.003000
 41
0.003000
  0
VERTEX
  8
PLAN_1
 62
     5
  6
CONTINUOUS
 10
-0.004354
 20
2.125390
  0
VERTEX
  8
PLAN_1
 62
     5
  6
CONTINUOUS
 10
0.004295
 20
2.125390
  0
SEQEND
  8
0
  0
POLYLINE
  8
PLAN_1
 62
     5
  6
CONTINUOUS
 66
     1
 40
0.003000
 41
0.003000
  0
VERTEX
  8
PLAN_1
 62
     5
  6
CONTINUOUS
 10
0.012528
 20
2.125390
  0
VERTEX
  8
PLAN_1
 62
     5
  6
CONTINUOUS
 10
0.020764
 20
2.125390
  0
SEQEND
  8
0
  0
POLYLINE
  8
PLAN_1
 62
     5
  6
CONTINUOUS
 66
     1
 40
0.003000
 41
0.003000
  0
VERTEX
  8
PLAN_1
 62
     5
  6
CONTINUOUS
 10
0.028996
 20
2.125390
  0
VERTEX
  8
PLAN_1
 62
     5
  6
CONTINUOUS
 10
0.037646
 20
2.125390
  0
SEQEND
  8
0
  0
POLYLINE
  8
PLAN_1
 62
     5
  6
CONTINUOUS
 66
     1
 40
0.003000
 41
0.003000
  0
VERTEX
  8
PLAN_1
 62
     5
  6
CONTINUOUS
 10
0.045878
 20
2.125390
  0
VERTEX
  8
PLAN_1
 62
     5
  6
CONTINUOUS
 10
0.054114
 20
2.125390
  0
SEQEND
  8
0
  0
POLYLINE
  8
PLAN_1
 62
     5
  6
CONTINUOUS
 66
     1
 40
0.003000
 41
0.003000
  0
VERTEX
  8
PLAN_1
 62
     5
  6
CONTINUOUS
 10
0.062346
 20
2.125390
  0
VERTEX
  8
PLAN_1
 62
     5
  6
CONTINUOUS
 10
0.070583
 20
2.125390
  0
SEQEND
  8
0
  0
POLYLINE
  8
PLAN_1
 62
     5
  6
CONTINUOUS
 66
     1
 40
0.003000
 41
0.003000
  0
VERTEX
  8
PLAN_1
 62
     5
  6
CONTINUOUS
 10
0.079228
 20
2.125390
  0
VERTEX
  8
PLAN_1
 62
     5
  6
CONTINUOUS
 10
0.087465
 20
2.125390
  0
SEQEND
  8
0
  0
POLYLINE
  8
PLAN_1
 62
     5
  6
CONTINUOUS
 66
     1
 40
0.003000
 41
0.003000
  0
VERTEX
  8
PLAN_1
 62
     5
  6
CONTINUOUS
 10
0.095697
 20
2.125390
  0
VERTEX
  8
PLAN_1
 62
     5
  6
CONTINUOUS
 10
0.103933
 20
2.125390
  0
SEQEND
  8
0
  0
POLYLINE
  8
PLAN_1
 62
     5
  6
CONTINUOUS
 66
     1
 40
0.003000
 41
0.003000
  0
VERTEX
  8
PLAN_1
 62
     5
  6
CONTINUOUS
 10
0.112579
 20
2.125390
  0
VERTEX
  8
PLAN_1
 62
     5
  6
CONTINUOUS
 10
0.120815
 20
2.125390
  0
SEQEND
  8
0
  0
POLYLINE
  8
PLAN_1
 62
     5
  6
CONTINUOUS
 66
     1
 40
0.003000
 41
0.003000
  0
VERTEX
  8
PLAN_1
 62
     5
  6
CONTINUOUS
 10
0.129047
 20
2.125390
  0
VERTEX
  8
PLAN_1
 62
     5
  6
CONTINUOUS
 10
0.137283
 20
2.125390
  0
SEQEND
  8
0
  0
POLYLINE
  8
PLAN_1
 62
     5
  6
CONTINUOUS
 66
     1
 40
0.003000
 41
0.003000
  0
VERTEX
  8
PLAN_1
 62
     5
  6
CONTINUOUS
 10
0.145929
 20
2.125390
  0
VERTEX
  8
PLAN_1
 62
     5
  6
CONTINUOUS
 10
0.154165
 20
2.125390
  0
SEQEND
  8
0
  0
POLYLINE
  8
PLAN_1
 62
     5
  6
CONTINUOUS
 66
     1
 40
0.003000
 41
0.003000
  0
VERTEX
  8
PLAN_1
 62
     5
  6
CONTINUOUS
 10
0.162398
 20
2.125390
  0
VERTEX
  8
PLAN_1
 62
     5
  6
CONTINUOUS
 10
0.170634
 20
2.125390
  0
SEQEND
  8
0
  0
POLYLINE
  8
PLAN_1
 62
     5
  6
CONTINUOUS
 66
     1
 40
0.003000
 41
0.003000
  0
VERTEX
  8
PLAN_1
 62
     5
  6
CONTINUOUS
 10
0.178870
 20
2.125390
  0
VERTEX
  8
PLAN_1
 62
     5
  6
CONTINUOUS
 10
0.187516
 20
2.125390
  0
SEQEND
  8
0
  0
POLYLINE
  8
PLAN_1
 62
     5
  6
CONTINUOUS
 66
     1
 40
0.003000
 41
0.003000
  0
VERTEX
  8
PLAN_1
 62
     5
  6
CONTINUOUS
 10
0.195748
 20
2.125390
  0
VERTEX
  8
PLAN_1
 62
     5
  6
CONTINUOUS
 10
0.203984
 20
2.125390
  0
SEQEND
  8
0
  0
POLYLINE
  8
PLAN_1
 62
     5
  6
CONTINUOUS
 66
     1
 40
0.003000
 41
0.003000
  0
VERTEX
  8
PLAN_1
 62
     5
  6
CONTINUOUS
 10
0.212217
 20
2.125390
  0
VERTEX
  8
PLAN_1
 62
     5
  6
CONTINUOUS
 10
0.220866
 20
2.125390
  0
SEQEND
  8
0
  0
POLYLINE
  8
PLAN_1
 62
     5
  6
CONTINUOUS
 66
     1
 40
0.003000
 41
0.003000
  0
VERTEX
  8
PLAN_1
 62
     5
  6
CONTINUOUS
 10
0.229098
 20
2.125390
  0
VERTEX
  8
PLAN_1
 62
     5
  6
CONTINUOUS
 10
0.237335
 20
2.125390
  0
SEQEND
  8
0
  0
POLYLINE
  8
PLAN_1
 62
     5
  6
CONTINUOUS
 66
     1
 40
0.003000
 41
0.003000
  0
VERTEX
  8
PLAN_1
 62
     5
  6
CONTINUOUS
 10
0.245567
 20
2.125390
  0
VERTEX
  8
PLAN_1
 62
     5
  6
CONTINUOUS
 10
0.253803
 20
2.125390
  0
SEQEND
  8
0
  0
POLYLINE
  8
PLAN_1
 62
     5
  6
CONTINUOUS
 66
     1
 40
0.003000
 41
0.003000
  0
VERTEX
  8
PLAN_1
 62
     5
  6
CONTINUOUS
 10
0.262449
 20
2.125390
  0
VERTEX
  8
PLAN_1
 62
     5
  6
CONTINUOUS
 10
0.270685
 20
2.125390
  0
SEQEND
  8
0
  0
POLYLINE
  8
PLAN_1
 62
     5
  6
CONTINUOUS
 66
     1
 40
0.003000
 41
0.003000
  0
VERTEX
  8
PLAN_1
 62
     5
  6
CONTINUOUS
 10
0.278917
 20
2.125390
  0
VERTEX
  8
PLAN_1
 62
     5
  6
CONTINUOUS
 10
0.287154
 20
2.125390
  0
SEQEND
  8
0
  0
POLYLINE
  8
PLAN_1
 62
     5
  6
CONTINUOUS
 66
     1
 40
0.003000
 41
0.003000
  0
VERTEX
  8
PLAN_1
 62
     5
  6
CONTINUOUS
 10
0.295799
 20
2.125390
  0
VERTEX
  8
PLAN_1
 62
     5
  6
CONTINUOUS
 10
0.300740
 20
2.125390
  0
VERTEX
  8
PLAN_1
 62
     5
  6
CONTINUOUS
 10
0.300740
 20
2.122504
  0
SEQEND
  8
0
  0
POLYLINE
  8
PLAN_1
 62
     5
  6
CONTINUOUS
 66
     1
 40
0.003000
 41
0.003000
  0
VERTEX
  8
PLAN_1
 62
     5
  6
CONTINUOUS
 10
0.300740
 20
2.114272
  0
VERTEX
  8
PLAN_1
 62
     5
  6
CONTINUOUS
 10
0.300740
 20
2.105626
  0
SEQEND
  8
0
  0
POLYLINE
  8
PLAN_1
 62
     5
  6
CONTINUOUS
 66
     1
 40
0.003000
 41
0.003000
  0
VERTEX
  8
PLAN_1
 62
     5
  6
CONTINUOUS
 10
0.300740
 20
2.097390
  0
VERTEX
  8
PLAN_1
 62
     5
  6
CONTINUOUS
 10
0.300740
 20
2.089157
  0
SEQEND
  8
0
  0
POLYLINE
  8
PLAN_1
 62
     5
  6
CONTINUOUS
 66
     1
 40
0.003000
 41
0.003000
  0
VERTEX
  8
PLAN_1
 62
     5
  6
CONTINUOUS
 10
0.300740
 20
2.080921
  0
VERTEX
  8
PLAN_1
 62
     5
  6
CONTINUOUS
 10
0.300740
 20
2.072685
  0
SEQEND
  8
0
  0
POLYLINE
  8
PLAN_1
 62
     5
  6
CONTINUOUS
 66
     1
 40
0.003000
 41
0.003000
  0
VERTEX
  8
PLAN_1
 62
     5
  6
CONTINUOUS
 10
0.300740
 20
2.064039
  0
VERTEX
  8
PLAN_1
 62
     5
  6
CONTINUOUS
 10
0.300740
 20
2.055807
  0
SEQEND
  8
0
  0
POLYLINE
  8
PLAN_1
 62
     5
  6
CONTINUOUS
 66
     1
 40
0.003000
 41
0.003000
  0
VERTEX
  8
PLAN_1
 62
     5
  6
CONTINUOUS
 10
0.300740
 20
2.047571
  0
VERTEX
  8
PLAN_1
 62
     5
  6
CONTINUOUS
 10
0.300740
 20
2.039335
  0
SEQEND
  8
0
  0
POLYLINE
  8
PLAN_1
 62
     5
  6
CONTINUOUS
 66
     1
 40
0.003000
 41
0.003000
  0
VERTEX
  8
PLAN_1
 62
     5
  6
CONTINUOUS
 10
0.300740
 20
2.030689
  0
VERTEX
  8
PLAN_1
 62
     5
  6
CONTINUOUS
 10
0.300740
 20
2.022457
  0
SEQEND
  8
0
  0
POLYLINE
  8
PLAN_1
 62
     5
  6
CONTINUOUS
 66
     1
 40
0.003000
 41
0.003000
  0
VERTEX
  8
PLAN_1
 62
     5
  6
CONTINUOUS
 10
0.300740
 20
2.014220
  0
VERTEX
  8
PLAN_1
 62
     5
  6
CONTINUOUS
 10
0.300740
 20
2.005984
  0
SEQEND
  8
0
  0
POLYLINE
  8
PLAN_1
 62
     5
  6
CONTINUOUS
 66
     1
 40
0.003000
 41
0.003000
  0
VERTEX
  8
PLAN_1
 62
     5
  6
CONTINUOUS
 10
0.300740
 20
1.997339
  0
VERTEX
  8
PLAN_1
 62
     5
  6
CONTINUOUS
 10
0.300740
 20
1.989106
  0
SEQEND
  8
0
  0
POLYLINE
  8
PLAN_1
 62
     5
  6
CONTINUOUS
 66
     1
 40
0.003000
 41
0.003000
  0
VERTEX
  8
PLAN_1
 62
     5
  6
CONTINUOUS
 10
0.303213
 20
1.982929
  0
VERTEX
  8
PLAN_1
 62
     5
  6
CONTINUOUS
 10
0.311445
 20
1.982929
  0
SEQEND
  8
0
  0
POLYLINE
  8
PLAN_1
 62
     5
  6
CONTINUOUS
 66
     1
 40
0.003000
 41
0.003000
  0
VERTEX
  8
PLAN_1
 62
     5
  6
CONTINUOUS
 10
0.319681
 20
1.982929
  0
VERTEX
  8
PLAN_1
 62
     5
  6
CONTINUOUS
 10
0.327913
 20
1.982929
  0
SEQEND
  8
0
  0
POLYLINE
  8
PLAN_1
 62
     5
  6
CONTINUOUS
 66
     1
 40
0.003000
 41
0.003000
  0
VERTEX
  8
PLAN_1
 62
     5
  6
CONTINUOUS
 10
0.336563
 20
1.982929
  0
VERTEX
  8
PLAN_1
 62
     5
  6
CONTINUOUS
 10
0.339854
 20
1.982929
  0
VERTEX
  8
PLAN_1
 62
     5
  6
CONTINUOUS
 10
0.339854
 20
1.978402
  0
SEQEND
  8
0
  0
POLYLINE
  8
PLAN_1
 62
     5
  6
CONTINUOUS
 66
     1
 40
0.003000
 41
0.003000
  0
VERTEX
  8
PLAN_1
 62
     5
  6
CONTINUOUS
 10
0.339854
 20
1.970165
  0
VERTEX
  8
PLAN_1
 62
     5
  6
CONTINUOUS
 10
0.339854
 20
1.961929
  0
SEQEND
  8
0
  0
POLYLINE
  8
PLAN_1
 62
     5
  6
CONTINUOUS
 66
     1
 40
0.003000
 41
0.003000
  0
VERTEX
  8
PLAN_1
 62
     5
  6
CONTINUOUS
 10
0.339854
 20
1.953283
  0
VERTEX
  8
PLAN_1
 62
     5
  6
CONTINUOUS
 10
0.339854
 20
1.945051
  0
SEQEND
  8
0
  0
POLYLINE
  8
PLAN_1
 62
     5
  6
CONTINUOUS
 66
     1
 40
0.003000
 41
0.003000
  0
VERTEX
  8
PLAN_1
 62
     5
  6
CONTINUOUS
 10
0.339854
 20
1.936815
  0
VERTEX
  8
PLAN_1
 62
     5
  6
CONTINUOUS
 10
0.339854
 20
1.928579
  0
SEQEND
  8
0
  0
POLYLINE
  8
PLAN_1
 62
     5
  6
CONTINUOUS
 66
     1
 40
0.003000
 41
0.003000
  0
VERTEX
  8
PLAN_1
 62
     5
  6
CONTINUOUS
 10
0.339854
 20
1.919933
  0
VERTEX
  8
PLAN_1
 62
     5
  6
CONTINUOUS
 10
0.339854
 20
1.911701
  0
SEQEND
  8
0
  0
POLYLINE
  8
PLAN_1
 62
     5
  6
CONTINUOUS
 66
     1
 40
0.003000
 41
0.003000
  0
VERTEX
  8
PLAN_1
 62
     5
  6
CONTINUOUS
 10
0.339854
 20
1.903465
  0
VERTEX
  8
PLAN_1
 62
     5
  6
CONTINUOUS
 10
0.339854
 20
1.895228
  0
SEQEND
  8
0
  0
POLYLINE
  8
PLAN_1
 62
     5
  6
CONTINUOUS
 66
     1
 40
0.003000
 41
0.003000
  0
VERTEX
  8
PLAN_1
 62
     5
  6
CONTINUOUS
 10
0.339854
 20
1.886996
  0
VERTEX
  8
PLAN_1
 62
     5
  6
CONTINUOUS
 10
0.339854
 20
1.878350
  0
SEQEND
  8
0
  0
POLYLINE
  8
PLAN_1
 62
     5
  6
CONTINUOUS
 66
     1
 40
0.003000
 41
0.003000
  0
VERTEX
  8
PLAN_1
 62
     5
  6
CONTINUOUS
 10
0.339854
 20
1.870114
  0
VERTEX
  8
PLAN_1
 62
     5
  6
CONTINUOUS
 10
0.339854
 20
1.861878
  0
SEQEND
  8
0
  0
POLYLINE
  8
PLAN_1
 62
     5
  6
CONTINUOUS
 66
     1
 40
0.003000
 41
0.003000
  0
VERTEX
  8
PLAN_1
 62
     5
  6
CONTINUOUS
 10
0.339854
 20
1.853646
  0
VERTEX
  8
PLAN_1
 62
     5
  6
CONTINUOUS
 10
0.339854
 20
1.845000
  0
SEQEND
  8
0
  0
POLYLINE
  8
PLAN_1
 62
     5
  6
CONTINUOUS
 66
     1
 40
0.003000
 41
0.003000
  0
VERTEX
  8
PLAN_1
 62
     5
  6
CONTINUOUS
 10
0.339854
 20
1.836764
  0
VERTEX
  8
PLAN_1
 62
     5
  6
CONTINUOUS
 10
0.339854
 20
1.828528
  0
SEQEND
  8
0
  0
POLYLINE
  8
PLAN_1
 62
     5
  6
CONTINUOUS
 66
     1
 40
0.003000
 41
0.003000
  0
VERTEX
  8
PLAN_1
 62
     5
  6
CONTINUOUS
 10
0.339854
 20
1.820295
  0
VERTEX
  8
PLAN_1
 62
     5
  6
CONTINUOUS
 10
0.339854
 20
1.812059
  0
SEQEND
  8
0
  0
POLYLINE
  8
PLAN_1
 62
     5
  6
CONTINUOUS
 66
     1
 40
0.003000
 41
0.003000
  0
VERTEX
  8
PLAN_1
 62
     5
  6
CONTINUOUS
 10
0.339854
 20
1.803413
  0
VERTEX
  8
PLAN_1
 62
     5
  6
CONTINUOUS
 10
0.339854
 20
1.795181
  0
SEQEND
  8
0
  0
POLYLINE
  8
PLAN_1
 62
     5
  6
CONTINUOUS
 66
     1
 40
0.003000
 41
0.003000
  0
VERTEX
  8
PLAN_1
 62
     5
  6
CONTINUOUS
 10
0.339854
 20
1.786945
  0
VERTEX
  8
PLAN_1
 62
     5
  6
CONTINUOUS
 10
0.339854
 20
1.778709
  0
SEQEND
  8
0
  0
POLYLINE
  8
PLAN_1
 62
     5
  6
CONTINUOUS
 66
     1
 40
0.003000
 41
0.003000
  0
VERTEX
  8
PLAN_1
 62
     5
  6
CONTINUOUS
 10
0.339854
 20
1.770063
  0
VERTEX
  8
PLAN_1
 62
     5
  6
CONTINUOUS
 10
0.339854
 20
1.761831
  0
SEQEND
  8
0
  0
POLYLINE
  8
PLAN_1
 62
     5
  6
CONTINUOUS
 66
     1
 40
0.003000
 41
0.003000
  0
VERTEX
  8
PLAN_1
 62
     5
  6
CONTINUOUS
 10
0.339854
 20
1.753594
  0
VERTEX
  8
PLAN_1
 62
     5
  6
CONTINUOUS
 10
0.339854
 20
1.745358
  0
SEQEND
  8
0
  0
POLYLINE
  8
PLAN_1
 62
     5
  6
CONTINUOUS
 66
     1
 40
0.003000
 41
0.003000
  0
VERTEX
  8
PLAN_1
 62
     5
  6
CONTINUOUS
 10
0.339854
 20
1.736713
  0
VERTEX
  8
PLAN_1
 62
     5
  6
CONTINUOUS
 10
0.339854
 20
1.728480
  0
SEQEND
  8
0
  0
POLYLINE
  8
PLAN_1
 62
     5
  6
CONTINUOUS
 66
     1
 40
0.003000
 41
0.003000
  0
VERTEX
  8
PLAN_1
 62
     5
  6
CONTINUOUS
 10
0.339854
 20
1.720244
  0
VERTEX
  8
PLAN_1
 62
     5
  6
CONTINUOUS
 10
0.339854
 20
1.712008
  0
SEQEND
  8
0
  0
POLYLINE
  8
PLAN_1
 62
     5
  6
CONTINUOUS
 66
     1
 40
0.003000
 41
0.003000
  0
VERTEX
  8
PLAN_1
 62
     5
  6
CONTINUOUS
 10
0.339854
 20
1.703776
  0
VERTEX
  8
PLAN_1
 62
     5
  6
CONTINUOUS
 10
0.339854
 20
1.698012
  0
VERTEX
  8
PLAN_1
 62
     5
  6
CONTINUOUS
 10
0.336972
 20
1.698012
  0
SEQEND
  8
0
  0
POLYLINE
  8
PLAN_1
 62
     5
  6
CONTINUOUS
 66
     1
 40
0.003000
 41
0.003000
  0
VERTEX
  8
PLAN_1
 62
     5
  6
CONTINUOUS
 10
0.328740
 20
1.698012
  0
VERTEX
  8
PLAN_1
 62
     5
  6
CONTINUOUS
 10
0.320504
 20
1.698012
  0
SEQEND
  8
0
  0
POLYLINE
  8
PLAN_1
 62
     5
  6
CONTINUOUS
 66
     1
 40
0.003000
 41
0.003000
  0
VERTEX
  8
PLAN_1
 62
     5
  6
CONTINUOUS
 10
0.312268
 20
1.698012
  0
VERTEX
  8
PLAN_1
 62
     5
  6
CONTINUOUS
 10
0.303622
 20
1.698012
  0
SEQEND
  8
0
  0
POLYLINE
  8
PLAN_1
 62
     5
  6
CONTINUOUS
 66
     1
 40
0.003000
 41
0.003000
  0
VERTEX
  8
PLAN_1
 62
     5
  6
CONTINUOUS
 10
0.300740
 20
1.692657
  0
VERTEX
  8
PLAN_1
 62
     5
  6
CONTINUOUS
 10
0.300740
 20
1.684425
  0
SEQEND
  8
0
  0
POLYLINE
  8
PLAN_1
 62
     5
  6
CONTINUOUS
 66
     1
 40
0.003000
 41
0.003000
  0
VERTEX
  8
PLAN_1
 62
     5
  6
CONTINUOUS
 10
0.300740
 20
1.676189
  0
VERTEX
  8
PLAN_1
 62
     5
  6
CONTINUOUS
 10
0.300740
 20
1.667953
  0
SEQEND
  8
0
  0
POLYLINE
  8
PLAN_1
 62
     5
  6
CONTINUOUS
 66
     1
 40
0.003000
 41
0.003000
  0
VERTEX
  8
PLAN_1
 62
     5
  6
CONTINUOUS
 10
0.300740
 20
1.659307
  0
VERTEX
  8
PLAN_1
 62
     5
  6
CONTINUOUS
 10
0.300740
 20
1.651075
  0
SEQEND
  8
0
  0
POLYLINE
  8
PLAN_1
 62
     5
  6
CONTINUOUS
 66
     1
 40
0.003000
 41
0.003000
  0
VERTEX
  8
PLAN_1
 62
     5
  6
CONTINUOUS
 10
0.300740
 20
1.642839
  0
VERTEX
  8
PLAN_1
 62
     5
  6
CONTINUOUS
 10
0.300740
 20
1.634602
  0
SEQEND
  8
0
  0
POLYLINE
  8
PLAN_1
 62
     5
  6
CONTINUOUS
 66
     1
 40
0.003000
 41
0.003000
  0
VERTEX
  8
PLAN_1
 62
     5
  6
CONTINUOUS
 10
0.300740
 20
1.626370
  0
VERTEX
  8
PLAN_1
 62
     5
  6
CONTINUOUS
 10
0.300740
 20
1.617724
  0
SEQEND
  8
0
  0
POLYLINE
  8
PLAN_1
 62
     5
  6
CONTINUOUS
 66
     1
 40
0.003000
 41
0.003000
  0
VERTEX
  8
PLAN_1
 62
     5
  6
CONTINUOUS
 10
0.300740
 20
1.609488
  0
VERTEX
  8
PLAN_1
 62
     5
  6
CONTINUOUS
 10
0.300740
 20
1.601252
  0
SEQEND
  8
0
  0
POLYLINE
  8
PLAN_1
 62
     5
  6
CONTINUOUS
 66
     1
 40
0.003000
 41
0.003000
  0
VERTEX
  8
PLAN_1
 62
     5
  6
CONTINUOUS
 10
0.300740
 20
1.593020
  0
VERTEX
  8
PLAN_1
 62
     5
  6
CONTINUOUS
 10
0.300740
 20
1.584374
  0
SEQEND
  8
0
  0
POLYLINE
  8
PLAN_1
 62
     5
  6
CONTINUOUS
 66
     1
 40
0.003000
 41
0.003000
  0
VERTEX
  8
PLAN_1
 62
     5
  6
CONTINUOUS
 10
0.300740
 20
1.576138
  0
VERTEX
  8
PLAN_1
 62
     5
  6
CONTINUOUS
 10
0.300740
 20
1.567902
  0
SEQEND
  8
0
  0
POLYLINE
  8
PLAN_1
 62
     5
  6
CONTINUOUS
 66
     1
 40
0.003000
 41
0.003000
  0
VERTEX
  8
PLAN_1
 62
     5
  6
CONTINUOUS
 10
0.300740
 20
1.559669
  0
VERTEX
  8
PLAN_1
 62
     5
  6
CONTINUOUS
 10
0.300740
 20
1.551433
  0
SEQEND
  8
0
  0
POLYLINE
  8
PLAN_1
 62
     5
  6
CONTINUOUS
 66
     1
 40
0.003000
 41
0.003000
  0
VERTEX
  8
PLAN_1
 62
     5
  6
CONTINUOUS
 10
0.300740
 20
1.542787
  0
VERTEX
  8
PLAN_1
 62
     5
  6
CONTINUOUS
 10
0.300740
 20
1.534551
  0
SEQEND
  8
0
  0
POLYLINE
  8
PLAN_1
 62
     5
  6
CONTINUOUS
 66
     1
 40
0.003000
 41
0.003000
  0
VERTEX
  8
PLAN_1
 62
     5
  6
CONTINUOUS
 10
0.300740
 20
1.526319
  0
VERTEX
  8
PLAN_1
 62
     5
  6
CONTINUOUS
 10
0.300740
 20
1.518083
  0
SEQEND
  8
0
  0
POLYLINE
  8
PLAN_1
 62
     5
  6
CONTINUOUS
 66
     1
 40
0.003000
 41
0.003000
  0
VERTEX
  8
PLAN_1
 62
     5
  6
CONTINUOUS
 10
0.300740
 20
1.509437
  0
VERTEX
  8
PLAN_1
 62
     5
  6
CONTINUOUS
 10
0.300740
 20
1.501201
  0
SEQEND
  8
0
  0
POLYLINE
  8
PLAN_1
 62
     5
  6
CONTINUOUS
 66
     1
 40
0.003000
 41
0.003000
  0
VERTEX
  8
PLAN_1
 62
     5
  6
CONTINUOUS
 10
0.300740
 20
1.492969
  0
VERTEX
  8
PLAN_1
 62
     5
  6
CONTINUOUS
 10
0.300740
 20
1.484732
  0
SEQEND
  8
0
  0
POLYLINE
  8
PLAN_1
 62
     5
  6
CONTINUOUS
 66
     1
 40
0.003000
 41
0.003000
  0
VERTEX
  8
PLAN_1
 62
     5
  6
CONTINUOUS
 10
0.300740
 20
1.476087
  0
VERTEX
  8
PLAN_1
 62
     5
  6
CONTINUOUS
 10
0.300740
 20
1.467854
  0
SEQEND
  8
0
  0
POLYLINE
  8
PLAN_1
 62
     5
  6
CONTINUOUS
 66
     1
 40
0.003000
 41
0.003000
  0
VERTEX
  8
PLAN_1
 62
     5
  6
CONTINUOUS
 10
0.300740
 20
1.459618
  0
VERTEX
  8
PLAN_1
 62
     5
  6
CONTINUOUS
 10
0.300740
 20
1.451382
  0
SEQEND
  8
0
  0
POLYLINE
  8
PLAN_1
 62
     5
  6
CONTINUOUS
 66
     1
 40
0.003000
 41
0.003000
  0
VERTEX
  8
PLAN_1
 62
     5
  6
CONTINUOUS
 10
0.300740
 20
1.443150
  0
VERTEX
  8
PLAN_1
 62
     5
  6
CONTINUOUS
 10
0.300740
 20
1.434504
  0
SEQEND
  8
0
  0
POLYLINE
  8
PLAN_1
 62
     5
  6
CONTINUOUS
 66
     1
 40
0.003000
 41
0.003000
  0
VERTEX
  8
PLAN_1
 62
     5
  6
CONTINUOUS
 10
0.300740
 20
1.426268
  0
VERTEX
  8
PLAN_1
 62
     5
  6
CONTINUOUS
 10
0.300740
 20
1.425854
  0
SEQEND
  8
0
  0
POLYLINE
  8
PLAN_1
 62
     5
  6
CONTINUOUS
 66
     1
 40
0.003000
 41
0.003000
  0
VERTEX
  8
PLAN_1
 62
     5
  6
CONTINUOUS
 10
0.300740
 20
1.426268
  0
VERTEX
  8
PLAN_1
 62
     5
  6
CONTINUOUS
 10
0.300740
 20
1.425854
  0
SEQEND
  8
0
  0
POLYLINE
  8
PLAN_1
  6
CONTINUOUS
 66
     1
 40
0.008232
 41
0.008232
  0
VERTEX
  8
PLAN_1
  6
CONTINUOUS
 10
-0.659008
 20
2.127035
  0
VERTEX
  8
PLAN_1
  6
CONTINUOUS
 10
-0.659008
 20
2.316020
  0
VERTEX
  8
PLAN_1
  6
CONTINUOUS
 10
-1.007744
 20
2.316020
  0
SEQEND
  8
0
  0
POLYLINE
  8
PLAN_1
  6
CONTINUOUS
 66
     1
 40
0.008232
 41
0.008232
  0
VERTEX
  8
PLAN_1
  6
CONTINUOUS
 10
0.303213
 20
2.316020
  0
VERTEX
  8
PLAN_1
  6
CONTINUOUS
 10
-0.026587
 20
2.316020
  0
VERTEX
  8
PLAN_1
  6
CONTINUOUS
 10
-0.026587
 20
2.127035
  0
SEQEND
  8
0
  0
POLYLINE
  8
PLAN_1
  6
CONTINUOUS
 66
     1
 40
0.008232
 41
0.008232
  0
VERTEX
  8
PLAN_1
  6
CONTINUOUS
 10
-0.763996
 20
2.129094
  0
VERTEX
  8
PLAN_1
  6
CONTINUOUS
 10
-0.763996
 20
2.316020
  0
SEQEND
  8
0
  0
POLYLINE
  8
PLAN_1
  6
CONTINUOUS
 66
     1
 40
0.008232
 41
0.008232
  0
VERTEX
  8
PLAN_1
  6
CONTINUOUS
 10
0.062346
 20
2.129094
  0
VERTEX
  8
PLAN_1
  6
CONTINUOUS
 10
0.062346
 20
2.316020
  0
SEQEND
  8
0
  0
POLYLINE
  8
PLAN_1
  6
CONTINUOUS
 66
     1
 40
0.008232
 41
0.008232
  0
VERTEX
  8
PLAN_1
  6
CONTINUOUS
 10
-1.408768
 20
2.287197
  0
VERTEX
  8
PLAN_1
  6
CONTINUOUS
 10
-1.003213
 20
2.287197
  0
VERTEX
  8
PLAN_1
  6
CONTINUOUS
 10
-1.003213
 20
2.962028
  0
VERTEX
  8
PLAN_1
  6
CONTINUOUS
 10
-1.410417
 20
2.962028
  0
VERTEX
  8
PLAN_1
  6
CONTINUOUS
 10
-1.468059
 20
2.927031
  0
VERTEX
  8
PLAN_1
  6
CONTINUOUS
 10
-1.468059
 20
2.331252
  0
VERTEX
  8
PLAN_1
  6
CONTINUOUS
 10
-1.408768
 20
2.287197
  0
SEQEND
  8
0
  0
POLYLINE
  8
PLAN_1
  6
CONTINUOUS
 66
     1
 40
0.008232
 41
0.008232
  0
VERTEX
  8
PLAN_1
  6
CONTINUOUS
 10
-1.723331
 20
2.531354
  0
VERTEX
  8
PLAN_1
  6
CONTINUOUS
 10
-1.723331
 20
2.729811
  0
VERTEX
  8
PLAN_1
  6
CONTINUOUS
 10
-2.198882
 20
2.729811
  0
VERTEX
  8
PLAN_1
  6
CONTINUOUS
 10
-2.198882
 20
2.531354
  0
VERTEX
  8
PLAN_1
  6
CONTINUOUS
 10
-1.723331
 20
2.531354
  0
SEQEND
  8
0
  0
POLYLINE
  8
PLAN_1
  6
CONTINUOUS
 66
     1
 40
0.008232
 41
0.008232
  0
VERTEX
  8
PLAN_1
  6
CONTINUOUS
 10
-1.468059
 20
2.421835
  0
VERTEX
  8
PLAN_1
  6
CONTINUOUS
 10
-1.971606
 20
2.421835
  0
VERTEX
  8
PLAN_1
  6
CONTINUOUS
 10
-2.090598
 20
2.530531
  0
VERTEX
  8
PLAN_1
  6
CONTINUOUS
 10
-1.695335
 20
2.530531
  0
VERTEX
  8
PLAN_1
  6
CONTINUOUS
 10
-1.695335
 20
2.729811
  0
SEQEND
  8
0
  0
POLYLINE
  8
PLAN_1
  6
CONTINUOUS
 66
     1
 40
0.008232
 41
0.008232
  0
VERTEX
  8
PLAN_1
  6
CONTINUOUS
 10
-1.695335
 20
2.729811
  0
VERTEX
  8
PLAN_1
  6
CONTINUOUS
 10
-1.712217
 20
2.729811
  0
VERTEX
  8
PLAN_1
  6
CONTINUOUS
 10
-1.756681
 20
2.729811
  0
VERTEX
  8
PLAN_1
  6
CONTINUOUS
 10
-1.819677
 20
2.729811
  0
VERTEX
  8
PLAN_1
  6
CONTINUOUS
 10
-1.891732
 20
2.729811
  0
VERTEX
  8
PLAN_1
  6
CONTINUOUS
 10
-1.963783
 20
2.729811
  0
VERTEX
  8
PLAN_1
  6
CONTINUOUS
 10
-2.027189
 20
2.729811
  0
VERTEX
  8
PLAN_1
  6
CONTINUOUS
 10
-2.072480
 20
2.729811
  0
VERTEX
  8
PLAN_1
  6
CONTINUOUS
 10
-2.090598
 20
2.729811
  0
SEQEND
  8
0
  0
POLYLINE
  8
PLAN_1
  6
CONTINUOUS
 66
     1
 40
0.008232
 41
0.008232
  0
VERTEX
  8
PLAN_1
  6
CONTINUOUS
 10
-2.090598
 20
2.729811
  0
VERTEX
  8
PLAN_1
  6
CONTINUOUS
 10
-1.971606
 20
2.838094
  0
VERTEX
  8
PLAN_1
  6
CONTINUOUS
 10
-1.468059
 20
2.838094
  0
VERTEX
  8
PLAN_1
  6
CONTINUOUS
 10
-1.468059
 20
2.421835
  0
SEQEND
  8
0
  0
POLYLINE
  8
PLAN_1
  6
CONTINUOUS
 66
     1
 40
0.008232
 41
0.008232
  0
VERTEX
  8
PLAN_1
  6
CONTINUOUS
 10
-1.409594
 20
2.956264
  0
VERTEX
  8
PLAN_1
  6
CONTINUOUS
 10
-1.409594
 20
2.290492
  0
SEQEND
  8
0
  0
POLYLINE
  8
PLAN_1
 62
     2
  6
CONTINUOUS
 66
     1
 40
0.004114
 41
0.004114
  0
VERTEX
  8
PLAN_1
 62
     2
  6
CONTINUOUS
 10
-2.170886
 20
3.201244
  0
VERTEX
  8
PLAN_1
 62
     2
  6
CONTINUOUS
 10
0.273154
 20
3.201244
  0
SEQEND
  8
0
  0
SOLID
  8
PLAN_1
 62
     2
 10
0.302799
 20
3.201244
 11
0.243512
 21
3.216890
 12
0.302799
 22
3.201244
 13
0.243512
 23
3.185598
  0
POLYLINE
  8
PLAN_1
 62
     2
  6
CONTINUOUS
 66
     1
 40
0.003000
 41
0.003000
  0
VERTEX
  8
PLAN_1
 62
     2
  6
CONTINUOUS
 10
0.302799
 20
3.201244
  0
VERTEX
  8
PLAN_1
 62
     2
  6
CONTINUOUS
 10
0.243512
 20
3.216890
  0
VERTEX
  8
PLAN_1
 62
     2
  6
CONTINUOUS
 10
0.243512
 20
3.185598
  0
VERTEX
  8
PLAN_1
 62
     2
  6
CONTINUOUS
 10
0.302799
 20
3.201244
  0
SEQEND
  8
0
  0
SOLID
  8
PLAN_1
 62
     2
 10
-2.200118
 20
3.201244
 11
-2.141240
 21
3.216890
 12
-2.200118
 22
3.201244
 13
-2.141240
 23
3.185598
  0
POLYLINE
  8
PLAN_1
 62
     2
  6
CONTINUOUS
 66
     1
 40
0.003000
 41
0.003000
  0
VERTEX
  8
PLAN_1
 62
     2
  6
CONTINUOUS
 10
-2.200118
 20
3.201244
  0
VERTEX
  8
PLAN_1
 62
     2
  6
CONTINUOUS
 10
-2.141240
 20
3.216890
  0
VERTEX
  8
PLAN_1
 62
     2
  6
CONTINUOUS
 10
-2.141240
 20
3.185598
  0
VERTEX
  8
PLAN_1
 62
     2
  6
CONTINUOUS
 10
-2.200118
 20
3.201244
  0
SEQEND
  8
0
  0
POLYLINE
  8
PLAN_1
 62
     2
  6
CONTINUOUS
 66
     1
 40
0.003000
 41
0.003000
  0
VERTEX
  8
PLAN_1
 62
     2
  6
CONTINUOUS
 10
-1.006508
 20
3.278650
  0
VERTEX
  8
PLAN_1
 62
     2
  6
CONTINUOUS
 10
-1.007331
 20
3.280709
  0
VERTEX
  8
PLAN_1
 62
     2
  6
CONTINUOUS
 10
-1.008154
 20
3.283177
  0
VERTEX
  8
PLAN_1
 62
     2
  6
CONTINUOUS
 10
-1.008976
 20
3.284823
  0
VERTEX
  8
PLAN_1
 62
     2
  6
CONTINUOUS
 10
-1.010626
 20
3.286472
  0
VERTEX
  8
PLAN_1
 62
     2
  6
CONTINUOUS
 10
-1.012272
 20
3.288118
  0
VERTEX
  8
PLAN_1
 62
     2
  6
CONTINUOUS
 10
-1.014331
 20
3.288941
  0
VERTEX
  8
PLAN_1
 62
     2
  6
CONTINUOUS
 10
-1.016390
 20
3.289764
  0
VERTEX
  8
PLAN_1
 62
     2
  6
CONTINUOUS
 10
-1.019272
 20
3.289764
  0
VERTEX
  8
PLAN_1
 62
     2
  6
CONTINUOUS
 10
-1.021740
 20
3.289764
  0
VERTEX
  8
PLAN_1
 62
     2
  6
CONTINUOUS
 10
-1.024213
 20
3.288941
  0
VERTEX
  8
PLAN_1
 62
     2
  6
CONTINUOUS
 10
-1.026272
 20
3.288118
  0
VERTEX
  8
PLAN_1
 62
     2
  6
CONTINUOUS
 10
-1.027917
 20
3.286472
  0
VERTEX
  8
PLAN_1
 62
     2
  6
CONTINUOUS
 10
-1.029563
 20
3.285236
  0
VERTEX
  8
PLAN_1
 62
     2
  6
CONTINUOUS
 10
-1.031213
 20
3.283177
  0
VERTEX
  8
PLAN_1
 62
     2
  6
CONTINUOUS
 10
-1.032445
 20
3.281118
  0
VERTEX
  8
PLAN_1
 62
     2
  6
CONTINUOUS
 10
-1.033272
 20
3.279059
  0
VERTEX
  8
PLAN_1
 62
     2
  6
CONTINUOUS
 10
-1.034917
 20
3.274531
  0
VERTEX
  8
PLAN_1
 62
     2
  6
CONTINUOUS
 10
-1.035740
 20
3.270004
  0
VERTEX
  8
PLAN_1
 62
     2
  6
CONTINUOUS
 10
-1.036563
 20
3.266295
  0
VERTEX
  8
PLAN_1
 62
     2
  6
CONTINUOUS
 10
-1.036563
 20
3.262591
  0
VERTEX
  8
PLAN_1
 62
     2
  6
CONTINUOUS
 10
-1.035331
 20
3.264236
  0
VERTEX
  8
PLAN_1
 62
     2
  6
CONTINUOUS
 10
-1.034094
 20
3.265472
  0
VERTEX
  8
PLAN_1
 62
     2
  6
CONTINUOUS
 10
-1.032445
 20
3.267122
  0
VERTEX
  8
PLAN_1
 62
     2
  6
CONTINUOUS
 10
-1.030799
 20
3.268354
  0
VERTEX
  8
PLAN_1
 62
     2
  6
CONTINUOUS
 10
-1.028331
 20
3.269591
  0
VERTEX
  8
PLAN_1
 62
     2
  6
CONTINUOUS
 10
-1.025858
 20
3.270827
  0
VERTEX
  8
PLAN_1
 62
     2
  6
CONTINUOUS
 10
-1.022567
 20
3.271236
  0
VERTEX
  8
PLAN_1
 62
     2
  6
CONTINUOUS
 10
-1.018858
 20
3.271650
  0
VERTEX
  8
PLAN_1
 62
     2
  6
CONTINUOUS
 10
-1.015567
 20
3.271236
  0
VERTEX
  8
PLAN_1
 62
     2
  6
CONTINUOUS
 10
-1.011858
 20
3.270413
  0
VERTEX
  8
PLAN_1
 62
     2
  6
CONTINUOUS
 10
-1.007744
 20
3.268768
  0
VERTEX
  8
PLAN_1
 62
     2
  6
CONTINUOUS
 10
-1.004449
 20
3.266295
  0
VERTEX
  8
PLAN_1
 62
     2
  6
CONTINUOUS
 10
-1.002390
 20
3.265063
  0
VERTEX
  8
PLAN_1
 62
     2
  6
CONTINUOUS
 10
-1.001154
 20
3.263413
  0
VERTEX
  8
PLAN_1
 62
     2
  6
CONTINUOUS
 10
-0.999508
 20
3.261354
  0
VERTEX
  8
PLAN_1
 62
     2
  6
CONTINUOUS
 10
-0.998685
 20
3.259295
  0
VERTEX
  8
PLAN_1
 62
     2
  6
CONTINUOUS
 10
-0.997449
 20
3.256827
  0
VERTEX
  8
PLAN_1
 62
     2
  6
CONTINUOUS
 10
-0.996626
 20
3.254358
  0
VERTEX
  8
PLAN_1
 62
     2
  6
CONTINUOUS
 10
-0.996213
 20
3.251472
  0
VERTEX
  8
PLAN_1
 62
     2
  6
CONTINUOUS
 10
-0.996213
 20
3.248181
  0
VERTEX
  8
PLAN_1
 62
     2
  6
CONTINUOUS
 10
-0.996213
 20
3.245709
  0
VERTEX
  8
PLAN_1
 62
     2
  6
CONTINUOUS
 10
-0.996626
 20
3.242827
  0
VERTEX
  8
PLAN_1
 62
     2
  6
CONTINUOUS
 10
-0.997039
 20
3.240768
  0
VERTEX
  8
PLAN_1
 62
     2
  6
CONTINUOUS
 10
-0.997862
 20
3.238299
  0
VERTEX
  8
PLAN_1
 62
     2
  6
CONTINUOUS
 10
-0.998685
 20
3.236240
  0
VERTEX
  8
PLAN_1
 62
     2
  6
CONTINUOUS
 10
-0.999921
 20
3.234181
  0
VERTEX
  8
PLAN_1
 62
     2
  6
CONTINUOUS
 10
-1.001567
 20
3.232122
  0
VERTEX
  8
PLAN_1
 62
     2
  6
CONTINUOUS
 10
-1.003213
 20
3.230063
  0
VERTEX
  8
PLAN_1
 62
     2
  6
CONTINUOUS
 10
-1.004449
 20
3.228417
  0
VERTEX
  8
PLAN_1
 62
     2
  6
CONTINUOUS
 10
-1.006094
 20
3.227181
  0
VERTEX
  8
PLAN_1
 62
     2
  6
CONTINUOUS
 10
-1.008154
 20
3.225949
  0
VERTEX
  8
PLAN_1
 62
     2
  6
CONTINUOUS
 10
-1.009803
 20
3.224713
  0
VERTEX
  8
PLAN_1
 62
     2
  6
CONTINUOUS
 10
-1.012272
 20
3.223890
  0
VERTEX
  8
PLAN_1
 62
     2
  6
CONTINUOUS
 10
-1.015154
 20
3.223476
  0
VERTEX
  8
PLAN_1
 62
     2
  6
CONTINUOUS
 10
-1.018035
 20
3.223063
  0
VERTEX
  8
PLAN_1
 62
     2
  6
CONTINUOUS
 10
-1.021740
 20
3.223063
  0
VERTEX
  8
PLAN_1
 62
     2
  6
CONTINUOUS
 10
-1.023799
 20
3.223063
  0
VERTEX
  8
PLAN_1
 62
     2
  6
CONTINUOUS
 10
-1.026272
 20
3.223476
  0
VERTEX
  8
PLAN_1
 62
     2
  6
CONTINUOUS
 10
-1.028740
 20
3.224299
  0
VERTEX
  8
PLAN_1
 62
     2
  6
CONTINUOUS
 10
-1.031213
 20
3.225122
  0
VERTEX
  8
PLAN_1
 62
     2
  6
CONTINUOUS
 10
-1.033681
 20
3.226772
  0
VERTEX
  8
PLAN_1
 62
     2
  6
CONTINUOUS
 10
-1.036154
 20
3.228417
  0
VERTEX
  8
PLAN_1
 62
     2
  6
CONTINUOUS
 10
-1.038622
 20
3.230886
  0
VERTEX
  8
PLAN_1
 62
     2
  6
CONTINUOUS
 10
-1.040681
 20
3.233358
  0
VERTEX
  8
PLAN_1
 62
     2
  6
CONTINUOUS
 10
-1.041917
 20
3.236240
  0
VERTEX
  8
PLAN_1
 62
     2
  6
CONTINUOUS
 10
-1.043154
 20
3.239122
  0
VERTEX
  8
PLAN_1
 62
     2
  6
CONTINUOUS
 10
-1.044386
 20
3.242004
  0
VERTEX
  8
PLAN_1
 62
     2
  6
CONTINUOUS
 10
-1.044799
 20
3.245299
  0
VERTEX
  8
PLAN_1
 62
     2
  6
CONTINUOUS
 10
-1.045622
 20
3.248591
  0
VERTEX
  8
PLAN_1
 62
     2
  6
CONTINUOUS
 10
-1.046035
 20
3.251886
  0
VERTEX
  8
PLAN_1
 62
     2
  6
CONTINUOUS
 10
-1.046035
 20
3.255181
  0
VERTEX
  8
PLAN_1
 62
     2
  6
CONTINUOUS
 10
-1.046035
 20
3.258886
  0
VERTEX
  8
PLAN_1
 62
     2
  6
CONTINUOUS
 10
-1.046035
 20
3.265063
  0
VERTEX
  8
PLAN_1
 62
     2
  6
CONTINUOUS
 10
-1.044799
 20
3.271650
  0
VERTEX
  8
PLAN_1
 62
     2
  6
CONTINUOUS
 10
-1.044386
 20
3.274945
  0
VERTEX
  8
PLAN_1
 62
     2
  6
CONTINUOUS
 10
-1.043154
 20
3.278236
  0
VERTEX
  8
PLAN_1
 62
     2
  6
CONTINUOUS
 10
-1.042327
 20
3.281531
  0
VERTEX
  8
PLAN_1
 62
     2
  6
CONTINUOUS
 10
-1.040681
 20
3.284413
  0
VERTEX
  8
PLAN_1
 62
     2
  6
CONTINUOUS
 10
-1.039035
 20
3.287295
  0
VERTEX
  8
PLAN_1
 62
     2
  6
CONTINUOUS
 10
-1.037386
 20
3.289764
  0
VERTEX
  8
PLAN_1
 62
     2
  6
CONTINUOUS
 10
-1.034917
 20
3.292236
  0
VERTEX
  8
PLAN_1
 62
     2
  6
CONTINUOUS
 10
-1.032445
 20
3.294295
  0
VERTEX
  8
PLAN_1
 62
     2
  6
CONTINUOUS
 10
-1.029563
 20
3.295941
  0
VERTEX
  8
PLAN_1
 62
     2
  6
CONTINUOUS
 10
-1.026681
 20
3.297177
  0
VERTEX
  8
PLAN_1
 62
     2
  6
CONTINUOUS
 10
-1.022976
 20
3.297587
  0
VERTEX
  8
PLAN_1
 62
     2
  6
CONTINUOUS
 10
-1.018858
 20
3.298000
  0
VERTEX
  8
PLAN_1
 62
     2
  6
CONTINUOUS
 10
-1.015567
 20
3.297587
  0
VERTEX
  8
PLAN_1
 62
     2
  6
CONTINUOUS
 10
-1.012272
 20
3.297177
  0
VERTEX
  8
PLAN_1
 62
     2
  6
CONTINUOUS
 10
-1.008976
 20
3.295941
  0
VERTEX
  8
PLAN_1
 62
     2
  6
CONTINUOUS
 10
-1.005685
 20
3.293882
  0
VERTEX
  8
PLAN_1
 62
     2
  6
CONTINUOUS
 10
-1.004035
 20
3.292646
  0
VERTEX
  8
PLAN_1
 62
     2
  6
CONTINUOUS
 10
-1.002803
 20
3.291413
  0
VERTEX
  8
PLAN_1
 62
     2
  6
CONTINUOUS
 10
-1.001567
 20
3.289764
  0
VERTEX
  8
PLAN_1
 62
     2
  6
CONTINUOUS
 10
-1.000331
 20
3.287709
  0
VERTEX
  8
PLAN_1
 62
     2
  6
CONTINUOUS
 10
-0.999508
 20
3.286059
  0
VERTEX
  8
PLAN_1
 62
     2
  6
CONTINUOUS
 10
-0.998685
 20
3.283591
  0
VERTEX
  8
PLAN_1
 62
     2
  6
CONTINUOUS
 10
-0.997862
 20
3.281118
  0
VERTEX
  8
PLAN_1
 62
     2
  6
CONTINUOUS
 10
-0.997862
 20
3.278650
  0
VERTEX
  8
PLAN_1
 62
     2
  6
CONTINUOUS
 10
-1.006508
 20
3.278650
  0
SEQEND
  8
0
  0
POLYLINE
  8
PLAN_1
 62
     2
  6
CONTINUOUS
 66
     1
 40
0.003000
 41
0.003000
  0
VERTEX
  8
PLAN_1
 62
     2
  6
CONTINUOUS
 10
-1.020094
 20
3.231299
  0
VERTEX
  8
PLAN_1
 62
     2
  6
CONTINUOUS
 10
-1.016799
 20
3.231299
  0
VERTEX
  8
PLAN_1
 62
     2
  6
CONTINUOUS
 10
-1.013917
 20
3.232535
  0
VERTEX
  8
PLAN_1
 62
     2
  6
CONTINUOUS
 10
-1.011449
 20
3.233772
  0
VERTEX
  8
PLAN_1
 62
     2
  6
CONTINUOUS
 10
-1.009390
 20
3.235827
  0
VERTEX
  8
PLAN_1
 62
     2
  6
CONTINUOUS
 10
-1.007744
 20
3.238299
  0
VERTEX
  8
PLAN_1
 62
     2
  6
CONTINUOUS
 10
-1.006508
 20
3.241181
  0
VERTEX
  8
PLAN_1
 62
     2
  6
CONTINUOUS
 10
-1.006094
 20
3.244476
  0
VERTEX
  8
PLAN_1
 62
     2
  6
CONTINUOUS
 10
-1.005685
 20
3.247768
  0
VERTEX
  8
PLAN_1
 62
     2
  6
CONTINUOUS
 10
-1.005685
 20
3.250240
  0
VERTEX
  8
PLAN_1
 62
     2
  6
CONTINUOUS
 10
-1.006508
 20
3.253122
  0
VERTEX
  8
PLAN_1
 62
     2
  6
CONTINUOUS
 10
-1.007331
 20
3.255591
  0
VERTEX
  8
PLAN_1
 62
     2
  6
CONTINUOUS
 10
-1.008976
 20
3.258063
  0
VERTEX
  8
PLAN_1
 62
     2
  6
CONTINUOUS
 10
-1.010626
 20
3.260122
  0
VERTEX
  8
PLAN_1
 62
     2
  6
CONTINUOUS
 10
-1.013508
 20
3.261768
  0
VERTEX
  8
PLAN_1
 62
     2
  6
CONTINUOUS
 10
-1.014744
 20
3.262181
  0
VERTEX
  8
PLAN_1
 62
     2
  6
CONTINUOUS
 10
-1.016390
 20
3.263004
  0
VERTEX
  8
PLAN_1
 62
     2
  6
CONTINUOUS
 10
-1.018449
 20
3.263004
  0
VERTEX
  8
PLAN_1
 62
     2
  6
CONTINUOUS
 10
-1.020508
 20
3.263413
  0
VERTEX
  8
PLAN_1
 62
     2
  6
CONTINUOUS
 10
-1.023799
 20
3.263004
  0
VERTEX
  8
PLAN_1
 62
     2
  6
CONTINUOUS
 10
-1.027094
 20
3.262181
  0
VERTEX
  8
PLAN_1
 62
     2
  6
CONTINUOUS
 10
-1.029563
 20
3.260531
  0
VERTEX
  8
PLAN_1
 62
     2
  6
CONTINUOUS
 10
-1.031622
 20
3.258472
  0
VERTEX
  8
PLAN_1
 62
     2
  6
CONTINUOUS
 10
-1.033272
 20
3.256004
  0
VERTEX
  8
PLAN_1
 62
     2
  6
CONTINUOUS
 10
-1.034504
 20
3.253531
  0
VERTEX
  8
PLAN_1
 62
     2
  6
CONTINUOUS
 10
-1.035331
 20
3.250650
  0
VERTEX
  8
PLAN_1
 62
     2
  6
CONTINUOUS
 10
-1.035331
 20
3.247358
  0
VERTEX
  8
PLAN_1
 62
     2
  6
CONTINUOUS
 10
-1.035331
 20
3.244476
  0
VERTEX
  8
PLAN_1
 62
     2
  6
CONTINUOUS
 10
-1.034504
 20
3.241594
  0
VERTEX
  8
PLAN_1
 62
     2
  6
CONTINUOUS
 10
-1.033272
 20
3.238709
  0
VERTEX
  8
PLAN_1
 62
     2
  6
CONTINUOUS
 10
-1.031622
 20
3.236240
  0
VERTEX
  8
PLAN_1
 62
     2
  6
CONTINUOUS
 10
-1.029563
 20
3.234181
  0
VERTEX
  8
PLAN_1
 62
     2
  6
CONTINUOUS
 10
-1.027094
 20
3.232535
  0
VERTEX
  8
PLAN_1
 62
     2
  6
CONTINUOUS
 10
-1.023799
 20
3.231299
  0
VERTEX
  8
PLAN_1
 62
     2
  6
CONTINUOUS
 10
-1.020094
 20
3.231299
  0
SEQEND
  8
0
  0
POLYLINE
  8
PLAN_1
 62
     2
  6
CONTINUOUS
 66
     1
 40
0.003000
 41
0.003000
  0
VERTEX
  8
PLAN_1
 62
     2
  6
CONTINUOUS
 10
-0.969039
 20
3.266295
  0
VERTEX
  8
PLAN_1
 62
     2
  6
CONTINUOUS
 10
-0.968217
 20
3.266295
  0
VERTEX
  8
PLAN_1
 62
     2
  6
CONTINUOUS
 10
-0.967803
 20
3.266295
  0
VERTEX
  8
PLAN_1
 62
     2
  6
CONTINUOUS
 10
-0.966980
 20
3.266295
  0
VERTEX
  8
PLAN_1
 62
     2
  6
CONTINUOUS
 10
-0.966571
 20
3.266295
  0
VERTEX
  8
PLAN_1
 62
     2
  6
CONTINUOUS
 10
-0.965748
 20
3.266295
  0
VERTEX
  8
PLAN_1
 62
     2
  6
CONTINUOUS
 10
-0.965335
 20
3.266295
  0
VERTEX
  8
PLAN_1
 62
     2
  6
CONTINUOUS
 10
-0.964512
 20
3.266295
  0
VERTEX
  8
PLAN_1
 62
     2
  6
CONTINUOUS
 10
-0.964098
 20
3.266295
  0
VERTEX
  8
PLAN_1
 62
     2
  6
CONTINUOUS
 10
-0.961630
 20
3.266295
  0
VERTEX
  8
PLAN_1
 62
     2
  6
CONTINUOUS
 10
-0.958748
 20
3.266709
  0
VERTEX
  8
PLAN_1
 62
     2
  6
CONTINUOUS
 10
-0.956689
 20
3.267531
  0
VERTEX
  8
PLAN_1
 62
     2
  6
CONTINUOUS
 10
-0.954630
 20
3.268768
  0
VERTEX
  8
PLAN_1
 62
     2
  6
CONTINUOUS
 10
-0.952571
 20
3.270413
  0
VERTEX
  8
PLAN_1
 62
     2
  6
CONTINUOUS
 10
-0.951335
 20
3.272472
  0
VERTEX
  8
PLAN_1
 62
     2
  6
CONTINUOUS
 10
-0.950512
 20
3.274945
  0
VERTEX
  8
PLAN_1
 62
     2
  6
CONTINUOUS
 10
-0.950098
 20
3.278236
  0
VERTEX
  8
PLAN_1
 62
     2
  6
CONTINUOUS
 10
-0.950098
 20
3.279882
  0
VERTEX
  8
PLAN_1
 62
     2
  6
CONTINUOUS
 10
-0.950925
 20
3.281941
  0
VERTEX
  8
PLAN_1
 62
     2
  6
CONTINUOUS
 10
-0.951748
 20
3.284000
  0
VERTEX
  8
PLAN_1
 62
     2
  6
CONTINUOUS
 10
-0.952984
 20
3.285650
  0
VERTEX
  8
PLAN_1
 62
     2
  6
CONTINUOUS
 10
-0.954630
 20
3.287295
  0
VERTEX
  8
PLAN_1
 62
     2
  6
CONTINUOUS
 10
-0.957098
 20
3.288531
  0
VERTEX
  8
PLAN_1
 62
     2
  6
CONTINUOUS
 10
-0.959980
 20
3.289354
  0
VERTEX
  8
PLAN_1
 62
     2
  6
CONTINUOUS
 10
-0.963689
 20
3.289764
  0
VERTEX
  8
PLAN_1
 62
     2
  6
CONTINUOUS
 10
-0.966157
 20
3.289764
  0
VERTEX
  8
PLAN_1
 62
     2
  6
CONTINUOUS
 10
-0.967803
 20
3.289354
  0
VERTEX
  8
PLAN_1
 62
     2
  6
CONTINUOUS
 10
-0.969862
 20
3.288941
  0
VERTEX
  8
PLAN_1
 62
     2
  6
CONTINUOUS
 10
-0.971512
 20
3.288118
  0
VERTEX
  8
PLAN_1
 62
     2
  6
CONTINUOUS
 10
-0.973980
 20
3.286059
  0
VERTEX
  8
PLAN_1
 62
     2
  6
CONTINUOUS
 10
-0.975626
 20
3.284000
  0
VERTEX
  8
PLAN_1
 62
     2
  6
CONTINUOUS
 10
-0.976453
 20
3.281118
  0
VERTEX
  8
PLAN_1
 62
     2
  6
CONTINUOUS
 10
-0.977276
 20
3.278650
  0
VERTEX
  8
PLAN_1
 62
     2
  6
CONTINUOUS
 10
-0.977685
 20
3.276177
  0
VERTEX
  8
PLAN_1
 62
     2
  6
CONTINUOUS
 10
-0.978098
 20
3.274118
  0
VERTEX
  8
PLAN_1
 62
     2
  6
CONTINUOUS
 10
-0.986744
 20
3.274118
  0
VERTEX
  8
PLAN_1
 62
     2
  6
CONTINUOUS
 10
-0.986744
 20
3.278236
  0
VERTEX
  8
PLAN_1
 62
     2
  6
CONTINUOUS
 10
-0.985921
 20
3.282354
  0
VERTEX
  8
PLAN_1
 62
     2
  6
CONTINUOUS
 10
-0.985098
 20
3.284413
  0
VERTEX
  8
PLAN_1
 62
     2
  6
CONTINUOUS
 10
-0.984276
 20
3.286472
  0
VERTEX
  8
PLAN_1
 62
     2
  6
CONTINUOUS
 10
-0.983449
 20
3.288118
  0
VERTEX
  8
PLAN_1
 62
     2
  6
CONTINUOUS
 10
-0.982217
 20
3.290177
  0
VERTEX
  8
PLAN_1
 62
     2
  6
CONTINUOUS
 10
-0.980980
 20
3.291823
  0
VERTEX
  8
PLAN_1
 62
     2
  6
CONTINUOUS
 10
-0.979335
 20
3.293059
  0
VERTEX
  8
PLAN_1
 62
     2
  6
CONTINUOUS
 10
-0.977276
 20
3.294705
  0
VERTEX
  8
PLAN_1
 62
     2
  6
CONTINUOUS
 10
-0.975217
 20
3.295941
  0
VERTEX
  8
PLAN_1
 62
     2
  6
CONTINUOUS
 10
-0.972744
 20
3.296764
  0
VERTEX
  8
PLAN_1
 62
     2
  6
CONTINUOUS
 10
-0.969862
 20
3.297587
  0
VERTEX
  8
PLAN_1
 62
     2
  6
CONTINUOUS
 10
-0.966571
 20
3.298000
  0
VERTEX
  8
PLAN_1
 62
     2
  6
CONTINUOUS
 10
-0.963276
 20
3.298000
  0
VERTEX
  8
PLAN_1
 62
     2
  6
CONTINUOUS
 10
-0.958335
 20
3.297587
  0
VERTEX
  8
PLAN_1
 62
     2
  6
CONTINUOUS
 10
-0.953807
 20
3.296354
  0
VERTEX
  8
PLAN_1
 62
     2
  6
CONTINUOUS
 10
-0.950098
 20
3.294705
  0
VERTEX
  8
PLAN_1
 62
     2
  6
CONTINUOUS
 10
-0.946807
 20
3.292646
  0
VERTEX
  8
PLAN_1
 62
     2
  6
CONTINUOUS
 10
-0.943925
 20
3.289764
  0
VERTEX
  8
PLAN_1
 62
     2
  6
CONTINUOUS
 10
-0.942276
 20
3.286472
  0
VERTEX
  8
PLAN_1
 62
     2
  6
CONTINUOUS
 10
-0.941043
 20
3.282768
  0
VERTEX
  8
PLAN_1
 62
     2
  6
CONTINUOUS
 10
-0.940630
 20
3.278650
  0
VERTEX
  8
PLAN_1
 62
     2
  6
CONTINUOUS
 10
-0.941043
 20
3.275354
  0
VERTEX
  8
PLAN_1
 62
     2
  6
CONTINUOUS
 10
-0.941453
 20
3.272472
  0
VERTEX
  8
PLAN_1
 62
     2
  6
CONTINUOUS
 10
-0.942689
 20
3.270004
  0
VERTEX
  8
PLAN_1
 62
     2
  6
CONTINUOUS
 10
-0.943925
 20
3.268354
  0
VERTEX
  8
PLAN_1
 62
     2
  6
CONTINUOUS
 10
-0.945161
 20
3.266709
  0
VERTEX
  8
PLAN_1
 62
     2
  6
CONTINUOUS
 10
-0.946807
 20
3.265063
  0
VERTEX
  8
PLAN_1
 62
     2
  6
CONTINUOUS
 10
-0.948453
 20
3.264236
  0
VERTEX
  8
PLAN_1
 62
     2
  6
CONTINUOUS
 10
-0.950098
 20
3.263827
  0
VERTEX
  8
PLAN_1
 62
     2
  6
CONTINUOUS
 10
-0.950098
 20
3.263413
  0
VERTEX
  8
PLAN_1
 62
     2
  6
CONTINUOUS
 10
-0.947630
 20
3.262591
  0
VERTEX
  8
PLAN_1
 62
     2
  6
CONTINUOUS
 10
-0.945161
 20
3.261354
  0
VERTEX
  8
PLAN_1
 62
     2
  6
CONTINUOUS
 10
-0.943102
 20
3.259709
  0
VERTEX
  8
PLAN_1
 62
     2
  6
CONTINUOUS
 10
-0.941453
 20
3.257650
  0
VERTEX
  8
PLAN_1
 62
     2
  6
CONTINUOUS
 10
-0.939807
 20
3.255591
  0
VERTEX
  8
PLAN_1
 62
     2
  6
CONTINUOUS
 10
-0.938984
 20
3.252709
  0
VERTEX
  8
PLAN_1
 62
     2
  6
CONTINUOUS
 10
-0.938161
 20
3.249827
  0
VERTEX
  8
PLAN_1
 62
     2
  6
CONTINUOUS
 10
-0.937748
 20
3.246535
  0
VERTEX
  8
PLAN_1
 62
     2
  6
CONTINUOUS
 10
-0.938161
 20
3.242004
  0
VERTEX
  8
PLAN_1
 62
     2
  6
CONTINUOUS
 10
-0.939394
 20
3.237886
  0
VERTEX
  8
PLAN_1
 62
     2
  6
CONTINUOUS
 10
-0.940220
 20
3.235827
  0
VERTEX
  8
PLAN_1
 62
     2
  6
CONTINUOUS
 10
-0.941453
 20
3.233772
  0
VERTEX
  8
PLAN_1
 62
     2
  6
CONTINUOUS
 10
-0.942689
 20
3.231713
  0
VERTEX
  8
PLAN_1
 62
     2
  6
CONTINUOUS
 10
-0.943925
 20
3.230063
  0
VERTEX
  8
PLAN_1
 62
     2
  6
CONTINUOUS
 10
-0.945571
 20
3.228417
  0
VERTEX
  8
PLAN_1
 62
     2
  6
CONTINUOUS
 10
-0.947630
 20
3.227181
  0
VERTEX
  8
PLAN_1
 62
     2
  6
CONTINUOUS
 10
-0.949689
 20
3.225949
  0
VERTEX
  8
PLAN_1
 62
     2
  6
CONTINUOUS
 10
-0.952157
 20
3.224713
  0
VERTEX
  8
PLAN_1
 62
     2
  6
CONTINUOUS
 10
-0.955039
 20
3.223890
  0
VERTEX
  8
PLAN_1
 62
     2
  6
CONTINUOUS
 10
-0.957512
 20
3.223476
  0
VERTEX
  8
PLAN_1
 62
     2
  6
CONTINUOUS
 10
-0.960807
 20
3.223063
  0
VERTEX
  8
PLAN_1
 62
     2
  6
CONTINUOUS
 10
-0.964098
 20
3.223063
  0
VERTEX
  8
PLAN_1
 62
     2
  6
CONTINUOUS
 10
-0.966157
 20
3.223063
  0
VERTEX
  8
PLAN_1
 62
     2
  6
CONTINUOUS
 10
-0.968217
 20
3.223063
  0
VERTEX
  8
PLAN_1
 62
     2
  6
CONTINUOUS
 10
-0.969862
 20
3.223476
  0
VERTEX
  8
PLAN_1
 62
     2
  6
CONTINUOUS
 10
-0.971512
 20
3.223890
  0
VERTEX
  8
PLAN_1
 62
     2
  6
CONTINUOUS
 10
-0.973157
 20
3.224299
  0
VERTEX
  8
PLAN_1
 62
     2
  6
CONTINUOUS
 10
-0.974803
 20
3.224713
  0
VERTEX
  8
PLAN_1
 62
     2
  6
CONTINUOUS
 10
-0.976453
 20
3.225535
  0
VERTEX
  8
PLAN_1
 62
     2
  6
CONTINUOUS
 10
-0.977685
 20
3.225949
  0
VERTEX
  8
PLAN_1
 62
     2
  6
CONTINUOUS
 10
-0.980567
 20
3.228004
  0
VERTEX
  8
PLAN_1
 62
     2
  6
CONTINUOUS
 10
-0.982626
 20
3.230063
  0
VERTEX
  8
PLAN_1
 62
     2
  6
CONTINUOUS
 10
-0.984685
 20
3.232535
  0
VERTEX
  8
PLAN_1
 62
     2
  6
CONTINUOUS
 10
-0.985921
 20
3.235004
  0
VERTEX
  8
PLAN_1
 62
     2
  6
CONTINUOUS
 10
-0.987157
 20
3.237886
  0
VERTEX
  8
PLAN_1
 62
     2
  6
CONTINUOUS
 10
-0.987980
 20
3.241181
  0
VERTEX
  8
PLAN_1
 62
     2
  6
CONTINUOUS
 10
-0.988390
 20
3.244063
  0
VERTEX
  8
PLAN_1
 62
     2
  6
CONTINUOUS
 10
-0.988803
 20
3.247358
  0
VERTEX
  8
PLAN_1
 62
     2
  6
CONTINUOUS
 10
-0.979335
 20
3.247358
  0
VERTEX
  8
PLAN_1
 62
     2
  6
CONTINUOUS
 10
-0.978921
 20
3.244476
  0
VERTEX
  8
PLAN_1
 62
     2
  6
CONTINUOUS
 10
-0.978508
 20
3.242004
  0
VERTEX
  8
PLAN_1
 62
     2
  6
CONTINUOUS
 10
-0.977685
 20
3.239122
  0
VERTEX
  8
PLAN_1
 62
     2
  6
CONTINUOUS
 10
-0.976453
 20
3.236654
  0
VERTEX
  8
PLAN_1
 62
     2
  6
CONTINUOUS
 10
-0.975626
 20
3.235417
  0
VERTEX
  8
PLAN_1
 62
     2
  6
CONTINUOUS
 10
-0.974394
 20
3.234594
  0
VERTEX
  8
PLAN_1
 62
     2
  6
CONTINUOUS
 10
-0.973157
 20
3.233358
  0
VERTEX
  8
PLAN_1
 62
     2
  6
CONTINUOUS
 10
-0.971512
 20
3.232535
  0
VERTEX
  8
PLAN_1
 62
     2
  6
CONTINUOUS
 10
-0.969862
 20
3.232122
  0
VERTEX
  8
PLAN_1
 62
     2
  6
CONTINUOUS
 10
-0.968217
 20
3.231713
  0
VERTEX
  8
PLAN_1
 62
     2
  6
CONTINUOUS
 10
-0.966157
 20
3.231299
  0
VERTEX
  8
PLAN_1
 62
     2
  6
CONTINUOUS
 10
-0.963689
 20
3.231299
  0
VERTEX
  8
PLAN_1
 62
     2
  6
CONTINUOUS
 10
-0.960394
 20
3.231299
  0
VERTEX
  8
PLAN_1
 62
     2
  6
CONTINUOUS
 10
-0.957098
 20
3.232122
  0
VERTEX
  8
PLAN_1
 62
     2
  6
CONTINUOUS
 10
-0.954217
 20
3.233358
  0
VERTEX
  8
PLAN_1
 62
     2
  6
CONTINUOUS
 10
-0.952157
 20
3.235004
  0
VERTEX
  8
PLAN_1
 62
     2
  6
CONTINUOUS
 10
-0.950098
 20
3.237063
  0
VERTEX
  8
PLAN_1
 62
     2
  6
CONTINUOUS
 10
-0.948866
 20
3.239535
  0
VERTEX
  8
PLAN_1
 62
     2
  6
CONTINUOUS
 10
-0.948043
 20
3.242417
  0
VERTEX
  8
PLAN_1
 62
     2
  6
CONTINUOUS
 10
-0.947630
 20
3.245299
  0
VERTEX
  8
PLAN_1
 62
     2
  6
CONTINUOUS
 10
-0.947630
 20
3.247358
  0
VERTEX
  8
PLAN_1
 62
     2
  6
CONTINUOUS
 10
-0.948043
 20
3.249417
  0
VERTEX
  8
PLAN_1
 62
     2
  6
CONTINUOUS
 10
-0.948866
 20
3.251063
  0
VERTEX
  8
PLAN_1
 62
     2
  6
CONTINUOUS
 10
-0.949276
 20
3.252709
  0
VERTEX
  8
PLAN_1
 62
     2
  6
CONTINUOUS
 10
-0.951335
 20
3.254768
  0
VERTEX
  8
PLAN_1
 62
     2
  6
CONTINUOUS
 10
-0.953807
 20
3.256413
  0
VERTEX
  8
PLAN_1
 62
     2
  6
CONTINUOUS
 10
-0.956689
 20
3.257650
  0
VERTEX
  8
PLAN_1
 62
     2
  6
CONTINUOUS
 10
-0.959571
 20
3.258472
  0
VERTEX
  8
PLAN_1
 62
     2
  6
CONTINUOUS
 10
-0.962039
 20
3.258472
  0
VERTEX
  8
PLAN_1
 62
     2
  6
CONTINUOUS
 10
-0.964512
 20
3.258886
  0
VERTEX
  8
PLAN_1
 62
     2
  6
CONTINUOUS
 10
-0.965335
 20
3.258886
  0
VERTEX
  8
PLAN_1
 62
     2
  6
CONTINUOUS
 10
-0.965748
 20
3.258472
  0
VERTEX
  8
PLAN_1
 62
     2
  6
CONTINUOUS
 10
-0.966157
 20
3.258472
  0
VERTEX
  8
PLAN_1
 62
     2
  6
CONTINUOUS
 10
-0.966980
 20
3.258472
  0
VERTEX
  8
PLAN_1
 62
     2
  6
CONTINUOUS
 10
-0.967394
 20
3.258472
  0
VERTEX
  8
PLAN_1
 62
     2
  6
CONTINUOUS
 10
-0.967803
 20
3.258472
  0
VERTEX
  8
PLAN_1
 62
     2
  6
CONTINUOUS
 10
-0.968217
 20
3.258472
  0
VERTEX
  8
PLAN_1
 62
     2
  6
CONTINUOUS
 10
-0.969039
 20
3.258472
  0
VERTEX
  8
PLAN_1
 62
     2
  6
CONTINUOUS
 10
-0.969039
 20
3.266295
  0
SEQEND
  8
0
  0
POLYLINE
  8
PLAN_1
 62
     2
  6
CONTINUOUS
 66
     1
 40
0.003000
 41
0.003000
  0
VERTEX
  8
PLAN_1
 62
     2
  6
CONTINUOUS
 10
-0.925398
 20
3.224713
  0
VERTEX
  8
PLAN_1
 62
     2
  6
CONTINUOUS
 10
-0.919634
 20
3.224713
  0
VERTEX
  8
PLAN_1
 62
     2
  6
CONTINUOUS
 10
-0.919634
 20
3.223063
  0
VERTEX
  8
PLAN_1
 62
     2
  6
CONTINUOUS
 10
-0.920043
 20
3.221417
  0
VERTEX
  8
PLAN_1
 62
     2
  6
CONTINUOUS
 10
-0.920457
 20
3.219358
  0
VERTEX
  8
PLAN_1
 62
     2
  6
CONTINUOUS
 10
-0.920866
 20
3.218126
  0
VERTEX
  8
PLAN_1
 62
     2
  6
CONTINUOUS
 10
-0.921689
 20
3.216476
  0
VERTEX
  8
PLAN_1
 62
     2
  6
CONTINUOUS
 10
-0.922516
 20
3.215654
  0
VERTEX
  8
PLAN_1
 62
     2
  6
CONTINUOUS
 10
-0.923748
 20
3.214831
  0
VERTEX
  8
PLAN_1
 62
     2
  6
CONTINUOUS
 10
-0.925398
 20
3.214417
  0
VERTEX
  8
PLAN_1
 62
     2
  6
CONTINUOUS
 10
-0.925398
 20
3.209476
  0
VERTEX
  8
PLAN_1
 62
     2
  6
CONTINUOUS
 10
-0.924161
 20
3.209890
  0
VERTEX
  8
PLAN_1
 62
     2
  6
CONTINUOUS
 10
-0.922516
 20
3.210299
  0
VERTEX
  8
PLAN_1
 62
     2
  6
CONTINUOUS
 10
-0.920866
 20
3.211126
  0
VERTEX
  8
PLAN_1
 62
     2
  6
CONTINUOUS
 10
-0.919220
 20
3.212358
  0
VERTEX
  8
PLAN_1
 62
     2
  6
CONTINUOUS
 10
-0.917161
 20
3.214417
  0
VERTEX
  8
PLAN_1
 62
     2
  6
CONTINUOUS
 10
-0.915925
 20
3.217299
  0
VERTEX
  8
PLAN_1
 62
     2
  6
CONTINUOUS
 10
-0.914693
 20
3.221008
  0
VERTEX
  8
PLAN_1
 62
     2
  6
CONTINUOUS
 10
-0.914280
 20
3.225535
  0
VERTEX
  8
PLAN_1
 62
     2
  6
CONTINUOUS
 10
-0.914280
 20
3.235827
  0
VERTEX
  8
PLAN_1
 62
     2
  6
CONTINUOUS
 10
-0.925398
 20
3.235827
  0
VERTEX
  8
PLAN_1
 62
     2
  6
CONTINUOUS
 10
-0.925398
 20
3.224713
  0
SEQEND
  8
0
  0
POLYLINE
  8
PLAN_1
 62
     2
  6
CONTINUOUS
 66
     1
 40
0.003000
 41
0.003000
  0
VERTEX
  8
PLAN_1
 62
     2
  6
CONTINUOUS
 10
-0.861988
 20
3.278650
  0
VERTEX
  8
PLAN_1
 62
     2
  6
CONTINUOUS
 10
-0.862402
 20
3.280709
  0
VERTEX
  8
PLAN_1
 62
     2
  6
CONTINUOUS
 10
-0.863224
 20
3.283177
  0
VERTEX
  8
PLAN_1
 62
     2
  6
CONTINUOUS
 10
-0.864461
 20
3.284823
  0
VERTEX
  8
PLAN_1
 62
     2
  6
CONTINUOUS
 10
-0.865697
 20
3.286472
  0
VERTEX
  8
PLAN_1
 62
     2
  6
CONTINUOUS
 10
-0.867343
 20
3.288118
  0
VERTEX
  8
PLAN_1
 62
     2
  6
CONTINUOUS
 10
-0.869402
 20
3.288941
  0
VERTEX
  8
PLAN_1
 62
     2
  6
CONTINUOUS
 10
-0.871870
 20
3.289764
  0
VERTEX
  8
PLAN_1
 62
     2
  6
CONTINUOUS
 10
-0.874752
 20
3.289764
  0
VERTEX
  8
PLAN_1
 62
     2
  6
CONTINUOUS
 10
-0.877224
 20
3.289764
  0
VERTEX
  8
PLAN_1
 62
     2
  6
CONTINUOUS
 10
-0.879283
 20
3.288941
  0
VERTEX
  8
PLAN_1
 62
     2
  6
CONTINUOUS
 10
-0.881343
 20
3.288118
  0
VERTEX
  8
PLAN_1
 62
     2
  6
CONTINUOUS
 10
-0.883402
 20
3.286472
  0
VERTEX
  8
PLAN_1
 62
     2
  6
CONTINUOUS
 10
-0.885047
 20
3.285236
  0
VERTEX
  8
PLAN_1
 62
     2
  6
CONTINUOUS
 10
-0.886283
 20
3.283177
  0
VERTEX
  8
PLAN_1
 62
     2
  6
CONTINUOUS
 10
-0.887516
 20
3.281118
  0
VERTEX
  8
PLAN_1
 62
     2
  6
CONTINUOUS
 10
-0.888752
 20
3.279059
  0
VERTEX
  8
PLAN_1
 62
     2
  6
CONTINUOUS
 10
-0.890398
 20
3.274531
  0
VERTEX
  8
PLAN_1
 62
     2
  6
CONTINUOUS
 10
-0.891224
 20
3.270004
  0
VERTEX
  8
PLAN_1
 62
     2
  6
CONTINUOUS
 10
-0.891634
 20
3.266295
  0
VERTEX
  8
PLAN_1
 62
     2
  6
CONTINUOUS
 10
-0.892047
 20
3.262591
  0
VERTEX
  8
PLAN_1
 62
     2
  6
CONTINUOUS
 10
-0.891634
 20
3.262591
  0
VERTEX
  8
PLAN_1
 62
     2
  6
CONTINUOUS
 10
-0.890811
 20
3.264236
  0
VERTEX
  8
PLAN_1
 62
     2
  6
CONTINUOUS
 10
-0.889575
 20
3.265472
  0
VERTEX
  8
PLAN_1
 62
     2
  6
CONTINUOUS
 10
-0.887929
 20
3.267122
  0
VERTEX
  8
PLAN_1
 62
     2
  6
CONTINUOUS
 10
-0.885870
 20
3.268354
  0
VERTEX
  8
PLAN_1
 62
     2
  6
CONTINUOUS
 10
-0.883811
 20
3.269591
  0
VERTEX
  8
PLAN_1
 62
     2
  6
CONTINUOUS
 10
-0.880929
 20
3.270827
  0
VERTEX
  8
PLAN_1
 62
     2
  6
CONTINUOUS
 10
-0.878047
 20
3.271236
  0
VERTEX
  8
PLAN_1
 62
     2
  6
CONTINUOUS
 10
-0.874343
 20
3.271650
  0
VERTEX
  8
PLAN_1
 62
     2
  6
CONTINUOUS
 10
-0.870638
 20
3.271236
  0
VERTEX
  8
PLAN_1
 62
     2
  6
CONTINUOUS
 10
-0.866929
 20
3.270413
  0
VERTEX
  8
PLAN_1
 62
     2
  6
CONTINUOUS
 10
-0.863224
 20
3.268768
  0
VERTEX
  8
PLAN_1
 62
     2
  6
CONTINUOUS
 10
-0.859520
 20
3.266295
  0
VERTEX
  8
PLAN_1
 62
     2
  6
CONTINUOUS
 10
-0.857874
 20
3.265063
  0
VERTEX
  8
PLAN_1
 62
     2
  6
CONTINUOUS
 10
-0.856224
 20
3.263413
  0
VERTEX
  8
PLAN_1
 62
     2
  6
CONTINUOUS
 10
-0.854992
 20
3.261354
  0
VERTEX
  8
PLAN_1
 62
     2
  6
CONTINUOUS
 10
-0.853756
 20
3.259295
  0
VERTEX
  8
PLAN_1
 62
     2
  6
CONTINUOUS
 10
-0.852933
 20
3.256827
  0
VERTEX
  8
PLAN_1
 62
     2
  6
CONTINUOUS
 10
-0.852106
 20
3.254358
  0
VERTEX
  8
PLAN_1
 62
     2
  6
CONTINUOUS
 10
-0.851697
 20
3.251472
  0
VERTEX
  8
PLAN_1
 62
     2
  6
CONTINUOUS
 10
-0.851283
 20
3.248181
  0
VERTEX
  8
PLAN_1
 62
     2
  6
CONTINUOUS
 10
-0.851697
 20
3.245709
  0
VERTEX
  8
PLAN_1
 62
     2
  6
CONTINUOUS
 10
-0.851697
 20
3.242827
  0
VERTEX
  8
PLAN_1
 62
     2
  6
CONTINUOUS
 10
-0.852520
 20
3.240768
  0
VERTEX
  8
PLAN_1
 62
     2
  6
CONTINUOUS
 10
-0.852933
 20
3.238299
  0
VERTEX
  8
PLAN_1
 62
     2
  6
CONTINUOUS
 10
-0.854165
 20
3.236240
  0
VERTEX
  8
PLAN_1
 62
     2
  6
CONTINUOUS
 10
-0.855402
 20
3.234181
  0
VERTEX
  8
PLAN_1
 62
     2
  6
CONTINUOUS
 10
-0.856638
 20
3.232122
  0
VERTEX
  8
PLAN_1
 62
     2
  6
CONTINUOUS
 10
-0.858283
 20
3.230063
  0
VERTEX
  8
PLAN_1
 62
     2
  6
CONTINUOUS
 10
-0.859929
 20
3.228417
  0
VERTEX
  8
PLAN_1
 62
     2
  6
CONTINUOUS
 10
-0.861579
 20
3.227181
  0
VERTEX
  8
PLAN_1
 62
     2
  6
CONTINUOUS
 10
-0.863224
 20
3.225949
  0
VERTEX
  8
PLAN_1
 62
     2
  6
CONTINUOUS
 10
-0.865283
 20
3.224713
  0
VERTEX
  8
PLAN_1
 62
     2
  6
CONTINUOUS
 10
-0.867756
 20
3.223890
  0
VERTEX
  8
PLAN_1
 62
     2
  6
CONTINUOUS
 10
-0.870224
 20
3.223476
  0
VERTEX
  8
PLAN_1
 62
     2
  6
CONTINUOUS
 10
-0.873520
 20
3.223063
  0
VERTEX
  8
PLAN_1
 62
     2
  6
CONTINUOUS
 10
-0.876811
 20
3.223063
  0
VERTEX
  8
PLAN_1
 62
     2
  6
CONTINUOUS
 10
-0.879283
 20
3.223063
  0
VERTEX
  8
PLAN_1
 62
     2
  6
CONTINUOUS
 10
-0.881343
 20
3.223476
  0
VERTEX
  8
PLAN_1
 62
     2
  6
CONTINUOUS
 10
-0.883811
 20
3.224299
  0
VERTEX
  8
PLAN_1
 62
     2
  6
CONTINUOUS
 10
-0.886693
 20
3.225122
  0
VERTEX
  8
PLAN_1
 62
     2
  6
CONTINUOUS
 10
-0.889165
 20
3.226772
  0
VERTEX
  8
PLAN_1
 62
     2
  6
CONTINUOUS
 10
-0.891634
 20
3.228417
  0
VERTEX
  8
PLAN_1
 62
     2
  6
CONTINUOUS
 10
-0.893693
 20
3.230886
  0
VERTEX
  8
PLAN_1
 62
     2
  6
CONTINUOUS
 10
-0.895752
 20
3.233358
  0
VERTEX
  8
PLAN_1
 62
     2
  6
CONTINUOUS
 10
-0.897398
 20
3.236240
  0
VERTEX
  8
PLAN_1
 62
     2
  6
CONTINUOUS
 10
-0.898634
 20
3.239122
  0
VERTEX
  8
PLAN_1
 62
     2
  6
CONTINUOUS
 10
-0.899457
 20
3.242004
  0
VERTEX
  8
PLAN_1
 62
     2
  6
CONTINUOUS
 10
-0.900280
 20
3.245299
  0
VERTEX
  8
PLAN_1
 62
     2
  6
CONTINUOUS
 10
-0.900693
 20
3.248591
  0
VERTEX
  8
PLAN_1
 62
     2
  6
CONTINUOUS
 10
-0.901102
 20
3.251886
  0
VERTEX
  8
PLAN_1
 62
     2
  6
CONTINUOUS
 10
-0.901516
 20
3.255181
  0
VERTEX
  8
PLAN_1
 62
     2
  6
CONTINUOUS
 10
-0.901516
 20
3.258886
  0
VERTEX
  8
PLAN_1
 62
     2
  6
CONTINUOUS
 10
-0.901102
 20
3.265063
  0
VERTEX
  8
PLAN_1
 62
     2
  6
CONTINUOUS
 10
-0.900280
 20
3.271650
  0
VERTEX
  8
PLAN_1
 62
     2
  6
CONTINUOUS
 10
-0.899457
 20
3.274945
  0
VERTEX
  8
PLAN_1
 62
     2
  6
CONTINUOUS
 10
-0.898634
 20
3.278236
  0
VERTEX
  8
PLAN_1
 62
     2
  6
CONTINUOUS
 10
-0.897398
 20
3.281531
  0
VERTEX
  8
PLAN_1
 62
     2
  6
CONTINUOUS
 10
-0.896165
 20
3.284413
  0
VERTEX
  8
PLAN_1
 62
     2
  6
CONTINUOUS
 10
-0.894516
 20
3.287295
  0
VERTEX
  8
PLAN_1
 62
     2
  6
CONTINUOUS
 10
-0.892457
 20
3.289764
  0
VERTEX
  8
PLAN_1
 62
     2
  6
CONTINUOUS
 10
-0.890398
 20
3.292236
  0
VERTEX
  8
PLAN_1
 62
     2
  6
CONTINUOUS
 10
-0.887929
 20
3.294295
  0
VERTEX
  8
PLAN_1
 62
     2
  6
CONTINUOUS
 10
-0.885047
 20
3.295941
  0
VERTEX
  8
PLAN_1
 62
     2
  6
CONTINUOUS
 10
-0.881752
 20
3.297177
  0
VERTEX
  8
PLAN_1
 62
     2
  6
CONTINUOUS
 10
-0.878461
 20
3.297587
  0
VERTEX
  8
PLAN_1
 62
     2
  6
CONTINUOUS
 10
-0.874343
 20
3.298000
  0
VERTEX
  8
PLAN_1
 62
     2
  6
CONTINUOUS
 10
-0.871047
 20
3.297587
  0
VERTEX
  8
PLAN_1
 62
     2
  6
CONTINUOUS
 10
-0.867756
 20
3.297177
  0
VERTEX
  8
PLAN_1
 62
     2
  6
CONTINUOUS
 10
-0.864047
 20
3.295941
  0
VERTEX
  8
PLAN_1
 62
     2
  6
CONTINUOUS
 10
-0.860756
 20
3.293882
  0
VERTEX
  8
PLAN_1
 62
     2
  6
CONTINUOUS
 10
-0.859520
 20
3.292646
  0
VERTEX
  8
PLAN_1
 62
     2
  6
CONTINUOUS
 10
-0.857874
 20
3.291413
  0
VERTEX
  8
PLAN_1
 62
     2
  6
CONTINUOUS
 10
-0.856638
 20
3.289764
  0
VERTEX
  8
PLAN_1
 62
     2
  6
CONTINUOUS
 10
-0.855402
 20
3.287709
  0
VERTEX
  8
PLAN_1
 62
     2
  6
CONTINUOUS
 10
-0.854579
 20
3.286059
  0
VERTEX
  8
PLAN_1
 62
     2
  6
CONTINUOUS
 10
-0.853756
 20
3.283591
  0
VERTEX
  8
PLAN_1
 62
     2
  6
CONTINUOUS
 10
-0.853343
 20
3.281118
  0
VERTEX
  8
PLAN_1
 62
     2
  6
CONTINUOUS
 10
-0.852933
 20
3.278650
  0
VERTEX
  8
PLAN_1
 62
     2
  6
CONTINUOUS
 10
-0.861988
 20
3.278650
  0
SEQEND
  8
0
  0
POLYLINE
  8
PLAN_1
 62
     2
  6
CONTINUOUS
 66
     1
 40
0.003000
 41
0.003000
  0
VERTEX
  8
PLAN_1
 62
     2
  6
CONTINUOUS
 10
-0.875165
 20
3.231299
  0
VERTEX
  8
PLAN_1
 62
     2
  6
CONTINUOUS
 10
-0.872283
 20
3.231299
  0
VERTEX
  8
PLAN_1
 62
     2
  6
CONTINUOUS
 10
-0.869402
 20
3.232535
  0
VERTEX
  8
PLAN_1
 62
     2
  6
CONTINUOUS
 10
-0.866929
 20
3.233772
  0
VERTEX
  8
PLAN_1
 62
     2
  6
CONTINUOUS
 10
-0.864870
 20
3.235827
  0
VERTEX
  8
PLAN_1
 62
     2
  6
CONTINUOUS
 10
-0.863224
 20
3.238299
  0
VERTEX
  8
PLAN_1
 62
     2
  6
CONTINUOUS
 10
-0.861988
 20
3.241181
  0
VERTEX
  8
PLAN_1
 62
     2
  6
CONTINUOUS
 10
-0.861165
 20
3.244476
  0
VERTEX
  8
PLAN_1
 62
     2
  6
CONTINUOUS
 10
-0.860756
 20
3.247768
  0
VERTEX
  8
PLAN_1
 62
     2
  6
CONTINUOUS
 10
-0.861165
 20
3.250240
  0
VERTEX
  8
PLAN_1
 62
     2
  6
CONTINUOUS
 10
-0.861579
 20
3.253122
  0
VERTEX
  8
PLAN_1
 62
     2
  6
CONTINUOUS
 10
-0.862815
 20
3.255591
  0
VERTEX
  8
PLAN_1
 62
     2
  6
CONTINUOUS
 10
-0.864047
 20
3.258063
  0
VERTEX
  8
PLAN_1
 62
     2
  6
CONTINUOUS
 10
-0.866106
 20
3.260122
  0
VERTEX
  8
PLAN_1
 62
     2
  6
CONTINUOUS
 10
-0.868579
 20
3.261768
  0
VERTEX
  8
PLAN_1
 62
     2
  6
CONTINUOUS
 10
-0.870224
 20
3.262181
  0
VERTEX
  8
PLAN_1
 62
     2
  6
CONTINUOUS
 10
-0.871870
 20
3.263004
  0
VERTEX
  8
PLAN_1
 62
     2
  6
CONTINUOUS
 10
-0.873520
 20
3.263004
  0
VERTEX
  8
PLAN_1
 62
     2
  6
CONTINUOUS
 10
-0.875579
 20
3.263413
  0
VERTEX
  8
PLAN_1
 62
     2
  6
CONTINUOUS
 10
-0.879283
 20
3.263004
  0
VERTEX
  8
PLAN_1
 62
     2
  6
CONTINUOUS
 10
-0.882165
 20
3.262181
  0
VERTEX
  8
PLAN_1
 62
     2
  6
CONTINUOUS
 10
-0.885047
 20
3.260531
  0
VERTEX
  8
PLAN_1
 62
     2
  6
CONTINUOUS
 10
-0.887106
 20
3.258472
  0
VERTEX
  8
PLAN_1
 62
     2
  6
CONTINUOUS
 10
-0.888752
 20
3.256004
  0
VERTEX
  8
PLAN_1
 62
     2
  6
CONTINUOUS
 10
-0.889575
 20
3.253531
  0
VERTEX
  8
PLAN_1
 62
     2
  6
CONTINUOUS
 10
-0.890398
 20
3.250650
  0
VERTEX
  8
PLAN_1
 62
     2
  6
CONTINUOUS
 10
-0.890811
 20
3.247358
  0
VERTEX
  8
PLAN_1
 62
     2
  6
CONTINUOUS
 10
-0.890398
 20
3.244476
  0
VERTEX
  8
PLAN_1
 62
     2
  6
CONTINUOUS
 10
-0.889988
 20
3.241594
  0
VERTEX
  8
PLAN_1
 62
     2
  6
CONTINUOUS
 10
-0.888752
 20
3.238709
  0
VERTEX
  8
PLAN_1
 62
     2
  6
CONTINUOUS
 10
-0.887106
 20
3.236240
  0
VERTEX
  8
PLAN_1
 62
     2
  6
CONTINUOUS
 10
-0.885047
 20
3.234181
  0
VERTEX
  8
PLAN_1
 62
     2
  6
CONTINUOUS
 10
-0.882165
 20
3.232535
  0
VERTEX
  8
PLAN_1
 62
     2
  6
CONTINUOUS
 10
-0.878870
 20
3.231299
  0
VERTEX
  8
PLAN_1
 62
     2
  6
CONTINUOUS
 10
-0.875165
 20
3.231299
  0
SEQEND
  8
0
  0
POLYLINE
  8
PLAN_1
 62
     2
  6
CONTINUOUS
 66
     1
 40
0.004114
 41
0.004114
  0
VERTEX
  8
PLAN_1
 62
     2
  6
CONTINUOUS
 10
-2.200118
 20
2.753280
  0
VERTEX
  8
PLAN_1
 62
     2
  6
CONTINUOUS
 10
-2.200118
 20
3.224713
  0
SEQEND
  8
0
  0
POLYLINE
  8
PLAN_1
 62
     2
  6
CONTINUOUS
 66
     1
 40
0.004114
 41
0.004114
  0
VERTEX
  8
PLAN_1
 62
     2
  6
CONTINUOUS
 10
0.302799
 20
3.063311
  0
VERTEX
  8
PLAN_1
 62
     2
  6
CONTINUOUS
 10
0.302799
 20
3.224713
  0
SEQEND
  8
0
  0
ENDSEC
  0
EOF
