  0
SECTION
  2
HEADER
  9
$ACADVER
  1
AC1006
  9
$EXTMIN
 10
-2.270000
 20
-4.039732
  9
$EXTMAX
 10
2.262000
 20
4.036000
  9
$LTSCALE
 40
0.000394
  9
$PDMODE
 70
    35
  9
$PDSIZE
 40
0.000315
  0
ENDSEC
  0
SECTION
  2
TABLES
  0
TABLE
  2
LTYPE
 70
     9
  0
LTYPE
  2
CONTINUOUS
 70
    64
  3
Solid line
 72
    65
 73
     0
 40
0.000000
  0
LTYPE
  2
DASHED
 70
    64
  3
__ __ __ __ __ __ __ __ __ __ __ __ __ __ __
 72
    65
 73
     2
 40
0.000003
 49
0.000002
 49
-0.000001
  0
LTYPE
  2
HIDDEN
 70
    64
  3
 _ _ _ _ _ _ _ _ _ _ _ _ _ _ _ _ _ _ _ _ _ _
 72
    65
 73
     2
 40
0.000001
 49
0.000001
 49
-0.000000
  0
LTYPE
  2
CENTER
 70
    64
  3
____ _ ____ _ ____ _ ____ _ ____ _ ____ _ ____
 72
    65
 73
     4
 40
0.000008
 49
0.000005
 49
-0.000001
 49
0.000001
 49
-0.000001
  0
LTYPE
  2
PHANTOM
 70
    64
  3
_____ _ _ _____ _ _ _____ _ _ _____ _ _ ____
 72
    65
 73
     6
 40
0.000010
 49
0.000005
 49
-0.000001
 49
0.000001
 49
-0.000001
 49
0.000001
 49
-0.000001
  0
LTYPE
  2
DOT
 70
    64
  3
...............................................
 72
    65
 73
     2
 40
0.000001
 49
0.000000
 49
-0.000001
  0
LTYPE
  2
DASHDOT
 70
    64
  3
__ . __ . __ . __ . __ . __ . __ . __ . __ . __
 72
    65
 73
     4
 40
0.000004
 49
0.000002
 49
-0.000001
 49
0.000000
 49
-0.000001
  0
LTYPE
  2
BORDER
 70
    64
  3
__ __ . __ __ . __ __ . __ __ . __ __ . __ __
 72
    65
 73
     6
 40
0.000007
 49
0.000002
 49
-0.000001
 49
0.000002
 49
-0.000001
 49
0.000000
 49
-0.000001
  0
LTYPE
  2
DIVIDE
 70
    64
  3
__ . . __ . . __ . . __ . . __ . . __ . . __
 72
    65
 73
     6
 40
0.000005
 49
0.000002
 49
-0.000001
 49
0.000000
 49
-0.000001
 49
0.000000
 49
-0.000001
  0
LTYPE
  2
DOTDOT
 70
    64
  3
 . .  . .  . .  . .  . .  . . 
 72
    65
 73
     5
 40
0.000002
 49
-0.000001
 49
0.000000
 49
-0.000001
 49
0.000000
 49
-0.000001
  0
ENDTAB
  0
TABLE
  2
STYLE
 70
     0
  0
ENDTAB
  0
TABLE
  2
LAYER
 70
     3
  0
LAYER
  2
FOREGROUND
 70
    64
 62
     7
  6
CONTINUOUS
  0
LAYER
  2
BACKGROUND
 70
    65
 62
    -7
  6
CONTINUOUS
  0
LAYER
  2
PLAN_1
 70
    64
 62
     7
  6
CONTINUOUS
  0
ENDTAB
  0
ENDSEC
  0
SECTION
  2
ENTITIES
  0
POLYLINE
  8
PLAN_1
  6
CONTINUOUS
 66
     1
 40
0.003000
 41
0.003000
  0
VERTEX
  8
PLAN_1
  6
CONTINUOUS
 10
0.386409
 20
-4.004906
  0
VERTEX
  8
PLAN_1
  6
CONTINUOUS
 10
0.229441
 20
-4.004906
  0
VERTEX
  8
PLAN_1
  6
CONTINUOUS
 10
0.229441
 20
-3.982697
  0
VERTEX
  8
PLAN_1
  6
CONTINUOUS
 10
0.351583
 20
-3.829764
  0
VERTEX
  8
PLAN_1
  6
CONTINUOUS
 10
0.238524
 20
-3.829764
  0
VERTEX
  8
PLAN_1
  6
CONTINUOUS
 10
0.238524
 20
-3.805535
  0
VERTEX
  8
PLAN_1
  6
CONTINUOUS
 10
0.386409
 20
-3.805535
  0
VERTEX
  8
PLAN_1
  6
CONTINUOUS
 10
0.386409
 20
-3.829260
  0
VERTEX
  8
PLAN_1
  6
CONTINUOUS
 10
0.263760
 20
-3.981185
  0
VERTEX
  8
PLAN_1
  6
CONTINUOUS
 10
0.386409
 20
-3.981185
  0
VERTEX
  8
PLAN_1
  6
CONTINUOUS
 10
0.386409
 20
-4.004906
  0
SEQEND
  8
0
  0
POLYLINE
  8
PLAN_1
  6
CONTINUOUS
 66
     1
 40
0.003000
 41
0.003000
  0
VERTEX
  8
PLAN_1
  6
CONTINUOUS
 10
0.553476
 20
-3.865598
  0
VERTEX
  8
PLAN_1
  6
CONTINUOUS
 10
0.551965
 20
-3.859543
  0
VERTEX
  8
PLAN_1
  6
CONTINUOUS
 10
0.549945
 20
-3.853992
  0
VERTEX
  8
PLAN_1
  6
CONTINUOUS
 10
0.547421
 20
-3.848945
  0
VERTEX
  8
PLAN_1
  6
CONTINUOUS
 10
0.544394
 20
-3.844402
  0
VERTEX
  8
PLAN_1
  6
CONTINUOUS
 10
0.541366
 20
-3.840866
  0
VERTEX
  8
PLAN_1
  6
CONTINUOUS
 10
0.537831
 20
-3.837335
  0
VERTEX
  8
PLAN_1
  6
CONTINUOUS
 10
0.533791
 20
-3.834307
  0
VERTEX
  8
PLAN_1
  6
CONTINUOUS
 10
0.530260
 20
-3.831783
  0
VERTEX
  8
PLAN_1
  6
CONTINUOUS
 10
0.526220
 20
-3.829764
  0
VERTEX
  8
PLAN_1
  6
CONTINUOUS
 10
0.521681
 20
-3.828248
  0
VERTEX
  8
PLAN_1
  6
CONTINUOUS
 10
0.517642
 20
-3.826736
  0
VERTEX
  8
PLAN_1
  6
CONTINUOUS
 10
0.513602
 20
-3.825724
  0
VERTEX
  8
PLAN_1
  6
CONTINUOUS
 10
0.505528
 20
-3.824717
  0
VERTEX
  8
PLAN_1
  6
CONTINUOUS
 10
0.497957
 20
-3.824213
  0
VERTEX
  8
PLAN_1
  6
CONTINUOUS
 10
0.491398
 20
-3.824717
  0
VERTEX
  8
PLAN_1
  6
CONTINUOUS
 10
0.484835
 20
-3.825724
  0
VERTEX
  8
PLAN_1
  6
CONTINUOUS
 10
0.478272
 20
-3.827240
  0
VERTEX
  8
PLAN_1
  6
CONTINUOUS
 10
0.472217
 20
-3.829260
  0
VERTEX
  8
PLAN_1
  6
CONTINUOUS
 10
0.466665
 20
-3.832287
  0
VERTEX
  8
PLAN_1
  6
CONTINUOUS
 10
0.461110
 20
-3.835315
  0
VERTEX
  8
PLAN_1
  6
CONTINUOUS
 10
0.456571
 20
-3.839354
  0
VERTEX
  8
PLAN_1
  6
CONTINUOUS
 10
0.451524
 20
-3.844402
  0
VERTEX
  8
PLAN_1
  6
CONTINUOUS
 10
0.447484
 20
-3.849449
  0
VERTEX
  8
PLAN_1
  6
CONTINUOUS
 10
0.443949
 20
-3.855504
  0
VERTEX
  8
PLAN_1
  6
CONTINUOUS
 10
0.440417
 20
-3.862067
  0
VERTEX
  8
PLAN_1
  6
CONTINUOUS
 10
0.437894
 20
-3.869134
  0
VERTEX
  8
PLAN_1
  6
CONTINUOUS
 10
0.435370
 20
-3.876705
  0
VERTEX
  8
PLAN_1
  6
CONTINUOUS
 10
0.433854
 20
-3.884780
  0
VERTEX
  8
PLAN_1
  6
CONTINUOUS
 10
0.432846
 20
-3.893866
  0
VERTEX
  8
PLAN_1
  6
CONTINUOUS
 10
0.432846
 20
-3.903453
  0
VERTEX
  8
PLAN_1
  6
CONTINUOUS
 10
0.432846
 20
-3.912035
  0
VERTEX
  8
PLAN_1
  6
CONTINUOUS
 10
0.433350
 20
-3.920614
  0
VERTEX
  8
PLAN_1
  6
CONTINUOUS
 10
0.434362
 20
-3.928693
  0
VERTEX
  8
PLAN_1
  6
CONTINUOUS
 10
0.435874
 20
-3.936264
  0
VERTEX
  8
PLAN_1
  6
CONTINUOUS
 10
0.437894
 20
-3.943327
  0
VERTEX
  8
PLAN_1
  6
CONTINUOUS
 10
0.440417
 20
-3.950394
  0
VERTEX
  8
PLAN_1
  6
CONTINUOUS
 10
0.443445
 20
-3.956453
  0
VERTEX
  8
PLAN_1
  6
CONTINUOUS
 10
0.446980
 20
-3.962508
  0
VERTEX
  8
PLAN_1
  6
CONTINUOUS
 10
0.451524
 20
-3.968059
  0
VERTEX
  8
PLAN_1
  6
CONTINUOUS
 10
0.456063
 20
-3.972602
  0
VERTEX
  8
PLAN_1
  6
CONTINUOUS
 10
0.461618
 20
-3.976642
  0
VERTEX
  8
PLAN_1
  6
CONTINUOUS
 10
0.467673
 20
-3.980173
  0
VERTEX
  8
PLAN_1
  6
CONTINUOUS
 10
0.474236
 20
-3.982697
  0
VERTEX
  8
PLAN_1
  6
CONTINUOUS
 10
0.481807
 20
-3.984717
  0
VERTEX
  8
PLAN_1
  6
CONTINUOUS
 10
0.489882
 20
-3.986232
  0
VERTEX
  8
PLAN_1
  6
CONTINUOUS
 10
0.498461
 20
-3.986232
  0
VERTEX
  8
PLAN_1
  6
CONTINUOUS
 10
0.501996
 20
-3.986232
  0
VERTEX
  8
PLAN_1
  6
CONTINUOUS
 10
0.505528
 20
-3.986232
  0
VERTEX
  8
PLAN_1
  6
CONTINUOUS
 10
0.509567
 20
-3.985220
  0
VERTEX
  8
PLAN_1
  6
CONTINUOUS
 10
0.513602
 20
-3.984213
  0
VERTEX
  8
PLAN_1
  6
CONTINUOUS
 10
0.517642
 20
-3.983201
  0
VERTEX
  8
PLAN_1
  6
CONTINUOUS
 10
0.522185
 20
-3.981185
  0
VERTEX
  8
PLAN_1
  6
CONTINUOUS
 10
0.526220
 20
-3.979165
  0
VERTEX
  8
PLAN_1
  6
CONTINUOUS
 10
0.530260
 20
-3.976642
  0
VERTEX
  8
PLAN_1
  6
CONTINUOUS
 10
0.534299
 20
-3.973106
  0
VERTEX
  8
PLAN_1
  6
CONTINUOUS
 10
0.538335
 20
-3.969575
  0
VERTEX
  8
PLAN_1
  6
CONTINUOUS
 10
0.541870
 20
-3.965031
  0
VERTEX
  8
PLAN_1
  6
CONTINUOUS
 10
0.545402
 20
-3.959984
  0
VERTEX
  8
PLAN_1
  6
CONTINUOUS
 10
0.548429
 20
-3.953929
  0
VERTEX
  8
PLAN_1
  6
CONTINUOUS
 10
0.550953
 20
-3.947366
  0
VERTEX
  8
PLAN_1
  6
CONTINUOUS
 10
0.553476
 20
-3.939795
  0
VERTEX
  8
PLAN_1
  6
CONTINUOUS
 10
0.555496
 20
-3.931720
  0
VERTEX
  8
PLAN_1
  6
CONTINUOUS
 10
0.581744
 20
-3.931720
  0
VERTEX
  8
PLAN_1
  6
CONTINUOUS
 10
0.580228
 20
-3.938787
  0
VERTEX
  8
PLAN_1
  6
CONTINUOUS
 10
0.579220
 20
-3.944843
  0
VERTEX
  8
PLAN_1
  6
CONTINUOUS
 10
0.577201
 20
-3.950898
  0
VERTEX
  8
PLAN_1
  6
CONTINUOUS
 10
0.575181
 20
-3.956957
  0
VERTEX
  8
PLAN_1
  6
CONTINUOUS
 10
0.573161
 20
-3.962004
  0
VERTEX
  8
PLAN_1
  6
CONTINUOUS
 10
0.570638
 20
-3.967051
  0
VERTEX
  8
PLAN_1
  6
CONTINUOUS
 10
0.568114
 20
-3.971594
  0
VERTEX
  8
PLAN_1
  6
CONTINUOUS
 10
0.565591
 20
-3.975630
  0
VERTEX
  8
PLAN_1
  6
CONTINUOUS
 10
0.562563
 20
-3.979669
  0
VERTEX
  8
PLAN_1
  6
CONTINUOUS
 10
0.559535
 20
-3.983201
  0
VERTEX
  8
PLAN_1
  6
CONTINUOUS
 10
0.556508
 20
-3.986736
  0
VERTEX
  8
PLAN_1
  6
CONTINUOUS
 10
0.552972
 20
-3.989764
  0
VERTEX
  8
PLAN_1
  6
CONTINUOUS
 10
0.546413
 20
-3.994811
  0
VERTEX
  8
PLAN_1
  6
CONTINUOUS
 10
0.539346
 20
-3.999354
  0
VERTEX
  8
PLAN_1
  6
CONTINUOUS
 10
0.532783
 20
-4.002886
  0
VERTEX
  8
PLAN_1
  6
CONTINUOUS
 10
0.525717
 20
-4.005409
  0
VERTEX
  8
PLAN_1
  6
CONTINUOUS
 10
0.519157
 20
-4.007429
  0
VERTEX
  8
PLAN_1
  6
CONTINUOUS
 10
0.513098
 20
-4.008437
  0
VERTEX
  8
PLAN_1
  6
CONTINUOUS
 10
0.501996
 20
-4.009953
  0
VERTEX
  8
PLAN_1
  6
CONTINUOUS
 10
0.494425
 20
-4.010457
  0
VERTEX
  8
PLAN_1
  6
CONTINUOUS
 10
0.485843
 20
-4.009953
  0
VERTEX
  8
PLAN_1
  6
CONTINUOUS
 10
0.477768
 20
-4.008945
  0
VERTEX
  8
PLAN_1
  6
CONTINUOUS
 10
0.469189
 20
-4.006925
  0
VERTEX
  8
PLAN_1
  6
CONTINUOUS
 10
0.461618
 20
-4.004402
  0
VERTEX
  8
PLAN_1
  6
CONTINUOUS
 10
0.453539
 20
-4.001374
  0
VERTEX
  8
PLAN_1
  6
CONTINUOUS
 10
0.446476
 20
-3.996831
  0
VERTEX
  8
PLAN_1
  6
CONTINUOUS
 10
0.439409
 20
-3.991783
  0
VERTEX
  8
PLAN_1
  6
CONTINUOUS
 10
0.432846
 20
-3.986232
  0
VERTEX
  8
PLAN_1
  6
CONTINUOUS
 10
0.429819
 20
-3.982697
  0
VERTEX
  8
PLAN_1
  6
CONTINUOUS
 10
0.426791
 20
-3.979165
  0
VERTEX
  8
PLAN_1
  6
CONTINUOUS
 10
0.423760
 20
-3.975630
  0
VERTEX
  8
PLAN_1
  6
CONTINUOUS
 10
0.421236
 20
-3.971594
  0
VERTEX
  8
PLAN_1
  6
CONTINUOUS
 10
0.418713
 20
-3.967051
  0
VERTEX
  8
PLAN_1
  6
CONTINUOUS
 10
0.416697
 20
-3.963012
  0
VERTEX
  8
PLAN_1
  6
CONTINUOUS
 10
0.414677
 20
-3.957965
  0
VERTEX
  8
PLAN_1
  6
CONTINUOUS
 10
0.412657
 20
-3.953421
  0
VERTEX
  8
PLAN_1
  6
CONTINUOUS
 10
0.410638
 20
-3.947870
  0
VERTEX
  8
PLAN_1
  6
CONTINUOUS
 10
0.409126
 20
-3.942319
  0
VERTEX
  8
PLAN_1
  6
CONTINUOUS
 10
0.408114
 20
-3.936768
  0
VERTEX
  8
PLAN_1
  6
CONTINUOUS
 10
0.407106
 20
-3.930709
  0
VERTEX
  8
PLAN_1
  6
CONTINUOUS
 10
0.406094
 20
-3.924654
  0
VERTEX
  8
PLAN_1
  6
CONTINUOUS
 10
0.405591
 20
-3.918091
  0
VERTEX
  8
PLAN_1
  6
CONTINUOUS
 10
0.405087
 20
-3.911531
  0
VERTEX
  8
PLAN_1
  6
CONTINUOUS
 10
0.405087
 20
-3.904465
  0
VERTEX
  8
PLAN_1
  6
CONTINUOUS
 10
0.405087
 20
-3.892854
  0
VERTEX
  8
PLAN_1
  6
CONTINUOUS
 10
0.406602
 20
-3.882256
  0
VERTEX
  8
PLAN_1
  6
CONTINUOUS
 10
0.408618
 20
-3.872161
  0
VERTEX
  8
PLAN_1
  6
CONTINUOUS
 10
0.411142
 20
-3.862067
  0
VERTEX
  8
PLAN_1
  6
CONTINUOUS
 10
0.414677
 20
-3.852980
  0
VERTEX
  8
PLAN_1
  6
CONTINUOUS
 10
0.419220
 20
-3.844402
  0
VERTEX
  8
PLAN_1
  6
CONTINUOUS
 10
0.423760
 20
-3.836831
  0
VERTEX
  8
PLAN_1
  6
CONTINUOUS
 10
0.429819
 20
-3.829260
  0
VERTEX
  8
PLAN_1
  6
CONTINUOUS
 10
0.435874
 20
-3.822697
  0
VERTEX
  8
PLAN_1
  6
CONTINUOUS
 10
0.442941
 20
-3.817146
  0
VERTEX
  8
PLAN_1
  6
CONTINUOUS
 10
0.446476
 20
-3.814622
  0
VERTEX
  8
PLAN_1
  6
CONTINUOUS
 10
0.450512
 20
-3.812098
  0
VERTEX
  8
PLAN_1
  6
CONTINUOUS
 10
0.454551
 20
-3.810079
  0
VERTEX
  8
PLAN_1
  6
CONTINUOUS
 10
0.458587
 20
-3.808059
  0
VERTEX
  8
PLAN_1
  6
CONTINUOUS
 10
0.463130
 20
-3.806547
  0
VERTEX
  8
PLAN_1
  6
CONTINUOUS
 10
0.467673
 20
-3.805031
  0
VERTEX
  8
PLAN_1
  6
CONTINUOUS
 10
0.472217
 20
-3.803516
  0
VERTEX
  8
PLAN_1
  6
CONTINUOUS
 10
0.477264
 20
-3.802508
  0
VERTEX
  8
PLAN_1
  6
CONTINUOUS
 10
0.487358
 20
-3.800992
  0
VERTEX
  8
PLAN_1
  6
CONTINUOUS
 10
0.497957
 20
-3.800488
  0
VERTEX
  8
PLAN_1
  6
CONTINUOUS
 10
0.507043
 20
-3.800992
  0
VERTEX
  8
PLAN_1
  6
CONTINUOUS
 10
0.516126
 20
-3.802004
  0
VERTEX
  8
PLAN_1
  6
CONTINUOUS
 10
0.524205
 20
-3.803516
  0
VERTEX
  8
PLAN_1
  6
CONTINUOUS
 10
0.531776
 20
-3.806039
  0
VERTEX
  8
PLAN_1
  6
CONTINUOUS
 10
0.538843
 20
-3.809071
  0
VERTEX
  8
PLAN_1
  6
CONTINUOUS
 10
0.545402
 20
-3.812602
  0
VERTEX
  8
PLAN_1
  6
CONTINUOUS
 10
0.550953
 20
-3.816134
  0
VERTEX
  8
PLAN_1
  6
CONTINUOUS
 10
0.556508
 20
-3.820677
  0
VERTEX
  8
PLAN_1
  6
CONTINUOUS
 10
0.561555
 20
-3.825220
  0
VERTEX
  8
PLAN_1
  6
CONTINUOUS
 10
0.565591
 20
-3.830268
  0
VERTEX
  8
PLAN_1
  6
CONTINUOUS
 10
0.569126
 20
-3.835819
  0
VERTEX
  8
PLAN_1
  6
CONTINUOUS
 10
0.572657
 20
-3.841374
  0
VERTEX
  8
PLAN_1
  6
CONTINUOUS
 10
0.575181
 20
-3.847429
  0
VERTEX
  8
PLAN_1
  6
CONTINUOUS
 10
0.577201
 20
-3.853484
  0
VERTEX
  8
PLAN_1
  6
CONTINUOUS
 10
0.578713
 20
-3.859543
  0
VERTEX
  8
PLAN_1
  6
CONTINUOUS
 10
0.579724
 20
-3.865598
  0
VERTEX
  8
PLAN_1
  6
CONTINUOUS
 10
0.553476
 20
-3.865598
  0
SEQEND
  8
0
  0
POLYLINE
  8
PLAN_1
  6
CONTINUOUS
 66
     1
 40
0.003000
 41
0.003000
  0
VERTEX
  8
PLAN_1
  6
CONTINUOUS
 10
0.641303
 20
-4.004906
  0
VERTEX
  8
PLAN_1
  6
CONTINUOUS
 10
0.614047
 20
-4.004906
  0
VERTEX
  8
PLAN_1
  6
CONTINUOUS
 10
0.614047
 20
-3.805535
  0
VERTEX
  8
PLAN_1
  6
CONTINUOUS
 10
0.641303
 20
-3.805535
  0
VERTEX
  8
PLAN_1
  6
CONTINUOUS
 10
0.641303
 20
-3.902445
  0
VERTEX
  8
PLAN_1
  6
CONTINUOUS
 10
0.737705
 20
-3.805535
  0
VERTEX
  8
PLAN_1
  6
CONTINUOUS
 10
0.775055
 20
-3.805535
  0
VERTEX
  8
PLAN_1
  6
CONTINUOUS
 10
0.691776
 20
-3.886295
  0
VERTEX
  8
PLAN_1
  6
CONTINUOUS
 10
0.777075
 20
-4.004906
  0
VERTEX
  8
PLAN_1
  6
CONTINUOUS
 10
0.742248
 20
-4.004906
  0
VERTEX
  8
PLAN_1
  6
CONTINUOUS
 10
0.672594
 20
-3.904969
  0
VERTEX
  8
PLAN_1
  6
CONTINUOUS
 10
0.641303
 20
-3.935252
  0
VERTEX
  8
PLAN_1
  6
CONTINUOUS
 10
0.641303
 20
-4.004906
  0
SEQEND
  8
0
  0
POLYLINE
  8
PLAN_1
  6
CONTINUOUS
 66
     1
 40
0.003000
 41
0.003000
  0
VERTEX
  8
PLAN_1
  6
CONTINUOUS
 10
0.800795
 20
-3.805535
  0
VERTEX
  8
PLAN_1
  6
CONTINUOUS
 10
0.881555
 20
-3.805535
  0
VERTEX
  8
PLAN_1
  6
CONTINUOUS
 10
0.891146
 20
-3.806039
  0
VERTEX
  8
PLAN_1
  6
CONTINUOUS
 10
0.900228
 20
-3.807555
  0
VERTEX
  8
PLAN_1
  6
CONTINUOUS
 10
0.908811
 20
-3.809575
  0
VERTEX
  8
PLAN_1
  6
CONTINUOUS
 10
0.916382
 20
-3.812602
  0
VERTEX
  8
PLAN_1
  6
CONTINUOUS
 10
0.923953
 20
-3.816642
  0
VERTEX
  8
PLAN_1
  6
CONTINUOUS
 10
0.931020
 20
-3.821181
  0
VERTEX
  8
PLAN_1
  6
CONTINUOUS
 10
0.937075
 20
-3.826736
  0
VERTEX
  8
PLAN_1
  6
CONTINUOUS
 10
0.943134
 20
-3.832791
  0
VERTEX
  8
PLAN_1
  6
CONTINUOUS
 10
0.948181
 20
-3.839354
  0
VERTEX
  8
PLAN_1
  6
CONTINUOUS
 10
0.952720
 20
-3.846925
  0
VERTEX
  8
PLAN_1
  6
CONTINUOUS
 10
0.956256
 20
-3.854496
  0
VERTEX
  8
PLAN_1
  6
CONTINUOUS
 10
0.959787
 20
-3.863075
  0
VERTEX
  8
PLAN_1
  6
CONTINUOUS
 10
0.962311
 20
-3.872161
  0
VERTEX
  8
PLAN_1
  6
CONTINUOUS
 10
0.963827
 20
-3.881752
  0
VERTEX
  8
PLAN_1
  6
CONTINUOUS
 10
0.964835
 20
-3.891846
  0
VERTEX
  8
PLAN_1
  6
CONTINUOUS
 10
0.965339
 20
-3.902445
  0
VERTEX
  8
PLAN_1
  6
CONTINUOUS
 10
0.965339
 20
-3.911024
  0
VERTEX
  8
PLAN_1
  6
CONTINUOUS
 10
0.964331
 20
-3.920110
  0
VERTEX
  8
PLAN_1
  6
CONTINUOUS
 10
0.963323
 20
-3.928693
  0
VERTEX
  8
PLAN_1
  6
CONTINUOUS
 10
0.961303
 20
-3.937272
  0
VERTEX
  8
PLAN_1
  6
CONTINUOUS
 10
0.958780
 20
-3.946358
  0
VERTEX
  8
PLAN_1
  6
CONTINUOUS
 10
0.955752
 20
-3.954433
  0
VERTEX
  8
PLAN_1
  6
CONTINUOUS
 10
0.952217
 20
-3.963012
  0
VERTEX
  8
PLAN_1
  6
CONTINUOUS
 10
0.947673
 20
-3.970583
  0
VERTEX
  8
PLAN_1
  6
CONTINUOUS
 10
0.945150
 20
-3.974118
  0
VERTEX
  8
PLAN_1
  6
CONTINUOUS
 10
0.942122
 20
-3.977650
  0
VERTEX
  8
PLAN_1
  6
CONTINUOUS
 10
0.939094
 20
-3.981185
  0
VERTEX
  8
PLAN_1
  6
CONTINUOUS
 10
0.936067
 20
-3.984213
  0
VERTEX
  8
PLAN_1
  6
CONTINUOUS
 10
0.932531
 20
-3.987240
  0
VERTEX
  8
PLAN_1
  6
CONTINUOUS
 10
0.929000
 20
-3.990268
  0
VERTEX
  8
PLAN_1
  6
CONTINUOUS
 10
0.925465
 20
-3.992791
  0
VERTEX
  8
PLAN_1
  6
CONTINUOUS
 10
0.921429
 20
-3.995315
  0
VERTEX
  8
PLAN_1
  6
CONTINUOUS
 10
0.916886
 20
-3.997335
  0
VERTEX
  8
PLAN_1
  6
CONTINUOUS
 10
0.912846
 20
-3.999354
  0
VERTEX
  8
PLAN_1
  6
CONTINUOUS
 10
0.907799
 20
-4.000866
  0
VERTEX
  8
PLAN_1
  6
CONTINUOUS
 10
0.902752
 20
-4.002382
  0
VERTEX
  8
PLAN_1
  6
CONTINUOUS
 10
0.897705
 20
-4.003390
  0
VERTEX
  8
PLAN_1
  6
CONTINUOUS
 10
0.892154
 20
-4.004402
  0
VERTEX
  8
PLAN_1
  6
CONTINUOUS
 10
0.886602
 20
-4.004906
  0
VERTEX
  8
PLAN_1
  6
CONTINUOUS
 10
0.880543
 20
-4.004906
  0
VERTEX
  8
PLAN_1
  6
CONTINUOUS
 10
0.800795
 20
-4.004906
  0
VERTEX
  8
PLAN_1
  6
CONTINUOUS
 10
0.800795
 20
-3.805535
  0
SEQEND
  8
0
  0
POLYLINE
  8
PLAN_1
  6
CONTINUOUS
 66
     1
 40
0.003000
 41
0.003000
  0
VERTEX
  8
PLAN_1
  6
CONTINUOUS
 10
0.827547
 20
-3.982193
  0
VERTEX
  8
PLAN_1
  6
CONTINUOUS
 10
0.880039
 20
-3.982193
  0
VERTEX
  8
PLAN_1
  6
CONTINUOUS
 10
0.886098
 20
-3.981689
  0
VERTEX
  8
PLAN_1
  6
CONTINUOUS
 10
0.892657
 20
-3.980677
  0
VERTEX
  8
PLAN_1
  6
CONTINUOUS
 10
0.898213
 20
-3.979165
  0
VERTEX
  8
PLAN_1
  6
CONTINUOUS
 10
0.903764
 20
-3.977146
  0
VERTEX
  8
PLAN_1
  6
CONTINUOUS
 10
0.908811
 20
-3.974118
  0
VERTEX
  8
PLAN_1
  6
CONTINUOUS
 10
0.913354
 20
-3.970583
  0
VERTEX
  8
PLAN_1
  6
CONTINUOUS
 10
0.917894
 20
-3.966547
  0
VERTEX
  8
PLAN_1
  6
CONTINUOUS
 10
0.921933
 20
-3.962004
  0
VERTEX
  8
PLAN_1
  6
CONTINUOUS
 10
0.925465
 20
-3.956957
  0
VERTEX
  8
PLAN_1
  6
CONTINUOUS
 10
0.928496
 20
-3.950898
  0
VERTEX
  8
PLAN_1
  6
CONTINUOUS
 10
0.931524
 20
-3.944339
  0
VERTEX
  8
PLAN_1
  6
CONTINUOUS
 10
0.933543
 20
-3.937776
  0
VERTEX
  8
PLAN_1
  6
CONTINUOUS
 10
0.935055
 20
-3.930205
  0
VERTEX
  8
PLAN_1
  6
CONTINUOUS
 10
0.936571
 20
-3.922130
  0
VERTEX
  8
PLAN_1
  6
CONTINUOUS
 10
0.937579
 20
-3.913547
  0
VERTEX
  8
PLAN_1
  6
CONTINUOUS
 10
0.937579
 20
-3.904465
  0
VERTEX
  8
PLAN_1
  6
CONTINUOUS
 10
0.937579
 20
-3.895378
  0
VERTEX
  8
PLAN_1
  6
CONTINUOUS
 10
0.936571
 20
-3.886799
  0
VERTEX
  8
PLAN_1
  6
CONTINUOUS
 10
0.935055
 20
-3.878720
  0
VERTEX
  8
PLAN_1
  6
CONTINUOUS
 10
0.933543
 20
-3.871150
  0
VERTEX
  8
PLAN_1
  6
CONTINUOUS
 10
0.931020
 20
-3.864591
  0
VERTEX
  8
PLAN_1
  6
CONTINUOUS
 10
0.928496
 20
-3.858531
  0
VERTEX
  8
PLAN_1
  6
CONTINUOUS
 10
0.924961
 20
-3.852980
  0
VERTEX
  8
PLAN_1
  6
CONTINUOUS
 10
0.921429
 20
-3.847933
  0
VERTEX
  8
PLAN_1
  6
CONTINUOUS
 10
0.917390
 20
-3.843390
  0
VERTEX
  8
PLAN_1
  6
CONTINUOUS
 10
0.912846
 20
-3.839354
  0
VERTEX
  8
PLAN_1
  6
CONTINUOUS
 10
0.907799
 20
-3.836323
  0
VERTEX
  8
PLAN_1
  6
CONTINUOUS
 10
0.902752
 20
-3.833295
  0
VERTEX
  8
PLAN_1
  6
CONTINUOUS
 10
0.897201
 20
-3.831276
  0
VERTEX
  8
PLAN_1
  6
CONTINUOUS
 10
0.891146
 20
-3.829764
  0
VERTEX
  8
PLAN_1
  6
CONTINUOUS
 10
0.884583
 20
-3.829260
  0
VERTEX
  8
PLAN_1
  6
CONTINUOUS
 10
0.878020
 20
-3.828752
  0
VERTEX
  8
PLAN_1
  6
CONTINUOUS
 10
0.827547
 20
-3.828752
  0
VERTEX
  8
PLAN_1
  6
CONTINUOUS
 10
0.827547
 20
-3.982193
  0
SEQEND
  8
0
  0
POLYLINE
  8
PLAN_1
  6
CONTINUOUS
 66
     1
 40
0.003000
 41
0.003000
  0
VERTEX
  8
PLAN_1
  6
CONTINUOUS
 10
1.095563
 20
-3.957461
  0
VERTEX
  8
PLAN_1
  6
CONTINUOUS
 10
1.095563
 20
-4.004906
  0
VERTEX
  8
PLAN_1
  6
CONTINUOUS
 10
1.070831
 20
-4.004906
  0
VERTEX
  8
PLAN_1
  6
CONTINUOUS
 10
1.070831
 20
-3.957461
  0
VERTEX
  8
PLAN_1
  6
CONTINUOUS
 10
0.985531
 20
-3.957461
  0
VERTEX
  8
PLAN_1
  6
CONTINUOUS
 10
0.985531
 20
-3.933740
  0
VERTEX
  8
PLAN_1
  6
CONTINUOUS
 10
1.074866
 20
-3.810079
  0
VERTEX
  8
PLAN_1
  6
CONTINUOUS
 10
1.095563
 20
-3.810079
  0
VERTEX
  8
PLAN_1
  6
CONTINUOUS
 10
1.095563
 20
-3.936264
  0
VERTEX
  8
PLAN_1
  6
CONTINUOUS
 10
1.123827
 20
-3.936264
  0
VERTEX
  8
PLAN_1
  6
CONTINUOUS
 10
1.123827
 20
-3.957461
  0
VERTEX
  8
PLAN_1
  6
CONTINUOUS
 10
1.095563
 20
-3.957461
  0
SEQEND
  8
0
  0
SOLID
  8
PLAN_1
 10
1.008244
 20
-3.936264
 11
1.070831
 21
-3.936264
 12
1.070323
 22
-3.847933
 13
1.070831
 23
-3.847933
  0
POLYLINE
  8
PLAN_1
  6
CONTINUOUS
 66
     1
 40
0.003000
 41
0.003000
  0
VERTEX
  8
PLAN_1
  6
CONTINUOUS
 10
1.008244
 20
-3.936264
  0
VERTEX
  8
PLAN_1
  6
CONTINUOUS
 10
1.070831
 20
-3.936264
  0
VERTEX
  8
PLAN_1
  6
CONTINUOUS
 10
1.070831
 20
-3.847933
  0
VERTEX
  8
PLAN_1
  6
CONTINUOUS
 10
1.070323
 20
-3.847933
  0
VERTEX
  8
PLAN_1
  6
CONTINUOUS
 10
1.008244
 20
-3.936264
  0
SEQEND
  8
0
  0
POLYLINE
  8
PLAN_1
  6
CONTINUOUS
 66
     1
 40
0.003000
 41
0.003000
  0
VERTEX
  8
PLAN_1
  6
CONTINUOUS
 10
1.232850
 20
-4.004906
  0
VERTEX
  8
PLAN_1
  6
CONTINUOUS
 10
1.206602
 20
-4.004906
  0
VERTEX
  8
PLAN_1
  6
CONTINUOUS
 10
1.206602
 20
-3.866610
  0
VERTEX
  8
PLAN_1
  6
CONTINUOUS
 10
1.161177
 20
-3.866610
  0
VERTEX
  8
PLAN_1
  6
CONTINUOUS
 10
1.161177
 20
-3.846925
  0
VERTEX
  8
PLAN_1
  6
CONTINUOUS
 10
1.172280
 20
-3.846421
  0
VERTEX
  8
PLAN_1
  6
CONTINUOUS
 10
1.181870
 20
-3.844906
  0
VERTEX
  8
PLAN_1
  6
CONTINUOUS
 10
1.185909
 20
-3.843898
  0
VERTEX
  8
PLAN_1
  6
CONTINUOUS
 10
1.189441
 20
-3.842886
  0
VERTEX
  8
PLAN_1
  6
CONTINUOUS
 10
1.192976
 20
-3.841374
  0
VERTEX
  8
PLAN_1
  6
CONTINUOUS
 10
1.196508
 20
-3.839858
  0
VERTEX
  8
PLAN_1
  6
CONTINUOUS
 10
1.199535
 20
-3.837839
  0
VERTEX
  8
PLAN_1
  6
CONTINUOUS
 10
1.202059
 20
-3.835315
  0
VERTEX
  8
PLAN_1
  6
CONTINUOUS
 10
1.204583
 20
-3.832287
  0
VERTEX
  8
PLAN_1
  6
CONTINUOUS
 10
1.206602
 20
-3.828752
  0
VERTEX
  8
PLAN_1
  6
CONTINUOUS
 10
1.208622
 20
-3.825220
  0
VERTEX
  8
PLAN_1
  6
CONTINUOUS
 10
1.210642
 20
-3.820677
  0
VERTEX
  8
PLAN_1
  6
CONTINUOUS
 10
1.212154
 20
-3.815630
  0
VERTEX
  8
PLAN_1
  6
CONTINUOUS
 10
1.213669
 20
-3.810079
  0
VERTEX
  8
PLAN_1
  6
CONTINUOUS
 10
1.232850
 20
-3.810079
  0
VERTEX
  8
PLAN_1
  6
CONTINUOUS
 10
1.232850
 20
-4.004906
  0
SEQEND
  8
0
  0
SOLID
  8
PLAN_1
 10
1.287358
 20
-4.039732
 11
1.287358
 21
-4.026106
 12
1.441807
 22
-4.039732
 13
1.441807
 23
-4.026106
  0
POLYLINE
  8
PLAN_1
  6
CONTINUOUS
 66
     1
 40
0.003000
 41
0.003000
  0
VERTEX
  8
PLAN_1
  6
CONTINUOUS
 10
1.287358
 20
-4.039732
  0
VERTEX
  8
PLAN_1
  6
CONTINUOUS
 10
1.287358
 20
-4.026106
  0
VERTEX
  8
PLAN_1
  6
CONTINUOUS
 10
1.441807
 20
-4.026106
  0
VERTEX
  8
PLAN_1
  6
CONTINUOUS
 10
1.441807
 20
-4.039732
  0
VERTEX
  8
PLAN_1
  6
CONTINUOUS
 10
1.287358
 20
-4.039732
  0
SEQEND
  8
0
  0
POLYLINE
  8
PLAN_1
  6
CONTINUOUS
 66
     1
 40
0.003000
 41
0.003000
  0
VERTEX
  8
PLAN_1
  6
CONTINUOUS
 10
1.493291
 20
-4.004906
  0
VERTEX
  8
PLAN_1
  6
CONTINUOUS
 10
1.466539
 20
-4.004906
  0
VERTEX
  8
PLAN_1
  6
CONTINUOUS
 10
1.466539
 20
-3.805535
  0
VERTEX
  8
PLAN_1
  6
CONTINUOUS
 10
1.558402
 20
-3.805535
  0
VERTEX
  8
PLAN_1
  6
CONTINUOUS
 10
1.564457
 20
-3.806039
  0
VERTEX
  8
PLAN_1
  6
CONTINUOUS
 10
1.570516
 20
-3.806547
  0
VERTEX
  8
PLAN_1
  6
CONTINUOUS
 10
1.576571
 20
-3.807051
  0
VERTEX
  8
PLAN_1
  6
CONTINUOUS
 10
1.582630
 20
-3.808059
  0
VERTEX
  8
PLAN_1
  6
CONTINUOUS
 10
1.588181
 20
-3.809575
  0
VERTEX
  8
PLAN_1
  6
CONTINUOUS
 10
1.593732
 20
-3.811594
  0
VERTEX
  8
PLAN_1
  6
CONTINUOUS
 10
1.598780
 20
-3.814118
  0
VERTEX
  8
PLAN_1
  6
CONTINUOUS
 10
1.603323
 20
-3.816642
  0
VERTEX
  8
PLAN_1
  6
CONTINUOUS
 10
1.607866
 20
-3.820173
  0
VERTEX
  8
PLAN_1
  6
CONTINUOUS
 10
1.611906
 20
-3.823705
  0
VERTEX
  8
PLAN_1
  6
CONTINUOUS
 10
1.615437
 20
-3.828248
  0
VERTEX
  8
PLAN_1
  6
CONTINUOUS
 10
1.618465
 20
-3.833295
  0
VERTEX
  8
PLAN_1
  6
CONTINUOUS
 10
1.620484
 20
-3.838846
  0
VERTEX
  8
PLAN_1
  6
CONTINUOUS
 10
1.622504
 20
-3.844906
  0
VERTEX
  8
PLAN_1
  6
CONTINUOUS
 10
1.623512
 20
-3.851972
  0
VERTEX
  8
PLAN_1
  6
CONTINUOUS
 10
1.624016
 20
-3.859543
  0
VERTEX
  8
PLAN_1
  6
CONTINUOUS
 10
1.624016
 20
-3.864591
  0
VERTEX
  8
PLAN_1
  6
CONTINUOUS
 10
1.623512
 20
-3.869638
  0
VERTEX
  8
PLAN_1
  6
CONTINUOUS
 10
1.622504
 20
-3.874181
  0
VERTEX
  8
PLAN_1
  6
CONTINUOUS
 10
1.621492
 20
-3.878217
  0
VERTEX
  8
PLAN_1
  6
CONTINUOUS
 10
1.619980
 20
-3.881752
  0
VERTEX
  8
PLAN_1
  6
CONTINUOUS
 10
1.618465
 20
-3.885283
  0
VERTEX
  8
PLAN_1
  6
CONTINUOUS
 10
1.616953
 20
-3.888311
  0
VERTEX
  8
PLAN_1
  6
CONTINUOUS
 10
1.614933
 20
-3.891343
  0
VERTEX
  8
PLAN_1
  6
CONTINUOUS
 10
1.610390
 20
-3.896390
  0
VERTEX
  8
PLAN_1
  6
CONTINUOUS
 10
1.605846
 20
-3.900425
  0
VERTEX
  8
PLAN_1
  6
CONTINUOUS
 10
1.600799
 20
-3.903961
  0
VERTEX
  8
PLAN_1
  6
CONTINUOUS
 10
1.596256
 20
-3.906988
  0
VERTEX
  8
PLAN_1
  6
CONTINUOUS
 10
1.600295
 20
-3.909008
  0
VERTEX
  8
PLAN_1
  6
CONTINUOUS
 10
1.604331
 20
-3.911024
  0
VERTEX
  8
PLAN_1
  6
CONTINUOUS
 10
1.608370
 20
-3.913547
  0
VERTEX
  8
PLAN_1
  6
CONTINUOUS
 10
1.611906
 20
-3.917083
  0
VERTEX
  8
PLAN_1
  6
CONTINUOUS
 10
1.613417
 20
-3.919102
  0
VERTEX
  8
PLAN_1
  6
CONTINUOUS
 10
1.614933
 20
-3.921626
  0
VERTEX
  8
PLAN_1
  6
CONTINUOUS
 10
1.616445
 20
-3.924654
  0
VERTEX
  8
PLAN_1
  6
CONTINUOUS
 10
1.617457
 20
-3.927681
  0
VERTEX
  8
PLAN_1
  6
CONTINUOUS
 10
1.618465
 20
-3.931217
  0
VERTEX
  8
PLAN_1
  6
CONTINUOUS
 10
1.618969
 20
-3.935252
  0
VERTEX
  8
PLAN_1
  6
CONTINUOUS
 10
1.619980
 20
-3.939795
  0
VERTEX
  8
PLAN_1
  6
CONTINUOUS
 10
1.619980
 20
-3.944339
  0
VERTEX
  8
PLAN_1
  6
CONTINUOUS
 10
1.621492
 20
-3.980677
  0
VERTEX
  8
PLAN_1
  6
CONTINUOUS
 10
1.622000
 20
-3.984717
  0
VERTEX
  8
PLAN_1
  6
CONTINUOUS
 10
1.622000
 20
-3.987744
  0
VERTEX
  8
PLAN_1
  6
CONTINUOUS
 10
1.623008
 20
-3.990772
  0
VERTEX
  8
PLAN_1
  6
CONTINUOUS
 10
1.623512
 20
-3.992791
  0
VERTEX
  8
PLAN_1
  6
CONTINUOUS
 10
1.625028
 20
-3.995315
  0
VERTEX
  8
PLAN_1
  6
CONTINUOUS
 10
1.626539
 20
-3.996831
  0
VERTEX
  8
PLAN_1
  6
CONTINUOUS
 10
1.629063
 20
-3.998850
  0
VERTEX
  8
PLAN_1
  6
CONTINUOUS
 10
1.631587
 20
-4.000362
  0
VERTEX
  8
PLAN_1
  6
CONTINUOUS
 10
1.631587
 20
-4.004906
  0
VERTEX
  8
PLAN_1
  6
CONTINUOUS
 10
1.598780
 20
-4.004906
  0
VERTEX
  8
PLAN_1
  6
CONTINUOUS
 10
1.597268
 20
-3.999858
  0
VERTEX
  8
PLAN_1
  6
CONTINUOUS
 10
1.596256
 20
-3.993295
  0
VERTEX
  8
PLAN_1
  6
CONTINUOUS
 10
1.595248
 20
-3.985724
  0
VERTEX
  8
PLAN_1
  6
CONTINUOUS
 10
1.594744
 20
-3.978154
  0
VERTEX
  8
PLAN_1
  6
CONTINUOUS
 10
1.594236
 20
-3.971087
  0
VERTEX
  8
PLAN_1
  6
CONTINUOUS
 10
1.594236
 20
-3.964528
  0
VERTEX
  8
PLAN_1
  6
CONTINUOUS
 10
1.594236
 20
-3.958976
  0
VERTEX
  8
PLAN_1
  6
CONTINUOUS
 10
1.593732
 20
-3.954937
  0
VERTEX
  8
PLAN_1
  6
CONTINUOUS
 10
1.593732
 20
-3.948882
  0
VERTEX
  8
PLAN_1
  6
CONTINUOUS
 10
1.592724
 20
-3.942823
  0
VERTEX
  8
PLAN_1
  6
CONTINUOUS
 10
1.592220
 20
-3.939795
  0
VERTEX
  8
PLAN_1
  6
CONTINUOUS
 10
1.591209
 20
-3.936768
  0
VERTEX
  8
PLAN_1
  6
CONTINUOUS
 10
1.589697
 20
-3.933740
  0
VERTEX
  8
PLAN_1
  6
CONTINUOUS
 10
1.588181
 20
-3.931217
  0
VERTEX
  8
PLAN_1
  6
CONTINUOUS
 10
1.586161
 20
-3.928693
  0
VERTEX
  8
PLAN_1
  6
CONTINUOUS
 10
1.583638
 20
-3.926673
  0
VERTEX
  8
PLAN_1
  6
CONTINUOUS
 10
1.581114
 20
-3.924654
  0
VERTEX
  8
PLAN_1
  6
CONTINUOUS
 10
1.577583
 20
-3.922634
  0
VERTEX
  8
PLAN_1
  6
CONTINUOUS
 10
1.573543
 20
-3.921626
  0
VERTEX
  8
PLAN_1
  6
CONTINUOUS
 10
1.569000
 20
-3.920614
  0
VERTEX
  8
PLAN_1
  6
CONTINUOUS
 10
1.563953
 20
-3.919606
  0
VERTEX
  8
PLAN_1
  6
CONTINUOUS
 10
1.558402
 20
-3.919606
  0
VERTEX
  8
PLAN_1
  6
CONTINUOUS
 10
1.493291
 20
-3.919606
  0
VERTEX
  8
PLAN_1
  6
CONTINUOUS
 10
1.493291
 20
-4.004906
  0
SEQEND
  8
0
  0
POLYLINE
  8
PLAN_1
  6
CONTINUOUS
 66
     1
 40
0.003000
 41
0.003000
  0
VERTEX
  8
PLAN_1
  6
CONTINUOUS
 10
1.493291
 20
-3.896390
  0
VERTEX
  8
PLAN_1
  6
CONTINUOUS
 10
1.555878
 20
-3.896390
  0
VERTEX
  8
PLAN_1
  6
CONTINUOUS
 10
1.562945
 20
-3.896390
  0
VERTEX
  8
PLAN_1
  6
CONTINUOUS
 10
1.570516
 20
-3.895378
  0
VERTEX
  8
PLAN_1
  6
CONTINUOUS
 10
1.574047
 20
-3.894370
  0
VERTEX
  8
PLAN_1
  6
CONTINUOUS
 10
1.577079
 20
-3.893358
  0
VERTEX
  8
PLAN_1
  6
CONTINUOUS
 10
1.580106
 20
-3.891846
  0
VERTEX
  8
PLAN_1
  6
CONTINUOUS
 10
1.583134
 20
-3.890331
  0
VERTEX
  8
PLAN_1
  6
CONTINUOUS
 10
1.586161
 20
-3.888311
  0
VERTEX
  8
PLAN_1
  6
CONTINUOUS
 10
1.588685
 20
-3.885787
  0
VERTEX
  8
PLAN_1
  6
CONTINUOUS
 10
1.590705
 20
-3.883264
  0
VERTEX
  8
PLAN_1
  6
CONTINUOUS
 10
1.592724
 20
-3.879732
  0
VERTEX
  8
PLAN_1
  6
CONTINUOUS
 10
1.594236
 20
-3.876197
  0
VERTEX
  8
PLAN_1
  6
CONTINUOUS
 10
1.595248
 20
-3.872161
  0
VERTEX
  8
PLAN_1
  6
CONTINUOUS
 10
1.595752
 20
-3.867114
  0
VERTEX
  8
PLAN_1
  6
CONTINUOUS
 10
1.596256
 20
-3.862067
  0
VERTEX
  8
PLAN_1
  6
CONTINUOUS
 10
1.595752
 20
-3.856516
  0
VERTEX
  8
PLAN_1
  6
CONTINUOUS
 10
1.595248
 20
-3.851972
  0
VERTEX
  8
PLAN_1
  6
CONTINUOUS
 10
1.594236
 20
-3.847429
  0
VERTEX
  8
PLAN_1
  6
CONTINUOUS
 10
1.592724
 20
-3.843898
  0
VERTEX
  8
PLAN_1
  6
CONTINUOUS
 10
1.590705
 20
-3.840866
  0
VERTEX
  8
PLAN_1
  6
CONTINUOUS
 10
1.588181
 20
-3.837839
  0
VERTEX
  8
PLAN_1
  6
CONTINUOUS
 10
1.586161
 20
-3.835819
  0
VERTEX
  8
PLAN_1
  6
CONTINUOUS
 10
1.583134
 20
-3.833799
  0
VERTEX
  8
PLAN_1
  6
CONTINUOUS
 10
1.580610
 20
-3.832287
  0
VERTEX
  8
PLAN_1
  6
CONTINUOUS
 10
1.577583
 20
-3.831276
  0
VERTEX
  8
PLAN_1
  6
CONTINUOUS
 10
1.574555
 20
-3.830268
  0
VERTEX
  8
PLAN_1
  6
CONTINUOUS
 10
1.571524
 20
-3.829764
  0
VERTEX
  8
PLAN_1
  6
CONTINUOUS
 10
1.565972
 20
-3.828752
  0
VERTEX
  8
PLAN_1
  6
CONTINUOUS
 10
1.560421
 20
-3.828752
  0
VERTEX
  8
PLAN_1
  6
CONTINUOUS
 10
1.493291
 20
-3.828752
  0
VERTEX
  8
PLAN_1
  6
CONTINUOUS
 10
1.493291
 20
-3.896390
  0
SEQEND
  8
0
  0
SOLID
  8
PLAN_1
 10
1.695185
 20
-4.004906
 11
1.666413
 21
-4.004906
 12
1.695185
 22
-3.975630
 13
1.666413
 23
-3.975630
  0
POLYLINE
  8
PLAN_1
  6
CONTINUOUS
 66
     1
 40
0.003000
 41
0.003000
  0
VERTEX
  8
PLAN_1
  6
CONTINUOUS
 10
1.695185
 20
-4.004906
  0
VERTEX
  8
PLAN_1
  6
CONTINUOUS
 10
1.666413
 20
-4.004906
  0
VERTEX
  8
PLAN_1
  6
CONTINUOUS
 10
1.666413
 20
-3.975630
  0
VERTEX
  8
PLAN_1
  6
CONTINUOUS
 10
1.695185
 20
-3.975630
  0
VERTEX
  8
PLAN_1
  6
CONTINUOUS
 10
1.695185
 20
-4.004906
  0
SEQEND
  8
0
  0
POLYLINE
  8
PLAN_1
  6
CONTINUOUS
 66
     1
 40
0.003000
 41
0.003000
  0
VERTEX
  8
PLAN_1
  6
CONTINUOUS
 10
1.890516
 20
-4.004906
  0
VERTEX
  8
PLAN_1
  6
CONTINUOUS
 10
1.743134
 20
-4.004906
  0
VERTEX
  8
PLAN_1
  6
CONTINUOUS
 10
1.743134
 20
-3.805535
  0
VERTEX
  8
PLAN_1
  6
CONTINUOUS
 10
1.888496
 20
-3.805535
  0
VERTEX
  8
PLAN_1
  6
CONTINUOUS
 10
1.888496
 20
-3.829764
  0
VERTEX
  8
PLAN_1
  6
CONTINUOUS
 10
1.770390
 20
-3.829764
  0
VERTEX
  8
PLAN_1
  6
CONTINUOUS
 10
1.770390
 20
-3.890835
  0
VERTEX
  8
PLAN_1
  6
CONTINUOUS
 10
1.879413
 20
-3.890835
  0
VERTEX
  8
PLAN_1
  6
CONTINUOUS
 10
1.879413
 20
-3.914559
  0
VERTEX
  8
PLAN_1
  6
CONTINUOUS
 10
1.770390
 20
-3.914559
  0
VERTEX
  8
PLAN_1
  6
CONTINUOUS
 10
1.770390
 20
-3.981185
  0
VERTEX
  8
PLAN_1
  6
CONTINUOUS
 10
1.890516
 20
-3.981185
  0
VERTEX
  8
PLAN_1
  6
CONTINUOUS
 10
1.890516
 20
-4.004906
  0
SEQEND
  8
0
  0
POLYLINE
  8
PLAN_1
  6
CONTINUOUS
 66
     1
 40
0.003000
 41
0.003000
  0
VERTEX
  8
PLAN_1
  6
CONTINUOUS
 10
1.955626
 20
-4.004906
  0
VERTEX
  8
PLAN_1
  6
CONTINUOUS
 10
1.928370
 20
-4.004906
  0
VERTEX
  8
PLAN_1
  6
CONTINUOUS
 10
1.928370
 20
-3.805535
  0
VERTEX
  8
PLAN_1
  6
CONTINUOUS
 10
2.018213
 20
-3.805535
  0
VERTEX
  8
PLAN_1
  6
CONTINUOUS
 10
2.024776
 20
-3.806039
  0
VERTEX
  8
PLAN_1
  6
CONTINUOUS
 10
2.031339
 20
-3.807051
  0
VERTEX
  8
PLAN_1
  6
CONTINUOUS
 10
2.037394
 20
-3.808059
  0
VERTEX
  8
PLAN_1
  6
CONTINUOUS
 10
2.042945
 20
-3.810079
  0
VERTEX
  8
PLAN_1
  6
CONTINUOUS
 10
2.048496
 20
-3.812098
  0
VERTEX
  8
PLAN_1
  6
CONTINUOUS
 10
2.053039
 20
-3.815126
  0
VERTEX
  8
PLAN_1
  6
CONTINUOUS
 10
2.057583
 20
-3.818154
  0
VERTEX
  8
PLAN_1
  6
CONTINUOUS
 10
2.061622
 20
-3.821689
  0
VERTEX
  8
PLAN_1
  6
CONTINUOUS
 10
2.065154
 20
-3.825724
  0
VERTEX
  8
PLAN_1
  6
CONTINUOUS
 10
2.068181
 20
-3.829764
  0
VERTEX
  8
PLAN_1
  6
CONTINUOUS
 10
2.071213
 20
-3.834811
  0
VERTEX
  8
PLAN_1
  6
CONTINUOUS
 10
2.073228
 20
-3.839354
  0
VERTEX
  8
PLAN_1
  6
CONTINUOUS
 10
2.075248
 20
-3.844906
  0
VERTEX
  8
PLAN_1
  6
CONTINUOUS
 10
2.076260
 20
-3.849953
  0
VERTEX
  8
PLAN_1
  6
CONTINUOUS
 10
2.077268
 20
-3.856008
  0
VERTEX
  8
PLAN_1
  6
CONTINUOUS
 10
2.077268
 20
-3.862067
  0
VERTEX
  8
PLAN_1
  6
CONTINUOUS
 10
2.077268
 20
-3.867114
  0
VERTEX
  8
PLAN_1
  6
CONTINUOUS
 10
2.076764
 20
-3.872161
  0
VERTEX
  8
PLAN_1
  6
CONTINUOUS
 10
2.075752
 20
-3.877713
  0
VERTEX
  8
PLAN_1
  6
CONTINUOUS
 10
2.074240
 20
-3.882760
  0
VERTEX
  8
PLAN_1
  6
CONTINUOUS
 10
2.072220
 20
-3.887807
  0
VERTEX
  8
PLAN_1
  6
CONTINUOUS
 10
2.070201
 20
-3.892854
  0
VERTEX
  8
PLAN_1
  6
CONTINUOUS
 10
2.067173
 20
-3.897398
  0
VERTEX
  8
PLAN_1
  6
CONTINUOUS
 10
2.064146
 20
-3.901941
  0
VERTEX
  8
PLAN_1
  6
CONTINUOUS
 10
2.060106
 20
-3.905976
  0
VERTEX
  8
PLAN_1
  6
CONTINUOUS
 10
2.056067
 20
-3.909512
  0
VERTEX
  8
PLAN_1
  6
CONTINUOUS
 10
2.051020
 20
-3.913043
  0
VERTEX
  8
PLAN_1
  6
CONTINUOUS
 10
2.045972
 20
-3.915567
  0
VERTEX
  8
PLAN_1
  6
CONTINUOUS
 10
2.039917
 20
-3.918091
  0
VERTEX
  8
PLAN_1
  6
CONTINUOUS
 10
2.033354
 20
-3.919606
  0
VERTEX
  8
PLAN_1
  6
CONTINUOUS
 10
2.025783
 20
-3.920614
  0
VERTEX
  8
PLAN_1
  6
CONTINUOUS
 10
2.018213
 20
-3.921118
  0
VERTEX
  8
PLAN_1
  6
CONTINUOUS
 10
1.955626
 20
-3.921118
  0
VERTEX
  8
PLAN_1
  6
CONTINUOUS
 10
1.955626
 20
-4.004906
  0
SEQEND
  8
0
  0
POLYLINE
  8
PLAN_1
  6
CONTINUOUS
 66
     1
 40
0.003000
 41
0.003000
  0
VERTEX
  8
PLAN_1
  6
CONTINUOUS
 10
1.955626
 20
-3.897902
  0
VERTEX
  8
PLAN_1
  6
CONTINUOUS
 10
2.009130
 20
-3.897902
  0
VERTEX
  8
PLAN_1
  6
CONTINUOUS
 10
2.013669
 20
-3.897902
  0
VERTEX
  8
PLAN_1
  6
CONTINUOUS
 10
2.017709
 20
-3.897398
  0
VERTEX
  8
PLAN_1
  6
CONTINUOUS
 10
2.021748
 20
-3.896894
  0
VERTEX
  8
PLAN_1
  6
CONTINUOUS
 10
2.025783
 20
-3.895882
  0
VERTEX
  8
PLAN_1
  6
CONTINUOUS
 10
2.029319
 20
-3.894874
  0
VERTEX
  8
PLAN_1
  6
CONTINUOUS
 10
2.032346
 20
-3.893866
  0
VERTEX
  8
PLAN_1
  6
CONTINUOUS
 10
2.035374
 20
-3.891846
  0
VERTEX
  8
PLAN_1
  6
CONTINUOUS
 10
2.038402
 20
-3.890331
  0
VERTEX
  8
PLAN_1
  6
CONTINUOUS
 10
2.040925
 20
-3.887807
  0
VERTEX
  8
PLAN_1
  6
CONTINUOUS
 10
2.042945
 20
-3.885283
  0
VERTEX
  8
PLAN_1
  6
CONTINUOUS
 10
2.044965
 20
-3.882256
  0
VERTEX
  8
PLAN_1
  6
CONTINUOUS
 10
2.046480
 20
-3.879228
  0
VERTEX
  8
PLAN_1
  6
CONTINUOUS
 10
2.047992
 20
-3.875189
  0
VERTEX
  8
PLAN_1
  6
CONTINUOUS
 10
2.049004
 20
-3.871150
  0
VERTEX
  8
PLAN_1
  6
CONTINUOUS
 10
2.049508
 20
-3.867114
  0
VERTEX
  8
PLAN_1
  6
CONTINUOUS
 10
2.049508
 20
-3.862067
  0
VERTEX
  8
PLAN_1
  6
CONTINUOUS
 10
2.049508
 20
-3.857524
  0
VERTEX
  8
PLAN_1
  6
CONTINUOUS
 10
2.049004
 20
-3.853484
  0
VERTEX
  8
PLAN_1
  6
CONTINUOUS
 10
2.047992
 20
-3.849449
  0
VERTEX
  8
PLAN_1
  6
CONTINUOUS
 10
2.046480
 20
-3.846421
  0
VERTEX
  8
PLAN_1
  6
CONTINUOUS
 10
2.044965
 20
-3.843390
  0
VERTEX
  8
PLAN_1
  6
CONTINUOUS
 10
2.042945
 20
-3.840362
  0
VERTEX
  8
PLAN_1
  6
CONTINUOUS
 10
2.040925
 20
-3.837839
  0
VERTEX
  8
PLAN_1
  6
CONTINUOUS
 10
2.038402
 20
-3.835819
  0
VERTEX
  8
PLAN_1
  6
CONTINUOUS
 10
2.035374
 20
-3.834307
  0
VERTEX
  8
PLAN_1
  6
CONTINUOUS
 10
2.032346
 20
-3.832791
  0
VERTEX
  8
PLAN_1
  6
CONTINUOUS
 10
2.029319
 20
-3.831276
  0
VERTEX
  8
PLAN_1
  6
CONTINUOUS
 10
2.025783
 20
-3.830268
  0
VERTEX
  8
PLAN_1
  6
CONTINUOUS
 10
2.018213
 20
-3.829260
  0
VERTEX
  8
PLAN_1
  6
CONTINUOUS
 10
2.010138
 20
-3.828752
  0
VERTEX
  8
PLAN_1
  6
CONTINUOUS
 10
1.955626
 20
-3.828752
  0
VERTEX
  8
PLAN_1
  6
CONTINUOUS
 10
1.955626
 20
-3.897902
  0
SEQEND
  8
0
  0
POLYLINE
  8
PLAN_1
  6
CONTINUOUS
 66
     1
 40
0.003000
 41
0.003000
  0
VERTEX
  8
PLAN_1
  6
CONTINUOUS
 10
2.231213
 20
-3.864087
  0
VERTEX
  8
PLAN_1
  6
CONTINUOUS
 10
2.230705
 20
-3.858531
  0
VERTEX
  8
PLAN_1
  6
CONTINUOUS
 10
2.229697
 20
-3.853484
  0
VERTEX
  8
PLAN_1
  6
CONTINUOUS
 10
2.228181
 20
-3.848945
  0
VERTEX
  8
PLAN_1
  6
CONTINUOUS
 10
2.226165
 20
-3.844906
  0
VERTEX
  8
PLAN_1
  6
CONTINUOUS
 10
2.223642
 20
-3.840866
  0
VERTEX
  8
PLAN_1
  6
CONTINUOUS
 10
2.221118
 20
-3.837839
  0
VERTEX
  8
PLAN_1
  6
CONTINUOUS
 10
2.217583
 20
-3.834811
  0
VERTEX
  8
PLAN_1
  6
CONTINUOUS
 10
2.214555
 20
-3.832287
  0
VERTEX
  8
PLAN_1
  6
CONTINUOUS
 10
2.210516
 20
-3.830268
  0
VERTEX
  8
PLAN_1
  6
CONTINUOUS
 10
2.206984
 20
-3.828248
  0
VERTEX
  8
PLAN_1
  6
CONTINUOUS
 10
2.202945
 20
-3.826736
  0
VERTEX
  8
PLAN_1
  6
CONTINUOUS
 10
2.198909
 20
-3.825724
  0
VERTEX
  8
PLAN_1
  6
CONTINUOUS
 10
2.194366
 20
-3.824717
  0
VERTEX
  8
PLAN_1
  6
CONTINUOUS
 10
2.190327
 20
-3.824213
  0
VERTEX
  8
PLAN_1
  6
CONTINUOUS
 10
2.185783
 20
-3.823705
  0
VERTEX
  8
PLAN_1
  6
CONTINUOUS
 10
2.181748
 20
-3.823705
  0
VERTEX
  8
PLAN_1
  6
CONTINUOUS
 10
2.175185
 20
-3.823705
  0
VERTEX
  8
PLAN_1
  6
CONTINUOUS
 10
2.167614
 20
-3.824717
  0
VERTEX
  8
PLAN_1
  6
CONTINUOUS
 10
2.163579
 20
-3.825724
  0
VERTEX
  8
PLAN_1
  6
CONTINUOUS
 10
2.160043
 20
-3.826736
  0
VERTEX
  8
PLAN_1
  6
CONTINUOUS
 10
2.156008
 20
-3.827744
  0
VERTEX
  8
PLAN_1
  6
CONTINUOUS
 10
2.152472
 20
-3.829764
  0
VERTEX
  8
PLAN_1
  6
CONTINUOUS
 10
2.149445
 20
-3.831783
  0
VERTEX
  8
PLAN_1
  6
CONTINUOUS
 10
2.146417
 20
-3.834307
  0
VERTEX
  8
PLAN_1
  6
CONTINUOUS
 10
2.143386
 20
-3.836831
  0
VERTEX
  8
PLAN_1
  6
CONTINUOUS
 10
2.140862
 20
-3.840362
  0
VERTEX
  8
PLAN_1
  6
CONTINUOUS
 10
2.138846
 20
-3.843898
  0
VERTEX
  8
PLAN_1
  6
CONTINUOUS
 10
2.137331
 20
-3.848437
  0
VERTEX
  8
PLAN_1
  6
CONTINUOUS
 10
2.136827
 20
-3.852980
  0
VERTEX
  8
PLAN_1
  6
CONTINUOUS
 10
2.136323
 20
-3.858531
  0
VERTEX
  8
PLAN_1
  6
CONTINUOUS
 10
2.136323
 20
-3.861563
  0
VERTEX
  8
PLAN_1
  6
CONTINUOUS
 10
2.136827
 20
-3.864087
  0
VERTEX
  8
PLAN_1
  6
CONTINUOUS
 10
2.137331
 20
-3.867114
  0
VERTEX
  8
PLAN_1
  6
CONTINUOUS
 10
2.138339
 20
-3.869134
  0
VERTEX
  8
PLAN_1
  6
CONTINUOUS
 10
2.139350
 20
-3.871150
  0
VERTEX
  8
PLAN_1
  6
CONTINUOUS
 10
2.140862
 20
-3.873169
  0
VERTEX
  8
PLAN_1
  6
CONTINUOUS
 10
2.141874
 20
-3.874685
  0
VERTEX
  8
PLAN_1
  6
CONTINUOUS
 10
2.143894
 20
-3.876197
  0
VERTEX
  8
PLAN_1
  6
CONTINUOUS
 10
2.147425
 20
-3.879228
  0
VERTEX
  8
PLAN_1
  6
CONTINUOUS
 10
2.151465
 20
-3.881244
  0
VERTEX
  8
PLAN_1
  6
CONTINUOUS
 10
2.155500
 20
-3.882760
  0
VERTEX
  8
PLAN_1
  6
CONTINUOUS
 10
2.160043
 20
-3.883768
  0
VERTEX
  8
PLAN_1
  6
CONTINUOUS
 10
2.216575
 20
-3.896894
  0
VERTEX
  8
PLAN_1
  6
CONTINUOUS
 10
2.221622
 20
-3.897902
  0
VERTEX
  8
PLAN_1
  6
CONTINUOUS
 10
2.226165
 20
-3.899417
  0
VERTEX
  8
PLAN_1
  6
CONTINUOUS
 10
2.230705
 20
-3.901437
  0
VERTEX
  8
PLAN_1
  6
CONTINUOUS
 10
2.234744
 20
-3.903453
  0
VERTEX
  8
PLAN_1
  6
CONTINUOUS
 10
2.238783
 20
-3.905472
  0
VERTEX
  8
PLAN_1
  6
CONTINUOUS
 10
2.242315
 20
-3.907996
  0
VERTEX
  8
PLAN_1
  6
CONTINUOUS
 10
2.245850
 20
-3.911024
  0
VERTEX
  8
PLAN_1
  6
CONTINUOUS
 10
2.248878
 20
-3.914055
  0
VERTEX
  8
PLAN_1
  6
CONTINUOUS
 10
2.251906
 20
-3.917083
  0
VERTEX
  8
PLAN_1
  6
CONTINUOUS
 10
2.254429
 20
-3.921118
  0
VERTEX
  8
PLAN_1
  6
CONTINUOUS
 10
2.256449
 20
-3.925157
  0
VERTEX
  8
PLAN_1
  6
CONTINUOUS
 10
2.258469
 20
-3.929197
  0
VERTEX
  8
PLAN_1
  6
CONTINUOUS
 10
2.259980
 20
-3.933740
  0
VERTEX
  8
PLAN_1
  6
CONTINUOUS
 10
2.260992
 20
-3.938787
  0
VERTEX
  8
PLAN_1
  6
CONTINUOUS
 10
2.262000
 20
-3.944339
  0
VERTEX
  8
PLAN_1
  6
CONTINUOUS
 10
2.262000
 20
-3.949890
  0
VERTEX
  8
PLAN_1
  6
CONTINUOUS
 10
2.262000
 20
-3.954433
  0
VERTEX
  8
PLAN_1
  6
CONTINUOUS
 10
2.261496
 20
-3.958469
  0
VERTEX
  8
PLAN_1
  6
CONTINUOUS
 10
2.260992
 20
-3.962508
  0
VERTEX
  8
PLAN_1
  6
CONTINUOUS
 10
2.259980
 20
-3.966039
  0
VERTEX
  8
PLAN_1
  6
CONTINUOUS
 10
2.257961
 20
-3.973106
  0
VERTEX
  8
PLAN_1
  6
CONTINUOUS
 10
2.254429
 20
-3.979165
  0
VERTEX
  8
PLAN_1
  6
CONTINUOUS
 10
2.250898
 20
-3.985220
  0
VERTEX
  8
PLAN_1
  6
CONTINUOUS
 10
2.246354
 20
-3.989764
  0
VERTEX
  8
PLAN_1
  6
CONTINUOUS
 10
2.241307
 20
-3.994307
  0
VERTEX
  8
PLAN_1
  6
CONTINUOUS
 10
2.235752
 20
-3.997839
  0
VERTEX
  8
PLAN_1
  6
CONTINUOUS
 10
2.229697
 20
-4.000866
  0
VERTEX
  8
PLAN_1
  6
CONTINUOUS
 10
2.223642
 20
-4.003898
  0
VERTEX
  8
PLAN_1
  6
CONTINUOUS
 10
2.217079
 20
-4.005913
  0
VERTEX
  8
PLAN_1
  6
CONTINUOUS
 10
2.210516
 20
-4.007429
  0
VERTEX
  8
PLAN_1
  6
CONTINUOUS
 10
2.203957
 20
-4.008945
  0
VERTEX
  8
PLAN_1
  6
CONTINUOUS
 10
2.197394
 20
-4.009449
  0
VERTEX
  8
PLAN_1
  6
CONTINUOUS
 10
2.190327
 20
-4.009953
  0
VERTEX
  8
PLAN_1
  6
CONTINUOUS
 10
2.183768
 20
-4.010457
  0
VERTEX
  8
PLAN_1
  6
CONTINUOUS
 10
2.177205
 20
-4.009953
  0
VERTEX
  8
PLAN_1
  6
CONTINUOUS
 10
2.171150
 20
-4.009953
  0
VERTEX
  8
PLAN_1
  6
CONTINUOUS
 10
2.165594
 20
-4.009449
  0
VERTEX
  8
PLAN_1
  6
CONTINUOUS
 10
2.160043
 20
-4.008437
  0
VERTEX
  8
PLAN_1
  6
CONTINUOUS
 10
2.150961
 20
-4.006421
  0
VERTEX
  8
PLAN_1
  6
CONTINUOUS
 10
2.143386
 20
-4.003898
  0
VERTEX
  8
PLAN_1
  6
CONTINUOUS
 10
2.136827
 20
-4.000866
  0
VERTEX
  8
PLAN_1
  6
CONTINUOUS
 10
2.131780
 20
-3.997335
  0
VERTEX
  8
PLAN_1
  6
CONTINUOUS
 10
2.127236
 20
-3.994307
  0
VERTEX
  8
PLAN_1
  6
CONTINUOUS
 10
2.123705
 20
-3.991280
  0
VERTEX
  8
PLAN_1
  6
CONTINUOUS
 10
2.118150
 20
-3.985220
  0
VERTEX
  8
PLAN_1
  6
CONTINUOUS
 10
2.113610
 20
-3.979669
  0
VERTEX
  8
PLAN_1
  6
CONTINUOUS
 10
2.110075
 20
-3.973614
  0
VERTEX
  8
PLAN_1
  6
CONTINUOUS
 10
2.107551
 20
-3.967051
  0
VERTEX
  8
PLAN_1
  6
CONTINUOUS
 10
2.105531
 20
-3.960992
  0
VERTEX
  8
PLAN_1
  6
CONTINUOUS
 10
2.104524
 20
-3.954433
  0
VERTEX
  8
PLAN_1
  6
CONTINUOUS
 10
2.103512
 20
-3.947366
  0
VERTEX
  8
PLAN_1
  6
CONTINUOUS
 10
2.103512
 20
-3.940803
  0
VERTEX
  8
PLAN_1
  6
CONTINUOUS
 10
2.128752
 20
-3.940803
  0
VERTEX
  8
PLAN_1
  6
CONTINUOUS
 10
2.129256
 20
-3.947366
  0
VERTEX
  8
PLAN_1
  6
CONTINUOUS
 10
2.130264
 20
-3.952917
  0
VERTEX
  8
PLAN_1
  6
CONTINUOUS
 10
2.131780
 20
-3.958469
  0
VERTEX
  8
PLAN_1
  6
CONTINUOUS
 10
2.133799
 20
-3.963012
  0
VERTEX
  8
PLAN_1
  6
CONTINUOUS
 10
2.136323
 20
-3.967555
  0
VERTEX
  8
PLAN_1
  6
CONTINUOUS
 10
2.139350
 20
-3.971087
  0
VERTEX
  8
PLAN_1
  6
CONTINUOUS
 10
2.142882
 20
-3.974622
  0
VERTEX
  8
PLAN_1
  6
CONTINUOUS
 10
2.146921
 20
-3.977650
  0
VERTEX
  8
PLAN_1
  6
CONTINUOUS
 10
2.150961
 20
-3.980173
  0
VERTEX
  8
PLAN_1
  6
CONTINUOUS
 10
2.154996
 20
-3.982193
  0
VERTEX
  8
PLAN_1
  6
CONTINUOUS
 10
2.159539
 20
-3.983709
  0
VERTEX
  8
PLAN_1
  6
CONTINUOUS
 10
2.164587
 20
-3.985220
  0
VERTEX
  8
PLAN_1
  6
CONTINUOUS
 10
2.169130
 20
-3.986232
  0
VERTEX
  8
PLAN_1
  6
CONTINUOUS
 10
2.174177
 20
-3.986736
  0
VERTEX
  8
PLAN_1
  6
CONTINUOUS
 10
2.178720
 20
-3.987240
  0
VERTEX
  8
PLAN_1
  6
CONTINUOUS
 10
2.183768
 20
-3.987240
  0
VERTEX
  8
PLAN_1
  6
CONTINUOUS
 10
2.191339
 20
-3.987240
  0
VERTEX
  8
PLAN_1
  6
CONTINUOUS
 10
2.199917
 20
-3.986232
  0
VERTEX
  8
PLAN_1
  6
CONTINUOUS
 10
2.204461
 20
-3.985220
  0
VERTEX
  8
PLAN_1
  6
CONTINUOUS
 10
2.209004
 20
-3.984213
  0
VERTEX
  8
PLAN_1
  6
CONTINUOUS
 10
2.213039
 20
-3.982697
  0
VERTEX
  8
PLAN_1
  6
CONTINUOUS
 10
2.217079
 20
-3.981185
  0
VERTEX
  8
PLAN_1
  6
CONTINUOUS
 10
2.221118
 20
-3.979165
  0
VERTEX
  8
PLAN_1
  6
CONTINUOUS
 10
2.224650
 20
-3.976642
  0
VERTEX
  8
PLAN_1
  6
CONTINUOUS
 10
2.227677
 20
-3.974118
  0
VERTEX
  8
PLAN_1
  6
CONTINUOUS
 10
2.230705
 20
-3.971087
  0
VERTEX
  8
PLAN_1
  6
CONTINUOUS
 10
2.232724
 20
-3.967555
  0
VERTEX
  8
PLAN_1
  6
CONTINUOUS
 10
2.234240
 20
-3.963516
  0
VERTEX
  8
PLAN_1
  6
CONTINUOUS
 10
2.235752
 20
-3.958976
  0
VERTEX
  8
PLAN_1
  6
CONTINUOUS
 10
2.235752
 20
-3.953929
  0
VERTEX
  8
PLAN_1
  6
CONTINUOUS
 10
2.235752
 20
-3.949890
  0
VERTEX
  8
PLAN_1
  6
CONTINUOUS
 10
2.235248
 20
-3.946358
  0
VERTEX
  8
PLAN_1
  6
CONTINUOUS
 10
2.234744
 20
-3.943327
  0
VERTEX
  8
PLAN_1
  6
CONTINUOUS
 10
2.233736
 20
-3.940299
  0
VERTEX
  8
PLAN_1
  6
CONTINUOUS
 10
2.232724
 20
-3.937776
  0
VERTEX
  8
PLAN_1
  6
CONTINUOUS
 10
2.231213
 20
-3.935252
  0
VERTEX
  8
PLAN_1
  6
CONTINUOUS
 10
2.229193
 20
-3.933232
  0
VERTEX
  8
PLAN_1
  6
CONTINUOUS
 10
2.227173
 20
-3.931217
  0
VERTEX
  8
PLAN_1
  6
CONTINUOUS
 10
2.224146
 20
-3.929197
  0
VERTEX
  8
PLAN_1
  6
CONTINUOUS
 10
2.221118
 20
-3.927681
  0
VERTEX
  8
PLAN_1
  6
CONTINUOUS
 10
2.217583
 20
-3.925661
  0
VERTEX
  8
PLAN_1
  6
CONTINUOUS
 10
2.214051
 20
-3.924150
  0
VERTEX
  8
PLAN_1
  6
CONTINUOUS
 10
2.204461
 20
-3.921118
  0
VERTEX
  8
PLAN_1
  6
CONTINUOUS
 10
2.193354
 20
-3.918594
  0
VERTEX
  8
PLAN_1
  6
CONTINUOUS
 10
2.152472
 20
-3.909008
  0
VERTEX
  8
PLAN_1
  6
CONTINUOUS
 10
2.146921
 20
-3.907492
  0
VERTEX
  8
PLAN_1
  6
CONTINUOUS
 10
2.140358
 20
-3.905472
  0
VERTEX
  8
PLAN_1
  6
CONTINUOUS
 10
2.136827
 20
-3.903961
  0
VERTEX
  8
PLAN_1
  6
CONTINUOUS
 10
2.133291
 20
-3.901941
  0
VERTEX
  8
PLAN_1
  6
CONTINUOUS
 10
2.129760
 20
-3.899921
  0
VERTEX
  8
PLAN_1
  6
CONTINUOUS
 10
2.126732
 20
-3.897398
  0
VERTEX
  8
PLAN_1
  6
CONTINUOUS
 10
2.123197
 20
-3.894370
  0
VERTEX
  8
PLAN_1
  6
CONTINUOUS
 10
2.120169
 20
-3.891343
  0
VERTEX
  8
PLAN_1
  6
CONTINUOUS
 10
2.117646
 20
-3.887807
  0
VERTEX
  8
PLAN_1
  6
CONTINUOUS
 10
2.115122
 20
-3.883768
  0
VERTEX
  8
PLAN_1
  6
CONTINUOUS
 10
2.113102
 20
-3.879228
  0
VERTEX
  8
PLAN_1
  6
CONTINUOUS
 10
2.111591
 20
-3.874181
  0
VERTEX
  8
PLAN_1
  6
CONTINUOUS
 10
2.110579
 20
-3.868122
  0
VERTEX
  8
PLAN_1
  6
CONTINUOUS
 10
2.110075
 20
-3.862067
  0
VERTEX
  8
PLAN_1
  6
CONTINUOUS
 10
2.110579
 20
-3.856516
  0
VERTEX
  8
PLAN_1
  6
CONTINUOUS
 10
2.111087
 20
-3.850457
  0
VERTEX
  8
PLAN_1
  6
CONTINUOUS
 10
2.112598
 20
-3.844906
  0
VERTEX
  8
PLAN_1
  6
CONTINUOUS
 10
2.114114
 20
-3.839354
  0
VERTEX
  8
PLAN_1
  6
CONTINUOUS
 10
2.116134
 20
-3.833799
  0
VERTEX
  8
PLAN_1
  6
CONTINUOUS
 10
2.119161
 20
-3.828752
  0
VERTEX
  8
PLAN_1
  6
CONTINUOUS
 10
2.122693
 20
-3.824213
  0
VERTEX
  8
PLAN_1
  6
CONTINUOUS
 10
2.126228
 20
-3.819669
  0
VERTEX
  8
PLAN_1
  6
CONTINUOUS
 10
2.130768
 20
-3.815630
  0
VERTEX
  8
PLAN_1
  6
CONTINUOUS
 10
2.135815
 20
-3.811594
  0
VERTEX
  8
PLAN_1
  6
CONTINUOUS
 10
2.141370
 20
-3.808563
  0
VERTEX
  8
PLAN_1
  6
CONTINUOUS
 10
2.147425
 20
-3.805535
  0
VERTEX
  8
PLAN_1
  6
CONTINUOUS
 10
2.154492
 20
-3.803516
  0
VERTEX
  8
PLAN_1
  6
CONTINUOUS
 10
2.162063
 20
-3.802004
  0
VERTEX
  8
PLAN_1
  6
CONTINUOUS
 10
2.170138
 20
-3.800992
  0
VERTEX
  8
PLAN_1
  6
CONTINUOUS
 10
2.178720
 20
-3.800488
  0
VERTEX
  8
PLAN_1
  6
CONTINUOUS
 10
2.190831
 20
-3.800992
  0
VERTEX
  8
PLAN_1
  6
CONTINUOUS
 10
2.201937
 20
-3.802508
  0
VERTEX
  8
PLAN_1
  6
CONTINUOUS
 10
2.211528
 20
-3.804528
  0
VERTEX
  8
PLAN_1
  6
CONTINUOUS
 10
2.220106
 20
-3.807555
  0
VERTEX
  8
PLAN_1
  6
CONTINUOUS
 10
2.227173
 20
-3.810583
  0
VERTEX
  8
PLAN_1
  6
CONTINUOUS
 10
2.233736
 20
-3.814622
  0
VERTEX
  8
PLAN_1
  6
CONTINUOUS
 10
2.238783
 20
-3.819165
  0
VERTEX
  8
PLAN_1
  6
CONTINUOUS
 10
2.243327
 20
-3.824213
  0
VERTEX
  8
PLAN_1
  6
CONTINUOUS
 10
2.246858
 20
-3.829260
  0
VERTEX
  8
PLAN_1
  6
CONTINUOUS
 10
2.249886
 20
-3.834307
  0
VERTEX
  8
PLAN_1
  6
CONTINUOUS
 10
2.251906
 20
-3.839354
  0
VERTEX
  8
PLAN_1
  6
CONTINUOUS
 10
2.253421
 20
-3.844906
  0
VERTEX
  8
PLAN_1
  6
CONTINUOUS
 10
2.254933
 20
-3.849953
  0
VERTEX
  8
PLAN_1
  6
CONTINUOUS
 10
2.255437
 20
-3.855000
  0
VERTEX
  8
PLAN_1
  6
CONTINUOUS
 10
2.255945
 20
-3.859543
  0
VERTEX
  8
PLAN_1
  6
CONTINUOUS
 10
2.256449
 20
-3.864087
  0
VERTEX
  8
PLAN_1
  6
CONTINUOUS
 10
2.231213
 20
-3.864087
  0
SEQEND
  8
0
  0
POLYLINE
  8
PLAN_1
  6
CONTINUOUS
 66
     1
 40
0.008075
 41
0.008075
  0
VERTEX
  8
PLAN_1
  6
CONTINUOUS
 10
-0.073402
 20
0.389303
  0
VERTEX
  8
PLAN_1
  6
CONTINUOUS
 10
-1.285264
 20
0.389303
  0
VERTEX
  8
PLAN_1
  6
CONTINUOUS
 10
-1.285264
 20
1.569874
  0
VERTEX
  8
PLAN_1
  6
CONTINUOUS
 10
-0.073402
 20
1.569874
  0
VERTEX
  8
PLAN_1
  6
CONTINUOUS
 10
-0.073402
 20
0.389303
  0
SEQEND
  8
0
  0
POLYLINE
  8
PLAN_1
  6
CONTINUOUS
 66
     1
 40
0.008075
 41
0.008075
  0
VERTEX
  8
PLAN_1
  6
CONTINUOUS
 10
-0.179394
 20
0.322173
  0
VERTEX
  8
PLAN_1
  6
CONTINUOUS
 10
-0.174346
 20
0.322173
  0
VERTEX
  8
PLAN_1
  6
CONTINUOUS
 10
-0.169803
 20
0.322677
  0
VERTEX
  8
PLAN_1
  6
CONTINUOUS
 10
-0.165768
 20
0.323685
  0
VERTEX
  8
PLAN_1
  6
CONTINUOUS
 10
-0.161728
 20
0.325201
  0
VERTEX
  8
PLAN_1
  6
CONTINUOUS
 10
-0.158197
 20
0.326717
  0
VERTEX
  8
PLAN_1
  6
CONTINUOUS
 10
-0.155169
 20
0.328228
  0
VERTEX
  8
PLAN_1
  6
CONTINUOUS
 10
-0.152138
 20
0.330248
  0
VERTEX
  8
PLAN_1
  6
CONTINUOUS
 10
-0.149614
 20
0.332772
  0
VERTEX
  8
PLAN_1
  6
CONTINUOUS
 10
-0.147091
 20
0.335295
  0
VERTEX
  8
PLAN_1
  6
CONTINUOUS
 10
-0.145075
 20
0.337819
  0
VERTEX
  8
PLAN_1
  6
CONTINUOUS
 10
-0.143055
 20
0.340343
  0
VERTEX
  8
PLAN_1
  6
CONTINUOUS
 10
-0.141539
 20
0.343370
  0
VERTEX
  8
PLAN_1
  6
CONTINUOUS
 10
-0.139016
 20
0.349429
  0
VERTEX
  8
PLAN_1
  6
CONTINUOUS
 10
-0.136996
 20
0.355988
  0
VERTEX
  8
PLAN_1
  6
CONTINUOUS
 10
-0.135988
 20
0.362047
  0
VERTEX
  8
PLAN_1
  6
CONTINUOUS
 10
-0.134976
 20
0.368102
  0
VERTEX
  8
PLAN_1
  6
CONTINUOUS
 10
-0.134976
 20
0.373654
  0
VERTEX
  8
PLAN_1
  6
CONTINUOUS
 10
-0.134976
 20
0.378701
  0
VERTEX
  8
PLAN_1
  6
CONTINUOUS
 10
-0.135484
 20
0.386780
  0
VERTEX
  8
PLAN_1
  6
CONTINUOUS
 10
-0.135484
 20
0.389303
  0
SEQEND
  8
0
  0
POLYLINE
  8
PLAN_1
  6
CONTINUOUS
 66
     1
 40
0.008075
 41
0.008075
  0
VERTEX
  8
PLAN_1
  6
CONTINUOUS
 10
-0.135484
 20
0.389303
  0
VERTEX
  8
PLAN_1
  6
CONTINUOUS
 10
-1.213594
 20
0.389303
  0
SEQEND
  8
0
  0
POLYLINE
  8
PLAN_1
  6
CONTINUOUS
 66
     1
 40
0.008075
 41
0.008075
  0
VERTEX
  8
PLAN_1
  6
CONTINUOUS
 10
-1.213594
 20
0.389303
  0
VERTEX
  8
PLAN_1
  6
CONTINUOUS
 10
-1.214602
 20
0.386780
  0
VERTEX
  8
PLAN_1
  6
CONTINUOUS
 10
-1.216622
 20
0.378701
  0
VERTEX
  8
PLAN_1
  6
CONTINUOUS
 10
-1.217630
 20
0.373654
  0
VERTEX
  8
PLAN_1
  6
CONTINUOUS
 10
-1.218138
 20
0.368102
  0
VERTEX
  8
PLAN_1
  6
CONTINUOUS
 10
-1.218642
 20
0.362047
  0
VERTEX
  8
PLAN_1
  6
CONTINUOUS
 10
-1.218642
 20
0.355988
  0
VERTEX
  8
PLAN_1
  6
CONTINUOUS
 10
-1.218138
 20
0.349429
  0
VERTEX
  8
PLAN_1
  6
CONTINUOUS
 10
-1.216118
 20
0.343370
  0
VERTEX
  8
PLAN_1
  6
CONTINUOUS
 10
-1.215106
 20
0.340343
  0
VERTEX
  8
PLAN_1
  6
CONTINUOUS
 10
-1.213594
 20
0.337819
  0
VERTEX
  8
PLAN_1
  6
CONTINUOUS
 10
-1.212079
 20
0.335295
  0
VERTEX
  8
PLAN_1
  6
CONTINUOUS
 10
-1.210059
 20
0.332772
  0
VERTEX
  8
PLAN_1
  6
CONTINUOUS
 10
-1.207535
 20
0.330248
  0
VERTEX
  8
PLAN_1
  6
CONTINUOUS
 10
-1.204508
 20
0.328228
  0
VERTEX
  8
PLAN_1
  6
CONTINUOUS
 10
-1.201480
 20
0.326717
  0
VERTEX
  8
PLAN_1
  6
CONTINUOUS
 10
-1.197945
 20
0.325201
  0
VERTEX
  8
PLAN_1
  6
CONTINUOUS
 10
-1.194413
 20
0.323685
  0
VERTEX
  8
PLAN_1
  6
CONTINUOUS
 10
-1.189870
 20
0.322677
  0
VERTEX
  8
PLAN_1
  6
CONTINUOUS
 10
-1.184823
 20
0.322173
  0
VERTEX
  8
PLAN_1
  6
CONTINUOUS
 10
-1.179776
 20
0.322173
  0
VERTEX
  8
PLAN_1
  6
CONTINUOUS
 10
-1.128799
 20
0.322173
  0
VERTEX
  8
PLAN_1
  6
CONTINUOUS
 10
-1.017252
 20
0.322173
  0
VERTEX
  8
PLAN_1
  6
CONTINUOUS
 10
-0.865327
 20
0.322173
  0
VERTEX
  8
PLAN_1
  6
CONTINUOUS
 10
-0.692205
 20
0.322173
  0
VERTEX
  8
PLAN_1
  6
CONTINUOUS
 10
-0.517567
 20
0.322173
  0
VERTEX
  8
PLAN_1
  6
CONTINUOUS
 10
-0.361098
 20
0.322173
  0
VERTEX
  8
PLAN_1
  6
CONTINUOUS
 10
-0.241476
 20
0.322173
  0
VERTEX
  8
PLAN_1
  6
CONTINUOUS
 10
-0.179394
 20
0.322173
  0
SEQEND
  8
0
  0
POLYLINE
  8
PLAN_1
  6
CONTINUOUS
 66
     1
 40
0.008075
 41
0.008075
  0
VERTEX
  8
PLAN_1
  6
CONTINUOUS
 10
-1.127283
 20
0.322173
  0
VERTEX
  8
PLAN_1
  6
CONTINUOUS
 10
-1.127283
 20
-0.037197
  0
VERTEX
  8
PLAN_1
  6
CONTINUOUS
 10
-1.079335
 20
-0.037197
  0
VERTEX
  8
PLAN_1
  6
CONTINUOUS
 10
-1.079335
 20
-0.086661
  0
VERTEX
  8
PLAN_1
  6
CONTINUOUS
 10
-1.035925
 20
-0.086661
  0
VERTEX
  8
PLAN_1
  6
CONTINUOUS
 10
-1.035925
 20
-0.037197
  0
VERTEX
  8
PLAN_1
  6
CONTINUOUS
 10
-0.339902
 20
-0.037197
  0
VERTEX
  8
PLAN_1
  6
CONTINUOUS
 10
-0.339902
 20
-0.086661
  0
VERTEX
  8
PLAN_1
  6
CONTINUOUS
 10
-0.296492
 20
-0.086661
  0
VERTEX
  8
PLAN_1
  6
CONTINUOUS
 10
-0.296492
 20
-0.037197
  0
VERTEX
  8
PLAN_1
  6
CONTINUOUS
 10
-0.228858
 20
-0.037197
  0
VERTEX
  8
PLAN_1
  6
CONTINUOUS
 10
-0.228858
 20
0.322173
  0
VERTEX
  8
PLAN_1
  6
CONTINUOUS
 10
-1.127283
 20
0.322173
  0
SEQEND
  8
0
  0
POLYLINE
  8
PLAN_1
  6
CONTINUOUS
 66
     1
 40
0.007063
 41
0.007063
  0
VERTEX
  8
PLAN_1
  6
CONTINUOUS
 10
-0.815358
 20
-0.037197
  0
VERTEX
  8
PLAN_1
  6
CONTINUOUS
 10
-0.954665
 20
-0.061425
  0
VERTEX
  8
PLAN_1
  6
CONTINUOUS
 10
-0.963752
 20
-0.063445
  0
SEQEND
  8
0
  0
POLYLINE
  8
PLAN_1
  6
CONTINUOUS
 66
     1
 40
0.007063
 41
0.007063
  0
VERTEX
  8
PLAN_1
  6
CONTINUOUS
 10
-0.963752
 20
-0.063445
  0
VERTEX
  8
PLAN_1
  6
CONTINUOUS
 10
-0.967787
 20
-0.064453
  0
VERTEX
  8
PLAN_1
  6
CONTINUOUS
 10
-0.971827
 20
-0.066472
  0
VERTEX
  8
PLAN_1
  6
CONTINUOUS
 10
-0.975358
 20
-0.068996
  0
VERTEX
  8
PLAN_1
  6
CONTINUOUS
 10
-0.978386
 20
-0.072528
  0
VERTEX
  8
PLAN_1
  6
CONTINUOUS
 10
-0.980406
 20
-0.076063
  0
VERTEX
  8
PLAN_1
  6
CONTINUOUS
 10
-0.981417
 20
-0.080098
  0
VERTEX
  8
PLAN_1
  6
CONTINUOUS
 10
-0.982425
 20
-0.084642
  0
VERTEX
  8
PLAN_1
  6
CONTINUOUS
 10
-0.981921
 20
-0.089185
  0
VERTEX
  8
PLAN_1
  6
CONTINUOUS
 10
-0.980406
 20
-0.093728
  0
VERTEX
  8
PLAN_1
  6
CONTINUOUS
 10
-0.978386
 20
-0.097764
  0
VERTEX
  8
PLAN_1
  6
CONTINUOUS
 10
-0.975862
 20
-0.100795
  0
VERTEX
  8
PLAN_1
  6
CONTINUOUS
 10
-0.972835
 20
-0.103823
  0
VERTEX
  8
PLAN_1
  6
CONTINUOUS
 10
-0.968799
 20
-0.105843
  0
VERTEX
  8
PLAN_1
  6
CONTINUOUS
 10
-0.964760
 20
-0.107354
  0
VERTEX
  8
PLAN_1
  6
CONTINUOUS
 10
-0.960217
 20
-0.107858
  0
VERTEX
  8
PLAN_1
  6
CONTINUOUS
 10
-0.955673
 20
-0.107354
  0
SEQEND
  8
0
  0
POLYLINE
  8
PLAN_1
  6
CONTINUOUS
 66
     1
 40
0.007063
 41
0.007063
  0
VERTEX
  8
PLAN_1
  6
CONTINUOUS
 10
-0.955673
 20
-0.107354
  0
VERTEX
  8
PLAN_1
  6
CONTINUOUS
 10
-0.947094
 20
-0.105843
  0
VERTEX
  8
PLAN_1
  6
CONTINUOUS
 10
-0.557945
 20
-0.037197
  0
VERTEX
  8
PLAN_1
  6
CONTINUOUS
 10
-0.815358
 20
-0.037197
  0
SEQEND
  8
0
  0
POLYLINE
  8
PLAN_1
  6
CONTINUOUS
 66
     1
 40
0.007063
 41
0.007063
  0
VERTEX
  8
PLAN_1
  6
CONTINUOUS
 10
-0.404504
 20
-0.205780
  0
VERTEX
  8
PLAN_1
  6
CONTINUOUS
 10
-0.400469
 20
-0.204264
  0
VERTEX
  8
PLAN_1
  6
CONTINUOUS
 10
-0.396429
 20
-0.202244
  0
VERTEX
  8
PLAN_1
  6
CONTINUOUS
 10
-0.392898
 20
-0.199720
  0
VERTEX
  8
PLAN_1
  6
CONTINUOUS
 10
-0.390374
 20
-0.196189
  0
VERTEX
  8
PLAN_1
  6
CONTINUOUS
 10
-0.387850
 20
-0.192654
  0
VERTEX
  8
PLAN_1
  6
CONTINUOUS
 10
-0.386839
 20
-0.188618
  0
VERTEX
  8
PLAN_1
  6
CONTINUOUS
 10
-0.385831
 20
-0.184075
  0
VERTEX
  8
PLAN_1
  6
CONTINUOUS
 10
-0.386335
 20
-0.179531
  0
VERTEX
  8
PLAN_1
  6
CONTINUOUS
 10
-0.387850
 20
-0.174988
  0
VERTEX
  8
PLAN_1
  6
CONTINUOUS
 10
-0.389870
 20
-0.171457
  0
VERTEX
  8
PLAN_1
  6
CONTINUOUS
 10
-0.392394
 20
-0.167925
  0
VERTEX
  8
PLAN_1
  6
CONTINUOUS
 10
-0.395421
 20
-0.164894
  0
VERTEX
  8
PLAN_1
  6
CONTINUOUS
 10
-0.399457
 20
-0.162878
  0
VERTEX
  8
PLAN_1
  6
CONTINUOUS
 10
-0.403496
 20
-0.161362
  0
VERTEX
  8
PLAN_1
  6
CONTINUOUS
 10
-0.408039
 20
-0.160858
  0
VERTEX
  8
PLAN_1
  6
CONTINUOUS
 10
-0.412583
 20
-0.161362
  0
SEQEND
  8
0
  0
POLYLINE
  8
PLAN_1
  6
CONTINUOUS
 66
     1
 40
0.007063
 41
0.007063
  0
VERTEX
  8
PLAN_1
  6
CONTINUOUS
 10
-0.412583
 20
-0.161362
  0
VERTEX
  8
PLAN_1
  6
CONTINUOUS
 10
-0.426209
 20
-0.163886
  0
VERTEX
  8
PLAN_1
  6
CONTINUOUS
 10
-0.954665
 20
-0.257260
  0
VERTEX
  8
PLAN_1
  6
CONTINUOUS
 10
-0.963244
 20
-0.258776
  0
SEQEND
  8
0
  0
POLYLINE
  8
PLAN_1
  6
CONTINUOUS
 66
     1
 40
0.007063
 41
0.007063
  0
VERTEX
  8
PLAN_1
  6
CONTINUOUS
 10
-0.963244
 20
-0.258776
  0
VERTEX
  8
PLAN_1
  6
CONTINUOUS
 10
-0.967787
 20
-0.259783
  0
VERTEX
  8
PLAN_1
  6
CONTINUOUS
 10
-0.971827
 20
-0.261803
  0
VERTEX
  8
PLAN_1
  6
CONTINUOUS
 10
-0.975358
 20
-0.264831
  0
VERTEX
  8
PLAN_1
  6
CONTINUOUS
 10
-0.977882
 20
-0.267862
  0
VERTEX
  8
PLAN_1
  6
CONTINUOUS
 10
-0.979902
 20
-0.271898
  0
VERTEX
  8
PLAN_1
  6
CONTINUOUS
 10
-0.981417
 20
-0.275937
  0
VERTEX
  8
PLAN_1
  6
CONTINUOUS
 10
-0.981921
 20
-0.280480
  0
VERTEX
  8
PLAN_1
  6
CONTINUOUS
 10
-0.981417
 20
-0.285020
  0
VERTEX
  8
PLAN_1
  6
CONTINUOUS
 10
-0.980406
 20
-0.289059
  0
VERTEX
  8
PLAN_1
  6
CONTINUOUS
 10
-0.978386
 20
-0.293098
  0
VERTEX
  8
PLAN_1
  6
CONTINUOUS
 10
-0.975862
 20
-0.296630
  0
VERTEX
  8
PLAN_1
  6
CONTINUOUS
 10
-0.972331
 20
-0.299154
  0
VERTEX
  8
PLAN_1
  6
CONTINUOUS
 10
-0.968799
 20
-0.301173
  0
VERTEX
  8
PLAN_1
  6
CONTINUOUS
 10
-0.964760
 20
-0.302689
  0
VERTEX
  8
PLAN_1
  6
CONTINUOUS
 10
-0.960217
 20
-0.303193
  0
VERTEX
  8
PLAN_1
  6
CONTINUOUS
 10
-0.955673
 20
-0.303193
  0
SEQEND
  8
0
  0
POLYLINE
  8
PLAN_1
  6
CONTINUOUS
 66
     1
 40
0.007063
 41
0.007063
  0
VERTEX
  8
PLAN_1
  6
CONTINUOUS
 10
-0.955673
 20
-0.303193
  0
VERTEX
  8
PLAN_1
  6
CONTINUOUS
 10
-0.946591
 20
-0.301173
  0
VERTEX
  8
PLAN_1
  6
CONTINUOUS
 10
-0.418638
 20
-0.207799
  0
VERTEX
  8
PLAN_1
  6
CONTINUOUS
 10
-0.404504
 20
-0.205780
  0
SEQEND
  8
0
  0
POLYLINE
  8
PLAN_1
  6
CONTINUOUS
 66
     1
 40
0.007063
 41
0.007063
  0
VERTEX
  8
PLAN_1
  6
CONTINUOUS
 10
-0.399457
 20
-0.498524
  0
VERTEX
  8
PLAN_1
  6
CONTINUOUS
 10
-0.394917
 20
-0.498020
  0
VERTEX
  8
PLAN_1
  6
CONTINUOUS
 10
-0.390878
 20
-0.496504
  0
VERTEX
  8
PLAN_1
  6
CONTINUOUS
 10
-0.386839
 20
-0.494484
  0
VERTEX
  8
PLAN_1
  6
CONTINUOUS
 10
-0.383811
 20
-0.491961
  0
VERTEX
  8
PLAN_1
  6
CONTINUOUS
 10
-0.380783
 20
-0.488429
  0
VERTEX
  8
PLAN_1
  6
CONTINUOUS
 10
-0.378764
 20
-0.484898
  0
VERTEX
  8
PLAN_1
  6
CONTINUOUS
 10
-0.377756
 20
-0.480354
  0
VERTEX
  8
PLAN_1
  6
CONTINUOUS
 10
-0.377252
 20
-0.475811
  0
VERTEX
  8
PLAN_1
  6
CONTINUOUS
 10
-0.377756
 20
-0.471268
  0
VERTEX
  8
PLAN_1
  6
CONTINUOUS
 10
-0.378764
 20
-0.467228
  0
VERTEX
  8
PLAN_1
  6
CONTINUOUS
 10
-0.380783
 20
-0.463193
  0
VERTEX
  8
PLAN_1
  6
CONTINUOUS
 10
-0.383811
 20
-0.460165
  0
VERTEX
  8
PLAN_1
  6
CONTINUOUS
 10
-0.386839
 20
-0.457134
  0
VERTEX
  8
PLAN_1
  6
CONTINUOUS
 10
-0.390878
 20
-0.455118
  0
VERTEX
  8
PLAN_1
  6
CONTINUOUS
 10
-0.394917
 20
-0.454106
  0
VERTEX
  8
PLAN_1
  6
CONTINUOUS
 10
-0.399457
 20
-0.453602
  0
SEQEND
  8
0
  0
POLYLINE
  8
PLAN_1
  6
CONTINUOUS
 66
     1
 40
0.007063
 41
0.007063
  0
VERTEX
  8
PLAN_1
  6
CONTINUOUS
 10
-0.399457
 20
-0.453602
  0
VERTEX
  8
PLAN_1
  6
CONTINUOUS
 10
-0.413591
 20
-0.453602
  0
VERTEX
  8
PLAN_1
  6
CONTINUOUS
 10
-0.950122
 20
-0.453602
  0
VERTEX
  8
PLAN_1
  6
CONTINUOUS
 10
-0.959209
 20
-0.453602
  0
SEQEND
  8
0
  0
POLYLINE
  8
PLAN_1
  6
CONTINUOUS
 66
     1
 40
0.007063
 41
0.007063
  0
VERTEX
  8
PLAN_1
  6
CONTINUOUS
 10
-0.959209
 20
-0.453602
  0
VERTEX
  8
PLAN_1
  6
CONTINUOUS
 10
-0.963752
 20
-0.454106
  0
VERTEX
  8
PLAN_1
  6
CONTINUOUS
 10
-0.967787
 20
-0.455622
  0
VERTEX
  8
PLAN_1
  6
CONTINUOUS
 10
-0.971827
 20
-0.457642
  0
VERTEX
  8
PLAN_1
  6
CONTINUOUS
 10
-0.974854
 20
-0.460165
  0
VERTEX
  8
PLAN_1
  6
CONTINUOUS
 10
-0.977882
 20
-0.463697
  0
VERTEX
  8
PLAN_1
  6
CONTINUOUS
 10
-0.979902
 20
-0.467228
  0
VERTEX
  8
PLAN_1
  6
CONTINUOUS
 10
-0.981417
 20
-0.471772
  0
VERTEX
  8
PLAN_1
  6
CONTINUOUS
 10
-0.981417
 20
-0.476315
  0
VERTEX
  8
PLAN_1
  6
CONTINUOUS
 10
-0.981417
 20
-0.480858
  0
VERTEX
  8
PLAN_1
  6
CONTINUOUS
 10
-0.979902
 20
-0.484898
  0
VERTEX
  8
PLAN_1
  6
CONTINUOUS
 10
-0.977882
 20
-0.488933
  0
VERTEX
  8
PLAN_1
  6
CONTINUOUS
 10
-0.974854
 20
-0.491961
  0
VERTEX
  8
PLAN_1
  6
CONTINUOUS
 10
-0.971827
 20
-0.494992
  0
VERTEX
  8
PLAN_1
  6
CONTINUOUS
 10
-0.967787
 20
-0.497008
  0
VERTEX
  8
PLAN_1
  6
CONTINUOUS
 10
-0.963752
 20
-0.498020
  0
VERTEX
  8
PLAN_1
  6
CONTINUOUS
 10
-0.959209
 20
-0.498524
  0
SEQEND
  8
0
  0
POLYLINE
  8
PLAN_1
  6
CONTINUOUS
 66
     1
 40
0.007063
 41
0.007063
  0
VERTEX
  8
PLAN_1
  6
CONTINUOUS
 10
-0.959209
 20
-0.498524
  0
VERTEX
  8
PLAN_1
  6
CONTINUOUS
 10
-0.950122
 20
-0.498524
  0
VERTEX
  8
PLAN_1
  6
CONTINUOUS
 10
-0.413591
 20
-0.498524
  0
VERTEX
  8
PLAN_1
  6
CONTINUOUS
 10
-0.399457
 20
-0.498524
  0
SEQEND
  8
0
  0
POLYLINE
  8
PLAN_1
  6
CONTINUOUS
 66
     1
 40
0.007063
 41
0.007063
  0
VERTEX
  8
PLAN_1
  6
CONTINUOUS
 10
-0.700280
 20
-0.453098
  0
VERTEX
  8
PLAN_1
  6
CONTINUOUS
 10
-0.418638
 20
-0.403634
  0
VERTEX
  8
PLAN_1
  6
CONTINUOUS
 10
-0.404504
 20
-0.401110
  0
SEQEND
  8
0
  0
POLYLINE
  8
PLAN_1
  6
CONTINUOUS
 66
     1
 40
0.007063
 41
0.007063
  0
VERTEX
  8
PLAN_1
  6
CONTINUOUS
 10
-0.404504
 20
-0.401110
  0
VERTEX
  8
PLAN_1
  6
CONTINUOUS
 10
-0.399965
 20
-0.399594
  0
VERTEX
  8
PLAN_1
  6
CONTINUOUS
 10
-0.396429
 20
-0.397579
  0
VERTEX
  8
PLAN_1
  6
CONTINUOUS
 10
-0.392898
 20
-0.395055
  0
VERTEX
  8
PLAN_1
  6
CONTINUOUS
 10
-0.389870
 20
-0.391520
  0
VERTEX
  8
PLAN_1
  6
CONTINUOUS
 10
-0.387850
 20
-0.387988
  0
VERTEX
  8
PLAN_1
  6
CONTINUOUS
 10
-0.386335
 20
-0.383949
  0
VERTEX
  8
PLAN_1
  6
CONTINUOUS
 10
-0.385831
 20
-0.379406
  0
VERTEX
  8
PLAN_1
  6
CONTINUOUS
 10
-0.386335
 20
-0.374862
  0
VERTEX
  8
PLAN_1
  6
CONTINUOUS
 10
-0.387346
 20
-0.370827
  0
VERTEX
  8
PLAN_1
  6
CONTINUOUS
 10
-0.389362
 20
-0.366787
  0
VERTEX
  8
PLAN_1
  6
CONTINUOUS
 10
-0.392394
 20
-0.363256
  0
VERTEX
  8
PLAN_1
  6
CONTINUOUS
 10
-0.395421
 20
-0.360228
  0
VERTEX
  8
PLAN_1
  6
CONTINUOUS
 10
-0.399457
 20
-0.358209
  0
VERTEX
  8
PLAN_1
  6
CONTINUOUS
 10
-0.403496
 20
-0.357197
  0
VERTEX
  8
PLAN_1
  6
CONTINUOUS
 10
-0.408039
 20
-0.356189
  0
VERTEX
  8
PLAN_1
  6
CONTINUOUS
 10
-0.412583
 20
-0.356693
  0
SEQEND
  8
0
  0
POLYLINE
  8
PLAN_1
  6
CONTINUOUS
 66
     1
 40
0.007063
 41
0.007063
  0
VERTEX
  8
PLAN_1
  6
CONTINUOUS
 10
-0.412583
 20
-0.356693
  0
VERTEX
  8
PLAN_1
  6
CONTINUOUS
 10
-0.426209
 20
-0.359217
  0
VERTEX
  8
PLAN_1
  6
CONTINUOUS
 10
-0.954161
 20
-0.452594
  0
VERTEX
  8
PLAN_1
  6
CONTINUOUS
 10
-0.963244
 20
-0.454106
  0
SEQEND
  8
0
  0
POLYLINE
  8
PLAN_1
  6
CONTINUOUS
 66
     1
 40
0.007063
 41
0.007063
  0
VERTEX
  8
PLAN_1
  6
CONTINUOUS
 10
-0.963244
 20
-0.454106
  0
VERTEX
  8
PLAN_1
  6
CONTINUOUS
 10
-0.967787
 20
-0.455118
  0
VERTEX
  8
PLAN_1
  6
CONTINUOUS
 10
-0.971827
 20
-0.457134
  0
VERTEX
  8
PLAN_1
  6
CONTINUOUS
 10
-0.974854
 20
-0.460165
  0
VERTEX
  8
PLAN_1
  6
CONTINUOUS
 10
-0.977882
 20
-0.463193
  0
VERTEX
  8
PLAN_1
  6
CONTINUOUS
 10
-0.979902
 20
-0.467228
  0
VERTEX
  8
PLAN_1
  6
CONTINUOUS
 10
-0.981417
 20
-0.471268
  0
VERTEX
  8
PLAN_1
  6
CONTINUOUS
 10
-0.981921
 20
-0.475811
  0
VERTEX
  8
PLAN_1
  6
CONTINUOUS
 10
-0.981417
 20
-0.480354
  0
VERTEX
  8
PLAN_1
  6
CONTINUOUS
 10
-0.980406
 20
-0.484390
  0
VERTEX
  8
PLAN_1
  6
CONTINUOUS
 10
-0.978386
 20
-0.488429
  0
VERTEX
  8
PLAN_1
  6
CONTINUOUS
 10
-0.975862
 20
-0.491961
  0
VERTEX
  8
PLAN_1
  6
CONTINUOUS
 10
-0.972331
 20
-0.494484
  0
VERTEX
  8
PLAN_1
  6
CONTINUOUS
 10
-0.968799
 20
-0.497008
  0
VERTEX
  8
PLAN_1
  6
CONTINUOUS
 10
-0.964256
 20
-0.498020
  0
VERTEX
  8
PLAN_1
  6
CONTINUOUS
 10
-0.960217
 20
-0.498524
  0
VERTEX
  8
PLAN_1
  6
CONTINUOUS
 10
-0.955673
 20
-0.498524
  0
SEQEND
  8
0
  0
POLYLINE
  8
PLAN_1
  6
CONTINUOUS
 66
     1
 40
0.007063
 41
0.007063
  0
VERTEX
  8
PLAN_1
  6
CONTINUOUS
 10
-0.832016
 20
-0.085146
  0
VERTEX
  8
PLAN_1
  6
CONTINUOUS
 10
-0.418134
 20
-0.158335
  0
VERTEX
  8
PLAN_1
  6
CONTINUOUS
 10
-0.404504
 20
-0.160858
  0
SEQEND
  8
0
  0
POLYLINE
  8
PLAN_1
  6
CONTINUOUS
 66
     1
 40
0.007063
 41
0.007063
  0
VERTEX
  8
PLAN_1
  6
CONTINUOUS
 10
-0.404504
 20
-0.160858
  0
VERTEX
  8
PLAN_1
  6
CONTINUOUS
 10
-0.399965
 20
-0.162370
  0
VERTEX
  8
PLAN_1
  6
CONTINUOUS
 10
-0.395925
 20
-0.164390
  0
VERTEX
  8
PLAN_1
  6
CONTINUOUS
 10
-0.392898
 20
-0.166913
  0
VERTEX
  8
PLAN_1
  6
CONTINUOUS
 10
-0.389870
 20
-0.169941
  0
VERTEX
  8
PLAN_1
  6
CONTINUOUS
 10
-0.387850
 20
-0.173980
  0
VERTEX
  8
PLAN_1
  6
CONTINUOUS
 10
-0.386335
 20
-0.178020
  0
VERTEX
  8
PLAN_1
  6
CONTINUOUS
 10
-0.385831
 20
-0.182559
  0
VERTEX
  8
PLAN_1
  6
CONTINUOUS
 10
-0.386335
 20
-0.187102
  0
VERTEX
  8
PLAN_1
  6
CONTINUOUS
 10
-0.387346
 20
-0.191142
  0
VERTEX
  8
PLAN_1
  6
CONTINUOUS
 10
-0.389362
 20
-0.195177
  0
VERTEX
  8
PLAN_1
  6
CONTINUOUS
 10
-0.391886
 20
-0.198713
  0
VERTEX
  8
PLAN_1
  6
CONTINUOUS
 10
-0.395421
 20
-0.201236
  0
VERTEX
  8
PLAN_1
  6
CONTINUOUS
 10
-0.398953
 20
-0.203760
  0
VERTEX
  8
PLAN_1
  6
CONTINUOUS
 10
-0.402992
 20
-0.204768
  0
VERTEX
  8
PLAN_1
  6
CONTINUOUS
 10
-0.407535
 20
-0.205276
  0
VERTEX
  8
PLAN_1
  6
CONTINUOUS
 10
-0.412079
 20
-0.205276
  0
SEQEND
  8
0
  0
POLYLINE
  8
PLAN_1
  6
CONTINUOUS
 66
     1
 40
0.007063
 41
0.007063
  0
VERTEX
  8
PLAN_1
  6
CONTINUOUS
 10
-0.535232
 20
-0.183571
  0
VERTEX
  8
PLAN_1
  6
CONTINUOUS
 10
-0.954161
 20
-0.109374
  0
VERTEX
  8
PLAN_1
  6
CONTINUOUS
 10
-0.963244
 20
-0.107858
  0
SEQEND
  8
0
  0
POLYLINE
  8
PLAN_1
  6
CONTINUOUS
 66
     1
 40
0.007063
 41
0.007063
  0
VERTEX
  8
PLAN_1
  6
CONTINUOUS
 10
-0.963244
 20
-0.107858
  0
VERTEX
  8
PLAN_1
  6
CONTINUOUS
 10
-0.967787
 20
-0.106346
  0
VERTEX
  8
PLAN_1
  6
CONTINUOUS
 10
-0.971323
 20
-0.104327
  0
VERTEX
  8
PLAN_1
  6
CONTINUOUS
 10
-0.974854
 20
-0.101803
  0
VERTEX
  8
PLAN_1
  6
CONTINUOUS
 10
-0.977882
 20
-0.098776
  0
VERTEX
  8
PLAN_1
  6
CONTINUOUS
 10
-0.979902
 20
-0.094736
  0
VERTEX
  8
PLAN_1
  6
CONTINUOUS
 10
-0.980909
 20
-0.090701
  0
VERTEX
  8
PLAN_1
  6
CONTINUOUS
 10
-0.981921
 20
-0.086157
  0
VERTEX
  8
PLAN_1
  6
CONTINUOUS
 10
-0.981417
 20
-0.081614
  0
VERTEX
  8
PLAN_1
  6
CONTINUOUS
 10
-0.979902
 20
-0.077575
  0
VERTEX
  8
PLAN_1
  6
CONTINUOUS
 10
-0.977882
 20
-0.073539
  0
VERTEX
  8
PLAN_1
  6
CONTINUOUS
 10
-0.975358
 20
-0.070004
  0
VERTEX
  8
PLAN_1
  6
CONTINUOUS
 10
-0.972331
 20
-0.067480
  0
VERTEX
  8
PLAN_1
  6
CONTINUOUS
 10
-0.968291
 20
-0.064957
  0
VERTEX
  8
PLAN_1
  6
CONTINUOUS
 10
-0.964256
 20
-0.063949
  0
VERTEX
  8
PLAN_1
  6
CONTINUOUS
 10
-0.959713
 20
-0.063445
  0
VERTEX
  8
PLAN_1
  6
CONTINUOUS
 10
-0.955169
 20
-0.063445
  0
SEQEND
  8
0
  0
POLYLINE
  8
PLAN_1
  6
CONTINUOUS
 66
     1
 40
0.007063
 41
0.007063
  0
VERTEX
  8
PLAN_1
  6
CONTINUOUS
 10
-0.540783
 20
-0.378398
  0
VERTEX
  8
PLAN_1
  6
CONTINUOUS
 10
-0.954161
 20
-0.305213
  0
VERTEX
  8
PLAN_1
  6
CONTINUOUS
 10
-0.963244
 20
-0.303697
  0
SEQEND
  8
0
  0
POLYLINE
  8
PLAN_1
  6
CONTINUOUS
 66
     1
 40
0.007063
 41
0.007063
  0
VERTEX
  8
PLAN_1
  6
CONTINUOUS
 10
-0.963244
 20
-0.303697
  0
VERTEX
  8
PLAN_1
  6
CONTINUOUS
 10
-0.967787
 20
-0.302181
  0
VERTEX
  8
PLAN_1
  6
CONTINUOUS
 10
-0.971323
 20
-0.300165
  0
VERTEX
  8
PLAN_1
  6
CONTINUOUS
 10
-0.974854
 20
-0.297642
  0
VERTEX
  8
PLAN_1
  6
CONTINUOUS
 10
-0.977882
 20
-0.294106
  0
VERTEX
  8
PLAN_1
  6
CONTINUOUS
 10
-0.979902
 20
-0.290575
  0
VERTEX
  8
PLAN_1
  6
CONTINUOUS
 10
-0.981417
 20
-0.286535
  0
VERTEX
  8
PLAN_1
  6
CONTINUOUS
 10
-0.981921
 20
-0.281992
  0
VERTEX
  8
PLAN_1
  6
CONTINUOUS
 10
-0.981417
 20
-0.277449
  0
VERTEX
  8
PLAN_1
  6
CONTINUOUS
 10
-0.980406
 20
-0.272909
  0
VERTEX
  8
PLAN_1
  6
CONTINUOUS
 10
-0.978386
 20
-0.269374
  0
VERTEX
  8
PLAN_1
  6
CONTINUOUS
 10
-0.975358
 20
-0.265843
  0
VERTEX
  8
PLAN_1
  6
CONTINUOUS
 10
-0.972331
 20
-0.262815
  0
VERTEX
  8
PLAN_1
  6
CONTINUOUS
 10
-0.968291
 20
-0.260795
  0
VERTEX
  8
PLAN_1
  6
CONTINUOUS
 10
-0.964256
 20
-0.259280
  0
VERTEX
  8
PLAN_1
  6
CONTINUOUS
 10
-0.959713
 20
-0.258776
  0
VERTEX
  8
PLAN_1
  6
CONTINUOUS
 10
-0.955169
 20
-0.259280
  0
SEQEND
  8
0
  0
POLYLINE
  8
PLAN_1
  6
CONTINUOUS
 66
     1
 40
0.007063
 41
0.007063
  0
VERTEX
  8
PLAN_1
  6
CONTINUOUS
 10
-0.831004
 20
-0.281488
  0
VERTEX
  8
PLAN_1
  6
CONTINUOUS
 10
-0.418134
 20
-0.354169
  0
VERTEX
  8
PLAN_1
  6
CONTINUOUS
 10
-0.404504
 20
-0.356693
  0
SEQEND
  8
0
  0
POLYLINE
  8
PLAN_1
  6
CONTINUOUS
 66
     1
 40
0.007063
 41
0.007063
  0
VERTEX
  8
PLAN_1
  6
CONTINUOUS
 10
-0.404504
 20
-0.356693
  0
VERTEX
  8
PLAN_1
  6
CONTINUOUS
 10
-0.399965
 20
-0.357705
  0
VERTEX
  8
PLAN_1
  6
CONTINUOUS
 10
-0.395925
 20
-0.359720
  0
VERTEX
  8
PLAN_1
  6
CONTINUOUS
 10
-0.392898
 20
-0.362752
  0
VERTEX
  8
PLAN_1
  6
CONTINUOUS
 10
-0.389870
 20
-0.365780
  0
VERTEX
  8
PLAN_1
  6
CONTINUOUS
 10
-0.387850
 20
-0.369815
  0
VERTEX
  8
PLAN_1
  6
CONTINUOUS
 10
-0.386335
 20
-0.373854
  0
VERTEX
  8
PLAN_1
  6
CONTINUOUS
 10
-0.385831
 20
-0.378398
  0
VERTEX
  8
PLAN_1
  6
CONTINUOUS
 10
-0.386335
 20
-0.382941
  0
VERTEX
  8
PLAN_1
  6
CONTINUOUS
 10
-0.387346
 20
-0.386976
  0
VERTEX
  8
PLAN_1
  6
CONTINUOUS
 10
-0.389362
 20
-0.391016
  0
VERTEX
  8
PLAN_1
  6
CONTINUOUS
 10
-0.392394
 20
-0.394547
  0
VERTEX
  8
PLAN_1
  6
CONTINUOUS
 10
-0.395421
 20
-0.397071
  0
VERTEX
  8
PLAN_1
  6
CONTINUOUS
 10
-0.398953
 20
-0.399091
  0
VERTEX
  8
PLAN_1
  6
CONTINUOUS
 10
-0.403496
 20
-0.400606
  0
VERTEX
  8
PLAN_1
  6
CONTINUOUS
 10
-0.407535
 20
-0.401110
  0
VERTEX
  8
PLAN_1
  6
CONTINUOUS
 10
-0.412079
 20
-0.401110
  0
SEQEND
  8
0
  0
POLYLINE
  8
PLAN_1
  6
CONTINUOUS
 66
     1
 40
0.007063
 41
0.007063
  0
VERTEX
  8
PLAN_1
  6
CONTINUOUS
 10
-0.980406
 20
1.502744
  0
VERTEX
  8
PLAN_1
  6
CONTINUOUS
 10
-0.980406
 20
1.435614
  0
VERTEX
  8
PLAN_1
  6
CONTINUOUS
 10
-1.285264
 20
1.435614
  0
VERTEX
  8
PLAN_1
  6
CONTINUOUS
 10
-1.285264
 20
1.502744
  0
VERTEX
  8
PLAN_1
  6
CONTINUOUS
 10
-0.980406
 20
1.502744
  0
SEQEND
  8
0
  0
POLYLINE
  8
PLAN_1
  6
CONTINUOUS
 66
     1
 40
0.007063
 41
0.007063
  0
VERTEX
  8
PLAN_1
  6
CONTINUOUS
 10
-1.107094
 20
1.477004
  0
VERTEX
  8
PLAN_1
  6
CONTINUOUS
 10
-1.107094
 20
1.502744
  0
VERTEX
  8
PLAN_1
  6
CONTINUOUS
 10
-1.160594
 20
1.502744
  0
VERTEX
  8
PLAN_1
  6
CONTINUOUS
 10
-1.160594
 20
1.477004
  0
VERTEX
  8
PLAN_1
  6
CONTINUOUS
 10
-1.107094
 20
1.477004
  0
SEQEND
  8
0
  0
POLYLINE
  8
PLAN_1
  6
CONTINUOUS
 66
     1
 40
0.007063
 41
0.007063
  0
VERTEX
  8
PLAN_1
  6
CONTINUOUS
 10
-0.073402
 20
1.502744
  0
VERTEX
  8
PLAN_1
  6
CONTINUOUS
 10
-0.073402
 20
1.435614
  0
VERTEX
  8
PLAN_1
  6
CONTINUOUS
 10
-0.378260
 20
1.435614
  0
VERTEX
  8
PLAN_1
  6
CONTINUOUS
 10
-0.378260
 20
1.502744
  0
VERTEX
  8
PLAN_1
  6
CONTINUOUS
 10
-0.073402
 20
1.502744
  0
SEQEND
  8
0
  0
POLYLINE
  8
PLAN_1
  6
CONTINUOUS
 66
     1
 40
0.007063
 41
0.007063
  0
VERTEX
  8
PLAN_1
  6
CONTINUOUS
 10
-0.200091
 20
1.477004
  0
VERTEX
  8
PLAN_1
  6
CONTINUOUS
 10
-0.200091
 20
1.502744
  0
VERTEX
  8
PLAN_1
  6
CONTINUOUS
 10
-0.253591
 20
1.502744
  0
VERTEX
  8
PLAN_1
  6
CONTINUOUS
 10
-0.253591
 20
1.477004
  0
VERTEX
  8
PLAN_1
  6
CONTINUOUS
 10
-0.200091
 20
1.477004
  0
SEQEND
  8
0
  0
POLYLINE
  8
PLAN_1
  6
CONTINUOUS
 66
     1
 40
0.008075
 41
0.008075
  0
VERTEX
  8
PLAN_1
  6
CONTINUOUS
 10
-1.569933
 20
0.548799
  0
VERTEX
  8
PLAN_1
  6
CONTINUOUS
 10
-1.569933
 20
1.394732
  0
VERTEX
  8
PLAN_1
  6
CONTINUOUS
 10
-1.287283
 20
1.442681
  0
VERTEX
  8
PLAN_1
  6
CONTINUOUS
 10
-1.287283
 20
0.515484
  0
VERTEX
  8
PLAN_1
  6
CONTINUOUS
 10
-1.569933
 20
0.548799
  0
SEQEND
  8
0
  0
POLYLINE
  8
PLAN_1
  6
CONTINUOUS
 66
     1
 40
0.007063
 41
0.007063
  0
VERTEX
  8
PLAN_1
  6
CONTINUOUS
 10
-2.006528
 20
0.712331
  0
VERTEX
  8
PLAN_1
  6
CONTINUOUS
 10
-2.006528
 20
1.214539
  0
VERTEX
  8
PLAN_1
  6
CONTINUOUS
 10
-2.125142
 20
1.214539
  0
VERTEX
  8
PLAN_1
  6
CONTINUOUS
 10
-2.125142
 20
0.712331
  0
VERTEX
  8
PLAN_1
  6
CONTINUOUS
 10
-2.006528
 20
0.712331
  0
SEQEND
  8
0
  0
POLYLINE
  8
PLAN_1
  6
CONTINUOUS
 66
     1
 40
0.004035
 41
0.004035
  0
VERTEX
  8
PLAN_1
  6
CONTINUOUS
 10
-2.111008
 20
1.214539
  0
VERTEX
  8
PLAN_1
  6
CONTINUOUS
 10
-2.112524
 20
1.211512
  0
VERTEX
  8
PLAN_1
  6
CONTINUOUS
 10
-2.115551
 20
1.203437
  0
VERTEX
  8
PLAN_1
  6
CONTINUOUS
 10
-2.117571
 20
1.197382
  0
VERTEX
  8
PLAN_1
  6
CONTINUOUS
 10
-2.119591
 20
1.190315
  0
VERTEX
  8
PLAN_1
  6
CONTINUOUS
 10
-2.121610
 20
1.182744
  0
VERTEX
  8
PLAN_1
  6
CONTINUOUS
 10
-2.123626
 20
1.174161
  0
VERTEX
  8
PLAN_1
  6
CONTINUOUS
 10
-2.124638
 20
1.164571
  0
VERTEX
  8
PLAN_1
  6
CONTINUOUS
 10
-2.125142
 20
1.154476
  0
VERTEX
  8
PLAN_1
  6
CONTINUOUS
 10
-2.125142
 20
1.143878
  0
VERTEX
  8
PLAN_1
  6
CONTINUOUS
 10
-2.124134
 20
1.132776
  0
VERTEX
  8
PLAN_1
  6
CONTINUOUS
 10
-2.123122
 20
1.127220
  0
VERTEX
  8
PLAN_1
  6
CONTINUOUS
 10
-2.122114
 20
1.121165
  0
VERTEX
  8
PLAN_1
  6
CONTINUOUS
 10
-2.120598
 20
1.115614
  0
VERTEX
  8
PLAN_1
  6
CONTINUOUS
 10
-2.119087
 20
1.109555
  0
VERTEX
  8
PLAN_1
  6
CONTINUOUS
 10
-2.117067
 20
1.104004
  0
VERTEX
  8
PLAN_1
  6
CONTINUOUS
 10
-2.114543
 20
1.097949
  0
VERTEX
  8
PLAN_1
  6
CONTINUOUS
 10
-2.111512
 20
1.091890
  0
VERTEX
  8
PLAN_1
  6
CONTINUOUS
 10
-2.108484
 20
1.085835
  0
VERTEX
  8
PLAN_1
  6
CONTINUOUS
 10
-2.110000
 20
1.081291
  0
VERTEX
  8
PLAN_1
  6
CONTINUOUS
 10
-2.113531
 20
1.068169
  0
VERTEX
  8
PLAN_1
  6
CONTINUOUS
 10
-2.115551
 20
1.058579
  0
VERTEX
  8
PLAN_1
  6
CONTINUOUS
 10
-2.118075
 20
1.046969
  0
VERTEX
  8
PLAN_1
  6
CONTINUOUS
 10
-2.120094
 20
1.033343
  0
VERTEX
  8
PLAN_1
  6
CONTINUOUS
 10
-2.122114
 20
1.018201
  0
VERTEX
  8
PLAN_1
  6
CONTINUOUS
 10
-2.124134
 20
1.001039
  0
VERTEX
  8
PLAN_1
  6
CONTINUOUS
 10
-2.125142
 20
0.982362
  0
VERTEX
  8
PLAN_1
  6
CONTINUOUS
 10
-2.125142
 20
0.962173
  0
VERTEX
  8
PLAN_1
  6
CONTINUOUS
 10
-2.125142
 20
0.940472
  0
VERTEX
  8
PLAN_1
  6
CONTINUOUS
 10
-2.124134
 20
0.929366
  0
VERTEX
  8
PLAN_1
  6
CONTINUOUS
 10
-2.123626
 20
0.917252
  0
VERTEX
  8
PLAN_1
  6
CONTINUOUS
 10
-2.122114
 20
0.905138
  0
VERTEX
  8
PLAN_1
  6
CONTINUOUS
 10
-2.120598
 20
0.893028
  0
VERTEX
  8
PLAN_1
  6
CONTINUOUS
 10
-2.119087
 20
0.879902
  0
VERTEX
  8
PLAN_1
  6
CONTINUOUS
 10
-2.117067
 20
0.867283
  0
VERTEX
  8
PLAN_1
  6
CONTINUOUS
 10
-2.114543
 20
0.853657
  0
VERTEX
  8
PLAN_1
  6
CONTINUOUS
 10
-2.111512
 20
0.840028
  0
VERTEX
  8
PLAN_1
  6
CONTINUOUS
 10
-2.113028
 20
0.837000
  0
VERTEX
  8
PLAN_1
  6
CONTINUOUS
 10
-2.116055
 20
0.829429
  0
VERTEX
  8
PLAN_1
  6
CONTINUOUS
 10
-2.118075
 20
0.823374
  0
VERTEX
  8
PLAN_1
  6
CONTINUOUS
 10
-2.120094
 20
0.816811
  0
VERTEX
  8
PLAN_1
  6
CONTINUOUS
 10
-2.122114
 20
0.809240
  0
VERTEX
  8
PLAN_1
  6
CONTINUOUS
 10
-2.123626
 20
0.800661
  0
VERTEX
  8
PLAN_1
  6
CONTINUOUS
 10
-2.125142
 20
0.791071
  0
VERTEX
  8
PLAN_1
  6
CONTINUOUS
 10
-2.125646
 20
0.781480
  0
VERTEX
  8
PLAN_1
  6
CONTINUOUS
 10
-2.125646
 20
0.770882
  0
VERTEX
  8
PLAN_1
  6
CONTINUOUS
 10
-2.124638
 20
0.759776
  0
VERTEX
  8
PLAN_1
  6
CONTINUOUS
 10
-2.123626
 20
0.754224
  0
VERTEX
  8
PLAN_1
  6
CONTINUOUS
 10
-2.122618
 20
0.748673
  0
VERTEX
  8
PLAN_1
  6
CONTINUOUS
 10
-2.121102
 20
0.743122
  0
VERTEX
  8
PLAN_1
  6
CONTINUOUS
 10
-2.119591
 20
0.737063
  0
VERTEX
  8
PLAN_1
  6
CONTINUOUS
 10
-2.117067
 20
0.731008
  0
VERTEX
  8
PLAN_1
  6
CONTINUOUS
 10
-2.115047
 20
0.725453
  0
VERTEX
  8
PLAN_1
  6
CONTINUOUS
 10
-2.112020
 20
0.719398
  0
VERTEX
  8
PLAN_1
  6
CONTINUOUS
 10
-2.108988
 20
0.713343
  0
SEQEND
  8
0
  0
POLYLINE
  8
PLAN_1
  6
CONTINUOUS
 66
     1
 40
0.007063
 41
0.007063
  0
VERTEX
  8
PLAN_1
  6
CONTINUOUS
 10
-2.180661
 20
1.104508
  0
VERTEX
  8
PLAN_1
  6
CONTINUOUS
 10
-2.180661
 20
0.819335
  0
SEQEND
  8
0
  0
POLYLINE
  8
PLAN_1
  6
CONTINUOUS
 66
     1
 40
0.007063
 41
0.007063
  0
VERTEX
  8
PLAN_1
  6
CONTINUOUS
 10
-2.190756
 20
0.829429
  0
VERTEX
  8
PLAN_1
  6
CONTINUOUS
 10
-2.190756
 20
1.093406
  0
VERTEX
  8
PLAN_1
  6
CONTINUOUS
 10
-2.180661
 20
1.104508
  0
VERTEX
  8
PLAN_1
  6
CONTINUOUS
 10
-2.125646
 20
1.104508
  0
VERTEX
  8
PLAN_1
  6
CONTINUOUS
 10
-2.125646
 20
0.819335
  0
VERTEX
  8
PLAN_1
  6
CONTINUOUS
 10
-2.180661
 20
0.819335
  0
VERTEX
  8
PLAN_1
  6
CONTINUOUS
 10
-2.190756
 20
0.829429
  0
SEQEND
  8
0
  0
POLYLINE
  8
PLAN_1
  6
CONTINUOUS
 66
     1
 40
0.008075
 41
0.008075
  0
VERTEX
  8
PLAN_1
  6
CONTINUOUS
 10
-1.772335
 20
3.399531
  0
VERTEX
  8
PLAN_1
  6
CONTINUOUS
 10
-1.772335
 20
-0.398083
  0
VERTEX
  8
PLAN_1
  6
CONTINUOUS
 10
-1.851575
 20
-0.398083
  0
VERTEX
  8
PLAN_1
  6
CONTINUOUS
 10
-1.851575
 20
3.399531
  0
VERTEX
  8
PLAN_1
  6
CONTINUOUS
 10
-1.772335
 20
3.399531
  0
SEQEND
  8
0
  0
POLYLINE
  8
PLAN_1
  6
CONTINUOUS
 66
     1
 40
0.008075
 41
0.008075
  0
VERTEX
  8
PLAN_1
  6
CONTINUOUS
 10
-1.927791
 20
2.753976
  0
VERTEX
  8
PLAN_1
  6
CONTINUOUS
 10
-1.927791
 20
3.623130
  0
VERTEX
  8
PLAN_1
  6
CONTINUOUS
 10
-2.117067
 20
3.623130
  0
VERTEX
  8
PLAN_1
  6
CONTINUOUS
 10
-2.117067
 20
2.753976
  0
VERTEX
  8
PLAN_1
  6
CONTINUOUS
 10
-1.927791
 20
2.753976
  0
SEQEND
  8
0
  0
POLYLINE
  8
PLAN_1
  6
CONTINUOUS
 66
     1
 40
0.007063
 41
0.007063
  0
VERTEX
  8
PLAN_1
  6
CONTINUOUS
 10
-2.150378
 20
2.942748
  0
VERTEX
  8
PLAN_1
  6
CONTINUOUS
 10
-2.150378
 20
3.424768
  0
VERTEX
  8
PLAN_1
  6
CONTINUOUS
 10
-2.264449
 20
3.424768
  0
VERTEX
  8
PLAN_1
  6
CONTINUOUS
 10
-2.264449
 20
2.942748
  0
VERTEX
  8
PLAN_1
  6
CONTINUOUS
 10
-2.150378
 20
2.942748
  0
SEQEND
  8
0
  0
POLYLINE
  8
PLAN_1
  6
CONTINUOUS
 66
     1
 40
0.007063
 41
0.007063
  0
VERTEX
  8
PLAN_1
  6
CONTINUOUS
 10
-2.150882
 20
2.983126
  0
VERTEX
  8
PLAN_1
  6
CONTINUOUS
 10
-2.150882
 20
3.390445
  0
VERTEX
  8
PLAN_1
  6
CONTINUOUS
 10
-2.120094
 20
3.390445
  0
VERTEX
  8
PLAN_1
  6
CONTINUOUS
 10
-2.120094
 20
2.983126
  0
VERTEX
  8
PLAN_1
  6
CONTINUOUS
 10
-2.150882
 20
2.983126
  0
SEQEND
  8
0
  0
POLYLINE
  8
PLAN_1
  6
CONTINUOUS
 66
     1
 40
0.008075
 41
0.008075
  0
VERTEX
  8
PLAN_1
  6
CONTINUOUS
 10
-1.927791
 20
2.982118
  0
VERTEX
  8
PLAN_1
  6
CONTINUOUS
 10
-1.927791
 20
3.389437
  0
VERTEX
  8
PLAN_1
  6
CONTINUOUS
 10
-1.851575
 20
3.389437
  0
VERTEX
  8
PLAN_1
  6
CONTINUOUS
 10
-1.851575
 20
2.982118
  0
VERTEX
  8
PLAN_1
  6
CONTINUOUS
 10
-1.927791
 20
2.982118
  0
SEQEND
  8
0
  0
POLYLINE
  8
PLAN_1
  6
CONTINUOUS
 66
     1
 40
0.004035
 41
0.004035
  0
VERTEX
  8
PLAN_1
  6
CONTINUOUS
 10
-2.250819
 20
3.424264
  0
VERTEX
  8
PLAN_1
  6
CONTINUOUS
 10
-2.252335
 20
3.421740
  0
VERTEX
  8
PLAN_1
  6
CONTINUOUS
 10
-2.255362
 20
3.413665
  0
VERTEX
  8
PLAN_1
  6
CONTINUOUS
 10
-2.257382
 20
3.408110
  0
VERTEX
  8
PLAN_1
  6
CONTINUOUS
 10
-2.259402
 20
3.401551
  0
VERTEX
  8
PLAN_1
  6
CONTINUOUS
 10
-2.260913
 20
3.393980
  0
VERTEX
  8
PLAN_1
  6
CONTINUOUS
 10
-2.262933
 20
3.385906
  0
VERTEX
  8
PLAN_1
  6
CONTINUOUS
 10
-2.263945
 20
3.376819
  0
VERTEX
  8
PLAN_1
  6
CONTINUOUS
 10
-2.264449
 20
3.366724
  0
VERTEX
  8
PLAN_1
  6
CONTINUOUS
 10
-2.264449
 20
3.356630
  0
VERTEX
  8
PLAN_1
  6
CONTINUOUS
 10
-2.263437
 20
3.346031
  0
VERTEX
  8
PLAN_1
  6
CONTINUOUS
 10
-2.262429
 20
3.340984
  0
VERTEX
  8
PLAN_1
  6
CONTINUOUS
 10
-2.261421
 20
3.335429
  0
VERTEX
  8
PLAN_1
  6
CONTINUOUS
 10
-2.260409
 20
3.329878
  0
VERTEX
  8
PLAN_1
  6
CONTINUOUS
 10
-2.258390
 20
3.323823
  0
VERTEX
  8
PLAN_1
  6
CONTINUOUS
 10
-2.256374
 20
3.318268
  0
VERTEX
  8
PLAN_1
  6
CONTINUOUS
 10
-2.254354
 20
3.312717
  0
VERTEX
  8
PLAN_1
  6
CONTINUOUS
 10
-2.251327
 20
3.307165
  0
VERTEX
  8
PLAN_1
  6
CONTINUOUS
 10
-2.248295
 20
3.301110
  0
VERTEX
  8
PLAN_1
  6
CONTINUOUS
 10
-2.249811
 20
3.297071
  0
VERTEX
  8
PLAN_1
  6
CONTINUOUS
 10
-2.253343
 20
3.284453
  0
VERTEX
  8
PLAN_1
  6
CONTINUOUS
 10
-2.255362
 20
3.274862
  0
VERTEX
  8
PLAN_1
  6
CONTINUOUS
 10
-2.257382
 20
3.263760
  0
VERTEX
  8
PLAN_1
  6
CONTINUOUS
 10
-2.259906
 20
3.250634
  0
VERTEX
  8
PLAN_1
  6
CONTINUOUS
 10
-2.261925
 20
3.235996
  0
VERTEX
  8
PLAN_1
  6
CONTINUOUS
 10
-2.263437
 20
3.219846
  0
VERTEX
  8
PLAN_1
  6
CONTINUOUS
 10
-2.264449
 20
3.202181
  0
VERTEX
  8
PLAN_1
  6
CONTINUOUS
 10
-2.264449
 20
3.182496
  0
VERTEX
  8
PLAN_1
  6
CONTINUOUS
 10
-2.263945
 20
3.161803
  0
VERTEX
  8
PLAN_1
  6
CONTINUOUS
 10
-2.262933
 20
3.139594
  0
VERTEX
  8
PLAN_1
  6
CONTINUOUS
 10
-2.260409
 20
3.115870
  0
VERTEX
  8
PLAN_1
  6
CONTINUOUS
 10
-2.258390
 20
3.103756
  0
VERTEX
  8
PLAN_1
  6
CONTINUOUS
 10
-2.256374
 20
3.091138
  0
VERTEX
  8
PLAN_1
  6
CONTINUOUS
 10
-2.253850
 20
3.078520
  0
VERTEX
  8
PLAN_1
  6
CONTINUOUS
 10
-2.251327
 20
3.065398
  0
VERTEX
  8
PLAN_1
  6
CONTINUOUS
 10
-2.252839
 20
3.062370
  0
VERTEX
  8
PLAN_1
  6
CONTINUOUS
 10
-2.255866
 20
3.054799
  0
VERTEX
  8
PLAN_1
  6
CONTINUOUS
 10
-2.257886
 20
3.049248
  0
VERTEX
  8
PLAN_1
  6
CONTINUOUS
 10
-2.259906
 20
3.042685
  0
VERTEX
  8
PLAN_1
  6
CONTINUOUS
 10
-2.261421
 20
3.035618
  0
VERTEX
  8
PLAN_1
  6
CONTINUOUS
 10
-2.262933
 20
3.027543
  0
VERTEX
  8
PLAN_1
  6
CONTINUOUS
 10
-2.264449
 20
3.018457
  0
VERTEX
  8
PLAN_1
  6
CONTINUOUS
 10
-2.264953
 20
3.008866
  0
VERTEX
  8
PLAN_1
  6
CONTINUOUS
 10
-2.264953
 20
2.998772
  0
VERTEX
  8
PLAN_1
  6
CONTINUOUS
 10
-2.263945
 20
2.988173
  0
VERTEX
  8
PLAN_1
  6
CONTINUOUS
 10
-2.262933
 20
2.983126
  0
VERTEX
  8
PLAN_1
  6
CONTINUOUS
 10
-2.261925
 20
2.977575
  0
VERTEX
  8
PLAN_1
  6
CONTINUOUS
 10
-2.260409
 20
2.972024
  0
VERTEX
  8
PLAN_1
  6
CONTINUOUS
 10
-2.258898
 20
2.966469
  0
VERTEX
  8
PLAN_1
  6
CONTINUOUS
 10
-2.256878
 20
2.960917
  0
VERTEX
  8
PLAN_1
  6
CONTINUOUS
 10
-2.254354
 20
2.955366
  0
VERTEX
  8
PLAN_1
  6
CONTINUOUS
 10
-2.251831
 20
2.949311
  0
VERTEX
  8
PLAN_1
  6
CONTINUOUS
 10
-2.248803
 20
2.943756
  0
SEQEND
  8
0
  0
POLYLINE
  8
PLAN_1
  6
CONTINUOUS
 66
     1
 40
0.004035
 41
0.004035
  0
VERTEX
  8
PLAN_1
  6
CONTINUOUS
 10
-1.465457
 20
2.984642
  0
VERTEX
  8
PLAN_1
  6
CONTINUOUS
 10
-1.465457
 20
2.947291
  0
VERTEX
  8
PLAN_1
  6
CONTINUOUS
 10
-1.351386
 20
2.947291
  0
VERTEX
  8
PLAN_1
  6
CONTINUOUS
 10
-1.351386
 20
3.429815
  0
VERTEX
  8
PLAN_1
  6
CONTINUOUS
 10
-1.465457
 20
3.429815
  0
VERTEX
  8
PLAN_1
  6
CONTINUOUS
 10
-1.465457
 20
3.391961
  0
VERTEX
  8
PLAN_1
  6
CONTINUOUS
 10
-1.465961
 20
3.392969
  0
VERTEX
  8
PLAN_1
  6
CONTINUOUS
 10
-1.499272
 20
3.392969
  0
VERTEX
  8
PLAN_1
  6
CONTINUOUS
 10
-1.499272
 20
3.391961
  0
VERTEX
  8
PLAN_1
  6
CONTINUOUS
 10
-1.499272
 20
3.624642
  0
VERTEX
  8
PLAN_1
  6
CONTINUOUS
 10
-1.688547
 20
3.624642
  0
VERTEX
  8
PLAN_1
  6
CONTINUOUS
 10
-1.688547
 20
2.755492
  0
VERTEX
  8
PLAN_1
  6
CONTINUOUS
 10
-1.499272
 20
2.755492
  0
VERTEX
  8
PLAN_1
  6
CONTINUOUS
 10
-1.499272
 20
2.984642
  0
VERTEX
  8
PLAN_1
  6
CONTINUOUS
 10
-1.499272
 20
2.985650
  0
VERTEX
  8
PLAN_1
  6
CONTINUOUS
 10
-1.465961
 20
2.985650
  0
VERTEX
  8
PLAN_1
  6
CONTINUOUS
 10
-1.465457
 20
2.984642
  0
SEQEND
  8
0
  0
POLYLINE
  8
PLAN_1
  6
CONTINUOUS
 66
     1
 40
0.007063
 41
0.007063
  0
VERTEX
  8
PLAN_1
  6
CONTINUOUS
 10
-1.691575
 20
3.020476
  0
VERTEX
  8
PLAN_1
  6
CONTINUOUS
 10
-1.691575
 20
3.357638
  0
VERTEX
  8
PLAN_1
  6
CONTINUOUS
 10
-1.771323
 20
3.357638
  0
VERTEX
  8
PLAN_1
  6
CONTINUOUS
 10
-1.771323
 20
3.020476
  0
VERTEX
  8
PLAN_1
  6
CONTINUOUS
 10
-1.691575
 20
3.020476
  0
SEQEND
  8
0
  0
POLYLINE
  8
PLAN_1
  6
CONTINUOUS
 66
     1
 40
0.004035
 41
0.004035
  0
VERTEX
  8
PLAN_1
  6
CONTINUOUS
 10
-1.761732
 20
3.357638
  0
VERTEX
  8
PLAN_1
  6
CONTINUOUS
 10
-1.762744
 20
3.355618
  0
VERTEX
  8
PLAN_1
  6
CONTINUOUS
 10
-1.764764
 20
3.350067
  0
VERTEX
  8
PLAN_1
  6
CONTINUOUS
 10
-1.767287
 20
3.341488
  0
VERTEX
  8
PLAN_1
  6
CONTINUOUS
 10
-1.769811
 20
3.330382
  0
VERTEX
  8
PLAN_1
  6
CONTINUOUS
 10
-1.770819
 20
3.323823
  0
VERTEX
  8
PLAN_1
  6
CONTINUOUS
 10
-1.771323
 20
3.317260
  0
VERTEX
  8
PLAN_1
  6
CONTINUOUS
 10
-1.771323
 20
3.309689
  0
VERTEX
  8
PLAN_1
  6
CONTINUOUS
 10
-1.770819
 20
3.302118
  0
VERTEX
  8
PLAN_1
  6
CONTINUOUS
 10
-1.769811
 20
3.294547
  0
VERTEX
  8
PLAN_1
  6
CONTINUOUS
 10
-1.767791
 20
3.286472
  0
VERTEX
  8
PLAN_1
  6
CONTINUOUS
 10
-1.765268
 20
3.278394
  0
VERTEX
  8
PLAN_1
  6
CONTINUOUS
 10
-1.761732
 20
3.270319
  0
VERTEX
  8
PLAN_1
  6
CONTINUOUS
 10
-1.762744
 20
3.266787
  0
VERTEX
  8
PLAN_1
  6
CONTINUOUS
 10
-1.764764
 20
3.257197
  0
VERTEX
  8
PLAN_1
  6
CONTINUOUS
 10
-1.767287
 20
3.241551
  0
VERTEX
  8
PLAN_1
  6
CONTINUOUS
 10
-1.769811
 20
3.221362
  0
VERTEX
  8
PLAN_1
  6
CONTINUOUS
 10
-1.770315
 20
3.209752
  0
VERTEX
  8
PLAN_1
  6
CONTINUOUS
 10
-1.770819
 20
3.197134
  0
VERTEX
  8
PLAN_1
  6
CONTINUOUS
 10
-1.770819
 20
3.183504
  0
VERTEX
  8
PLAN_1
  6
CONTINUOUS
 10
-1.770315
 20
3.169374
  0
VERTEX
  8
PLAN_1
  6
CONTINUOUS
 10
-1.769303
 20
3.154736
  0
VERTEX
  8
PLAN_1
  6
CONTINUOUS
 10
-1.767287
 20
3.139594
  0
VERTEX
  8
PLAN_1
  6
CONTINUOUS
 10
-1.764764
 20
3.123949
  0
VERTEX
  8
PLAN_1
  6
CONTINUOUS
 10
-1.761228
 20
3.107795
  0
VERTEX
  8
PLAN_1
  6
CONTINUOUS
 10
-1.762240
 20
3.105776
  0
VERTEX
  8
PLAN_1
  6
CONTINUOUS
 10
-1.764256
 20
3.100224
  0
VERTEX
  8
PLAN_1
  6
CONTINUOUS
 10
-1.766780
 20
3.091646
  0
VERTEX
  8
PLAN_1
  6
CONTINUOUS
 10
-1.769303
 20
3.080539
  0
VERTEX
  8
PLAN_1
  6
CONTINUOUS
 10
-1.770315
 20
3.073980
  0
VERTEX
  8
PLAN_1
  6
CONTINUOUS
 10
-1.770819
 20
3.066913
  0
VERTEX
  8
PLAN_1
  6
CONTINUOUS
 10
-1.770819
 20
3.059846
  0
VERTEX
  8
PLAN_1
  6
CONTINUOUS
 10
-1.770315
 20
3.052276
  0
VERTEX
  8
PLAN_1
  6
CONTINUOUS
 10
-1.769303
 20
3.044705
  0
VERTEX
  8
PLAN_1
  6
CONTINUOUS
 10
-1.767287
 20
3.036630
  0
VERTEX
  8
PLAN_1
  6
CONTINUOUS
 10
-1.764764
 20
3.028551
  0
VERTEX
  8
PLAN_1
  6
CONTINUOUS
 10
-1.761228
 20
3.020476
  0
SEQEND
  8
0
  0
POLYLINE
  8
PLAN_1
  6
CONTINUOUS
 66
     1
 40
0.004035
 41
0.004035
  0
VERTEX
  8
PLAN_1
  6
CONTINUOUS
 10
-1.701165
 20
3.021484
  0
VERTEX
  8
PLAN_1
  6
CONTINUOUS
 10
-1.700661
 20
3.023504
  0
VERTEX
  8
PLAN_1
  6
CONTINUOUS
 10
-1.698642
 20
3.029059
  0
VERTEX
  8
PLAN_1
  6
CONTINUOUS
 10
-1.695614
 20
3.037638
  0
VERTEX
  8
PLAN_1
  6
CONTINUOUS
 10
-1.693594
 20
3.048740
  0
VERTEX
  8
PLAN_1
  6
CONTINUOUS
 10
-1.692587
 20
3.055303
  0
VERTEX
  8
PLAN_1
  6
CONTINUOUS
 10
-1.692079
 20
3.061866
  0
VERTEX
  8
PLAN_1
  6
CONTINUOUS
 10
-1.692079
 20
3.069437
  0
VERTEX
  8
PLAN_1
  6
CONTINUOUS
 10
-1.692587
 20
3.076504
  0
VERTEX
  8
PLAN_1
  6
CONTINUOUS
 10
-1.693594
 20
3.084579
  0
VERTEX
  8
PLAN_1
  6
CONTINUOUS
 10
-1.695110
 20
3.092654
  0
VERTEX
  8
PLAN_1
  6
CONTINUOUS
 10
-1.698138
 20
3.100728
  0
VERTEX
  8
PLAN_1
  6
CONTINUOUS
 10
-1.701165
 20
3.108803
  0
SEQEND
  8
0
  0
POLYLINE
  8
PLAN_1
  6
CONTINUOUS
 66
     1
 40
0.004035
 41
0.004035
  0
VERTEX
  8
PLAN_1
  6
CONTINUOUS
 10
-1.700661
 20
3.270319
  0
VERTEX
  8
PLAN_1
  6
CONTINUOUS
 10
-1.699650
 20
3.272339
  0
VERTEX
  8
PLAN_1
  6
CONTINUOUS
 10
-1.697634
 20
3.277890
  0
VERTEX
  8
PLAN_1
  6
CONTINUOUS
 10
-1.695110
 20
3.286472
  0
VERTEX
  8
PLAN_1
  6
CONTINUOUS
 10
-1.692587
 20
3.297575
  0
VERTEX
  8
PLAN_1
  6
CONTINUOUS
 10
-1.691575
 20
3.304138
  0
VERTEX
  8
PLAN_1
  6
CONTINUOUS
 10
-1.691071
 20
3.310697
  0
VERTEX
  8
PLAN_1
  6
CONTINUOUS
 10
-1.691071
 20
3.318268
  0
VERTEX
  8
PLAN_1
  6
CONTINUOUS
 10
-1.691575
 20
3.325839
  0
VERTEX
  8
PLAN_1
  6
CONTINUOUS
 10
-1.692587
 20
3.333409
  0
VERTEX
  8
PLAN_1
  6
CONTINUOUS
 10
-1.694602
 20
3.341488
  0
VERTEX
  8
PLAN_1
  6
CONTINUOUS
 10
-1.697126
 20
3.349563
  0
VERTEX
  8
PLAN_1
  6
CONTINUOUS
 10
-1.700661
 20
3.357638
  0
SEQEND
  8
0
  0
POLYLINE
  8
PLAN_1
  6
CONTINUOUS
 66
     1
 40
0.004035
 41
0.004035
  0
VERTEX
  8
PLAN_1
  6
CONTINUOUS
 10
-1.700661
 20
3.108803
  0
VERTEX
  8
PLAN_1
  6
CONTINUOUS
 10
-1.700157
 20
3.111835
  0
VERTEX
  8
PLAN_1
  6
CONTINUOUS
 10
-1.698138
 20
3.121929
  0
VERTEX
  8
PLAN_1
  6
CONTINUOUS
 10
-1.695110
 20
3.137071
  0
VERTEX
  8
PLAN_1
  6
CONTINUOUS
 10
-1.693091
 20
3.157260
  0
VERTEX
  8
PLAN_1
  6
CONTINUOUS
 10
-1.692079
 20
3.169374
  0
VERTEX
  8
PLAN_1
  6
CONTINUOUS
 10
-1.691575
 20
3.181488
  0
VERTEX
  8
PLAN_1
  6
CONTINUOUS
 10
-1.691575
 20
3.195114
  0
VERTEX
  8
PLAN_1
  6
CONTINUOUS
 10
-1.692079
 20
3.209248
  0
VERTEX
  8
PLAN_1
  6
CONTINUOUS
 10
-1.693091
 20
3.223886
  0
VERTEX
  8
PLAN_1
  6
CONTINUOUS
 10
-1.695110
 20
3.239531
  0
VERTEX
  8
PLAN_1
  6
CONTINUOUS
 10
-1.697634
 20
3.255177
  0
VERTEX
  8
PLAN_1
  6
CONTINUOUS
 10
-1.701165
 20
3.271331
  0
SEQEND
  8
0
  0
POLYLINE
  8
PLAN_1
  6
CONTINUOUS
 66
     1
 40
0.007063
 41
0.007063
  0
VERTEX
  8
PLAN_1
  6
CONTINUOUS
 10
-1.755173
 20
3.269815
  0
VERTEX
  8
PLAN_1
  6
CONTINUOUS
 10
-1.704697
 20
3.269815
  0
SEQEND
  8
0
  0
POLYLINE
  8
PLAN_1
  6
CONTINUOUS
 66
     1
 40
0.007063
 41
0.007063
  0
VERTEX
  8
PLAN_1
  6
CONTINUOUS
 10
-1.755173
 20
3.108803
  0
VERTEX
  8
PLAN_1
  6
CONTINUOUS
 10
-1.707728
 20
3.108803
  0
SEQEND
  8
0
  0
POLYLINE
  8
PLAN_1
  6
CONTINUOUS
 66
     1
 40
0.008075
 41
0.008075
  0
VERTEX
  8
PLAN_1
  6
CONTINUOUS
 10
-1.692587
 20
1.443185
  0
VERTEX
  8
PLAN_1
  6
CONTINUOUS
 10
-1.692587
 20
1.446213
  0
VERTEX
  8
PLAN_1
  6
CONTINUOUS
 10
-1.692587
 20
1.448736
  0
VERTEX
  8
PLAN_1
  6
CONTINUOUS
 10
-1.692587
 20
1.451260
  0
VERTEX
  8
PLAN_1
  6
CONTINUOUS
 10
-1.692587
 20
1.453280
  0
VERTEX
  8
PLAN_1
  6
CONTINUOUS
 10
-1.693091
 20
1.454795
  0
VERTEX
  8
PLAN_1
  6
CONTINUOUS
 10
-1.693091
 20
1.455803
  0
VERTEX
  8
PLAN_1
  6
CONTINUOUS
 10
-1.693594
 20
1.456815
  0
VERTEX
  8
PLAN_1
  6
CONTINUOUS
 10
-1.693594
 20
1.457319
  0
VERTEX
  8
PLAN_1
  6
CONTINUOUS
 10
-1.699146
 20
1.457319
  0
VERTEX
  8
PLAN_1
  6
CONTINUOUS
 10
-1.708736
 20
1.457319
  0
VERTEX
  8
PLAN_1
  6
CONTINUOUS
 10
-1.721354
 20
1.457319
  0
VERTEX
  8
PLAN_1
  6
CONTINUOUS
 10
-1.735488
 20
1.457319
  0
VERTEX
  8
PLAN_1
  6
CONTINUOUS
 10
-1.749114
 20
1.457319
  0
VERTEX
  8
PLAN_1
  6
CONTINUOUS
 10
-1.760724
 20
1.457319
  0
VERTEX
  8
PLAN_1
  6
CONTINUOUS
 10
-1.768799
 20
1.457319
  0
VERTEX
  8
PLAN_1
  6
CONTINUOUS
 10
-1.771827
 20
1.457319
  0
SEQEND
  8
0
  0
POLYLINE
  8
PLAN_1
  6
CONTINUOUS
 66
     1
 40
0.008075
 41
0.008075
  0
VERTEX
  8
PLAN_1
  6
CONTINUOUS
 10
-1.771827
 20
1.457319
  0
VERTEX
  8
PLAN_1
  6
CONTINUOUS
 10
-1.771827
 20
0.467031
  0
VERTEX
  8
PLAN_1
  6
CONTINUOUS
 10
-1.692587
 20
0.467031
  0
SEQEND
  8
0
  0
POLYLINE
  8
PLAN_1
  6
CONTINUOUS
 66
     1
 40
0.008075
 41
0.008075
  0
VERTEX
  8
PLAN_1
  6
CONTINUOUS
 10
-1.692587
 20
0.467031
  0
VERTEX
  8
PLAN_1
  6
CONTINUOUS
 10
-1.692587
 20
0.503878
  0
VERTEX
  8
PLAN_1
  6
CONTINUOUS
 10
-1.692587
 20
0.602299
  0
VERTEX
  8
PLAN_1
  6
CONTINUOUS
 10
-1.693091
 20
0.744130
  0
VERTEX
  8
PLAN_1
  6
CONTINUOUS
 10
-1.693091
 20
0.910185
  0
VERTEX
  8
PLAN_1
  6
CONTINUOUS
 10
-1.693091
 20
1.081795
  0
VERTEX
  8
PLAN_1
  6
CONTINUOUS
 10
-1.693091
 20
1.240283
  0
VERTEX
  8
PLAN_1
  6
CONTINUOUS
 10
-1.693091
 20
1.366972
  0
VERTEX
  8
PLAN_1
  6
CONTINUOUS
 10
-1.692587
 20
1.443185
  0
SEQEND
  8
0
  0
POLYLINE
  8
PLAN_1
  6
CONTINUOUS
 66
     1
 40
0.008075
 41
0.008075
  0
VERTEX
  8
PLAN_1
  6
CONTINUOUS
 10
-2.239213
 20
1.389685
  0
VERTEX
  8
PLAN_1
  6
CONTINUOUS
 10
-2.239213
 20
1.453280
  0
VERTEX
  8
PLAN_1
  6
CONTINUOUS
 10
-1.851071
 20
1.453280
  0
VERTEX
  8
PLAN_1
  6
CONTINUOUS
 10
-1.851071
 20
1.389685
  0
VERTEX
  8
PLAN_1
  6
CONTINUOUS
 10
-2.239213
 20
1.389685
  0
SEQEND
  8
0
  0
POLYLINE
  8
PLAN_1
  6
CONTINUOUS
 66
     1
 40
0.008075
 41
0.008075
  0
VERTEX
  8
PLAN_1
  6
CONTINUOUS
 10
-1.569933
 20
0.573531
  0
VERTEX
  8
PLAN_1
  6
CONTINUOUS
 10
-1.569933
 20
1.350315
  0
VERTEX
  8
PLAN_1
  6
CONTINUOUS
 10
-1.692587
 20
1.350315
  0
VERTEX
  8
PLAN_1
  6
CONTINUOUS
 10
-1.692587
 20
0.573531
  0
VERTEX
  8
PLAN_1
  6
CONTINUOUS
 10
-1.569933
 20
0.573531
  0
SEQEND
  8
0
  0
POLYLINE
  8
PLAN_1
  6
CONTINUOUS
 66
     1
 40
0.008075
 41
0.008075
  0
VERTEX
  8
PLAN_1
  6
CONTINUOUS
 10
-1.938390
 20
0.557882
  0
VERTEX
  8
PLAN_1
  6
CONTINUOUS
 10
-1.938390
 20
1.365961
  0
VERTEX
  8
PLAN_1
  6
CONTINUOUS
 10
-1.851071
 20
1.365961
  0
VERTEX
  8
PLAN_1
  6
CONTINUOUS
 10
-1.851071
 20
0.557882
  0
VERTEX
  8
PLAN_1
  6
CONTINUOUS
 10
-1.938390
 20
0.557882
  0
SEQEND
  8
0
  0
POLYLINE
  8
PLAN_1
  6
CONTINUOUS
 66
     1
 40
0.008075
 41
0.008075
  0
VERTEX
  8
PLAN_1
  6
CONTINUOUS
 10
-1.938390
 20
0.597756
  0
VERTEX
  8
PLAN_1
  6
CONTINUOUS
 10
-1.938390
 20
1.330126
  0
VERTEX
  8
PLAN_1
  6
CONTINUOUS
 10
-2.005520
 20
1.330126
  0
VERTEX
  8
PLAN_1
  6
CONTINUOUS
 10
-2.005520
 20
0.597756
  0
VERTEX
  8
PLAN_1
  6
CONTINUOUS
 10
-1.938390
 20
0.597756
  0
SEQEND
  8
0
  0
POLYLINE
  8
PLAN_1
  6
CONTINUOUS
 66
     1
 40
0.004035
 41
0.004035
  0
VERTEX
  8
PLAN_1
  6
CONTINUOUS
 10
-1.290819
 20
-0.360228
  0
VERTEX
  8
PLAN_1
  6
CONTINUOUS
 10
-1.290819
 20
0.387787
  0
VERTEX
  8
PLAN_1
  6
CONTINUOUS
 10
-0.066335
 20
0.388291
  0
VERTEX
  8
PLAN_1
  6
CONTINUOUS
 10
-0.066335
 20
-0.358209
  0
SEQEND
  8
0
  0
POLYLINE
  8
PLAN_1
  6
CONTINUOUS
 66
     1
 40
0.007063
 41
0.007063
  0
VERTEX
  8
PLAN_1
  6
CONTINUOUS
 10
-2.241228
 20
3.301614
  0
VERTEX
  8
PLAN_1
  6
CONTINUOUS
 10
-2.153406
 20
3.301614
  0
SEQEND
  8
0
  0
POLYLINE
  8
PLAN_1
  6
CONTINUOUS
 66
     1
 40
0.007063
 41
0.007063
  0
VERTEX
  8
PLAN_1
  6
CONTINUOUS
 10
-2.250819
 20
3.065398
  0
VERTEX
  8
PLAN_1
  6
CONTINUOUS
 10
-2.153406
 20
3.065398
  0
SEQEND
  8
0
  0
POLYLINE
  8
PLAN_1
  6
CONTINUOUS
 66
     1
 40
0.004035
 41
0.004035
  0
VERTEX
  8
PLAN_1
  6
CONTINUOUS
 10
-2.101925
 20
1.086339
  0
VERTEX
  8
PLAN_1
  6
CONTINUOUS
 10
-2.009559
 20
1.086339
  0
SEQEND
  8
0
  0
POLYLINE
  8
PLAN_1
  6
CONTINUOUS
 66
     1
 40
0.004035
 41
0.004035
  0
VERTEX
  8
PLAN_1
  6
CONTINUOUS
 10
-2.101925
 20
0.840028
  0
VERTEX
  8
PLAN_1
  6
CONTINUOUS
 10
-2.009559
 20
0.840028
  0
SEQEND
  8
0
  0
POLYLINE
  8
PLAN_1
  6
CONTINUOUS
 66
     1
 40
0.008075
 41
0.008075
  0
VERTEX
  8
PLAN_1
  6
CONTINUOUS
 10
-0.947094
 20
1.570378
  0
VERTEX
  8
PLAN_1
  6
CONTINUOUS
 10
-0.947094
 20
1.435110
  0
VERTEX
  8
PLAN_1
  6
CONTINUOUS
 10
-1.285772
 20
1.435110
  0
SEQEND
  8
0
  0
POLYLINE
  8
PLAN_1
  6
CONTINUOUS
 66
     1
 40
0.008075
 41
0.008075
  0
VERTEX
  8
PLAN_1
  6
CONTINUOUS
 10
-0.408039
 20
1.570378
  0
VERTEX
  8
PLAN_1
  6
CONTINUOUS
 10
-0.408039
 20
1.435110
  0
VERTEX
  8
PLAN_1
  6
CONTINUOUS
 10
-0.073402
 20
1.435110
  0
SEQEND
  8
0
  0
POLYLINE
  8
PLAN_1
 62
     2
  6
CONTINUOUS
 66
     1
 40
0.004035
 41
0.004035
  0
VERTEX
  8
PLAN_1
 62
     2
  6
CONTINUOUS
 10
-2.238201
 20
-0.657012
  0
VERTEX
  8
PLAN_1
 62
     2
  6
CONTINUOUS
 10
-0.093087
 20
-0.657012
  0
SEQEND
  8
0
  0
SOLID
  8
PLAN_1
 62
     2
 10
-0.063307
 20
-0.657012
 11
-0.122358
 21
-0.640858
 12
-0.063307
 22
-0.657012
 13
-0.122358
 23
-0.672657
  0
POLYLINE
  8
PLAN_1
 62
     2
  6
CONTINUOUS
 66
     1
 40
0.003000
 41
0.003000
  0
VERTEX
  8
PLAN_1
 62
     2
  6
CONTINUOUS
 10
-0.063307
 20
-0.657012
  0
VERTEX
  8
PLAN_1
 62
     2
  6
CONTINUOUS
 10
-0.122358
 20
-0.640858
  0
VERTEX
  8
PLAN_1
 62
     2
  6
CONTINUOUS
 10
-0.122358
 20
-0.672657
  0
VERTEX
  8
PLAN_1
 62
     2
  6
CONTINUOUS
 10
-0.063307
 20
-0.657012
  0
SEQEND
  8
0
  0
SOLID
  8
PLAN_1
 62
     2
 10
-2.267980
 20
-0.657012
 11
-2.208929
 21
-0.640858
 12
-2.267980
 22
-0.657012
 13
-2.208929
 23
-0.672657
  0
POLYLINE
  8
PLAN_1
 62
     2
  6
CONTINUOUS
 66
     1
 40
0.003000
 41
0.003000
  0
VERTEX
  8
PLAN_1
 62
     2
  6
CONTINUOUS
 10
-2.267980
 20
-0.657012
  0
VERTEX
  8
PLAN_1
 62
     2
  6
CONTINUOUS
 10
-2.208929
 20
-0.640858
  0
VERTEX
  8
PLAN_1
 62
     2
  6
CONTINUOUS
 10
-2.208929
 20
-0.672657
  0
VERTEX
  8
PLAN_1
 62
     2
  6
CONTINUOUS
 10
-2.267980
 20
-0.657012
  0
SEQEND
  8
0
  0
POLYLINE
  8
PLAN_1
 62
     2
  6
CONTINUOUS
 66
     1
 40
0.003000
 41
0.003000
  0
VERTEX
  8
PLAN_1
 62
     2
  6
CONTINUOUS
 10
-1.208547
 20
-0.590890
  0
VERTEX
  8
PLAN_1
 62
     2
  6
CONTINUOUS
 10
-1.207031
 20
-0.589882
  0
VERTEX
  8
PLAN_1
 62
     2
  6
CONTINUOUS
 10
-1.205516
 20
-0.588870
  0
VERTEX
  8
PLAN_1
 62
     2
  6
CONTINUOUS
 10
-1.204004
 20
-0.588366
  0
VERTEX
  8
PLAN_1
 62
     2
  6
CONTINUOUS
 10
-1.202488
 20
-0.587358
  0
VERTEX
  8
PLAN_1
 62
     2
  6
CONTINUOUS
 10
-1.200469
 20
-0.586850
  0
VERTEX
  8
PLAN_1
 62
     2
  6
CONTINUOUS
 10
-1.198957
 20
-0.586346
  0
VERTEX
  8
PLAN_1
 62
     2
  6
CONTINUOUS
 10
-1.196433
 20
-0.586346
  0
VERTEX
  8
PLAN_1
 62
     2
  6
CONTINUOUS
 10
-1.194413
 20
-0.585843
  0
VERTEX
  8
PLAN_1
 62
     2
  6
CONTINUOUS
 10
-1.189870
 20
-0.586346
  0
VERTEX
  8
PLAN_1
 62
     2
  6
CONTINUOUS
 10
-1.185327
 20
-0.587862
  0
VERTEX
  8
PLAN_1
 62
     2
  6
CONTINUOUS
 10
-1.181291
 20
-0.589374
  0
VERTEX
  8
PLAN_1
 62
     2
  6
CONTINUOUS
 10
-1.177756
 20
-0.591898
  0
VERTEX
  8
PLAN_1
 62
     2
  6
CONTINUOUS
 10
-1.174728
 20
-0.595433
  0
VERTEX
  8
PLAN_1
 62
     2
  6
CONTINUOUS
 10
-1.172205
 20
-0.599469
  0
VERTEX
  8
PLAN_1
 62
     2
  6
CONTINUOUS
 10
-1.171197
 20
-0.601488
  0
VERTEX
  8
PLAN_1
 62
     2
  6
CONTINUOUS
 10
-1.170693
 20
-0.604012
  0
VERTEX
  8
PLAN_1
 62
     2
  6
CONTINUOUS
 10
-1.170185
 20
-0.606535
  0
VERTEX
  8
PLAN_1
 62
     2
  6
CONTINUOUS
 10
-1.170185
 20
-0.609567
  0
VERTEX
  8
PLAN_1
 62
     2
  6
CONTINUOUS
 10
-1.170185
 20
-0.613098
  0
VERTEX
  8
PLAN_1
 62
     2
  6
CONTINUOUS
 10
-1.171197
 20
-0.617138
  0
VERTEX
  8
PLAN_1
 62
     2
  6
CONTINUOUS
 10
-1.172709
 20
-0.621173
  0
VERTEX
  8
PLAN_1
 62
     2
  6
CONTINUOUS
 10
-1.174728
 20
-0.625213
  0
VERTEX
  8
PLAN_1
 62
     2
  6
CONTINUOUS
 10
-1.176244
 20
-0.627232
  0
VERTEX
  8
PLAN_1
 62
     2
  6
CONTINUOUS
 10
-1.178264
 20
-0.629248
  0
VERTEX
  8
PLAN_1
 62
     2
  6
CONTINUOUS
 10
-1.180280
 20
-0.630764
  0
VERTEX
  8
PLAN_1
 62
     2
  6
CONTINUOUS
 10
-1.182803
 20
-0.632280
  0
VERTEX
  8
PLAN_1
 62
     2
  6
CONTINUOUS
 10
-1.185835
 20
-0.633287
  0
VERTEX
  8
PLAN_1
 62
     2
  6
CONTINUOUS
 10
-1.188862
 20
-0.634295
  0
VERTEX
  8
PLAN_1
 62
     2
  6
CONTINUOUS
 10
-1.192394
 20
-0.634803
  0
VERTEX
  8
PLAN_1
 62
     2
  6
CONTINUOUS
 10
-1.196433
 20
-0.635307
  0
VERTEX
  8
PLAN_1
 62
     2
  6
CONTINUOUS
 10
-1.200469
 20
-0.634803
  0
VERTEX
  8
PLAN_1
 62
     2
  6
CONTINUOUS
 10
-1.204004
 20
-0.634295
  0
VERTEX
  8
PLAN_1
 62
     2
  6
CONTINUOUS
 10
-1.208039
 20
-0.633287
  0
VERTEX
  8
PLAN_1
 62
     2
  6
CONTINUOUS
 10
-1.211575
 20
-0.631268
  0
VERTEX
  8
PLAN_1
 62
     2
  6
CONTINUOUS
 10
-1.214602
 20
-0.628744
  0
VERTEX
  8
PLAN_1
 62
     2
  6
CONTINUOUS
 10
-1.217126
 20
-0.625213
  0
VERTEX
  8
PLAN_1
 62
     2
  6
CONTINUOUS
 10
-1.218138
 20
-0.622689
  0
VERTEX
  8
PLAN_1
 62
     2
  6
CONTINUOUS
 10
-1.219146
 20
-0.620669
  0
VERTEX
  8
PLAN_1
 62
     2
  6
CONTINUOUS
 10
-1.219650
 20
-0.618146
  0
VERTEX
  8
PLAN_1
 62
     2
  6
CONTINUOUS
 10
-1.220154
 20
-0.615118
  0
VERTEX
  8
PLAN_1
 62
     2
  6
CONTINUOUS
 10
-1.210563
 20
-0.615118
  0
VERTEX
  8
PLAN_1
 62
     2
  6
CONTINUOUS
 10
-1.210059
 20
-0.618146
  0
VERTEX
  8
PLAN_1
 62
     2
  6
CONTINUOUS
 10
-1.209051
 20
-0.620669
  0
VERTEX
  8
PLAN_1
 62
     2
  6
CONTINUOUS
 10
-1.207535
 20
-0.622689
  0
VERTEX
  8
PLAN_1
 62
     2
  6
CONTINUOUS
 10
-1.206024
 20
-0.624201
  0
VERTEX
  8
PLAN_1
 62
     2
  6
CONTINUOUS
 10
-1.203500
 20
-0.625717
  0
VERTEX
  8
PLAN_1
 62
     2
  6
CONTINUOUS
 10
-1.200976
 20
-0.626724
  0
VERTEX
  8
PLAN_1
 62
     2
  6
CONTINUOUS
 10
-1.198453
 20
-0.627232
  0
VERTEX
  8
PLAN_1
 62
     2
  6
CONTINUOUS
 10
-1.195421
 20
-0.627232
  0
VERTEX
  8
PLAN_1
 62
     2
  6
CONTINUOUS
 10
-1.191890
 20
-0.626724
  0
VERTEX
  8
PLAN_1
 62
     2
  6
CONTINUOUS
 10
-1.188862
 20
-0.625717
  0
VERTEX
  8
PLAN_1
 62
     2
  6
CONTINUOUS
 10
-1.186339
 20
-0.624201
  0
VERTEX
  8
PLAN_1
 62
     2
  6
CONTINUOUS
 10
-1.184319
 20
-0.622185
  0
VERTEX
  8
PLAN_1
 62
     2
  6
CONTINUOUS
 10
-1.182299
 20
-0.619661
  0
VERTEX
  8
PLAN_1
 62
     2
  6
CONTINUOUS
 10
-1.180787
 20
-0.617138
  0
VERTEX
  8
PLAN_1
 62
     2
  6
CONTINUOUS
 10
-1.180280
 20
-0.614106
  0
VERTEX
  8
PLAN_1
 62
     2
  6
CONTINUOUS
 10
-1.179776
 20
-0.610575
  0
VERTEX
  8
PLAN_1
 62
     2
  6
CONTINUOUS
 10
-1.180280
 20
-0.607039
  0
VERTEX
  8
PLAN_1
 62
     2
  6
CONTINUOUS
 10
-1.181291
 20
-0.603508
  0
VERTEX
  8
PLAN_1
 62
     2
  6
CONTINUOUS
 10
-1.182803
 20
-0.600984
  0
VERTEX
  8
PLAN_1
 62
     2
  6
CONTINUOUS
 10
-1.184823
 20
-0.598461
  0
VERTEX
  8
PLAN_1
 62
     2
  6
CONTINUOUS
 10
-1.186843
 20
-0.596441
  0
VERTEX
  8
PLAN_1
 62
     2
  6
CONTINUOUS
 10
-1.189870
 20
-0.595433
  0
VERTEX
  8
PLAN_1
 62
     2
  6
CONTINUOUS
 10
-1.192898
 20
-0.594421
  0
VERTEX
  8
PLAN_1
 62
     2
  6
CONTINUOUS
 10
-1.195929
 20
-0.594421
  0
VERTEX
  8
PLAN_1
 62
     2
  6
CONTINUOUS
 10
-1.197945
 20
-0.594421
  0
VERTEX
  8
PLAN_1
 62
     2
  6
CONTINUOUS
 10
-1.199965
 20
-0.594929
  0
VERTEX
  8
PLAN_1
 62
     2
  6
CONTINUOUS
 10
-1.201984
 20
-0.595433
  0
VERTEX
  8
PLAN_1
 62
     2
  6
CONTINUOUS
 10
-1.203500
 20
-0.595937
  0
VERTEX
  8
PLAN_1
 62
     2
  6
CONTINUOUS
 10
-1.205516
 20
-0.596945
  0
VERTEX
  8
PLAN_1
 62
     2
  6
CONTINUOUS
 10
-1.207031
 20
-0.598461
  0
VERTEX
  8
PLAN_1
 62
     2
  6
CONTINUOUS
 10
-1.208547
 20
-0.599469
  0
VERTEX
  8
PLAN_1
 62
     2
  6
CONTINUOUS
 10
-1.209555
 20
-0.601488
  0
VERTEX
  8
PLAN_1
 62
     2
  6
CONTINUOUS
 10
-1.217630
 20
-0.600984
  0
VERTEX
  8
PLAN_1
 62
     2
  6
CONTINUOUS
 10
-1.212079
 20
-0.561614
  0
VERTEX
  8
PLAN_1
 62
     2
  6
CONTINUOUS
 10
-1.174224
 20
-0.561614
  0
VERTEX
  8
PLAN_1
 62
     2
  6
CONTINUOUS
 10
-1.174224
 20
-0.570701
  0
VERTEX
  8
PLAN_1
 62
     2
  6
CONTINUOUS
 10
-1.205012
 20
-0.570701
  0
VERTEX
  8
PLAN_1
 62
     2
  6
CONTINUOUS
 10
-1.208547
 20
-0.590890
  0
SEQEND
  8
0
  0
POLYLINE
  8
PLAN_1
 62
     2
  6
CONTINUOUS
 66
     1
 40
0.003000
 41
0.003000
  0
VERTEX
  8
PLAN_1
 62
     2
  6
CONTINUOUS
 10
-1.122236
 20
-0.579280
  0
VERTEX
  8
PLAN_1
 62
     2
  6
CONTINUOUS
 10
-1.122740
 20
-0.577264
  0
VERTEX
  8
PLAN_1
 62
     2
  6
CONTINUOUS
 10
-1.123752
 20
-0.575244
  0
VERTEX
  8
PLAN_1
 62
     2
  6
CONTINUOUS
 10
-1.124760
 20
-0.573224
  0
VERTEX
  8
PLAN_1
 62
     2
  6
CONTINUOUS
 10
-1.126276
 20
-0.571709
  0
VERTEX
  8
PLAN_1
 62
     2
  6
CONTINUOUS
 10
-1.127787
 20
-0.570197
  0
VERTEX
  8
PLAN_1
 62
     2
  6
CONTINUOUS
 10
-1.129807
 20
-0.569185
  0
VERTEX
  8
PLAN_1
 62
     2
  6
CONTINUOUS
 10
-1.132331
 20
-0.568681
  0
VERTEX
  8
PLAN_1
 62
     2
  6
CONTINUOUS
 10
-1.134854
 20
-0.568177
  0
VERTEX
  8
PLAN_1
 62
     2
  6
CONTINUOUS
 10
-1.137378
 20
-0.568681
  0
VERTEX
  8
PLAN_1
 62
     2
  6
CONTINUOUS
 10
-1.139902
 20
-0.569185
  0
VERTEX
  8
PLAN_1
 62
     2
  6
CONTINUOUS
 10
-1.141921
 20
-0.570197
  0
VERTEX
  8
PLAN_1
 62
     2
  6
CONTINUOUS
 10
-1.143941
 20
-0.571205
  0
VERTEX
  8
PLAN_1
 62
     2
  6
CONTINUOUS
 10
-1.145453
 20
-0.573224
  0
VERTEX
  8
PLAN_1
 62
     2
  6
CONTINUOUS
 10
-1.146969
 20
-0.574740
  0
VERTEX
  8
PLAN_1
 62
     2
  6
CONTINUOUS
 10
-1.147976
 20
-0.576756
  0
VERTEX
  8
PLAN_1
 62
     2
  6
CONTINUOUS
 10
-1.148988
 20
-0.578776
  0
VERTEX
  8
PLAN_1
 62
     2
  6
CONTINUOUS
 10
-1.150500
 20
-0.583319
  0
VERTEX
  8
PLAN_1
 62
     2
  6
CONTINUOUS
 10
-1.151512
 20
-0.587862
  0
VERTEX
  8
PLAN_1
 62
     2
  6
CONTINUOUS
 10
-1.152016
 20
-0.591898
  0
VERTEX
  8
PLAN_1
 62
     2
  6
CONTINUOUS
 10
-1.152520
 20
-0.595433
  0
VERTEX
  8
PLAN_1
 62
     2
  6
CONTINUOUS
 10
-1.152016
 20
-0.595433
  0
VERTEX
  8
PLAN_1
 62
     2
  6
CONTINUOUS
 10
-1.151008
 20
-0.593917
  0
VERTEX
  8
PLAN_1
 62
     2
  6
CONTINUOUS
 10
-1.149996
 20
-0.592406
  0
VERTEX
  8
PLAN_1
 62
     2
  6
CONTINUOUS
 10
-1.148484
 20
-0.590890
  0
VERTEX
  8
PLAN_1
 62
     2
  6
CONTINUOUS
 10
-1.146465
 20
-0.589374
  0
VERTEX
  8
PLAN_1
 62
     2
  6
CONTINUOUS
 10
-1.143941
 20
-0.588366
  0
VERTEX
  8
PLAN_1
 62
     2
  6
CONTINUOUS
 10
-1.141417
 20
-0.587358
  0
VERTEX
  8
PLAN_1
 62
     2
  6
CONTINUOUS
 10
-1.138390
 20
-0.586850
  0
VERTEX
  8
PLAN_1
 62
     2
  6
CONTINUOUS
 10
-1.134854
 20
-0.586850
  0
VERTEX
  8
PLAN_1
 62
     2
  6
CONTINUOUS
 10
-1.131323
 20
-0.586850
  0
VERTEX
  8
PLAN_1
 62
     2
  6
CONTINUOUS
 10
-1.127283
 20
-0.587862
  0
VERTEX
  8
PLAN_1
 62
     2
  6
CONTINUOUS
 10
-1.123752
 20
-0.589374
  0
VERTEX
  8
PLAN_1
 62
     2
  6
CONTINUOUS
 10
-1.119713
 20
-0.591898
  0
VERTEX
  8
PLAN_1
 62
     2
  6
CONTINUOUS
 10
-1.118197
 20
-0.592909
  0
VERTEX
  8
PLAN_1
 62
     2
  6
CONTINUOUS
 10
-1.116685
 20
-0.594929
  0
VERTEX
  8
PLAN_1
 62
     2
  6
CONTINUOUS
 10
-1.115169
 20
-0.596441
  0
VERTEX
  8
PLAN_1
 62
     2
  6
CONTINUOUS
 10
-1.114161
 20
-0.598965
  0
VERTEX
  8
PLAN_1
 62
     2
  6
CONTINUOUS
 10
-1.113150
 20
-0.600984
  0
VERTEX
  8
PLAN_1
 62
     2
  6
CONTINUOUS
 10
-1.112646
 20
-0.604012
  0
VERTEX
  8
PLAN_1
 62
     2
  6
CONTINUOUS
 10
-1.112142
 20
-0.606535
  0
VERTEX
  8
PLAN_1
 62
     2
  6
CONTINUOUS
 10
-1.111638
 20
-0.609567
  0
VERTEX
  8
PLAN_1
 62
     2
  6
CONTINUOUS
 10
-1.112142
 20
-0.612594
  0
VERTEX
  8
PLAN_1
 62
     2
  6
CONTINUOUS
 10
-1.112142
 20
-0.615118
  0
VERTEX
  8
PLAN_1
 62
     2
  6
CONTINUOUS
 10
-1.112646
 20
-0.617642
  0
VERTEX
  8
PLAN_1
 62
     2
  6
CONTINUOUS
 10
-1.113657
 20
-0.619661
  0
VERTEX
  8
PLAN_1
 62
     2
  6
CONTINUOUS
 10
-1.114665
 20
-0.621677
  0
VERTEX
  8
PLAN_1
 62
     2
  6
CONTINUOUS
 10
-1.115673
 20
-0.624201
  0
VERTEX
  8
PLAN_1
 62
     2
  6
CONTINUOUS
 10
-1.117189
 20
-0.626220
  0
VERTEX
  8
PLAN_1
 62
     2
  6
CONTINUOUS
 10
-1.118705
 20
-0.628240
  0
VERTEX
  8
PLAN_1
 62
     2
  6
CONTINUOUS
 10
-1.120217
 20
-0.629756
  0
VERTEX
  8
PLAN_1
 62
     2
  6
CONTINUOUS
 10
-1.121732
 20
-0.631268
  0
VERTEX
  8
PLAN_1
 62
     2
  6
CONTINUOUS
 10
-1.123752
 20
-0.632280
  0
VERTEX
  8
PLAN_1
 62
     2
  6
CONTINUOUS
 10
-1.125768
 20
-0.633287
  0
VERTEX
  8
PLAN_1
 62
     2
  6
CONTINUOUS
 10
-1.127787
 20
-0.634295
  0
VERTEX
  8
PLAN_1
 62
     2
  6
CONTINUOUS
 10
-1.130819
 20
-0.634803
  0
VERTEX
  8
PLAN_1
 62
     2
  6
CONTINUOUS
 10
-1.133846
 20
-0.634803
  0
VERTEX
  8
PLAN_1
 62
     2
  6
CONTINUOUS
 10
-1.137378
 20
-0.635307
  0
VERTEX
  8
PLAN_1
 62
     2
  6
CONTINUOUS
 10
-1.139398
 20
-0.635307
  0
VERTEX
  8
PLAN_1
 62
     2
  6
CONTINUOUS
 10
-1.141921
 20
-0.634803
  0
VERTEX
  8
PLAN_1
 62
     2
  6
CONTINUOUS
 10
-1.144445
 20
-0.633791
  0
VERTEX
  8
PLAN_1
 62
     2
  6
CONTINUOUS
 10
-1.146969
 20
-0.632783
  0
VERTEX
  8
PLAN_1
 62
     2
  6
CONTINUOUS
 10
-1.149492
 20
-0.631268
  0
VERTEX
  8
PLAN_1
 62
     2
  6
CONTINUOUS
 10
-1.152016
 20
-0.629756
  0
VERTEX
  8
PLAN_1
 62
     2
  6
CONTINUOUS
 10
-1.154035
 20
-0.627232
  0
VERTEX
  8
PLAN_1
 62
     2
  6
CONTINUOUS
 10
-1.156055
 20
-0.624709
  0
VERTEX
  8
PLAN_1
 62
     2
  6
CONTINUOUS
 10
-1.157567
 20
-0.621677
  0
VERTEX
  8
PLAN_1
 62
     2
  6
CONTINUOUS
 10
-1.159083
 20
-0.619154
  0
VERTEX
  8
PLAN_1
 62
     2
  6
CONTINUOUS
 10
-1.160091
 20
-0.616126
  0
VERTEX
  8
PLAN_1
 62
     2
  6
CONTINUOUS
 10
-1.160594
 20
-0.613098
  0
VERTEX
  8
PLAN_1
 62
     2
  6
CONTINUOUS
 10
-1.161102
 20
-0.609567
  0
VERTEX
  8
PLAN_1
 62
     2
  6
CONTINUOUS
 10
-1.161606
 20
-0.606031
  0
VERTEX
  8
PLAN_1
 62
     2
  6
CONTINUOUS
 10
-1.161606
 20
-0.602500
  0
VERTEX
  8
PLAN_1
 62
     2
  6
CONTINUOUS
 10
-1.161606
 20
-0.598965
  0
VERTEX
  8
PLAN_1
 62
     2
  6
CONTINUOUS
 10
-1.161606
 20
-0.592909
  0
VERTEX
  8
PLAN_1
 62
     2
  6
CONTINUOUS
 10
-1.160594
 20
-0.586346
  0
VERTEX
  8
PLAN_1
 62
     2
  6
CONTINUOUS
 10
-1.159083
 20
-0.579787
  0
VERTEX
  8
PLAN_1
 62
     2
  6
CONTINUOUS
 10
-1.156559
 20
-0.573728
  0
VERTEX
  8
PLAN_1
 62
     2
  6
CONTINUOUS
 10
-1.155043
 20
-0.570701
  0
VERTEX
  8
PLAN_1
 62
     2
  6
CONTINUOUS
 10
-1.153024
 20
-0.568177
  0
VERTEX
  8
PLAN_1
 62
     2
  6
CONTINUOUS
 10
-1.150500
 20
-0.566157
  0
VERTEX
  8
PLAN_1
 62
     2
  6
CONTINUOUS
 10
-1.147976
 20
-0.564138
  0
VERTEX
  8
PLAN_1
 62
     2
  6
CONTINUOUS
 10
-1.145453
 20
-0.562118
  0
VERTEX
  8
PLAN_1
 62
     2
  6
CONTINUOUS
 10
-1.141921
 20
-0.561110
  0
VERTEX
  8
PLAN_1
 62
     2
  6
CONTINUOUS
 10
-1.138390
 20
-0.560102
  0
VERTEX
  8
PLAN_1
 62
     2
  6
CONTINUOUS
 10
-1.134854
 20
-0.560102
  0
VERTEX
  8
PLAN_1
 62
     2
  6
CONTINUOUS
 10
-1.131323
 20
-0.560102
  0
VERTEX
  8
PLAN_1
 62
     2
  6
CONTINUOUS
 10
-1.127787
 20
-0.561110
  0
VERTEX
  8
PLAN_1
 62
     2
  6
CONTINUOUS
 10
-1.124760
 20
-0.562118
  0
VERTEX
  8
PLAN_1
 62
     2
  6
CONTINUOUS
 10
-1.121228
 20
-0.564138
  0
VERTEX
  8
PLAN_1
 62
     2
  6
CONTINUOUS
 10
-1.118197
 20
-0.566661
  0
VERTEX
  8
PLAN_1
 62
     2
  6
CONTINUOUS
 10
-1.116181
 20
-0.570197
  0
VERTEX
  8
PLAN_1
 62
     2
  6
CONTINUOUS
 10
-1.115169
 20
-0.572217
  0
VERTEX
  8
PLAN_1
 62
     2
  6
CONTINUOUS
 10
-1.114161
 20
-0.574232
  0
VERTEX
  8
PLAN_1
 62
     2
  6
CONTINUOUS
 10
-1.113657
 20
-0.576756
  0
VERTEX
  8
PLAN_1
 62
     2
  6
CONTINUOUS
 10
-1.113150
 20
-0.579280
  0
VERTEX
  8
PLAN_1
 62
     2
  6
CONTINUOUS
 10
-1.122236
 20
-0.579280
  0
SEQEND
  8
0
  0
POLYLINE
  8
PLAN_1
 62
     2
  6
CONTINUOUS
 66
     1
 40
0.003000
 41
0.003000
  0
VERTEX
  8
PLAN_1
 62
     2
  6
CONTINUOUS
 10
-1.135866
 20
-0.626724
  0
VERTEX
  8
PLAN_1
 62
     2
  6
CONTINUOUS
 10
-1.132331
 20
-0.626724
  0
VERTEX
  8
PLAN_1
 62
     2
  6
CONTINUOUS
 10
-1.129807
 20
-0.625717
  0
VERTEX
  8
PLAN_1
 62
     2
  6
CONTINUOUS
 10
-1.127283
 20
-0.624201
  0
VERTEX
  8
PLAN_1
 62
     2
  6
CONTINUOUS
 10
-1.125264
 20
-0.622185
  0
VERTEX
  8
PLAN_1
 62
     2
  6
CONTINUOUS
 10
-1.123752
 20
-0.619661
  0
VERTEX
  8
PLAN_1
 62
     2
  6
CONTINUOUS
 10
-1.122236
 20
-0.617138
  0
VERTEX
  8
PLAN_1
 62
     2
  6
CONTINUOUS
 10
-1.121732
 20
-0.613602
  0
VERTEX
  8
PLAN_1
 62
     2
  6
CONTINUOUS
 10
-1.121228
 20
-0.610071
  0
VERTEX
  8
PLAN_1
 62
     2
  6
CONTINUOUS
 10
-1.121228
 20
-0.607547
  0
VERTEX
  8
PLAN_1
 62
     2
  6
CONTINUOUS
 10
-1.122236
 20
-0.605024
  0
VERTEX
  8
PLAN_1
 62
     2
  6
CONTINUOUS
 10
-1.122740
 20
-0.602500
  0
VERTEX
  8
PLAN_1
 62
     2
  6
CONTINUOUS
 10
-1.124256
 20
-0.599976
  0
VERTEX
  8
PLAN_1
 62
     2
  6
CONTINUOUS
 10
-1.126276
 20
-0.597957
  0
VERTEX
  8
PLAN_1
 62
     2
  6
CONTINUOUS
 10
-1.128799
 20
-0.596441
  0
VERTEX
  8
PLAN_1
 62
     2
  6
CONTINUOUS
 10
-1.132331
 20
-0.595433
  0
VERTEX
  8
PLAN_1
 62
     2
  6
CONTINUOUS
 10
-1.135866
 20
-0.594929
  0
VERTEX
  8
PLAN_1
 62
     2
  6
CONTINUOUS
 10
-1.139398
 20
-0.594929
  0
VERTEX
  8
PLAN_1
 62
     2
  6
CONTINUOUS
 10
-1.142425
 20
-0.595937
  0
VERTEX
  8
PLAN_1
 62
     2
  6
CONTINUOUS
 10
-1.145453
 20
-0.597453
  0
VERTEX
  8
PLAN_1
 62
     2
  6
CONTINUOUS
 10
-1.147472
 20
-0.599469
  0
VERTEX
  8
PLAN_1
 62
     2
  6
CONTINUOUS
 10
-1.148988
 20
-0.601992
  0
VERTEX
  8
PLAN_1
 62
     2
  6
CONTINUOUS
 10
-1.149996
 20
-0.604516
  0
VERTEX
  8
PLAN_1
 62
     2
  6
CONTINUOUS
 10
-1.151008
 20
-0.607547
  0
VERTEX
  8
PLAN_1
 62
     2
  6
CONTINUOUS
 10
-1.151008
 20
-0.610575
  0
VERTEX
  8
PLAN_1
 62
     2
  6
CONTINUOUS
 10
-1.151008
 20
-0.613602
  0
VERTEX
  8
PLAN_1
 62
     2
  6
CONTINUOUS
 10
-1.149996
 20
-0.616630
  0
VERTEX
  8
PLAN_1
 62
     2
  6
CONTINUOUS
 10
-1.148988
 20
-0.619154
  0
VERTEX
  8
PLAN_1
 62
     2
  6
CONTINUOUS
 10
-1.147472
 20
-0.621677
  0
VERTEX
  8
PLAN_1
 62
     2
  6
CONTINUOUS
 10
-1.145453
 20
-0.623697
  0
VERTEX
  8
PLAN_1
 62
     2
  6
CONTINUOUS
 10
-1.142425
 20
-0.625717
  0
VERTEX
  8
PLAN_1
 62
     2
  6
CONTINUOUS
 10
-1.139398
 20
-0.626724
  0
VERTEX
  8
PLAN_1
 62
     2
  6
CONTINUOUS
 10
-1.135866
 20
-0.626724
  0
SEQEND
  8
0
  0
POLYLINE
  8
PLAN_1
 62
     2
  6
CONTINUOUS
 66
     1
 40
0.004035
 41
0.004035
  0
VERTEX
  8
PLAN_1
 62
     2
  6
CONTINUOUS
 10
-2.267980
 20
2.850382
  0
VERTEX
  8
PLAN_1
 62
     2
  6
CONTINUOUS
 10
-2.267980
 20
-0.680228
  0
SEQEND
  8
0
  0
POLYLINE
  8
PLAN_1
 62
     2
  6
CONTINUOUS
 66
     1
 40
0.004035
 41
0.004035
  0
VERTEX
  8
PLAN_1
 62
     2
  6
CONTINUOUS
 10
-0.063307
 20
-0.381929
  0
VERTEX
  8
PLAN_1
 62
     2
  6
CONTINUOUS
 10
-0.063307
 20
-0.680228
  0
SEQEND
  8
0
  0
POLYLINE
  8
PLAN_1
 62
     2
  6
CONTINUOUS
 66
     1
 40
0.004035
 41
0.004035
  0
VERTEX
  8
PLAN_1
 62
     2
  6
CONTINUOUS
 10
-1.992902
 20
3.939091
  0
VERTEX
  8
PLAN_1
 62
     2
  6
CONTINUOUS
 10
-0.102677
 20
3.939091
  0
SEQEND
  8
0
  0
SOLID
  8
PLAN_1
 62
     2
 10
-0.073402
 20
3.939091
 11
-0.132453
 21
3.955244
 12
-0.073402
 22
3.939091
 13
-0.132453
 23
3.923445
  0
POLYLINE
  8
PLAN_1
 62
     2
  6
CONTINUOUS
 66
     1
 40
0.003000
 41
0.003000
  0
VERTEX
  8
PLAN_1
 62
     2
  6
CONTINUOUS
 10
-0.073402
 20
3.939091
  0
VERTEX
  8
PLAN_1
 62
     2
  6
CONTINUOUS
 10
-0.132453
 20
3.955244
  0
VERTEX
  8
PLAN_1
 62
     2
  6
CONTINUOUS
 10
-0.132453
 20
3.923445
  0
VERTEX
  8
PLAN_1
 62
     2
  6
CONTINUOUS
 10
-0.073402
 20
3.939091
  0
SEQEND
  8
0
  0
SOLID
  8
PLAN_1
 62
     2
 10
-2.022177
 20
3.939091
 11
-1.963626
 21
3.955244
 12
-2.022177
 22
3.939091
 13
-1.963626
 23
3.923445
  0
POLYLINE
  8
PLAN_1
 62
     2
  6
CONTINUOUS
 66
     1
 40
0.003000
 41
0.003000
  0
VERTEX
  8
PLAN_1
 62
     2
  6
CONTINUOUS
 10
-2.022177
 20
3.939091
  0
VERTEX
  8
PLAN_1
 62
     2
  6
CONTINUOUS
 10
-1.963626
 20
3.955244
  0
VERTEX
  8
PLAN_1
 62
     2
  6
CONTINUOUS
 10
-1.963626
 20
3.923445
  0
VERTEX
  8
PLAN_1
 62
     2
  6
CONTINUOUS
 10
-2.022177
 20
3.939091
  0
SEQEND
  8
0
  0
POLYLINE
  8
PLAN_1
 62
     2
  6
CONTINUOUS
 66
     1
 40
0.003000
 41
0.003000
  0
VERTEX
  8
PLAN_1
 62
     2
  6
CONTINUOUS
 10
-1.090437
 20
4.005213
  0
VERTEX
  8
PLAN_1
 62
     2
  6
CONTINUOUS
 10
-1.089429
 20
4.006220
  0
VERTEX
  8
PLAN_1
 62
     2
  6
CONTINUOUS
 10
-1.087913
 20
4.007228
  0
VERTEX
  8
PLAN_1
 62
     2
  6
CONTINUOUS
 10
-1.086402
 20
4.007736
  0
VERTEX
  8
PLAN_1
 62
     2
  6
CONTINUOUS
 10
-1.084886
 20
4.008744
  0
VERTEX
  8
PLAN_1
 62
     2
  6
CONTINUOUS
 10
-1.082866
 20
4.009248
  0
VERTEX
  8
PLAN_1
 62
     2
  6
CONTINUOUS
 10
-1.080846
 20
4.009752
  0
VERTEX
  8
PLAN_1
 62
     2
  6
CONTINUOUS
 10
-1.078831
 20
4.009752
  0
VERTEX
  8
PLAN_1
 62
     2
  6
CONTINUOUS
 10
-1.076307
 20
4.009752
  0
VERTEX
  8
PLAN_1
 62
     2
  6
CONTINUOUS
 10
-1.071764
 20
4.009752
  0
VERTEX
  8
PLAN_1
 62
     2
  6
CONTINUOUS
 10
-1.067724
 20
4.008240
  0
VERTEX
  8
PLAN_1
 62
     2
  6
CONTINUOUS
 10
-1.063689
 20
4.006724
  0
VERTEX
  8
PLAN_1
 62
     2
  6
CONTINUOUS
 10
-1.059650
 20
4.003697
  0
VERTEX
  8
PLAN_1
 62
     2
  6
CONTINUOUS
 10
-1.056622
 20
4.000669
  0
VERTEX
  8
PLAN_1
 62
     2
  6
CONTINUOUS
 10
-1.054098
 20
3.996630
  0
VERTEX
  8
PLAN_1
 62
     2
  6
CONTINUOUS
 10
-1.053594
 20
3.994106
  0
VERTEX
  8
PLAN_1
 62
     2
  6
CONTINUOUS
 10
-1.052583
 20
3.992087
  0
VERTEX
  8
PLAN_1
 62
     2
  6
CONTINUOUS
 10
-1.052583
 20
3.989563
  0
VERTEX
  8
PLAN_1
 62
     2
  6
CONTINUOUS
 10
-1.052079
 20
3.986535
  0
VERTEX
  8
PLAN_1
 62
     2
  6
CONTINUOUS
 10
-1.052583
 20
3.983004
  0
VERTEX
  8
PLAN_1
 62
     2
  6
CONTINUOUS
 10
-1.053087
 20
3.978965
  0
VERTEX
  8
PLAN_1
 62
     2
  6
CONTINUOUS
 10
-1.054602
 20
3.974929
  0
VERTEX
  8
PLAN_1
 62
     2
  6
CONTINUOUS
 10
-1.057126
 20
3.970890
  0
VERTEX
  8
PLAN_1
 62
     2
  6
CONTINUOUS
 10
-1.058642
 20
3.968870
  0
VERTEX
  8
PLAN_1
 62
     2
  6
CONTINUOUS
 10
-1.060154
 20
3.966850
  0
VERTEX
  8
PLAN_1
 62
     2
  6
CONTINUOUS
 10
-1.062677
 20
3.965339
  0
VERTEX
  8
PLAN_1
 62
     2
  6
CONTINUOUS
 10
-1.065201
 20
3.963823
  0
VERTEX
  8
PLAN_1
 62
     2
  6
CONTINUOUS
 10
-1.067724
 20
3.962307
  0
VERTEX
  8
PLAN_1
 62
     2
  6
CONTINUOUS
 10
-1.071260
 20
3.961803
  0
VERTEX
  8
PLAN_1
 62
     2
  6
CONTINUOUS
 10
-1.074791
 20
3.961299
  0
VERTEX
  8
PLAN_1
 62
     2
  6
CONTINUOUS
 10
-1.078831
 20
3.960795
  0
VERTEX
  8
PLAN_1
 62
     2
  6
CONTINUOUS
 10
-1.082362
 20
3.961299
  0
VERTEX
  8
PLAN_1
 62
     2
  6
CONTINUOUS
 10
-1.086402
 20
3.961803
  0
VERTEX
  8
PLAN_1
 62
     2
  6
CONTINUOUS
 10
-1.089933
 20
3.962815
  0
VERTEX
  8
PLAN_1
 62
     2
  6
CONTINUOUS
 10
-1.093469
 20
3.964831
  0
VERTEX
  8
PLAN_1
 62
     2
  6
CONTINUOUS
 10
-1.096496
 20
3.967354
  0
VERTEX
  8
PLAN_1
 62
     2
  6
CONTINUOUS
 10
-1.099524
 20
3.970890
  0
VERTEX
  8
PLAN_1
 62
     2
  6
CONTINUOUS
 10
-1.100531
 20
3.972909
  0
VERTEX
  8
PLAN_1
 62
     2
  6
CONTINUOUS
 10
-1.101039
 20
3.975433
  0
VERTEX
  8
PLAN_1
 62
     2
  6
CONTINUOUS
 10
-1.102047
 20
3.977957
  0
VERTEX
  8
PLAN_1
 62
     2
  6
CONTINUOUS
 10
-1.102551
 20
3.980984
  0
VERTEX
  8
PLAN_1
 62
     2
  6
CONTINUOUS
 10
-1.092961
 20
3.980984
  0
VERTEX
  8
PLAN_1
 62
     2
  6
CONTINUOUS
 10
-1.092457
 20
3.977957
  0
VERTEX
  8
PLAN_1
 62
     2
  6
CONTINUOUS
 10
-1.091449
 20
3.975433
  0
VERTEX
  8
PLAN_1
 62
     2
  6
CONTINUOUS
 10
-1.089933
 20
3.973413
  0
VERTEX
  8
PLAN_1
 62
     2
  6
CONTINUOUS
 10
-1.087913
 20
3.971898
  0
VERTEX
  8
PLAN_1
 62
     2
  6
CONTINUOUS
 10
-1.085898
 20
3.970386
  0
VERTEX
  8
PLAN_1
 62
     2
  6
CONTINUOUS
 10
-1.083374
 20
3.969374
  0
VERTEX
  8
PLAN_1
 62
     2
  6
CONTINUOUS
 10
-1.080343
 20
3.968870
  0
VERTEX
  8
PLAN_1
 62
     2
  6
CONTINUOUS
 10
-1.077315
 20
3.968870
  0
VERTEX
  8
PLAN_1
 62
     2
  6
CONTINUOUS
 10
-1.074287
 20
3.969374
  0
VERTEX
  8
PLAN_1
 62
     2
  6
CONTINUOUS
 10
-1.071260
 20
3.969882
  0
VERTEX
  8
PLAN_1
 62
     2
  6
CONTINUOUS
 10
-1.068228
 20
3.971898
  0
VERTEX
  8
PLAN_1
 62
     2
  6
CONTINUOUS
 10
-1.066213
 20
3.973917
  0
VERTEX
  8
PLAN_1
 62
     2
  6
CONTINUOUS
 10
-1.064193
 20
3.976441
  0
VERTEX
  8
PLAN_1
 62
     2
  6
CONTINUOUS
 10
-1.063181
 20
3.978965
  0
VERTEX
  8
PLAN_1
 62
     2
  6
CONTINUOUS
 10
-1.062173
 20
3.981992
  0
VERTEX
  8
PLAN_1
 62
     2
  6
CONTINUOUS
 10
-1.062173
 20
3.985528
  0
VERTEX
  8
PLAN_1
 62
     2
  6
CONTINUOUS
 10
-1.062173
 20
3.989059
  0
VERTEX
  8
PLAN_1
 62
     2
  6
CONTINUOUS
 10
-1.063181
 20
3.992594
  0
VERTEX
  8
PLAN_1
 62
     2
  6
CONTINUOUS
 10
-1.064697
 20
3.995118
  0
VERTEX
  8
PLAN_1
 62
     2
  6
CONTINUOUS
 10
-1.066717
 20
3.997642
  0
VERTEX
  8
PLAN_1
 62
     2
  6
CONTINUOUS
 10
-1.069240
 20
3.999657
  0
VERTEX
  8
PLAN_1
 62
     2
  6
CONTINUOUS
 10
-1.071764
 20
4.000669
  0
VERTEX
  8
PLAN_1
 62
     2
  6
CONTINUOUS
 10
-1.074791
 20
4.001677
  0
VERTEX
  8
PLAN_1
 62
     2
  6
CONTINUOUS
 10
-1.078323
 20
4.001677
  0
VERTEX
  8
PLAN_1
 62
     2
  6
CONTINUOUS
 10
-1.080343
 20
4.001677
  0
VERTEX
  8
PLAN_1
 62
     2
  6
CONTINUOUS
 10
-1.082362
 20
4.001173
  0
VERTEX
  8
PLAN_1
 62
     2
  6
CONTINUOUS
 10
-1.083878
 20
4.000669
  0
VERTEX
  8
PLAN_1
 62
     2
  6
CONTINUOUS
 10
-1.085898
 20
4.000165
  0
VERTEX
  8
PLAN_1
 62
     2
  6
CONTINUOUS
 10
-1.087409
 20
3.999154
  0
VERTEX
  8
PLAN_1
 62
     2
  6
CONTINUOUS
 10
-1.088925
 20
3.997642
  0
VERTEX
  8
PLAN_1
 62
     2
  6
CONTINUOUS
 10
-1.090437
 20
3.996630
  0
VERTEX
  8
PLAN_1
 62
     2
  6
CONTINUOUS
 10
-1.091953
 20
3.994610
  0
VERTEX
  8
PLAN_1
 62
     2
  6
CONTINUOUS
 10
-1.099524
 20
3.995118
  0
VERTEX
  8
PLAN_1
 62
     2
  6
CONTINUOUS
 10
-1.093972
 20
4.034484
  0
VERTEX
  8
PLAN_1
 62
     2
  6
CONTINUOUS
 10
-1.056118
 20
4.034484
  0
VERTEX
  8
PLAN_1
 62
     2
  6
CONTINUOUS
 10
-1.056118
 20
4.025402
  0
VERTEX
  8
PLAN_1
 62
     2
  6
CONTINUOUS
 10
-1.087409
 20
4.025402
  0
VERTEX
  8
PLAN_1
 62
     2
  6
CONTINUOUS
 10
-1.090437
 20
4.005213
  0
SEQEND
  8
0
  0
POLYLINE
  8
PLAN_1
 62
     2
  6
CONTINUOUS
 66
     1
 40
0.003000
 41
0.003000
  0
VERTEX
  8
PLAN_1
 62
     2
  6
CONTINUOUS
 10
-1.010689
 20
3.962815
  0
VERTEX
  8
PLAN_1
 62
     2
  6
CONTINUOUS
 10
-1.020280
 20
3.962815
  0
VERTEX
  8
PLAN_1
 62
     2
  6
CONTINUOUS
 10
-1.020280
 20
4.014803
  0
VERTEX
  8
PLAN_1
 62
     2
  6
CONTINUOUS
 10
-1.037441
 20
4.014803
  0
VERTEX
  8
PLAN_1
 62
     2
  6
CONTINUOUS
 10
-1.037441
 20
4.021866
  0
VERTEX
  8
PLAN_1
 62
     2
  6
CONTINUOUS
 10
-1.033402
 20
4.022374
  0
VERTEX
  8
PLAN_1
 62
     2
  6
CONTINUOUS
 10
-1.029870
 20
4.022878
  0
VERTEX
  8
PLAN_1
 62
     2
  6
CONTINUOUS
 10
-1.026843
 20
4.023886
  0
VERTEX
  8
PLAN_1
 62
     2
  6
CONTINUOUS
 10
-1.024319
 20
4.024898
  0
VERTEX
  8
PLAN_1
 62
     2
  6
CONTINUOUS
 10
-1.021795
 20
4.026409
  0
VERTEX
  8
PLAN_1
 62
     2
  6
CONTINUOUS
 10
-1.020280
 20
4.028933
  0
VERTEX
  8
PLAN_1
 62
     2
  6
CONTINUOUS
 10
-1.018768
 20
4.031961
  0
VERTEX
  8
PLAN_1
 62
     2
  6
CONTINUOUS
 10
-1.017756
 20
4.036000
  0
VERTEX
  8
PLAN_1
 62
     2
  6
CONTINUOUS
 10
-1.010689
 20
4.036000
  0
VERTEX
  8
PLAN_1
 62
     2
  6
CONTINUOUS
 10
-1.010689
 20
3.962815
  0
SEQEND
  8
0
  0
POLYLINE
  8
PLAN_1
 62
     2
  6
CONTINUOUS
 66
     1
 40
0.004035
 41
0.004035
  0
VERTEX
  8
PLAN_1
 62
     2
  6
CONTINUOUS
 10
-1.566402
 20
3.782118
  0
VERTEX
  8
PLAN_1
 62
     2
  6
CONTINUOUS
 10
-0.104189
 20
3.782118
  0
SEQEND
  8
0
  0
SOLID
  8
PLAN_1
 62
     2
 10
-0.074409
 20
3.782118
 11
-0.133465
 21
3.797768
 12
-0.074409
 22
3.782118
 13
-0.133465
 23
3.765969
  0
POLYLINE
  8
PLAN_1
 62
     2
  6
CONTINUOUS
 66
     1
 40
0.003000
 41
0.003000
  0
VERTEX
  8
PLAN_1
 62
     2
  6
CONTINUOUS
 10
-0.074409
 20
3.782118
  0
VERTEX
  8
PLAN_1
 62
     2
  6
CONTINUOUS
 10
-0.133465
 20
3.797768
  0
VERTEX
  8
PLAN_1
 62
     2
  6
CONTINUOUS
 10
-0.133465
 20
3.765969
  0
VERTEX
  8
PLAN_1
 62
     2
  6
CONTINUOUS
 10
-0.074409
 20
3.782118
  0
SEQEND
  8
0
  0
SOLID
  8
PLAN_1
 62
     2
 10
-1.596181
 20
3.782118
 11
-1.537126
 21
3.797768
 12
-1.596181
 22
3.782118
 13
-1.537126
 23
3.765969
  0
POLYLINE
  8
PLAN_1
 62
     2
  6
CONTINUOUS
 66
     1
 40
0.003000
 41
0.003000
  0
VERTEX
  8
PLAN_1
 62
     2
  6
CONTINUOUS
 10
-1.596181
 20
3.782118
  0
VERTEX
  8
PLAN_1
 62
     2
  6
CONTINUOUS
 10
-1.537126
 20
3.797768
  0
VERTEX
  8
PLAN_1
 62
     2
  6
CONTINUOUS
 10
-1.537126
 20
3.765969
  0
VERTEX
  8
PLAN_1
 62
     2
  6
CONTINUOUS
 10
-1.596181
 20
3.782118
  0
SEQEND
  8
0
  0
POLYLINE
  8
PLAN_1
 62
     2
  6
CONTINUOUS
 66
     1
 40
0.003000
 41
0.003000
  0
VERTEX
  8
PLAN_1
 62
     2
  6
CONTINUOUS
 10
-0.849681
 20
3.823508
  0
VERTEX
  8
PLAN_1
 62
     2
  6
CONTINUOUS
 10
-0.849681
 20
3.805339
  0
VERTEX
  8
PLAN_1
 62
     2
  6
CONTINUOUS
 10
-0.858768
 20
3.805339
  0
VERTEX
  8
PLAN_1
 62
     2
  6
CONTINUOUS
 10
-0.858768
 20
3.823508
  0
VERTEX
  8
PLAN_1
 62
     2
  6
CONTINUOUS
 10
-0.890563
 20
3.823508
  0
VERTEX
  8
PLAN_1
 62
     2
  6
CONTINUOUS
 10
-0.890563
 20
3.832087
  0
VERTEX
  8
PLAN_1
 62
     2
  6
CONTINUOUS
 10
-0.857252
 20
3.878524
  0
VERTEX
  8
PLAN_1
 62
     2
  6
CONTINUOUS
 10
-0.849681
 20
3.878524
  0
VERTEX
  8
PLAN_1
 62
     2
  6
CONTINUOUS
 10
-0.849681
 20
3.831079
  0
VERTEX
  8
PLAN_1
 62
     2
  6
CONTINUOUS
 10
-0.838575
 20
3.831079
  0
VERTEX
  8
PLAN_1
 62
     2
  6
CONTINUOUS
 10
-0.838575
 20
3.823508
  0
VERTEX
  8
PLAN_1
 62
     2
  6
CONTINUOUS
 10
-0.849681
 20
3.823508
  0
SEQEND
  8
0
  0
SOLID
  8
PLAN_1
 62
     2
 10
-0.881984
 20
3.831079
 11
-0.858768
 21
3.831079
 12
-0.881984
 22
3.831079
 13
-0.858768
 23
3.864390
  0
POLYLINE
  8
PLAN_1
 62
     2
  6
CONTINUOUS
 66
     1
 40
0.003000
 41
0.003000
  0
VERTEX
  8
PLAN_1
 62
     2
  6
CONTINUOUS
 10
-0.881984
 20
3.831079
  0
VERTEX
  8
PLAN_1
 62
     2
  6
CONTINUOUS
 10
-0.858768
 20
3.831079
  0
VERTEX
  8
PLAN_1
 62
     2
  6
CONTINUOUS
 10
-0.858768
 20
3.864390
  0
VERTEX
  8
PLAN_1
 62
     2
  6
CONTINUOUS
 10
-0.881984
 20
3.831079
  0
SEQEND
  8
0
  0
POLYLINE
  8
PLAN_1
 62
     2
  6
CONTINUOUS
 66
     1
 40
0.003000
 41
0.003000
  0
VERTEX
  8
PLAN_1
 62
     2
  6
CONTINUOUS
 10
-0.811827
 20
3.847228
  0
VERTEX
  8
PLAN_1
 62
     2
  6
CONTINUOUS
 10
-0.811319
 20
3.847228
  0
VERTEX
  8
PLAN_1
 62
     2
  6
CONTINUOUS
 10
-0.810815
 20
3.847228
  0
VERTEX
  8
PLAN_1
 62
     2
  6
CONTINUOUS
 10
-0.810311
 20
3.847228
  0
VERTEX
  8
PLAN_1
 62
     2
  6
CONTINUOUS
 10
-0.809807
 20
3.847228
  0
VERTEX
  8
PLAN_1
 62
     2
  6
CONTINUOUS
 10
-0.808795
 20
3.846724
  0
VERTEX
  8
PLAN_1
 62
     2
  6
CONTINUOUS
 10
-0.808291
 20
3.846724
  0
VERTEX
  8
PLAN_1
 62
     2
  6
CONTINUOUS
 10
-0.807787
 20
3.846724
  0
VERTEX
  8
PLAN_1
 62
     2
  6
CONTINUOUS
 10
-0.807283
 20
3.846724
  0
VERTEX
  8
PLAN_1
 62
     2
  6
CONTINUOUS
 10
-0.804760
 20
3.847228
  0
VERTEX
  8
PLAN_1
 62
     2
  6
CONTINUOUS
 10
-0.802236
 20
3.847736
  0
VERTEX
  8
PLAN_1
 62
     2
  6
CONTINUOUS
 10
-0.799713
 20
3.848240
  0
VERTEX
  8
PLAN_1
 62
     2
  6
CONTINUOUS
 10
-0.797693
 20
3.849248
  0
VERTEX
  8
PLAN_1
 62
     2
  6
CONTINUOUS
 10
-0.795673
 20
3.851268
  0
VERTEX
  8
PLAN_1
 62
     2
  6
CONTINUOUS
 10
-0.794665
 20
3.853287
  0
VERTEX
  8
PLAN_1
 62
     2
  6
CONTINUOUS
 10
-0.793654
 20
3.855811
  0
VERTEX
  8
PLAN_1
 62
     2
  6
CONTINUOUS
 10
-0.793150
 20
3.858839
  0
VERTEX
  8
PLAN_1
 62
     2
  6
CONTINUOUS
 10
-0.793654
 20
3.860858
  0
VERTEX
  8
PLAN_1
 62
     2
  6
CONTINUOUS
 10
-0.793654
 20
3.862370
  0
VERTEX
  8
PLAN_1
 62
     2
  6
CONTINUOUS
 10
-0.794665
 20
3.864390
  0
VERTEX
  8
PLAN_1
 62
     2
  6
CONTINUOUS
 10
-0.796177
 20
3.866409
  0
VERTEX
  8
PLAN_1
 62
     2
  6
CONTINUOUS
 10
-0.797693
 20
3.867925
  0
VERTEX
  8
PLAN_1
 62
     2
  6
CONTINUOUS
 10
-0.800217
 20
3.869437
  0
VERTEX
  8
PLAN_1
 62
     2
  6
CONTINUOUS
 10
-0.803244
 20
3.869941
  0
VERTEX
  8
PLAN_1
 62
     2
  6
CONTINUOUS
 10
-0.806780
 20
3.870449
  0
VERTEX
  8
PLAN_1
 62
     2
  6
CONTINUOUS
 10
-0.811319
 20
3.869941
  0
VERTEX
  8
PLAN_1
 62
     2
  6
CONTINUOUS
 10
-0.814350
 20
3.868933
  0
VERTEX
  8
PLAN_1
 62
     2
  6
CONTINUOUS
 10
-0.816874
 20
3.866913
  0
VERTEX
  8
PLAN_1
 62
     2
  6
CONTINUOUS
 10
-0.818894
 20
3.864390
  0
VERTEX
  8
PLAN_1
 62
     2
  6
CONTINUOUS
 10
-0.819902
 20
3.861866
  0
VERTEX
  8
PLAN_1
 62
     2
  6
CONTINUOUS
 10
-0.820406
 20
3.859343
  0
VERTEX
  8
PLAN_1
 62
     2
  6
CONTINUOUS
 10
-0.820909
 20
3.856819
  0
VERTEX
  8
PLAN_1
 62
     2
  6
CONTINUOUS
 10
-0.820909
 20
3.854799
  0
VERTEX
  8
PLAN_1
 62
     2
  6
CONTINUOUS
 10
-0.829996
 20
3.854799
  0
VERTEX
  8
PLAN_1
 62
     2
  6
CONTINUOUS
 10
-0.829996
 20
3.858839
  0
VERTEX
  8
PLAN_1
 62
     2
  6
CONTINUOUS
 10
-0.828988
 20
3.862878
  0
VERTEX
  8
PLAN_1
 62
     2
  6
CONTINUOUS
 10
-0.827472
 20
3.866913
  0
VERTEX
  8
PLAN_1
 62
     2
  6
CONTINUOUS
 10
-0.825453
 20
3.870953
  0
VERTEX
  8
PLAN_1
 62
     2
  6
CONTINUOUS
 10
-0.823941
 20
3.872465
  0
VERTEX
  8
PLAN_1
 62
     2
  6
CONTINUOUS
 10
-0.822425
 20
3.873980
  0
VERTEX
  8
PLAN_1
 62
     2
  6
CONTINUOUS
 10
-0.820406
 20
3.875496
  0
VERTEX
  8
PLAN_1
 62
     2
  6
CONTINUOUS
 10
-0.818386
 20
3.876504
  0
VERTEX
  8
PLAN_1
 62
     2
  6
CONTINUOUS
 10
-0.815862
 20
3.877512
  0
VERTEX
  8
PLAN_1
 62
     2
  6
CONTINUOUS
 10
-0.812835
 20
3.878020
  0
VERTEX
  8
PLAN_1
 62
     2
  6
CONTINUOUS
 10
-0.809807
 20
3.878524
  0
VERTEX
  8
PLAN_1
 62
     2
  6
CONTINUOUS
 10
-0.806272
 20
3.878524
  0
VERTEX
  8
PLAN_1
 62
     2
  6
CONTINUOUS
 10
-0.801224
 20
3.878524
  0
VERTEX
  8
PLAN_1
 62
     2
  6
CONTINUOUS
 10
-0.796685
 20
3.877008
  0
VERTEX
  8
PLAN_1
 62
     2
  6
CONTINUOUS
 10
-0.793150
 20
3.875496
  0
VERTEX
  8
PLAN_1
 62
     2
  6
CONTINUOUS
 10
-0.789618
 20
3.872972
  0
VERTEX
  8
PLAN_1
 62
     2
  6
CONTINUOUS
 10
-0.787094
 20
3.870449
  0
VERTEX
  8
PLAN_1
 62
     2
  6
CONTINUOUS
 10
-0.785579
 20
3.866913
  0
VERTEX
  8
PLAN_1
 62
     2
  6
CONTINUOUS
 10
-0.784067
 20
3.863382
  0
VERTEX
  8
PLAN_1
 62
     2
  6
CONTINUOUS
 10
-0.784067
 20
3.859343
  0
VERTEX
  8
PLAN_1
 62
     2
  6
CONTINUOUS
 10
-0.784067
 20
3.856315
  0
VERTEX
  8
PLAN_1
 62
     2
  6
CONTINUOUS
 10
-0.784571
 20
3.853287
  0
VERTEX
  8
PLAN_1
 62
     2
  6
CONTINUOUS
 10
-0.785579
 20
3.850764
  0
VERTEX
  8
PLAN_1
 62
     2
  6
CONTINUOUS
 10
-0.787094
 20
3.848744
  0
VERTEX
  8
PLAN_1
 62
     2
  6
CONTINUOUS
 10
-0.788606
 20
3.847228
  0
VERTEX
  8
PLAN_1
 62
     2
  6
CONTINUOUS
 10
-0.790122
 20
3.845717
  0
VERTEX
  8
PLAN_1
 62
     2
  6
CONTINUOUS
 10
-0.791638
 20
3.844705
  0
VERTEX
  8
PLAN_1
 62
     2
  6
CONTINUOUS
 10
-0.793150
 20
3.844201
  0
VERTEX
  8
PLAN_1
 62
     2
  6
CONTINUOUS
 10
-0.790626
 20
3.843193
  0
VERTEX
  8
PLAN_1
 62
     2
  6
CONTINUOUS
 10
-0.788102
 20
3.841677
  0
VERTEX
  8
PLAN_1
 62
     2
  6
CONTINUOUS
 10
-0.786083
 20
3.840165
  0
VERTEX
  8
PLAN_1
 62
     2
  6
CONTINUOUS
 10
-0.784571
 20
3.838146
  0
VERTEX
  8
PLAN_1
 62
     2
  6
CONTINUOUS
 10
-0.783055
 20
3.836126
  0
VERTEX
  8
PLAN_1
 62
     2
  6
CONTINUOUS
 10
-0.782047
 20
3.833602
  0
VERTEX
  8
PLAN_1
 62
     2
  6
CONTINUOUS
 10
-0.781035
 20
3.830575
  0
VERTEX
  8
PLAN_1
 62
     2
  6
CONTINUOUS
 10
-0.781035
 20
3.827039
  0
VERTEX
  8
PLAN_1
 62
     2
  6
CONTINUOUS
 10
-0.781543
 20
3.822496
  0
VERTEX
  8
PLAN_1
 62
     2
  6
CONTINUOUS
 10
-0.782551
 20
3.818461
  0
VERTEX
  8
PLAN_1
 62
     2
  6
CONTINUOUS
 10
-0.784571
 20
3.814421
  0
VERTEX
  8
PLAN_1
 62
     2
  6
CONTINUOUS
 10
-0.787094
 20
3.810890
  0
VERTEX
  8
PLAN_1
 62
     2
  6
CONTINUOUS
 10
-0.789114
 20
3.809374
  0
VERTEX
  8
PLAN_1
 62
     2
  6
CONTINUOUS
 10
-0.790626
 20
3.807862
  0
VERTEX
  8
PLAN_1
 62
     2
  6
CONTINUOUS
 10
-0.793150
 20
3.806346
  0
VERTEX
  8
PLAN_1
 62
     2
  6
CONTINUOUS
 10
-0.795169
 20
3.805339
  0
VERTEX
  8
PLAN_1
 62
     2
  6
CONTINUOUS
 10
-0.798197
 20
3.804831
  0
VERTEX
  8
PLAN_1
 62
     2
  6
CONTINUOUS
 10
-0.800720
 20
3.803823
  0
VERTEX
  8
PLAN_1
 62
     2
  6
CONTINUOUS
 10
-0.803748
 20
3.803823
  0
VERTEX
  8
PLAN_1
 62
     2
  6
CONTINUOUS
 10
-0.807283
 20
3.803319
  0
VERTEX
  8
PLAN_1
 62
     2
  6
CONTINUOUS
 10
-0.809303
 20
3.803823
  0
VERTEX
  8
PLAN_1
 62
     2
  6
CONTINUOUS
 10
-0.811319
 20
3.803823
  0
VERTEX
  8
PLAN_1
 62
     2
  6
CONTINUOUS
 10
-0.812835
 20
3.803823
  0
VERTEX
  8
PLAN_1
 62
     2
  6
CONTINUOUS
 10
-0.814854
 20
3.804327
  0
VERTEX
  8
PLAN_1
 62
     2
  6
CONTINUOUS
 10
-0.816370
 20
3.804831
  0
VERTEX
  8
PLAN_1
 62
     2
  6
CONTINUOUS
 10
-0.817882
 20
3.805339
  0
VERTEX
  8
PLAN_1
 62
     2
  6
CONTINUOUS
 10
-0.819398
 20
3.805843
  0
VERTEX
  8
PLAN_1
 62
     2
  6
CONTINUOUS
 10
-0.820909
 20
3.806850
  0
VERTEX
  8
PLAN_1
 62
     2
  6
CONTINUOUS
 10
-0.823433
 20
3.808366
  0
VERTEX
  8
PLAN_1
 62
     2
  6
CONTINUOUS
 10
-0.825957
 20
3.810890
  0
VERTEX
  8
PLAN_1
 62
     2
  6
CONTINUOUS
 10
-0.827472
 20
3.812909
  0
VERTEX
  8
PLAN_1
 62
     2
  6
CONTINUOUS
 10
-0.828988
 20
3.815937
  0
VERTEX
  8
PLAN_1
 62
     2
  6
CONTINUOUS
 10
-0.829996
 20
3.818461
  0
VERTEX
  8
PLAN_1
 62
     2
  6
CONTINUOUS
 10
-0.831004
 20
3.821488
  0
VERTEX
  8
PLAN_1
 62
     2
  6
CONTINUOUS
 10
-0.831512
 20
3.824516
  0
VERTEX
  8
PLAN_1
 62
     2
  6
CONTINUOUS
 10
-0.832016
 20
3.828051
  0
VERTEX
  8
PLAN_1
 62
     2
  6
CONTINUOUS
 10
-0.822425
 20
3.828051
  0
VERTEX
  8
PLAN_1
 62
     2
  6
CONTINUOUS
 10
-0.821921
 20
3.825020
  0
VERTEX
  8
PLAN_1
 62
     2
  6
CONTINUOUS
 10
-0.821921
 20
3.822496
  0
VERTEX
  8
PLAN_1
 62
     2
  6
CONTINUOUS
 10
-0.820909
 20
3.819972
  0
VERTEX
  8
PLAN_1
 62
     2
  6
CONTINUOUS
 10
-0.819398
 20
3.817449
  0
VERTEX
  8
PLAN_1
 62
     2
  6
CONTINUOUS
 10
-0.817378
 20
3.814925
  0
VERTEX
  8
PLAN_1
 62
     2
  6
CONTINUOUS
 10
-0.814854
 20
3.813413
  0
VERTEX
  8
PLAN_1
 62
     2
  6
CONTINUOUS
 10
-0.811319
 20
3.812402
  0
VERTEX
  8
PLAN_1
 62
     2
  6
CONTINUOUS
 10
-0.806780
 20
3.811898
  0
VERTEX
  8
PLAN_1
 62
     2
  6
CONTINUOUS
 10
-0.803244
 20
3.811898
  0
VERTEX
  8
PLAN_1
 62
     2
  6
CONTINUOUS
 10
-0.800217
 20
3.812909
  0
VERTEX
  8
PLAN_1
 62
     2
  6
CONTINUOUS
 10
-0.797693
 20
3.813917
  0
VERTEX
  8
PLAN_1
 62
     2
  6
CONTINUOUS
 10
-0.795169
 20
3.815433
  0
VERTEX
  8
PLAN_1
 62
     2
  6
CONTINUOUS
 10
-0.793150
 20
3.817957
  0
VERTEX
  8
PLAN_1
 62
     2
  6
CONTINUOUS
 10
-0.792142
 20
3.819972
  0
VERTEX
  8
PLAN_1
 62
     2
  6
CONTINUOUS
 10
-0.791130
 20
3.823004
  0
VERTEX
  8
PLAN_1
 62
     2
  6
CONTINUOUS
 10
-0.790626
 20
3.826031
  0
VERTEX
  8
PLAN_1
 62
     2
  6
CONTINUOUS
 10
-0.791130
 20
3.828051
  0
VERTEX
  8
PLAN_1
 62
     2
  6
CONTINUOUS
 10
-0.791130
 20
3.830067
  0
VERTEX
  8
PLAN_1
 62
     2
  6
CONTINUOUS
 10
-0.791638
 20
3.831583
  0
VERTEX
  8
PLAN_1
 62
     2
  6
CONTINUOUS
 10
-0.792646
 20
3.833098
  0
VERTEX
  8
PLAN_1
 62
     2
  6
CONTINUOUS
 10
-0.794665
 20
3.835622
  0
VERTEX
  8
PLAN_1
 62
     2
  6
CONTINUOUS
 10
-0.797189
 20
3.837134
  0
VERTEX
  8
PLAN_1
 62
     2
  6
CONTINUOUS
 10
-0.799713
 20
3.838146
  0
VERTEX
  8
PLAN_1
 62
     2
  6
CONTINUOUS
 10
-0.802740
 20
3.839154
  0
VERTEX
  8
PLAN_1
 62
     2
  6
CONTINUOUS
 10
-0.805264
 20
3.839154
  0
VERTEX
  8
PLAN_1
 62
     2
  6
CONTINUOUS
 10
-0.807787
 20
3.839154
  0
VERTEX
  8
PLAN_1
 62
     2
  6
CONTINUOUS
 10
-0.808291
 20
3.839154
  0
VERTEX
  8
PLAN_1
 62
     2
  6
CONTINUOUS
 10
-0.808795
 20
3.839154
  0
VERTEX
  8
PLAN_1
 62
     2
  6
CONTINUOUS
 10
-0.809303
 20
3.839154
  0
VERTEX
  8
PLAN_1
 62
     2
  6
CONTINUOUS
 10
-0.809807
 20
3.839154
  0
VERTEX
  8
PLAN_1
 62
     2
  6
CONTINUOUS
 10
-0.810311
 20
3.839154
  0
VERTEX
  8
PLAN_1
 62
     2
  6
CONTINUOUS
 10
-0.810815
 20
3.839154
  0
VERTEX
  8
PLAN_1
 62
     2
  6
CONTINUOUS
 10
-0.811319
 20
3.839154
  0
VERTEX
  8
PLAN_1
 62
     2
  6
CONTINUOUS
 10
-0.811827
 20
3.839154
  0
VERTEX
  8
PLAN_1
 62
     2
  6
CONTINUOUS
 10
-0.811827
 20
3.847228
  0
SEQEND
  8
0
  0
POLYLINE
  8
PLAN_1
 62
     2
  6
CONTINUOUS
 66
     1
 40
0.004035
 41
0.004035
  0
VERTEX
  8
PLAN_1
 62
     2
  6
CONTINUOUS
 10
-2.268992
 20
3.780606
  0
VERTEX
  8
PLAN_1
 62
     2
  6
CONTINUOUS
 10
-1.897508
 20
3.780606
  0
SEQEND
  8
0
  0
SOLID
  8
PLAN_1
 62
     2
 10
-2.120094
 20
3.780606
 11
-2.179150
 21
3.796252
 12
-2.120094
 22
3.780606
 13
-2.179150
 23
3.764453
  0
POLYLINE
  8
PLAN_1
 62
     2
  6
CONTINUOUS
 66
     1
 40
0.003000
 41
0.003000
  0
VERTEX
  8
PLAN_1
 62
     2
  6
CONTINUOUS
 10
-2.120094
 20
3.780606
  0
VERTEX
  8
PLAN_1
 62
     2
  6
CONTINUOUS
 10
-2.179150
 20
3.796252
  0
VERTEX
  8
PLAN_1
 62
     2
  6
CONTINUOUS
 10
-2.179150
 20
3.764453
  0
VERTEX
  8
PLAN_1
 62
     2
  6
CONTINUOUS
 10
-2.120094
 20
3.780606
  0
SEQEND
  8
0
  0
SOLID
  8
PLAN_1
 62
     2
 10
-1.926780
 20
3.780606
 11
-1.867728
 21
3.796252
 12
-1.926780
 22
3.780606
 13
-1.867728
 23
3.764453
  0
POLYLINE
  8
PLAN_1
 62
     2
  6
CONTINUOUS
 66
     1
 40
0.003000
 41
0.003000
  0
VERTEX
  8
PLAN_1
 62
     2
  6
CONTINUOUS
 10
-1.926780
 20
3.780606
  0
VERTEX
  8
PLAN_1
 62
     2
  6
CONTINUOUS
 10
-1.867728
 20
3.796252
  0
VERTEX
  8
PLAN_1
 62
     2
  6
CONTINUOUS
 10
-1.867728
 20
3.764453
  0
VERTEX
  8
PLAN_1
 62
     2
  6
CONTINUOUS
 10
-1.926780
 20
3.780606
  0
SEQEND
  8
0
  0
POLYLINE
  8
PLAN_1
 62
     2
  6
CONTINUOUS
 66
     1
 40
0.003000
 41
0.003000
  0
VERTEX
  8
PLAN_1
 62
     2
  6
CONTINUOUS
 10
-2.212965
 20
3.857831
  0
VERTEX
  8
PLAN_1
 62
     2
  6
CONTINUOUS
 10
-2.213469
 20
3.859846
  0
VERTEX
  8
PLAN_1
 62
     2
  6
CONTINUOUS
 10
-2.214480
 20
3.862370
  0
VERTEX
  8
PLAN_1
 62
     2
  6
CONTINUOUS
 10
-2.215488
 20
3.863886
  0
VERTEX
  8
PLAN_1
 62
     2
  6
CONTINUOUS
 10
-2.217004
 20
3.865906
  0
VERTEX
  8
PLAN_1
 62
     2
  6
CONTINUOUS
 10
-2.218516
 20
3.866913
  0
VERTEX
  8
PLAN_1
 62
     2
  6
CONTINUOUS
 10
-2.220535
 20
3.867925
  0
VERTEX
  8
PLAN_1
 62
     2
  6
CONTINUOUS
 10
-2.223059
 20
3.868933
  0
VERTEX
  8
PLAN_1
 62
     2
  6
CONTINUOUS
 10
-2.225583
 20
3.868933
  0
VERTEX
  8
PLAN_1
 62
     2
  6
CONTINUOUS
 10
-2.228106
 20
3.868933
  0
VERTEX
  8
PLAN_1
 62
     2
  6
CONTINUOUS
 10
-2.230630
 20
3.867925
  0
VERTEX
  8
PLAN_1
 62
     2
  6
CONTINUOUS
 10
-2.232650
 20
3.866913
  0
VERTEX
  8
PLAN_1
 62
     2
  6
CONTINUOUS
 10
-2.234669
 20
3.865906
  0
VERTEX
  8
PLAN_1
 62
     2
  6
CONTINUOUS
 10
-2.236181
 20
3.864390
  0
VERTEX
  8
PLAN_1
 62
     2
  6
CONTINUOUS
 10
-2.237697
 20
3.862370
  0
VERTEX
  8
PLAN_1
 62
     2
  6
CONTINUOUS
 10
-2.238705
 20
3.860354
  0
VERTEX
  8
PLAN_1
 62
     2
  6
CONTINUOUS
 10
-2.239717
 20
3.858335
  0
VERTEX
  8
PLAN_1
 62
     2
  6
CONTINUOUS
 10
-2.241228
 20
3.853791
  0
VERTEX
  8
PLAN_1
 62
     2
  6
CONTINUOUS
 10
-2.242240
 20
3.849248
  0
VERTEX
  8
PLAN_1
 62
     2
  6
CONTINUOUS
 10
-2.242744
 20
3.845213
  0
VERTEX
  8
PLAN_1
 62
     2
  6
CONTINUOUS
 10
-2.243248
 20
3.841677
  0
VERTEX
  8
PLAN_1
 62
     2
  6
CONTINUOUS
 10
-2.242744
 20
3.841677
  0
VERTEX
  8
PLAN_1
 62
     2
  6
CONTINUOUS
 10
-2.241736
 20
3.843193
  0
VERTEX
  8
PLAN_1
 62
     2
  6
CONTINUOUS
 10
-2.240724
 20
3.844705
  0
VERTEX
  8
PLAN_1
 62
     2
  6
CONTINUOUS
 10
-2.239213
 20
3.846220
  0
VERTEX
  8
PLAN_1
 62
     2
  6
CONTINUOUS
 10
-2.237193
 20
3.847736
  0
VERTEX
  8
PLAN_1
 62
     2
  6
CONTINUOUS
 10
-2.234669
 20
3.848744
  0
VERTEX
  8
PLAN_1
 62
     2
  6
CONTINUOUS
 10
-2.232146
 20
3.849752
  0
VERTEX
  8
PLAN_1
 62
     2
  6
CONTINUOUS
 10
-2.229118
 20
3.850260
  0
VERTEX
  8
PLAN_1
 62
     2
  6
CONTINUOUS
 10
-2.225583
 20
3.850764
  0
VERTEX
  8
PLAN_1
 62
     2
  6
CONTINUOUS
 10
-2.222051
 20
3.850260
  0
VERTEX
  8
PLAN_1
 62
     2
  6
CONTINUOUS
 10
-2.218012
 20
3.849248
  0
VERTEX
  8
PLAN_1
 62
     2
  6
CONTINUOUS
 10
-2.214480
 20
3.847736
  0
VERTEX
  8
PLAN_1
 62
     2
  6
CONTINUOUS
 10
-2.210441
 20
3.845717
  0
VERTEX
  8
PLAN_1
 62
     2
  6
CONTINUOUS
 10
-2.208929
 20
3.844201
  0
VERTEX
  8
PLAN_1
 62
     2
  6
CONTINUOUS
 10
-2.207413
 20
3.842689
  0
VERTEX
  8
PLAN_1
 62
     2
  6
CONTINUOUS
 10
-2.205898
 20
3.840669
  0
VERTEX
  8
PLAN_1
 62
     2
  6
CONTINUOUS
 10
-2.204890
 20
3.838650
  0
VERTEX
  8
PLAN_1
 62
     2
  6
CONTINUOUS
 10
-2.203882
 20
3.836126
  0
VERTEX
  8
PLAN_1
 62
     2
  6
CONTINUOUS
 10
-2.203374
 20
3.833602
  0
VERTEX
  8
PLAN_1
 62
     2
  6
CONTINUOUS
 10
-2.202870
 20
3.830575
  0
VERTEX
  8
PLAN_1
 62
     2
  6
CONTINUOUS
 10
-2.202366
 20
3.827543
  0
VERTEX
  8
PLAN_1
 62
     2
  6
CONTINUOUS
 10
-2.202870
 20
3.824516
  0
VERTEX
  8
PLAN_1
 62
     2
  6
CONTINUOUS
 10
-2.202870
 20
3.821992
  0
VERTEX
  8
PLAN_1
 62
     2
  6
CONTINUOUS
 10
-2.203374
 20
3.819972
  0
VERTEX
  8
PLAN_1
 62
     2
  6
CONTINUOUS
 10
-2.204386
 20
3.817449
  0
VERTEX
  8
PLAN_1
 62
     2
  6
CONTINUOUS
 10
-2.205394
 20
3.815433
  0
VERTEX
  8
PLAN_1
 62
     2
  6
CONTINUOUS
 10
-2.206406
 20
3.813413
  0
VERTEX
  8
PLAN_1
 62
     2
  6
CONTINUOUS
 10
-2.207917
 20
3.811394
  0
VERTEX
  8
PLAN_1
 62
     2
  6
CONTINUOUS
 10
-2.209433
 20
3.808870
  0
VERTEX
  8
PLAN_1
 62
     2
  6
CONTINUOUS
 10
-2.210945
 20
3.807354
  0
VERTEX
  8
PLAN_1
 62
     2
  6
CONTINUOUS
 10
-2.212461
 20
3.806346
  0
VERTEX
  8
PLAN_1
 62
     2
  6
CONTINUOUS
 10
-2.214480
 20
3.804831
  0
VERTEX
  8
PLAN_1
 62
     2
  6
CONTINUOUS
 10
-2.216500
 20
3.803823
  0
VERTEX
  8
PLAN_1
 62
     2
  6
CONTINUOUS
 10
-2.218516
 20
3.803319
  0
VERTEX
  8
PLAN_1
 62
     2
  6
CONTINUOUS
 10
-2.221547
 20
3.802307
  0
VERTEX
  8
PLAN_1
 62
     2
  6
CONTINUOUS
 10
-2.224575
 20
3.802307
  0
VERTEX
  8
PLAN_1
 62
     2
  6
CONTINUOUS
 10
-2.228106
 20
3.801803
  0
VERTEX
  8
PLAN_1
 62
     2
  6
CONTINUOUS
 10
-2.230126
 20
3.802307
  0
VERTEX
  8
PLAN_1
 62
     2
  6
CONTINUOUS
 10
-2.232650
 20
3.802307
  0
VERTEX
  8
PLAN_1
 62
     2
  6
CONTINUOUS
 10
-2.235173
 20
3.803319
  0
VERTEX
  8
PLAN_1
 62
     2
  6
CONTINUOUS
 10
-2.237697
 20
3.804327
  0
VERTEX
  8
PLAN_1
 62
     2
  6
CONTINUOUS
 10
-2.240220
 20
3.805843
  0
VERTEX
  8
PLAN_1
 62
     2
  6
CONTINUOUS
 10
-2.242744
 20
3.807354
  0
VERTEX
  8
PLAN_1
 62
     2
  6
CONTINUOUS
 10
-2.244764
 20
3.809878
  0
VERTEX
  8
PLAN_1
 62
     2
  6
CONTINUOUS
 10
-2.246783
 20
3.812402
  0
VERTEX
  8
PLAN_1
 62
     2
  6
CONTINUOUS
 10
-2.248295
 20
3.815433
  0
VERTEX
  8
PLAN_1
 62
     2
  6
CONTINUOUS
 10
-2.249811
 20
3.817957
  0
VERTEX
  8
PLAN_1
 62
     2
  6
CONTINUOUS
 10
-2.250819
 20
3.820984
  0
VERTEX
  8
PLAN_1
 62
     2
  6
CONTINUOUS
 10
-2.251327
 20
3.824516
  0
VERTEX
  8
PLAN_1
 62
     2
  6
CONTINUOUS
 10
-2.251831
 20
3.827543
  0
VERTEX
  8
PLAN_1
 62
     2
  6
CONTINUOUS
 10
-2.252335
 20
3.831079
  0
VERTEX
  8
PLAN_1
 62
     2
  6
CONTINUOUS
 10
-2.252335
 20
3.834610
  0
VERTEX
  8
PLAN_1
 62
     2
  6
CONTINUOUS
 10
-2.252335
 20
3.838146
  0
VERTEX
  8
PLAN_1
 62
     2
  6
CONTINUOUS
 10
-2.252335
 20
3.844201
  0
VERTEX
  8
PLAN_1
 62
     2
  6
CONTINUOUS
 10
-2.251327
 20
3.850764
  0
VERTEX
  8
PLAN_1
 62
     2
  6
CONTINUOUS
 10
-2.249811
 20
3.857323
  0
VERTEX
  8
PLAN_1
 62
     2
  6
CONTINUOUS
 10
-2.247287
 20
3.863382
  0
VERTEX
  8
PLAN_1
 62
     2
  6
CONTINUOUS
 10
-2.245772
 20
3.866409
  0
VERTEX
  8
PLAN_1
 62
     2
  6
CONTINUOUS
 10
-2.243752
 20
3.868933
  0
VERTEX
  8
PLAN_1
 62
     2
  6
CONTINUOUS
 10
-2.241228
 20
3.871457
  0
VERTEX
  8
PLAN_1
 62
     2
  6
CONTINUOUS
 10
-2.238705
 20
3.873476
  0
VERTEX
  8
PLAN_1
 62
     2
  6
CONTINUOUS
 10
-2.236181
 20
3.874988
  0
VERTEX
  8
PLAN_1
 62
     2
  6
CONTINUOUS
 10
-2.232650
 20
3.876000
  0
VERTEX
  8
PLAN_1
 62
     2
  6
CONTINUOUS
 10
-2.229118
 20
3.877008
  0
VERTEX
  8
PLAN_1
 62
     2
  6
CONTINUOUS
 10
-2.225583
 20
3.877008
  0
VERTEX
  8
PLAN_1
 62
     2
  6
CONTINUOUS
 10
-2.222051
 20
3.877008
  0
VERTEX
  8
PLAN_1
 62
     2
  6
CONTINUOUS
 10
-2.218516
 20
3.876000
  0
VERTEX
  8
PLAN_1
 62
     2
  6
CONTINUOUS
 10
-2.215488
 20
3.874988
  0
VERTEX
  8
PLAN_1
 62
     2
  6
CONTINUOUS
 10
-2.211957
 20
3.872972
  0
VERTEX
  8
PLAN_1
 62
     2
  6
CONTINUOUS
 10
-2.208929
 20
3.870449
  0
VERTEX
  8
PLAN_1
 62
     2
  6
CONTINUOUS
 10
-2.206909
 20
3.866913
  0
VERTEX
  8
PLAN_1
 62
     2
  6
CONTINUOUS
 10
-2.205898
 20
3.864894
  0
VERTEX
  8
PLAN_1
 62
     2
  6
CONTINUOUS
 10
-2.204890
 20
3.862878
  0
VERTEX
  8
PLAN_1
 62
     2
  6
CONTINUOUS
 10
-2.204386
 20
3.860354
  0
VERTEX
  8
PLAN_1
 62
     2
  6
CONTINUOUS
 10
-2.204386
 20
3.857831
  0
VERTEX
  8
PLAN_1
 62
     2
  6
CONTINUOUS
 10
-2.212965
 20
3.857831
  0
SEQEND
  8
0
  0
POLYLINE
  8
PLAN_1
 62
     2
  6
CONTINUOUS
 66
     1
 40
0.003000
 41
0.003000
  0
VERTEX
  8
PLAN_1
 62
     2
  6
CONTINUOUS
 10
-2.226594
 20
3.810386
  0
VERTEX
  8
PLAN_1
 62
     2
  6
CONTINUOUS
 10
-2.223059
 20
3.810386
  0
VERTEX
  8
PLAN_1
 62
     2
  6
CONTINUOUS
 10
-2.220535
 20
3.811394
  0
VERTEX
  8
PLAN_1
 62
     2
  6
CONTINUOUS
 10
-2.218012
 20
3.812909
  0
VERTEX
  8
PLAN_1
 62
     2
  6
CONTINUOUS
 10
-2.215992
 20
3.814925
  0
VERTEX
  8
PLAN_1
 62
     2
  6
CONTINUOUS
 10
-2.214480
 20
3.817449
  0
VERTEX
  8
PLAN_1
 62
     2
  6
CONTINUOUS
 10
-2.212965
 20
3.819972
  0
VERTEX
  8
PLAN_1
 62
     2
  6
CONTINUOUS
 10
-2.212461
 20
3.823508
  0
VERTEX
  8
PLAN_1
 62
     2
  6
CONTINUOUS
 10
-2.211957
 20
3.827039
  0
VERTEX
  8
PLAN_1
 62
     2
  6
CONTINUOUS
 10
-2.212461
 20
3.829563
  0
VERTEX
  8
PLAN_1
 62
     2
  6
CONTINUOUS
 10
-2.212965
 20
3.832087
  0
VERTEX
  8
PLAN_1
 62
     2
  6
CONTINUOUS
 10
-2.213976
 20
3.834610
  0
VERTEX
  8
PLAN_1
 62
     2
  6
CONTINUOUS
 10
-2.214984
 20
3.837134
  0
VERTEX
  8
PLAN_1
 62
     2
  6
CONTINUOUS
 10
-2.217004
 20
3.839154
  0
VERTEX
  8
PLAN_1
 62
     2
  6
CONTINUOUS
 10
-2.219528
 20
3.840669
  0
VERTEX
  8
PLAN_1
 62
     2
  6
CONTINUOUS
 10
-2.223059
 20
3.842181
  0
VERTEX
  8
PLAN_1
 62
     2
  6
CONTINUOUS
 10
-2.226594
 20
3.842181
  0
VERTEX
  8
PLAN_1
 62
     2
  6
CONTINUOUS
 10
-2.230126
 20
3.842181
  0
VERTEX
  8
PLAN_1
 62
     2
  6
CONTINUOUS
 10
-2.233657
 20
3.841173
  0
VERTEX
  8
PLAN_1
 62
     2
  6
CONTINUOUS
 10
-2.236181
 20
3.839657
  0
VERTEX
  8
PLAN_1
 62
     2
  6
CONTINUOUS
 10
-2.238201
 20
3.837642
  0
VERTEX
  8
PLAN_1
 62
     2
  6
CONTINUOUS
 10
-2.239717
 20
3.835118
  0
VERTEX
  8
PLAN_1
 62
     2
  6
CONTINUOUS
 10
-2.240724
 20
3.832591
  0
VERTEX
  8
PLAN_1
 62
     2
  6
CONTINUOUS
 10
-2.241736
 20
3.829563
  0
VERTEX
  8
PLAN_1
 62
     2
  6
CONTINUOUS
 10
-2.241736
 20
3.826535
  0
VERTEX
  8
PLAN_1
 62
     2
  6
CONTINUOUS
 10
-2.241736
 20
3.823508
  0
VERTEX
  8
PLAN_1
 62
     2
  6
CONTINUOUS
 10
-2.240724
 20
3.820480
  0
VERTEX
  8
PLAN_1
 62
     2
  6
CONTINUOUS
 10
-2.239717
 20
3.817957
  0
VERTEX
  8
PLAN_1
 62
     2
  6
CONTINUOUS
 10
-2.238201
 20
3.815433
  0
VERTEX
  8
PLAN_1
 62
     2
  6
CONTINUOUS
 10
-2.236181
 20
3.813413
  0
VERTEX
  8
PLAN_1
 62
     2
  6
CONTINUOUS
 10
-2.233154
 20
3.811898
  0
VERTEX
  8
PLAN_1
 62
     2
  6
CONTINUOUS
 10
-2.230126
 20
3.810386
  0
VERTEX
  8
PLAN_1
 62
     2
  6
CONTINUOUS
 10
-2.226594
 20
3.810386
  0
SEQEND
  8
0
  0
POLYLINE
  8
PLAN_1
 62
     2
  6
CONTINUOUS
 66
     1
 40
0.004035
 41
0.004035
  0
VERTEX
  8
PLAN_1
 62
     2
  6
CONTINUOUS
 10
-1.926780
 20
3.646346
  0
VERTEX
  8
PLAN_1
 62
     2
  6
CONTINUOUS
 10
-1.926780
 20
3.803823
  0
SEQEND
  8
0
  0
POLYLINE
  8
PLAN_1
 62
     2
  6
CONTINUOUS
 66
     1
 40
0.004035
 41
0.004035
  0
VERTEX
  8
PLAN_1
 62
     2
  6
CONTINUOUS
 10
-2.120094
 20
3.646346
  0
VERTEX
  8
PLAN_1
 62
     2
  6
CONTINUOUS
 10
-2.120094
 20
3.803823
  0
SEQEND
  8
0
  0
POLYLINE
  8
PLAN_1
 62
     2
  6
CONTINUOUS
 66
     1
 40
0.004035
 41
0.004035
  0
VERTEX
  8
PLAN_1
 62
     2
  6
CONTINUOUS
 10
-2.022177
 20
3.646850
  0
VERTEX
  8
PLAN_1
 62
     2
  6
CONTINUOUS
 10
-2.022177
 20
3.755874
  0
SEQEND
  8
0
  0
POLYLINE
  8
PLAN_1
 62
     2
  6
CONTINUOUS
 66
     1
 40
0.004035
 41
0.004035
  0
VERTEX
  8
PLAN_1
 62
     2
  6
CONTINUOUS
 10
-1.596181
 20
3.649374
  0
VERTEX
  8
PLAN_1
 62
     2
  6
CONTINUOUS
 10
-1.596181
 20
3.805339
  0
SEQEND
  8
0
  0
POLYLINE
  8
PLAN_1
 62
     2
  6
CONTINUOUS
 66
     1
 40
0.004035
 41
0.004035
  0
VERTEX
  8
PLAN_1
 62
     2
  6
CONTINUOUS
 10
-2.022177
 20
3.804831
  0
VERTEX
  8
PLAN_1
 62
     2
  6
CONTINUOUS
 10
-2.022177
 20
3.962815
  0
SEQEND
  8
0
  0
POLYLINE
  8
PLAN_1
 62
     2
  6
CONTINUOUS
 66
     1
 40
0.004035
 41
0.004035
  0
VERTEX
  8
PLAN_1
 62
     2
  6
CONTINUOUS
 10
-0.073402
 20
1.655677
  0
VERTEX
  8
PLAN_1
 62
     2
  6
CONTINUOUS
 10
-0.073402
 20
3.960291
  0
SEQEND
  8
0
  0
ENDSEC
  0
EOF
