  0
SECTION
  2
HEADER
  9
$ACADVER
  1
AC1006
  9
$EXTMIN
 10
-2.076197
 20
-3.199843
  9
$EXTMAX
 10
2.073000
 20
3.198000
  9
$LTSCALE
 40
0.000394
  9
$PDMODE
 70
    35
  9
$PDSIZE
 40
0.000315
  0
ENDSEC
  0
SECTION
  2
TABLES
  0
TABLE
  2
LTYPE
 70
     9
  0
LTYPE
  2
CONTINUOUS
 70
    64
  3
Solid line
 72
    65
 73
     0
 40
0.000000
  0
LTYPE
  2
DASHED
 70
    64
  3
__ __ __ __ __ __ __ __ __ __ __ __ __ __ __
 72
    65
 73
     2
 40
0.000003
 49
0.000002
 49
-0.000001
  0
LTYPE
  2
HIDDEN
 70
    64
  3
 _ _ _ _ _ _ _ _ _ _ _ _ _ _ _ _ _ _ _ _ _ _
 72
    65
 73
     2
 40
0.000001
 49
0.000001
 49
-0.000000
  0
LTYPE
  2
CENTER
 70
    64
  3
____ _ ____ _ ____ _ ____ _ ____ _ ____ _ ____
 72
    65
 73
     4
 40
0.000008
 49
0.000005
 49
-0.000001
 49
0.000001
 49
-0.000001
  0
LTYPE
  2
PHANTOM
 70
    64
  3
_____ _ _ _____ _ _ _____ _ _ _____ _ _ ____
 72
    65
 73
     6
 40
0.000010
 49
0.000005
 49
-0.000001
 49
0.000001
 49
-0.000001
 49
0.000001
 49
-0.000001
  0
LTYPE
  2
DOT
 70
    64
  3
...............................................
 72
    65
 73
     2
 40
0.000001
 49
0.000000
 49
-0.000001
  0
LTYPE
  2
DASHDOT
 70
    64
  3
__ . __ . __ . __ . __ . __ . __ . __ . __ . __
 72
    65
 73
     4
 40
0.000004
 49
0.000002
 49
-0.000001
 49
0.000000
 49
-0.000001
  0
LTYPE
  2
BORDER
 70
    64
  3
__ __ . __ __ . __ __ . __ __ . __ __ . __ __
 72
    65
 73
     6
 40
0.000007
 49
0.000002
 49
-0.000001
 49
0.000002
 49
-0.000001
 49
0.000000
 49
-0.000001
  0
LTYPE
  2
DIVIDE
 70
    64
  3
__ . . __ . . __ . . __ . . __ . . __ . . __
 72
    65
 73
     6
 40
0.000005
 49
0.000002
 49
-0.000001
 49
0.000000
 49
-0.000001
 49
0.000000
 49
-0.000001
  0
LTYPE
  2
DOTDOT
 70
    64
  3
 . .  . .  . .  . .  . .  . . 
 72
    65
 73
     5
 40
0.000002
 49
-0.000001
 49
0.000000
 49
-0.000001
 49
0.000000
 49
-0.000001
  0
ENDTAB
  0
TABLE
  2
STYLE
 70
     0
  0
ENDTAB
  0
TABLE
  2
LAYER
 70
     3
  0
LAYER
  2
FOREGROUND
 70
    64
 62
     7
  6
CONTINUOUS
  0
LAYER
  2
BACKGROUND
 70
    65
 62
    -7
  6
CONTINUOUS
  0
LAYER
  2
PLAN_1
 70
    64
 62
     7
  6
CONTINUOUS
  0
ENDTAB
  0
ENDSEC
  0
SECTION
  2
ENTITIES
  0
POLYLINE
  8
PLAN_1
  6
CONTINUOUS
 66
     1
 40
0.003000
 41
0.003000
  0
VERTEX
  8
PLAN_1
  6
CONTINUOUS
 10
0.212429
 20
-3.165051
  0
VERTEX
  8
PLAN_1
  6
CONTINUOUS
 10
0.055280
 20
-3.165051
  0
VERTEX
  8
PLAN_1
  6
CONTINUOUS
 10
0.055280
 20
-3.142661
  0
VERTEX
  8
PLAN_1
  6
CONTINUOUS
 10
0.177638
 20
-2.989913
  0
VERTEX
  8
PLAN_1
  6
CONTINUOUS
 10
0.064476
 20
-2.989913
  0
VERTEX
  8
PLAN_1
  6
CONTINUOUS
 10
0.064476
 20
-2.965921
  0
VERTEX
  8
PLAN_1
  6
CONTINUOUS
 10
0.212429
 20
-2.965921
  0
VERTEX
  8
PLAN_1
  6
CONTINUOUS
 10
0.212429
 20
-2.989114
  0
VERTEX
  8
PLAN_1
  6
CONTINUOUS
 10
0.089669
 20
-3.141461
  0
VERTEX
  8
PLAN_1
  6
CONTINUOUS
 10
0.212429
 20
-3.141461
  0
VERTEX
  8
PLAN_1
  6
CONTINUOUS
 10
0.212429
 20
-3.165051
  0
SEQEND
  8
0
  0
POLYLINE
  8
PLAN_1
  6
CONTINUOUS
 66
     1
 40
0.003000
 41
0.003000
  0
VERTEX
  8
PLAN_1
  6
CONTINUOUS
 10
0.379571
 20
-3.025902
  0
VERTEX
  8
PLAN_1
  6
CONTINUOUS
 10
0.377972
 20
-3.019504
  0
VERTEX
  8
PLAN_1
  6
CONTINUOUS
 10
0.375972
 20
-3.013906
  0
VERTEX
  8
PLAN_1
  6
CONTINUOUS
 10
0.373575
 20
-3.009106
  0
VERTEX
  8
PLAN_1
  6
CONTINUOUS
 10
0.370374
 20
-3.004709
  0
VERTEX
  8
PLAN_1
  6
CONTINUOUS
 10
0.367177
 20
-3.000709
  0
VERTEX
  8
PLAN_1
  6
CONTINUOUS
 10
0.363976
 20
-2.997508
  0
VERTEX
  8
PLAN_1
  6
CONTINUOUS
 10
0.359976
 20
-2.994311
  0
VERTEX
  8
PLAN_1
  6
CONTINUOUS
 10
0.355980
 20
-2.991909
  0
VERTEX
  8
PLAN_1
  6
CONTINUOUS
 10
0.351980
 20
-2.989913
  0
VERTEX
  8
PLAN_1
  6
CONTINUOUS
 10
0.347980
 20
-2.988311
  0
VERTEX
  8
PLAN_1
  6
CONTINUOUS
 10
0.343984
 20
-2.987114
  0
VERTEX
  8
PLAN_1
  6
CONTINUOUS
 10
0.339587
 20
-2.985913
  0
VERTEX
  8
PLAN_1
  6
CONTINUOUS
 10
0.331587
 20
-2.984713
  0
VERTEX
  8
PLAN_1
  6
CONTINUOUS
 10
0.323992
 20
-2.984315
  0
VERTEX
  8
PLAN_1
  6
CONTINUOUS
 10
0.317193
 20
-2.984713
  0
VERTEX
  8
PLAN_1
  6
CONTINUOUS
 10
0.310795
 20
-2.985913
  0
VERTEX
  8
PLAN_1
  6
CONTINUOUS
 10
0.304398
 20
-2.987114
  0
VERTEX
  8
PLAN_1
  6
CONTINUOUS
 10
0.298398
 20
-2.989512
  0
VERTEX
  8
PLAN_1
  6
CONTINUOUS
 10
0.292799
 20
-2.992311
  0
VERTEX
  8
PLAN_1
  6
CONTINUOUS
 10
0.287602
 20
-2.995512
  0
VERTEX
  8
PLAN_1
  6
CONTINUOUS
 10
0.282406
 20
-2.999909
  0
VERTEX
  8
PLAN_1
  6
CONTINUOUS
 10
0.277606
 20
-3.004307
  0
VERTEX
  8
PLAN_1
  6
CONTINUOUS
 10
0.273606
 20
-3.009504
  0
VERTEX
  8
PLAN_1
  6
CONTINUOUS
 10
0.269610
 20
-3.015504
  0
VERTEX
  8
PLAN_1
  6
CONTINUOUS
 10
0.266409
 20
-3.021902
  0
VERTEX
  8
PLAN_1
  6
CONTINUOUS
 10
0.263610
 20
-3.029098
  0
VERTEX
  8
PLAN_1
  6
CONTINUOUS
 10
0.261610
 20
-3.036697
  0
VERTEX
  8
PLAN_1
  6
CONTINUOUS
 10
0.260012
 20
-3.045094
  0
VERTEX
  8
PLAN_1
  6
CONTINUOUS
 10
0.259213
 20
-3.053890
  0
VERTEX
  8
PLAN_1
  6
CONTINUOUS
 10
0.258811
 20
-3.063488
  0
VERTEX
  8
PLAN_1
  6
CONTINUOUS
 10
0.258811
 20
-3.072283
  0
VERTEX
  8
PLAN_1
  6
CONTINUOUS
 10
0.259610
 20
-3.080681
  0
VERTEX
  8
PLAN_1
  6
CONTINUOUS
 10
0.260413
 20
-3.088677
  0
VERTEX
  8
PLAN_1
  6
CONTINUOUS
 10
0.262012
 20
-3.096276
  0
VERTEX
  8
PLAN_1
  6
CONTINUOUS
 10
0.264012
 20
-3.103472
  0
VERTEX
  8
PLAN_1
  6
CONTINUOUS
 10
0.266409
 20
-3.110272
  0
VERTEX
  8
PLAN_1
  6
CONTINUOUS
 10
0.269610
 20
-3.116669
  0
VERTEX
  8
PLAN_1
  6
CONTINUOUS
 10
0.273209
 20
-3.122665
  0
VERTEX
  8
PLAN_1
  6
CONTINUOUS
 10
0.275205
 20
-3.125465
  0
VERTEX
  8
PLAN_1
  6
CONTINUOUS
 10
0.277205
 20
-3.127866
  0
VERTEX
  8
PLAN_1
  6
CONTINUOUS
 10
0.279606
 20
-3.130264
  0
VERTEX
  8
PLAN_1
  6
CONTINUOUS
 10
0.282004
 20
-3.132665
  0
VERTEX
  8
PLAN_1
  6
CONTINUOUS
 10
0.284803
 20
-3.134661
  0
VERTEX
  8
PLAN_1
  6
CONTINUOUS
 10
0.287602
 20
-3.136661
  0
VERTEX
  8
PLAN_1
  6
CONTINUOUS
 10
0.290402
 20
-3.138661
  0
VERTEX
  8
PLAN_1
  6
CONTINUOUS
 10
0.293602
 20
-3.140260
  0
VERTEX
  8
PLAN_1
  6
CONTINUOUS
 10
0.296799
 20
-3.141461
  0
VERTEX
  8
PLAN_1
  6
CONTINUOUS
 10
0.300398
 20
-3.143059
  0
VERTEX
  8
PLAN_1
  6
CONTINUOUS
 10
0.303996
 20
-3.143858
  0
VERTEX
  8
PLAN_1
  6
CONTINUOUS
 10
0.307594
 20
-3.145059
  0
VERTEX
  8
PLAN_1
  6
CONTINUOUS
 10
0.311594
 20
-3.145461
  0
VERTEX
  8
PLAN_1
  6
CONTINUOUS
 10
0.315992
 20
-3.146260
  0
VERTEX
  8
PLAN_1
  6
CONTINUOUS
 10
0.320390
 20
-3.146260
  0
VERTEX
  8
PLAN_1
  6
CONTINUOUS
 10
0.324791
 20
-3.146657
  0
VERTEX
  8
PLAN_1
  6
CONTINUOUS
 10
0.327988
 20
-3.146260
  0
VERTEX
  8
PLAN_1
  6
CONTINUOUS
 10
0.331988
 20
-3.146260
  0
VERTEX
  8
PLAN_1
  6
CONTINUOUS
 10
0.335587
 20
-3.145461
  0
VERTEX
  8
PLAN_1
  6
CONTINUOUS
 10
0.339587
 20
-3.144661
  0
VERTEX
  8
PLAN_1
  6
CONTINUOUS
 10
0.343984
 20
-3.143059
  0
VERTEX
  8
PLAN_1
  6
CONTINUOUS
 10
0.347980
 20
-3.141461
  0
VERTEX
  8
PLAN_1
  6
CONTINUOUS
 10
0.352382
 20
-3.139461
  0
VERTEX
  8
PLAN_1
  6
CONTINUOUS
 10
0.356378
 20
-3.136661
  0
VERTEX
  8
PLAN_1
  6
CONTINUOUS
 10
0.360378
 20
-3.133465
  0
VERTEX
  8
PLAN_1
  6
CONTINUOUS
 10
0.364378
 20
-3.129465
  0
VERTEX
  8
PLAN_1
  6
CONTINUOUS
 10
0.367976
 20
-3.125067
  0
VERTEX
  8
PLAN_1
  6
CONTINUOUS
 10
0.371173
 20
-3.119870
  0
VERTEX
  8
PLAN_1
  6
CONTINUOUS
 10
0.374374
 20
-3.114272
  0
VERTEX
  8
PLAN_1
  6
CONTINUOUS
 10
0.377173
 20
-3.107472
  0
VERTEX
  8
PLAN_1
  6
CONTINUOUS
 10
0.379571
 20
-3.100276
  0
VERTEX
  8
PLAN_1
  6
CONTINUOUS
 10
0.381571
 20
-3.091878
  0
VERTEX
  8
PLAN_1
  6
CONTINUOUS
 10
0.407563
 20
-3.091878
  0
VERTEX
  8
PLAN_1
  6
CONTINUOUS
 10
0.406362
 20
-3.098677
  0
VERTEX
  8
PLAN_1
  6
CONTINUOUS
 10
0.405161
 20
-3.105075
  0
VERTEX
  8
PLAN_1
  6
CONTINUOUS
 10
0.403563
 20
-3.111071
  0
VERTEX
  8
PLAN_1
  6
CONTINUOUS
 10
0.401563
 20
-3.116669
  0
VERTEX
  8
PLAN_1
  6
CONTINUOUS
 10
0.399165
 20
-3.122268
  0
VERTEX
  8
PLAN_1
  6
CONTINUOUS
 10
0.396764
 20
-3.127067
  0
VERTEX
  8
PLAN_1
  6
CONTINUOUS
 10
0.394366
 20
-3.131465
  0
VERTEX
  8
PLAN_1
  6
CONTINUOUS
 10
0.391567
 20
-3.135862
  0
VERTEX
  8
PLAN_1
  6
CONTINUOUS
 10
0.388768
 20
-3.139862
  0
VERTEX
  8
PLAN_1
  6
CONTINUOUS
 10
0.385571
 20
-3.143461
  0
VERTEX
  8
PLAN_1
  6
CONTINUOUS
 10
0.382370
 20
-3.146657
  0
VERTEX
  8
PLAN_1
  6
CONTINUOUS
 10
0.379173
 20
-3.149858
  0
VERTEX
  8
PLAN_1
  6
CONTINUOUS
 10
0.375972
 20
-3.152657
  0
VERTEX
  8
PLAN_1
  6
CONTINUOUS
 10
0.372374
 20
-3.155055
  0
VERTEX
  8
PLAN_1
  6
CONTINUOUS
 10
0.369173
 20
-3.157457
  0
VERTEX
  8
PLAN_1
  6
CONTINUOUS
 10
0.365575
 20
-3.159457
  0
VERTEX
  8
PLAN_1
  6
CONTINUOUS
 10
0.358780
 20
-3.162654
  0
VERTEX
  8
PLAN_1
  6
CONTINUOUS
 10
0.351980
 20
-3.165453
  0
VERTEX
  8
PLAN_1
  6
CONTINUOUS
 10
0.345181
 20
-3.167453
  0
VERTEX
  8
PLAN_1
  6
CONTINUOUS
 10
0.338783
 20
-3.168654
  0
VERTEX
  8
PLAN_1
  6
CONTINUOUS
 10
0.333189
 20
-3.169453
  0
VERTEX
  8
PLAN_1
  6
CONTINUOUS
 10
0.327988
 20
-3.170252
  0
VERTEX
  8
PLAN_1
  6
CONTINUOUS
 10
0.323992
 20
-3.170252
  0
VERTEX
  8
PLAN_1
  6
CONTINUOUS
 10
0.320390
 20
-3.170252
  0
VERTEX
  8
PLAN_1
  6
CONTINUOUS
 10
0.311996
 20
-3.170252
  0
VERTEX
  8
PLAN_1
  6
CONTINUOUS
 10
0.303598
 20
-3.169051
  0
VERTEX
  8
PLAN_1
  6
CONTINUOUS
 10
0.295598
 20
-3.167051
  0
VERTEX
  8
PLAN_1
  6
CONTINUOUS
 10
0.287602
 20
-3.164654
  0
VERTEX
  8
PLAN_1
  6
CONTINUOUS
 10
0.283602
 20
-3.163055
  0
VERTEX
  8
PLAN_1
  6
CONTINUOUS
 10
0.279606
 20
-3.161453
  0
VERTEX
  8
PLAN_1
  6
CONTINUOUS
 10
0.276008
 20
-3.159457
  0
VERTEX
  8
PLAN_1
  6
CONTINUOUS
 10
0.272409
 20
-3.157055
  0
VERTEX
  8
PLAN_1
  6
CONTINUOUS
 10
0.268807
 20
-3.154657
  0
VERTEX
  8
PLAN_1
  6
CONTINUOUS
 10
0.265209
 20
-3.151858
  0
VERTEX
  8
PLAN_1
  6
CONTINUOUS
 10
0.262012
 20
-3.149059
  0
VERTEX
  8
PLAN_1
  6
CONTINUOUS
 10
0.258811
 20
-3.146260
  0
VERTEX
  8
PLAN_1
  6
CONTINUOUS
 10
0.255614
 20
-3.143059
  0
VERTEX
  8
PLAN_1
  6
CONTINUOUS
 10
0.252815
 20
-3.139461
  0
VERTEX
  8
PLAN_1
  6
CONTINUOUS
 10
0.250016
 20
-3.135465
  0
VERTEX
  8
PLAN_1
  6
CONTINUOUS
 10
0.247217
 20
-3.131465
  0
VERTEX
  8
PLAN_1
  6
CONTINUOUS
 10
0.244815
 20
-3.127465
  0
VERTEX
  8
PLAN_1
  6
CONTINUOUS
 10
0.242417
 20
-3.123067
  0
VERTEX
  8
PLAN_1
  6
CONTINUOUS
 10
0.240417
 20
-3.118268
  0
VERTEX
  8
PLAN_1
  6
CONTINUOUS
 10
0.238417
 20
-3.113469
  0
VERTEX
  8
PLAN_1
  6
CONTINUOUS
 10
0.236819
 20
-3.108272
  0
VERTEX
  8
PLAN_1
  6
CONTINUOUS
 10
0.235220
 20
-3.102673
  0
VERTEX
  8
PLAN_1
  6
CONTINUOUS
 10
0.234020
 20
-3.097075
  0
VERTEX
  8
PLAN_1
  6
CONTINUOUS
 10
0.232823
 20
-3.091079
  0
VERTEX
  8
PLAN_1
  6
CONTINUOUS
 10
0.232020
 20
-3.084681
  0
VERTEX
  8
PLAN_1
  6
CONTINUOUS
 10
0.231622
 20
-3.078283
  0
VERTEX
  8
PLAN_1
  6
CONTINUOUS
 10
0.231220
 20
-3.071484
  0
VERTEX
  8
PLAN_1
  6
CONTINUOUS
 10
0.230823
 20
-3.064287
  0
VERTEX
  8
PLAN_1
  6
CONTINUOUS
 10
0.231220
 20
-3.058689
  0
VERTEX
  8
PLAN_1
  6
CONTINUOUS
 10
0.231220
 20
-3.053091
  0
VERTEX
  8
PLAN_1
  6
CONTINUOUS
 10
0.232020
 20
-3.047492
  0
VERTEX
  8
PLAN_1
  6
CONTINUOUS
 10
0.232421
 20
-3.042295
  0
VERTEX
  8
PLAN_1
  6
CONTINUOUS
 10
0.233622
 20
-3.037094
  0
VERTEX
  8
PLAN_1
  6
CONTINUOUS
 10
0.234421
 20
-3.031898
  0
VERTEX
  8
PLAN_1
  6
CONTINUOUS
 10
0.235618
 20
-3.027098
  0
VERTEX
  8
PLAN_1
  6
CONTINUOUS
 10
0.237220
 20
-3.022299
  0
VERTEX
  8
PLAN_1
  6
CONTINUOUS
 10
0.238819
 20
-3.017504
  0
VERTEX
  8
PLAN_1
  6
CONTINUOUS
 10
0.240819
 20
-3.013102
  0
VERTEX
  8
PLAN_1
  6
CONTINUOUS
 10
0.242819
 20
-3.008705
  0
VERTEX
  8
PLAN_1
  6
CONTINUOUS
 10
0.245217
 20
-3.004709
  0
VERTEX
  8
PLAN_1
  6
CONTINUOUS
 10
0.247614
 20
-3.000709
  0
VERTEX
  8
PLAN_1
  6
CONTINUOUS
 10
0.250016
 20
-2.996709
  0
VERTEX
  8
PLAN_1
  6
CONTINUOUS
 10
0.252815
 20
-2.993110
  0
VERTEX
  8
PLAN_1
  6
CONTINUOUS
 10
0.255614
 20
-2.989512
  0
VERTEX
  8
PLAN_1
  6
CONTINUOUS
 10
0.258811
 20
-2.986315
  0
VERTEX
  8
PLAN_1
  6
CONTINUOUS
 10
0.262012
 20
-2.983114
  0
VERTEX
  8
PLAN_1
  6
CONTINUOUS
 10
0.265209
 20
-2.979917
  0
VERTEX
  8
PLAN_1
  6
CONTINUOUS
 10
0.268807
 20
-2.977118
  0
VERTEX
  8
PLAN_1
  6
CONTINUOUS
 10
0.272807
 20
-2.974717
  0
VERTEX
  8
PLAN_1
  6
CONTINUOUS
 10
0.276807
 20
-2.972319
  0
VERTEX
  8
PLAN_1
  6
CONTINUOUS
 10
0.280803
 20
-2.970319
  0
VERTEX
  8
PLAN_1
  6
CONTINUOUS
 10
0.284803
 20
-2.968319
  0
VERTEX
  8
PLAN_1
  6
CONTINUOUS
 10
0.289201
 20
-2.966319
  0
VERTEX
  8
PLAN_1
  6
CONTINUOUS
 10
0.293602
 20
-2.965122
  0
VERTEX
  8
PLAN_1
  6
CONTINUOUS
 10
0.298398
 20
-2.963520
  0
VERTEX
  8
PLAN_1
  6
CONTINUOUS
 10
0.303197
 20
-2.962720
  0
VERTEX
  8
PLAN_1
  6
CONTINUOUS
 10
0.308394
 20
-2.961520
  0
VERTEX
  8
PLAN_1
  6
CONTINUOUS
 10
0.313193
 20
-2.961122
  0
VERTEX
  8
PLAN_1
  6
CONTINUOUS
 10
0.318394
 20
-2.960720
  0
VERTEX
  8
PLAN_1
  6
CONTINUOUS
 10
0.323992
 20
-2.960720
  0
VERTEX
  8
PLAN_1
  6
CONTINUOUS
 10
0.333189
 20
-2.961122
  0
VERTEX
  8
PLAN_1
  6
CONTINUOUS
 10
0.341984
 20
-2.961921
  0
VERTEX
  8
PLAN_1
  6
CONTINUOUS
 10
0.350382
 20
-2.963921
  0
VERTEX
  8
PLAN_1
  6
CONTINUOUS
 10
0.357980
 20
-2.965921
  0
VERTEX
  8
PLAN_1
  6
CONTINUOUS
 10
0.364776
 20
-2.969118
  0
VERTEX
  8
PLAN_1
  6
CONTINUOUS
 10
0.371173
 20
-2.972319
  0
VERTEX
  8
PLAN_1
  6
CONTINUOUS
 10
0.377173
 20
-2.976315
  0
VERTEX
  8
PLAN_1
  6
CONTINUOUS
 10
0.382772
 20
-2.980717
  0
VERTEX
  8
PLAN_1
  6
CONTINUOUS
 10
0.387567
 20
-2.985512
  0
VERTEX
  8
PLAN_1
  6
CONTINUOUS
 10
0.391567
 20
-2.990713
  0
VERTEX
  8
PLAN_1
  6
CONTINUOUS
 10
0.395567
 20
-2.995909
  0
VERTEX
  8
PLAN_1
  6
CONTINUOUS
 10
0.398764
 20
-3.001508
  0
VERTEX
  8
PLAN_1
  6
CONTINUOUS
 10
0.401165
 20
-3.007508
  0
VERTEX
  8
PLAN_1
  6
CONTINUOUS
 10
0.403165
 20
-3.013504
  0
VERTEX
  8
PLAN_1
  6
CONTINUOUS
 10
0.404764
 20
-3.019504
  0
VERTEX
  8
PLAN_1
  6
CONTINUOUS
 10
0.405961
 20
-3.025902
  0
VERTEX
  8
PLAN_1
  6
CONTINUOUS
 10
0.379571
 20
-3.025902
  0
SEQEND
  8
0
  0
POLYLINE
  8
PLAN_1
  6
CONTINUOUS
 66
     1
 40
0.003000
 41
0.003000
  0
VERTEX
  8
PLAN_1
  6
CONTINUOUS
 10
0.467142
 20
-3.165051
  0
VERTEX
  8
PLAN_1
  6
CONTINUOUS
 10
0.440350
 20
-3.165051
  0
VERTEX
  8
PLAN_1
  6
CONTINUOUS
 10
0.440350
 20
-2.965921
  0
VERTEX
  8
PLAN_1
  6
CONTINUOUS
 10
0.467142
 20
-2.965921
  0
VERTEX
  8
PLAN_1
  6
CONTINUOUS
 10
0.467142
 20
-3.062287
  0
VERTEX
  8
PLAN_1
  6
CONTINUOUS
 10
0.563909
 20
-2.965921
  0
VERTEX
  8
PLAN_1
  6
CONTINUOUS
 10
0.601098
 20
-2.965921
  0
VERTEX
  8
PLAN_1
  6
CONTINUOUS
 10
0.517925
 20
-3.046291
  0
VERTEX
  8
PLAN_1
  6
CONTINUOUS
 10
0.603094
 20
-3.165051
  0
VERTEX
  8
PLAN_1
  6
CONTINUOUS
 10
0.568307
 20
-3.165051
  0
VERTEX
  8
PLAN_1
  6
CONTINUOUS
 10
0.498732
 20
-3.065087
  0
VERTEX
  8
PLAN_1
  6
CONTINUOUS
 10
0.467142
 20
-3.095075
  0
VERTEX
  8
PLAN_1
  6
CONTINUOUS
 10
0.467142
 20
-3.165051
  0
SEQEND
  8
0
  0
POLYLINE
  8
PLAN_1
  6
CONTINUOUS
 66
     1
 40
0.003000
 41
0.003000
  0
VERTEX
  8
PLAN_1
  6
CONTINUOUS
 10
0.775437
 20
-3.165051
  0
VERTEX
  8
PLAN_1
  6
CONTINUOUS
 10
0.628287
 20
-3.165051
  0
VERTEX
  8
PLAN_1
  6
CONTINUOUS
 10
0.628287
 20
-2.965921
  0
VERTEX
  8
PLAN_1
  6
CONTINUOUS
 10
0.773437
 20
-2.965921
  0
VERTEX
  8
PLAN_1
  6
CONTINUOUS
 10
0.773437
 20
-2.989913
  0
VERTEX
  8
PLAN_1
  6
CONTINUOUS
 10
0.655079
 20
-2.989913
  0
VERTEX
  8
PLAN_1
  6
CONTINUOUS
 10
0.655079
 20
-3.050693
  0
VERTEX
  8
PLAN_1
  6
CONTINUOUS
 10
0.764240
 20
-3.050693
  0
VERTEX
  8
PLAN_1
  6
CONTINUOUS
 10
0.764240
 20
-3.074685
  0
VERTEX
  8
PLAN_1
  6
CONTINUOUS
 10
0.655079
 20
-3.074685
  0
VERTEX
  8
PLAN_1
  6
CONTINUOUS
 10
0.655079
 20
-3.141461
  0
VERTEX
  8
PLAN_1
  6
CONTINUOUS
 10
0.775437
 20
-3.141461
  0
VERTEX
  8
PLAN_1
  6
CONTINUOUS
 10
0.775437
 20
-3.165051
  0
SEQEND
  8
0
  0
POLYLINE
  8
PLAN_1
  6
CONTINUOUS
 66
     1
 40
0.003000
 41
0.003000
  0
VERTEX
  8
PLAN_1
  6
CONTINUOUS
 10
0.905394
 20
-3.021902
  0
VERTEX
  8
PLAN_1
  6
CONTINUOUS
 10
0.903795
 20
-3.015902
  0
VERTEX
  8
PLAN_1
  6
CONTINUOUS
 10
0.901795
 20
-3.009906
  0
VERTEX
  8
PLAN_1
  6
CONTINUOUS
 10
0.900594
 20
-3.007508
  0
VERTEX
  8
PLAN_1
  6
CONTINUOUS
 10
0.898996
 20
-3.004709
  0
VERTEX
  8
PLAN_1
  6
CONTINUOUS
 10
0.897398
 20
-3.002709
  0
VERTEX
  8
PLAN_1
  6
CONTINUOUS
 10
0.895398
 20
-3.000307
  0
VERTEX
  8
PLAN_1
  6
CONTINUOUS
 10
0.893398
 20
-2.998709
  0
VERTEX
  8
PLAN_1
  6
CONTINUOUS
 10
0.891000
 20
-2.997110
  0
VERTEX
  8
PLAN_1
  6
CONTINUOUS
 10
0.888201
 20
-2.995512
  0
VERTEX
  8
PLAN_1
  6
CONTINUOUS
 10
0.885402
 20
-2.994311
  0
VERTEX
  8
PLAN_1
  6
CONTINUOUS
 10
0.882602
 20
-2.993110
  0
VERTEX
  8
PLAN_1
  6
CONTINUOUS
 10
0.879004
 20
-2.992713
  0
VERTEX
  8
PLAN_1
  6
CONTINUOUS
 10
0.875803
 20
-2.992311
  0
VERTEX
  8
PLAN_1
  6
CONTINUOUS
 10
0.871807
 20
-2.991909
  0
VERTEX
  8
PLAN_1
  6
CONTINUOUS
 10
0.868205
 20
-2.992311
  0
VERTEX
  8
PLAN_1
  6
CONTINUOUS
 10
0.865008
 20
-2.992713
  0
VERTEX
  8
PLAN_1
  6
CONTINUOUS
 10
0.861807
 20
-2.993110
  0
VERTEX
  8
PLAN_1
  6
CONTINUOUS
 10
0.859008
 20
-2.994311
  0
VERTEX
  8
PLAN_1
  6
CONTINUOUS
 10
0.855811
 20
-2.995512
  0
VERTEX
  8
PLAN_1
  6
CONTINUOUS
 10
0.853413
 20
-2.996709
  0
VERTEX
  8
PLAN_1
  6
CONTINUOUS
 10
0.850614
 20
-2.998709
  0
VERTEX
  8
PLAN_1
  6
CONTINUOUS
 10
0.848614
 20
-3.000307
  0
VERTEX
  8
PLAN_1
  6
CONTINUOUS
 10
0.846213
 20
-3.002307
  0
VERTEX
  8
PLAN_1
  6
CONTINUOUS
 10
0.844217
 20
-3.004709
  0
VERTEX
  8
PLAN_1
  6
CONTINUOUS
 10
0.842217
 20
-3.007106
  0
VERTEX
  8
PLAN_1
  6
CONTINUOUS
 10
0.840217
 20
-3.009504
  0
VERTEX
  8
PLAN_1
  6
CONTINUOUS
 10
0.837016
 20
-3.014705
  0
VERTEX
  8
PLAN_1
  6
CONTINUOUS
 10
0.834217
 20
-3.020303
  0
VERTEX
  8
PLAN_1
  6
CONTINUOUS
 10
0.831819
 20
-3.026299
  0
VERTEX
  8
PLAN_1
  6
CONTINUOUS
 10
0.830220
 20
-3.032299
  0
VERTEX
  8
PLAN_1
  6
CONTINUOUS
 10
0.828618
 20
-3.038295
  0
VERTEX
  8
PLAN_1
  6
CONTINUOUS
 10
0.827421
 20
-3.044295
  0
VERTEX
  8
PLAN_1
  6
CONTINUOUS
 10
0.826622
 20
-3.049894
  0
VERTEX
  8
PLAN_1
  6
CONTINUOUS
 10
0.825819
 20
-3.055091
  0
VERTEX
  8
PLAN_1
  6
CONTINUOUS
 10
0.825421
 20
-3.059890
  0
VERTEX
  8
PLAN_1
  6
CONTINUOUS
 10
0.825421
 20
-3.064287
  0
VERTEX
  8
PLAN_1
  6
CONTINUOUS
 10
0.826220
 20
-3.064685
  0
VERTEX
  8
PLAN_1
  6
CONTINUOUS
 10
0.828618
 20
-3.060689
  0
VERTEX
  8
PLAN_1
  6
CONTINUOUS
 10
0.832220
 20
-3.056689
  0
VERTEX
  8
PLAN_1
  6
CONTINUOUS
 10
0.834217
 20
-3.054291
  0
VERTEX
  8
PLAN_1
  6
CONTINUOUS
 10
0.836217
 20
-3.052689
  0
VERTEX
  8
PLAN_1
  6
CONTINUOUS
 10
0.838618
 20
-3.050693
  0
VERTEX
  8
PLAN_1
  6
CONTINUOUS
 10
0.841417
 20
-3.048693
  0
VERTEX
  8
PLAN_1
  6
CONTINUOUS
 10
0.844614
 20
-3.047094
  0
VERTEX
  8
PLAN_1
  6
CONTINUOUS
 10
0.847413
 20
-3.045492
  0
VERTEX
  8
PLAN_1
  6
CONTINUOUS
 10
0.851012
 20
-3.044295
  0
VERTEX
  8
PLAN_1
  6
CONTINUOUS
 10
0.854610
 20
-3.043094
  0
VERTEX
  8
PLAN_1
  6
CONTINUOUS
 10
0.858610
 20
-3.042295
  0
VERTEX
  8
PLAN_1
  6
CONTINUOUS
 10
0.863008
 20
-3.041496
  0
VERTEX
  8
PLAN_1
  6
CONTINUOUS
 10
0.867406
 20
-3.041094
  0
VERTEX
  8
PLAN_1
  6
CONTINUOUS
 10
0.872205
 20
-3.040693
  0
VERTEX
  8
PLAN_1
  6
CONTINUOUS
 10
0.877004
 20
-3.041094
  0
VERTEX
  8
PLAN_1
  6
CONTINUOUS
 10
0.881803
 20
-3.041496
  0
VERTEX
  8
PLAN_1
  6
CONTINUOUS
 10
0.887000
 20
-3.042693
  0
VERTEX
  8
PLAN_1
  6
CONTINUOUS
 10
0.891799
 20
-3.043894
  0
VERTEX
  8
PLAN_1
  6
CONTINUOUS
 10
0.896996
 20
-3.045894
  0
VERTEX
  8
PLAN_1
  6
CONTINUOUS
 10
0.902197
 20
-3.048291
  0
VERTEX
  8
PLAN_1
  6
CONTINUOUS
 10
0.906992
 20
-3.051091
  0
VERTEX
  8
PLAN_1
  6
CONTINUOUS
 10
0.911791
 20
-3.054291
  0
VERTEX
  8
PLAN_1
  6
CONTINUOUS
 10
0.916189
 20
-3.058287
  0
VERTEX
  8
PLAN_1
  6
CONTINUOUS
 10
0.920591
 20
-3.062689
  0
VERTEX
  8
PLAN_1
  6
CONTINUOUS
 10
0.924189
 20
-3.067886
  0
VERTEX
  8
PLAN_1
  6
CONTINUOUS
 10
0.927386
 20
-3.073484
  0
VERTEX
  8
PLAN_1
  6
CONTINUOUS
 10
0.928587
 20
-3.076283
  0
VERTEX
  8
PLAN_1
  6
CONTINUOUS
 10
0.929787
 20
-3.079882
  0
VERTEX
  8
PLAN_1
  6
CONTINUOUS
 10
0.930984
 20
-3.083079
  0
VERTEX
  8
PLAN_1
  6
CONTINUOUS
 10
0.931783
 20
-3.086681
  0
VERTEX
  8
PLAN_1
  6
CONTINUOUS
 10
0.932587
 20
-3.090280
  0
VERTEX
  8
PLAN_1
  6
CONTINUOUS
 10
0.932984
 20
-3.094276
  0
VERTEX
  8
PLAN_1
  6
CONTINUOUS
 10
0.933386
 20
-3.098276
  0
VERTEX
  8
PLAN_1
  6
CONTINUOUS
 10
0.933386
 20
-3.102673
  0
VERTEX
  8
PLAN_1
  6
CONTINUOUS
 10
0.933386
 20
-3.109870
  0
VERTEX
  8
PLAN_1
  6
CONTINUOUS
 10
0.932587
 20
-3.116669
  0
VERTEX
  8
PLAN_1
  6
CONTINUOUS
 10
0.930984
 20
-3.123067
  0
VERTEX
  8
PLAN_1
  6
CONTINUOUS
 10
0.928984
 20
-3.129067
  0
VERTEX
  8
PLAN_1
  6
CONTINUOUS
 10
0.926587
 20
-3.135063
  0
VERTEX
  8
PLAN_1
  6
CONTINUOUS
 10
0.923390
 20
-3.140661
  0
VERTEX
  8
PLAN_1
  6
CONTINUOUS
 10
0.919390
 20
-3.146260
  0
VERTEX
  8
PLAN_1
  6
CONTINUOUS
 10
0.914992
 20
-3.151457
  0
VERTEX
  8
PLAN_1
  6
CONTINUOUS
 10
0.910992
 20
-3.155457
  0
VERTEX
  8
PLAN_1
  6
CONTINUOUS
 10
0.906594
 20
-3.159457
  0
VERTEX
  8
PLAN_1
  6
CONTINUOUS
 10
0.901795
 20
-3.162654
  0
VERTEX
  8
PLAN_1
  6
CONTINUOUS
 10
0.896598
 20
-3.165453
  0
VERTEX
  8
PLAN_1
  6
CONTINUOUS
 10
0.893799
 20
-3.166252
  0
VERTEX
  8
PLAN_1
  6
CONTINUOUS
 10
0.890598
 20
-3.167453
  0
VERTEX
  8
PLAN_1
  6
CONTINUOUS
 10
0.887000
 20
-3.168252
  0
VERTEX
  8
PLAN_1
  6
CONTINUOUS
 10
0.883402
 20
-3.169051
  0
VERTEX
  8
PLAN_1
  6
CONTINUOUS
 10
0.875004
 20
-3.170252
  0
VERTEX
  8
PLAN_1
  6
CONTINUOUS
 10
0.865406
 20
-3.170252
  0
VERTEX
  8
PLAN_1
  6
CONTINUOUS
 10
0.859409
 20
-3.170252
  0
VERTEX
  8
PLAN_1
  6
CONTINUOUS
 10
0.853413
 20
-3.169051
  0
VERTEX
  8
PLAN_1
  6
CONTINUOUS
 10
0.849811
 20
-3.168252
  0
VERTEX
  8
PLAN_1
  6
CONTINUOUS
 10
0.846614
 20
-3.167051
  0
VERTEX
  8
PLAN_1
  6
CONTINUOUS
 10
0.843413
 20
-3.165854
  0
VERTEX
  8
PLAN_1
  6
CONTINUOUS
 10
0.839815
 20
-3.164252
  0
VERTEX
  8
PLAN_1
  6
CONTINUOUS
 10
0.836618
 20
-3.162654
  0
VERTEX
  8
PLAN_1
  6
CONTINUOUS
 10
0.833417
 20
-3.160654
  0
VERTEX
  8
PLAN_1
  6
CONTINUOUS
 10
0.829819
 20
-3.158256
  0
VERTEX
  8
PLAN_1
  6
CONTINUOUS
 10
0.826622
 20
-3.155854
  0
VERTEX
  8
PLAN_1
  6
CONTINUOUS
 10
0.823823
 20
-3.152657
  0
VERTEX
  8
PLAN_1
  6
CONTINUOUS
 10
0.820622
 20
-3.149457
  0
VERTEX
  8
PLAN_1
  6
CONTINUOUS
 10
0.817823
 20
-3.145858
  0
VERTEX
  8
PLAN_1
  6
CONTINUOUS
 10
0.815024
 20
-3.142260
  0
VERTEX
  8
PLAN_1
  6
CONTINUOUS
 10
0.813024
 20
-3.138661
  0
VERTEX
  8
PLAN_1
  6
CONTINUOUS
 10
0.811028
 20
-3.135063
  0
VERTEX
  8
PLAN_1
  6
CONTINUOUS
 10
0.809425
 20
-3.131063
  0
VERTEX
  8
PLAN_1
  6
CONTINUOUS
 10
0.807827
 20
-3.127465
  0
VERTEX
  8
PLAN_1
  6
CONTINUOUS
 10
0.805429
 20
-3.119469
  0
VERTEX
  8
PLAN_1
  6
CONTINUOUS
 10
0.803429
 20
-3.111071
  0
VERTEX
  8
PLAN_1
  6
CONTINUOUS
 10
0.801831
 20
-3.102276
  0
VERTEX
  8
PLAN_1
  6
CONTINUOUS
 10
0.801028
 20
-3.093079
  0
VERTEX
  8
PLAN_1
  6
CONTINUOUS
 10
0.800228
 20
-3.083882
  0
VERTEX
  8
PLAN_1
  6
CONTINUOUS
 10
0.800228
 20
-3.074283
  0
VERTEX
  8
PLAN_1
  6
CONTINUOUS
 10
0.800228
 20
-3.066287
  0
VERTEX
  8
PLAN_1
  6
CONTINUOUS
 10
0.801028
 20
-3.057488
  0
VERTEX
  8
PLAN_1
  6
CONTINUOUS
 10
0.801831
 20
-3.049091
  0
VERTEX
  8
PLAN_1
  6
CONTINUOUS
 10
0.803429
 20
-3.039894
  0
VERTEX
  8
PLAN_1
  6
CONTINUOUS
 10
0.805028
 20
-3.031098
  0
VERTEX
  8
PLAN_1
  6
CONTINUOUS
 10
0.807827
 20
-3.022701
  0
VERTEX
  8
PLAN_1
  6
CONTINUOUS
 10
0.810626
 20
-3.014303
  0
VERTEX
  8
PLAN_1
  6
CONTINUOUS
 10
0.814626
 20
-3.006307
  0
VERTEX
  8
PLAN_1
  6
CONTINUOUS
 10
0.816622
 20
-3.002307
  0
VERTEX
  8
PLAN_1
  6
CONTINUOUS
 10
0.818622
 20
-2.998709
  0
VERTEX
  8
PLAN_1
  6
CONTINUOUS
 10
0.821421
 20
-2.995110
  0
VERTEX
  8
PLAN_1
  6
CONTINUOUS
 10
0.823823
 20
-2.991909
  0
VERTEX
  8
PLAN_1
  6
CONTINUOUS
 10
0.826622
 20
-2.988713
  0
VERTEX
  8
PLAN_1
  6
CONTINUOUS
 10
0.829819
 20
-2.985512
  0
VERTEX
  8
PLAN_1
  6
CONTINUOUS
 10
0.833020
 20
-2.982713
  0
VERTEX
  8
PLAN_1
  6
CONTINUOUS
 10
0.836618
 20
-2.980315
  0
VERTEX
  8
PLAN_1
  6
CONTINUOUS
 10
0.840217
 20
-2.977917
  0
VERTEX
  8
PLAN_1
  6
CONTINUOUS
 10
0.844217
 20
-2.975917
  0
VERTEX
  8
PLAN_1
  6
CONTINUOUS
 10
0.848213
 20
-2.974319
  0
VERTEX
  8
PLAN_1
  6
CONTINUOUS
 10
0.852610
 20
-2.972717
  0
VERTEX
  8
PLAN_1
  6
CONTINUOUS
 10
0.857012
 20
-2.971520
  0
VERTEX
  8
PLAN_1
  6
CONTINUOUS
 10
0.861807
 20
-2.970717
  0
VERTEX
  8
PLAN_1
  6
CONTINUOUS
 10
0.867008
 20
-2.970319
  0
VERTEX
  8
PLAN_1
  6
CONTINUOUS
 10
0.872205
 20
-2.969917
  0
VERTEX
  8
PLAN_1
  6
CONTINUOUS
 10
0.876602
 20
-2.970319
  0
VERTEX
  8
PLAN_1
  6
CONTINUOUS
 10
0.881004
 20
-2.970717
  0
VERTEX
  8
PLAN_1
  6
CONTINUOUS
 10
0.885799
 20
-2.971520
  0
VERTEX
  8
PLAN_1
  6
CONTINUOUS
 10
0.890201
 20
-2.972717
  0
VERTEX
  8
PLAN_1
  6
CONTINUOUS
 10
0.894996
 20
-2.973917
  0
VERTEX
  8
PLAN_1
  6
CONTINUOUS
 10
0.899398
 20
-2.975917
  0
VERTEX
  8
PLAN_1
  6
CONTINUOUS
 10
0.904193
 20
-2.978315
  0
VERTEX
  8
PLAN_1
  6
CONTINUOUS
 10
0.908193
 20
-2.981114
  0
VERTEX
  8
PLAN_1
  6
CONTINUOUS
 10
0.912193
 20
-2.984315
  0
VERTEX
  8
PLAN_1
  6
CONTINUOUS
 10
0.916189
 20
-2.987913
  0
VERTEX
  8
PLAN_1
  6
CONTINUOUS
 10
0.919390
 20
-2.992311
  0
VERTEX
  8
PLAN_1
  6
CONTINUOUS
 10
0.922587
 20
-2.997110
  0
VERTEX
  8
PLAN_1
  6
CONTINUOUS
 10
0.924988
 20
-3.002307
  0
VERTEX
  8
PLAN_1
  6
CONTINUOUS
 10
0.926988
 20
-3.008307
  0
VERTEX
  8
PLAN_1
  6
CONTINUOUS
 10
0.928587
 20
-3.014705
  0
VERTEX
  8
PLAN_1
  6
CONTINUOUS
 10
0.929386
 20
-3.021902
  0
VERTEX
  8
PLAN_1
  6
CONTINUOUS
 10
0.905394
 20
-3.021902
  0
SEQEND
  8
0
  0
POLYLINE
  8
PLAN_1
  6
CONTINUOUS
 66
     1
 40
0.003000
 41
0.003000
  0
VERTEX
  8
PLAN_1
  6
CONTINUOUS
 10
0.869807
 20
-3.148657
  0
VERTEX
  8
PLAN_1
  6
CONTINUOUS
 10
0.874205
 20
-3.148260
  0
VERTEX
  8
PLAN_1
  6
CONTINUOUS
 10
0.878205
 20
-3.147858
  0
VERTEX
  8
PLAN_1
  6
CONTINUOUS
 10
0.882201
 20
-3.146657
  0
VERTEX
  8
PLAN_1
  6
CONTINUOUS
 10
0.885799
 20
-3.145059
  0
VERTEX
  8
PLAN_1
  6
CONTINUOUS
 10
0.889000
 20
-3.143461
  0
VERTEX
  8
PLAN_1
  6
CONTINUOUS
 10
0.892197
 20
-3.141461
  0
VERTEX
  8
PLAN_1
  6
CONTINUOUS
 10
0.894996
 20
-3.138661
  0
VERTEX
  8
PLAN_1
  6
CONTINUOUS
 10
0.897795
 20
-3.135862
  0
VERTEX
  8
PLAN_1
  6
CONTINUOUS
 10
0.900197
 20
-3.133063
  0
VERTEX
  8
PLAN_1
  6
CONTINUOUS
 10
0.902197
 20
-3.129465
  0
VERTEX
  8
PLAN_1
  6
CONTINUOUS
 10
0.903795
 20
-3.125866
  0
VERTEX
  8
PLAN_1
  6
CONTINUOUS
 10
0.905394
 20
-3.121866
  0
VERTEX
  8
PLAN_1
  6
CONTINUOUS
 10
0.906594
 20
-3.117870
  0
VERTEX
  8
PLAN_1
  6
CONTINUOUS
 10
0.907394
 20
-3.113469
  0
VERTEX
  8
PLAN_1
  6
CONTINUOUS
 10
0.908193
 20
-3.108673
  0
VERTEX
  8
PLAN_1
  6
CONTINUOUS
 10
0.908193
 20
-3.103874
  0
VERTEX
  8
PLAN_1
  6
CONTINUOUS
 10
0.908193
 20
-3.100673
  0
VERTEX
  8
PLAN_1
  6
CONTINUOUS
 10
0.907791
 20
-3.097075
  0
VERTEX
  8
PLAN_1
  6
CONTINUOUS
 10
0.906992
 20
-3.093476
  0
VERTEX
  8
PLAN_1
  6
CONTINUOUS
 10
0.906193
 20
-3.090280
  0
VERTEX
  8
PLAN_1
  6
CONTINUOUS
 10
0.904996
 20
-3.086681
  0
VERTEX
  8
PLAN_1
  6
CONTINUOUS
 10
0.903795
 20
-3.083079
  0
VERTEX
  8
PLAN_1
  6
CONTINUOUS
 10
0.901795
 20
-3.079882
  0
VERTEX
  8
PLAN_1
  6
CONTINUOUS
 10
0.899795
 20
-3.076681
  0
VERTEX
  8
PLAN_1
  6
CONTINUOUS
 10
0.897398
 20
-3.073882
  0
VERTEX
  8
PLAN_1
  6
CONTINUOUS
 10
0.894598
 20
-3.071083
  0
VERTEX
  8
PLAN_1
  6
CONTINUOUS
 10
0.891398
 20
-3.068685
  0
VERTEX
  8
PLAN_1
  6
CONTINUOUS
 10
0.887799
 20
-3.066685
  0
VERTEX
  8
PLAN_1
  6
CONTINUOUS
 10
0.883803
 20
-3.065087
  0
VERTEX
  8
PLAN_1
  6
CONTINUOUS
 10
0.879004
 20
-3.063886
  0
VERTEX
  8
PLAN_1
  6
CONTINUOUS
 10
0.874205
 20
-3.063087
  0
VERTEX
  8
PLAN_1
  6
CONTINUOUS
 10
0.868606
 20
-3.062689
  0
VERTEX
  8
PLAN_1
  6
CONTINUOUS
 10
0.863807
 20
-3.063087
  0
VERTEX
  8
PLAN_1
  6
CONTINUOUS
 10
0.859409
 20
-3.063488
  0
VERTEX
  8
PLAN_1
  6
CONTINUOUS
 10
0.855012
 20
-3.064685
  0
VERTEX
  8
PLAN_1
  6
CONTINUOUS
 10
0.851012
 20
-3.066287
  0
VERTEX
  8
PLAN_1
  6
CONTINUOUS
 10
0.847413
 20
-3.067886
  0
VERTEX
  8
PLAN_1
  6
CONTINUOUS
 10
0.844217
 20
-3.070283
  0
VERTEX
  8
PLAN_1
  6
CONTINUOUS
 10
0.841417
 20
-3.072685
  0
VERTEX
  8
PLAN_1
  6
CONTINUOUS
 10
0.838618
 20
-3.075484
  0
VERTEX
  8
PLAN_1
  6
CONTINUOUS
 10
0.836217
 20
-3.078283
  0
VERTEX
  8
PLAN_1
  6
CONTINUOUS
 10
0.834217
 20
-3.081480
  0
VERTEX
  8
PLAN_1
  6
CONTINUOUS
 10
0.832618
 20
-3.085079
  0
VERTEX
  8
PLAN_1
  6
CONTINUOUS
 10
0.831417
 20
-3.088677
  0
VERTEX
  8
PLAN_1
  6
CONTINUOUS
 10
0.830220
 20
-3.092677
  0
VERTEX
  8
PLAN_1
  6
CONTINUOUS
 10
0.829421
 20
-3.096677
  0
VERTEX
  8
PLAN_1
  6
CONTINUOUS
 10
0.829020
 20
-3.101075
  0
VERTEX
  8
PLAN_1
  6
CONTINUOUS
 10
0.828618
 20
-3.105075
  0
VERTEX
  8
PLAN_1
  6
CONTINUOUS
 10
0.829020
 20
-3.109071
  0
VERTEX
  8
PLAN_1
  6
CONTINUOUS
 10
0.829421
 20
-3.113071
  0
VERTEX
  8
PLAN_1
  6
CONTINUOUS
 10
0.830220
 20
-3.117071
  0
VERTEX
  8
PLAN_1
  6
CONTINUOUS
 10
0.831020
 20
-3.120669
  0
VERTEX
  8
PLAN_1
  6
CONTINUOUS
 10
0.832618
 20
-3.124665
  0
VERTEX
  8
PLAN_1
  6
CONTINUOUS
 10
0.834217
 20
-3.127866
  0
VERTEX
  8
PLAN_1
  6
CONTINUOUS
 10
0.836217
 20
-3.131465
  0
VERTEX
  8
PLAN_1
  6
CONTINUOUS
 10
0.838618
 20
-3.134661
  0
VERTEX
  8
PLAN_1
  6
CONTINUOUS
 10
0.841417
 20
-3.137461
  0
VERTEX
  8
PLAN_1
  6
CONTINUOUS
 10
0.844217
 20
-3.140260
  0
VERTEX
  8
PLAN_1
  6
CONTINUOUS
 10
0.847815
 20
-3.142661
  0
VERTEX
  8
PLAN_1
  6
CONTINUOUS
 10
0.851413
 20
-3.144661
  0
VERTEX
  8
PLAN_1
  6
CONTINUOUS
 10
0.855409
 20
-3.146260
  0
VERTEX
  8
PLAN_1
  6
CONTINUOUS
 10
0.859811
 20
-3.147461
  0
VERTEX
  8
PLAN_1
  6
CONTINUOUS
 10
0.864606
 20
-3.148260
  0
VERTEX
  8
PLAN_1
  6
CONTINUOUS
 10
0.869807
 20
-3.148657
  0
SEQEND
  8
0
  0
POLYLINE
  8
PLAN_1
  6
CONTINUOUS
 66
     1
 40
0.003000
 41
0.003000
  0
VERTEX
  8
PLAN_1
  6
CONTINUOUS
 10
1.006161
 20
-3.054291
  0
VERTEX
  8
PLAN_1
  6
CONTINUOUS
 10
1.007760
 20
-3.054291
  0
VERTEX
  8
PLAN_1
  6
CONTINUOUS
 10
1.009358
 20
-3.054291
  0
VERTEX
  8
PLAN_1
  6
CONTINUOUS
 10
1.010957
 20
-3.054291
  0
VERTEX
  8
PLAN_1
  6
CONTINUOUS
 10
1.012559
 20
-3.054689
  0
VERTEX
  8
PLAN_1
  6
CONTINUOUS
 10
1.014157
 20
-3.054689
  0
VERTEX
  8
PLAN_1
  6
CONTINUOUS
 10
1.015756
 20
-3.054689
  0
VERTEX
  8
PLAN_1
  6
CONTINUOUS
 10
1.017354
 20
-3.054689
  0
VERTEX
  8
PLAN_1
  6
CONTINUOUS
 10
1.018957
 20
-3.054689
  0
VERTEX
  8
PLAN_1
  6
CONTINUOUS
 10
1.022555
 20
-3.054689
  0
VERTEX
  8
PLAN_1
  6
CONTINUOUS
 10
1.026154
 20
-3.054291
  0
VERTEX
  8
PLAN_1
  6
CONTINUOUS
 10
1.029350
 20
-3.053890
  0
VERTEX
  8
PLAN_1
  6
CONTINUOUS
 10
1.032953
 20
-3.053091
  0
VERTEX
  8
PLAN_1
  6
CONTINUOUS
 10
1.036150
 20
-3.052291
  0
VERTEX
  8
PLAN_1
  6
CONTINUOUS
 10
1.038949
 20
-3.051091
  0
VERTEX
  8
PLAN_1
  6
CONTINUOUS
 10
1.041748
 20
-3.049492
  0
VERTEX
  8
PLAN_1
  6
CONTINUOUS
 10
1.044547
 20
-3.047894
  0
VERTEX
  8
PLAN_1
  6
CONTINUOUS
 10
1.046945
 20
-3.045894
  0
VERTEX
  8
PLAN_1
  6
CONTINUOUS
 10
1.049346
 20
-3.043492
  0
VERTEX
  8
PLAN_1
  6
CONTINUOUS
 10
1.051346
 20
-3.041094
  0
VERTEX
  8
PLAN_1
  6
CONTINUOUS
 10
1.052945
 20
-3.037898
  0
VERTEX
  8
PLAN_1
  6
CONTINUOUS
 10
1.054543
 20
-3.034697
  0
VERTEX
  8
PLAN_1
  6
CONTINUOUS
 10
1.055343
 20
-3.031098
  0
VERTEX
  8
PLAN_1
  6
CONTINUOUS
 10
1.056142
 20
-3.027098
  0
VERTEX
  8
PLAN_1
  6
CONTINUOUS
 10
1.056142
 20
-3.022701
  0
VERTEX
  8
PLAN_1
  6
CONTINUOUS
 10
1.055744
 20
-3.018303
  0
VERTEX
  8
PLAN_1
  6
CONTINUOUS
 10
1.054543
 20
-3.013102
  0
VERTEX
  8
PLAN_1
  6
CONTINUOUS
 10
1.053744
 20
-3.010307
  0
VERTEX
  8
PLAN_1
  6
CONTINUOUS
 10
1.052543
 20
-3.007906
  0
VERTEX
  8
PLAN_1
  6
CONTINUOUS
 10
1.050945
 20
-3.005508
  0
VERTEX
  8
PLAN_1
  6
CONTINUOUS
 10
1.048945
 20
-3.003106
  0
VERTEX
  8
PLAN_1
  6
CONTINUOUS
 10
1.046945
 20
-3.000709
  0
VERTEX
  8
PLAN_1
  6
CONTINUOUS
 10
1.044146
 20
-2.998709
  0
VERTEX
  8
PLAN_1
  6
CONTINUOUS
 10
1.041346
 20
-2.996709
  0
VERTEX
  8
PLAN_1
  6
CONTINUOUS
 10
1.038150
 20
-2.995110
  0
VERTEX
  8
PLAN_1
  6
CONTINUOUS
 10
1.034150
 20
-2.993909
  0
VERTEX
  8
PLAN_1
  6
CONTINUOUS
 10
1.030154
 20
-2.992713
  0
VERTEX
  8
PLAN_1
  6
CONTINUOUS
 10
1.025354
 20
-2.992311
  0
VERTEX
  8
PLAN_1
  6
CONTINUOUS
 10
1.020154
 20
-2.991909
  0
VERTEX
  8
PLAN_1
  6
CONTINUOUS
 10
1.014157
 20
-2.992311
  0
VERTEX
  8
PLAN_1
  6
CONTINUOUS
 10
1.008559
 20
-2.993110
  0
VERTEX
  8
PLAN_1
  6
CONTINUOUS
 10
1.003760
 20
-2.994709
  0
VERTEX
  8
PLAN_1
  6
CONTINUOUS
 10
0.999764
 20
-2.996709
  0
VERTEX
  8
PLAN_1
  6
CONTINUOUS
 10
0.996161
 20
-2.999110
  0
VERTEX
  8
PLAN_1
  6
CONTINUOUS
 10
0.992965
 20
-3.001508
  0
VERTEX
  8
PLAN_1
  6
CONTINUOUS
 10
0.990567
 20
-3.004709
  0
VERTEX
  8
PLAN_1
  6
CONTINUOUS
 10
0.988567
 20
-3.007906
  0
VERTEX
  8
PLAN_1
  6
CONTINUOUS
 10
0.986965
 20
-3.011106
  0
VERTEX
  8
PLAN_1
  6
CONTINUOUS
 10
0.985366
 20
-3.014705
  0
VERTEX
  8
PLAN_1
  6
CONTINUOUS
 10
0.984567
 20
-3.018303
  0
VERTEX
  8
PLAN_1
  6
CONTINUOUS
 10
0.983768
 20
-3.021500
  0
VERTEX
  8
PLAN_1
  6
CONTINUOUS
 10
0.982567
 20
-3.028299
  0
VERTEX
  8
PLAN_1
  6
CONTINUOUS
 10
0.982169
 20
-3.033898
  0
VERTEX
  8
PLAN_1
  6
CONTINUOUS
 10
0.958177
 20
-3.033898
  0
VERTEX
  8
PLAN_1
  6
CONTINUOUS
 10
0.958177
 20
-3.028299
  0
VERTEX
  8
PLAN_1
  6
CONTINUOUS
 10
0.958976
 20
-3.023102
  0
VERTEX
  8
PLAN_1
  6
CONTINUOUS
 10
0.959776
 20
-3.017504
  0
VERTEX
  8
PLAN_1
  6
CONTINUOUS
 10
0.960976
 20
-3.011906
  0
VERTEX
  8
PLAN_1
  6
CONTINUOUS
 10
0.962575
 20
-3.006307
  0
VERTEX
  8
PLAN_1
  6
CONTINUOUS
 10
0.964575
 20
-3.001106
  0
VERTEX
  8
PLAN_1
  6
CONTINUOUS
 10
0.967374
 20
-2.995909
  0
VERTEX
  8
PLAN_1
  6
CONTINUOUS
 10
0.970571
 20
-2.991110
  0
VERTEX
  8
PLAN_1
  6
CONTINUOUS
 10
0.974169
 20
-2.986713
  0
VERTEX
  8
PLAN_1
  6
CONTINUOUS
 10
0.978571
 20
-2.982713
  0
VERTEX
  8
PLAN_1
  6
CONTINUOUS
 10
0.981370
 20
-2.980717
  0
VERTEX
  8
PLAN_1
  6
CONTINUOUS
 10
0.983768
 20
-2.979114
  0
VERTEX
  8
PLAN_1
  6
CONTINUOUS
 10
0.986567
 20
-2.977516
  0
VERTEX
  8
PLAN_1
  6
CONTINUOUS
 10
0.989764
 20
-2.975917
  0
VERTEX
  8
PLAN_1
  6
CONTINUOUS
 10
0.992965
 20
-2.974717
  0
VERTEX
  8
PLAN_1
  6
CONTINUOUS
 10
0.996161
 20
-2.973516
  0
VERTEX
  8
PLAN_1
  6
CONTINUOUS
 10
0.999764
 20
-2.972319
  0
VERTEX
  8
PLAN_1
  6
CONTINUOUS
 10
1.003760
 20
-2.971520
  0
VERTEX
  8
PLAN_1
  6
CONTINUOUS
 10
1.007760
 20
-2.971118
  0
VERTEX
  8
PLAN_1
  6
CONTINUOUS
 10
1.012157
 20
-2.970319
  0
VERTEX
  8
PLAN_1
  6
CONTINUOUS
 10
1.016555
 20
-2.970319
  0
VERTEX
  8
PLAN_1
  6
CONTINUOUS
 10
1.021354
 20
-2.969917
  0
VERTEX
  8
PLAN_1
  6
CONTINUOUS
 10
1.028154
 20
-2.970319
  0
VERTEX
  8
PLAN_1
  6
CONTINUOUS
 10
1.034551
 20
-2.971118
  0
VERTEX
  8
PLAN_1
  6
CONTINUOUS
 10
1.040949
 20
-2.972319
  0
VERTEX
  8
PLAN_1
  6
CONTINUOUS
 10
1.046547
 20
-2.973917
  0
VERTEX
  8
PLAN_1
  6
CONTINUOUS
 10
1.051744
 20
-2.975917
  0
VERTEX
  8
PLAN_1
  6
CONTINUOUS
 10
1.056941
 20
-2.978315
  0
VERTEX
  8
PLAN_1
  6
CONTINUOUS
 10
1.061343
 20
-2.981516
  0
VERTEX
  8
PLAN_1
  6
CONTINUOUS
 10
1.065339
 20
-2.984713
  0
VERTEX
  8
PLAN_1
  6
CONTINUOUS
 10
1.068937
 20
-2.988311
  0
VERTEX
  8
PLAN_1
  6
CONTINUOUS
 10
1.072138
 20
-2.991909
  0
VERTEX
  8
PLAN_1
  6
CONTINUOUS
 10
1.074937
 20
-2.996311
  0
VERTEX
  8
PLAN_1
  6
CONTINUOUS
 10
1.077335
 20
-3.000709
  0
VERTEX
  8
PLAN_1
  6
CONTINUOUS
 10
1.078937
 20
-3.005508
  0
VERTEX
  8
PLAN_1
  6
CONTINUOUS
 10
1.080535
 20
-3.010705
  0
VERTEX
  8
PLAN_1
  6
CONTINUOUS
 10
1.081335
 20
-3.015902
  0
VERTEX
  8
PLAN_1
  6
CONTINUOUS
 10
1.081335
 20
-3.021500
  0
VERTEX
  8
PLAN_1
  6
CONTINUOUS
 10
1.081335
 20
-3.025902
  0
VERTEX
  8
PLAN_1
  6
CONTINUOUS
 10
1.080933
 20
-3.030299
  0
VERTEX
  8
PLAN_1
  6
CONTINUOUS
 10
1.080134
 20
-3.033898
  0
VERTEX
  8
PLAN_1
  6
CONTINUOUS
 10
1.078937
 20
-3.037898
  0
VERTEX
  8
PLAN_1
  6
CONTINUOUS
 10
1.077736
 20
-3.041094
  0
VERTEX
  8
PLAN_1
  6
CONTINUOUS
 10
1.076138
 20
-3.044295
  0
VERTEX
  8
PLAN_1
  6
CONTINUOUS
 10
1.074535
 20
-3.047094
  0
VERTEX
  8
PLAN_1
  6
CONTINUOUS
 10
1.072937
 20
-3.049492
  0
VERTEX
  8
PLAN_1
  6
CONTINUOUS
 10
1.070937
 20
-3.051890
  0
VERTEX
  8
PLAN_1
  6
CONTINUOUS
 10
1.068937
 20
-3.053890
  0
VERTEX
  8
PLAN_1
  6
CONTINUOUS
 10
1.066941
 20
-3.055890
  0
VERTEX
  8
PLAN_1
  6
CONTINUOUS
 10
1.064941
 20
-3.057488
  0
VERTEX
  8
PLAN_1
  6
CONTINUOUS
 10
1.060543
 20
-3.059890
  0
VERTEX
  8
PLAN_1
  6
CONTINUOUS
 10
1.056543
 20
-3.061488
  0
VERTEX
  8
PLAN_1
  6
CONTINUOUS
 10
1.056543
 20
-3.062287
  0
VERTEX
  8
PLAN_1
  6
CONTINUOUS
 10
1.059740
 20
-3.063488
  0
VERTEX
  8
PLAN_1
  6
CONTINUOUS
 10
1.063343
 20
-3.064685
  0
VERTEX
  8
PLAN_1
  6
CONTINUOUS
 10
1.066539
 20
-3.066287
  0
VERTEX
  8
PLAN_1
  6
CONTINUOUS
 10
1.069339
 20
-3.068287
  0
VERTEX
  8
PLAN_1
  6
CONTINUOUS
 10
1.072539
 20
-3.070283
  0
VERTEX
  8
PLAN_1
  6
CONTINUOUS
 10
1.074937
 20
-3.072283
  0
VERTEX
  8
PLAN_1
  6
CONTINUOUS
 10
1.077335
 20
-3.074685
  0
VERTEX
  8
PLAN_1
  6
CONTINUOUS
 10
1.079736
 20
-3.077484
  0
VERTEX
  8
PLAN_1
  6
CONTINUOUS
 10
1.081736
 20
-3.080283
  0
VERTEX
  8
PLAN_1
  6
CONTINUOUS
 10
1.083732
 20
-3.083480
  0
VERTEX
  8
PLAN_1
  6
CONTINUOUS
 10
1.085335
 20
-3.086681
  0
VERTEX
  8
PLAN_1
  6
CONTINUOUS
 10
1.086531
 20
-3.090280
  0
VERTEX
  8
PLAN_1
  6
CONTINUOUS
 10
1.087732
 20
-3.094276
  0
VERTEX
  8
PLAN_1
  6
CONTINUOUS
 10
1.088134
 20
-3.098677
  0
VERTEX
  8
PLAN_1
  6
CONTINUOUS
 10
1.088933
 20
-3.103075
  0
VERTEX
  8
PLAN_1
  6
CONTINUOUS
 10
1.088933
 20
-3.107874
  0
VERTEX
  8
PLAN_1
  6
CONTINUOUS
 10
1.088531
 20
-3.113469
  0
VERTEX
  8
PLAN_1
  6
CONTINUOUS
 10
1.088134
 20
-3.119469
  0
VERTEX
  8
PLAN_1
  6
CONTINUOUS
 10
1.086531
 20
-3.125465
  0
VERTEX
  8
PLAN_1
  6
CONTINUOUS
 10
1.084933
 20
-3.131063
  0
VERTEX
  8
PLAN_1
  6
CONTINUOUS
 10
1.082535
 20
-3.136264
  0
VERTEX
  8
PLAN_1
  6
CONTINUOUS
 10
1.079736
 20
-3.141461
  0
VERTEX
  8
PLAN_1
  6
CONTINUOUS
 10
1.076535
 20
-3.146657
  0
VERTEX
  8
PLAN_1
  6
CONTINUOUS
 10
1.072539
 20
-3.151059
  0
VERTEX
  8
PLAN_1
  6
CONTINUOUS
 10
1.067740
 20
-3.155055
  0
VERTEX
  8
PLAN_1
  6
CONTINUOUS
 10
1.062941
 20
-3.159055
  0
VERTEX
  8
PLAN_1
  6
CONTINUOUS
 10
1.056941
 20
-3.162252
  0
VERTEX
  8
PLAN_1
  6
CONTINUOUS
 10
1.050543
 20
-3.165051
  0
VERTEX
  8
PLAN_1
  6
CONTINUOUS
 10
1.043748
 20
-3.167453
  0
VERTEX
  8
PLAN_1
  6
CONTINUOUS
 10
1.036150
 20
-3.169051
  0
VERTEX
  8
PLAN_1
  6
CONTINUOUS
 10
1.027752
 20
-3.170252
  0
VERTEX
  8
PLAN_1
  6
CONTINUOUS
 10
1.018555
 20
-3.170252
  0
VERTEX
  8
PLAN_1
  6
CONTINUOUS
 10
1.013358
 20
-3.170252
  0
VERTEX
  8
PLAN_1
  6
CONTINUOUS
 10
1.008157
 20
-3.169850
  0
VERTEX
  8
PLAN_1
  6
CONTINUOUS
 10
1.003362
 20
-3.169051
  0
VERTEX
  8
PLAN_1
  6
CONTINUOUS
 10
0.998961
 20
-3.167850
  0
VERTEX
  8
PLAN_1
  6
CONTINUOUS
 10
0.994563
 20
-3.166654
  0
VERTEX
  8
PLAN_1
  6
CONTINUOUS
 10
0.990165
 20
-3.165453
  0
VERTEX
  8
PLAN_1
  6
CONTINUOUS
 10
0.986165
 20
-3.163453
  0
VERTEX
  8
PLAN_1
  6
CONTINUOUS
 10
0.982567
 20
-3.161854
  0
VERTEX
  8
PLAN_1
  6
CONTINUOUS
 10
0.978571
 20
-3.159457
  0
VERTEX
  8
PLAN_1
  6
CONTINUOUS
 10
0.975370
 20
-3.157055
  0
VERTEX
  8
PLAN_1
  6
CONTINUOUS
 10
0.972173
 20
-3.154256
  0
VERTEX
  8
PLAN_1
  6
CONTINUOUS
 10
0.969374
 20
-3.151457
  0
VERTEX
  8
PLAN_1
  6
CONTINUOUS
 10
0.966575
 20
-3.148260
  0
VERTEX
  8
PLAN_1
  6
CONTINUOUS
 10
0.964173
 20
-3.145059
  0
VERTEX
  8
PLAN_1
  6
CONTINUOUS
 10
0.962173
 20
-3.141461
  0
VERTEX
  8
PLAN_1
  6
CONTINUOUS
 10
0.960575
 20
-3.137862
  0
VERTEX
  8
PLAN_1
  6
CONTINUOUS
 10
0.958976
 20
-3.133862
  0
VERTEX
  8
PLAN_1
  6
CONTINUOUS
 10
0.957776
 20
-3.130264
  0
VERTEX
  8
PLAN_1
  6
CONTINUOUS
 10
0.956575
 20
-3.126268
  0
VERTEX
  8
PLAN_1
  6
CONTINUOUS
 10
0.955776
 20
-3.122268
  0
VERTEX
  8
PLAN_1
  6
CONTINUOUS
 10
0.954177
 20
-3.113870
  0
VERTEX
  8
PLAN_1
  6
CONTINUOUS
 10
0.953378
 20
-3.105472
  0
VERTEX
  8
PLAN_1
  6
CONTINUOUS
 10
0.978571
 20
-3.105472
  0
VERTEX
  8
PLAN_1
  6
CONTINUOUS
 10
0.979370
 20
-3.112669
  0
VERTEX
  8
PLAN_1
  6
CONTINUOUS
 10
0.980567
 20
-3.119870
  0
VERTEX
  8
PLAN_1
  6
CONTINUOUS
 10
0.981370
 20
-3.123469
  0
VERTEX
  8
PLAN_1
  6
CONTINUOUS
 10
0.982567
 20
-3.127067
  0
VERTEX
  8
PLAN_1
  6
CONTINUOUS
 10
0.984169
 20
-3.130665
  0
VERTEX
  8
PLAN_1
  6
CONTINUOUS
 10
0.986165
 20
-3.133862
  0
VERTEX
  8
PLAN_1
  6
CONTINUOUS
 10
0.988567
 20
-3.137063
  0
VERTEX
  8
PLAN_1
  6
CONTINUOUS
 10
0.991366
 20
-3.139862
  0
VERTEX
  8
PLAN_1
  6
CONTINUOUS
 10
0.994965
 20
-3.142260
  0
VERTEX
  8
PLAN_1
  6
CONTINUOUS
 10
0.998563
 20
-3.144260
  0
VERTEX
  8
PLAN_1
  6
CONTINUOUS
 10
1.002961
 20
-3.146260
  0
VERTEX
  8
PLAN_1
  6
CONTINUOUS
 10
1.008157
 20
-3.147461
  0
VERTEX
  8
PLAN_1
  6
CONTINUOUS
 10
1.013756
 20
-3.148260
  0
VERTEX
  8
PLAN_1
  6
CONTINUOUS
 10
1.020555
 20
-3.148657
  0
VERTEX
  8
PLAN_1
  6
CONTINUOUS
 10
1.024953
 20
-3.148260
  0
VERTEX
  8
PLAN_1
  6
CONTINUOUS
 10
1.029350
 20
-3.147858
  0
VERTEX
  8
PLAN_1
  6
CONTINUOUS
 10
1.033752
 20
-3.147059
  0
VERTEX
  8
PLAN_1
  6
CONTINUOUS
 10
1.037350
 20
-3.145858
  0
VERTEX
  8
PLAN_1
  6
CONTINUOUS
 10
1.041346
 20
-3.144260
  0
VERTEX
  8
PLAN_1
  6
CONTINUOUS
 10
1.044949
 20
-3.142661
  0
VERTEX
  8
PLAN_1
  6
CONTINUOUS
 10
1.048146
 20
-3.140260
  0
VERTEX
  8
PLAN_1
  6
CONTINUOUS
 10
1.050945
 20
-3.137862
  0
VERTEX
  8
PLAN_1
  6
CONTINUOUS
 10
1.053744
 20
-3.135465
  0
VERTEX
  8
PLAN_1
  6
CONTINUOUS
 10
1.056142
 20
-3.132665
  0
VERTEX
  8
PLAN_1
  6
CONTINUOUS
 10
1.058142
 20
-3.129465
  0
VERTEX
  8
PLAN_1
  6
CONTINUOUS
 10
1.059740
 20
-3.126268
  0
VERTEX
  8
PLAN_1
  6
CONTINUOUS
 10
1.060941
 20
-3.122665
  0
VERTEX
  8
PLAN_1
  6
CONTINUOUS
 10
1.062142
 20
-3.118669
  0
VERTEX
  8
PLAN_1
  6
CONTINUOUS
 10
1.062539
 20
-3.115071
  0
VERTEX
  8
PLAN_1
  6
CONTINUOUS
 10
1.062941
 20
-3.110673
  0
VERTEX
  8
PLAN_1
  6
CONTINUOUS
 10
1.062539
 20
-3.105075
  0
VERTEX
  8
PLAN_1
  6
CONTINUOUS
 10
1.061740
 20
-3.099874
  0
VERTEX
  8
PLAN_1
  6
CONTINUOUS
 10
1.060142
 20
-3.095476
  0
VERTEX
  8
PLAN_1
  6
CONTINUOUS
 10
1.058142
 20
-3.091476
  0
VERTEX
  8
PLAN_1
  6
CONTINUOUS
 10
1.055744
 20
-3.087878
  0
VERTEX
  8
PLAN_1
  6
CONTINUOUS
 10
1.052945
 20
-3.085079
  0
VERTEX
  8
PLAN_1
  6
CONTINUOUS
 10
1.049744
 20
-3.082681
  0
VERTEX
  8
PLAN_1
  6
CONTINUOUS
 10
1.046146
 20
-3.080681
  0
VERTEX
  8
PLAN_1
  6
CONTINUOUS
 10
1.042547
 20
-3.079083
  0
VERTEX
  8
PLAN_1
  6
CONTINUOUS
 10
1.038949
 20
-3.077484
  0
VERTEX
  8
PLAN_1
  6
CONTINUOUS
 10
1.035350
 20
-3.076681
  0
VERTEX
  8
PLAN_1
  6
CONTINUOUS
 10
1.031350
 20
-3.075882
  0
VERTEX
  8
PLAN_1
  6
CONTINUOUS
 10
1.024154
 20
-3.075083
  0
VERTEX
  8
PLAN_1
  6
CONTINUOUS
 10
1.017354
 20
-3.075083
  0
VERTEX
  8
PLAN_1
  6
CONTINUOUS
 10
1.015756
 20
-3.075083
  0
VERTEX
  8
PLAN_1
  6
CONTINUOUS
 10
1.014559
 20
-3.075083
  0
VERTEX
  8
PLAN_1
  6
CONTINUOUS
 10
1.013358
 20
-3.075083
  0
VERTEX
  8
PLAN_1
  6
CONTINUOUS
 10
1.011760
 20
-3.075083
  0
VERTEX
  8
PLAN_1
  6
CONTINUOUS
 10
1.010559
 20
-3.075083
  0
VERTEX
  8
PLAN_1
  6
CONTINUOUS
 10
1.008961
 20
-3.075083
  0
VERTEX
  8
PLAN_1
  6
CONTINUOUS
 10
1.007760
 20
-3.075083
  0
VERTEX
  8
PLAN_1
  6
CONTINUOUS
 10
1.006161
 20
-3.075083
  0
VERTEX
  8
PLAN_1
  6
CONTINUOUS
 10
1.006161
 20
-3.054291
  0
SEQEND
  8
0
  0
SOLID
  8
PLAN_1
 10
1.098528
 20
-3.199843
 11
1.098528
 21
-3.185846
 12
1.252878
 22
-3.199843
 13
1.252878
 23
-3.185846
  0
POLYLINE
  8
PLAN_1
  6
CONTINUOUS
 66
     1
 40
0.003000
 41
0.003000
  0
VERTEX
  8
PLAN_1
  6
CONTINUOUS
 10
1.098528
 20
-3.199843
  0
VERTEX
  8
PLAN_1
  6
CONTINUOUS
 10
1.098528
 20
-3.185846
  0
VERTEX
  8
PLAN_1
  6
CONTINUOUS
 10
1.252878
 20
-3.185846
  0
VERTEX
  8
PLAN_1
  6
CONTINUOUS
 10
1.252878
 20
-3.199843
  0
VERTEX
  8
PLAN_1
  6
CONTINUOUS
 10
1.098528
 20
-3.199843
  0
SEQEND
  8
0
  0
POLYLINE
  8
PLAN_1
  6
CONTINUOUS
 66
     1
 40
0.003000
 41
0.003000
  0
VERTEX
  8
PLAN_1
  6
CONTINUOUS
 10
1.304059
 20
-3.165051
  0
VERTEX
  8
PLAN_1
  6
CONTINUOUS
 10
1.277268
 20
-3.165051
  0
VERTEX
  8
PLAN_1
  6
CONTINUOUS
 10
1.277268
 20
-2.965921
  0
VERTEX
  8
PLAN_1
  6
CONTINUOUS
 10
1.369236
 20
-2.965921
  0
VERTEX
  8
PLAN_1
  6
CONTINUOUS
 10
1.375634
 20
-2.965921
  0
VERTEX
  8
PLAN_1
  6
CONTINUOUS
 10
1.381634
 20
-2.966319
  0
VERTEX
  8
PLAN_1
  6
CONTINUOUS
 10
1.387630
 20
-2.967118
  0
VERTEX
  8
PLAN_1
  6
CONTINUOUS
 10
1.393630
 20
-2.968319
  0
VERTEX
  8
PLAN_1
  6
CONTINUOUS
 10
1.399228
 20
-2.969917
  0
VERTEX
  8
PLAN_1
  6
CONTINUOUS
 10
1.404425
 20
-2.971520
  0
VERTEX
  8
PLAN_1
  6
CONTINUOUS
 10
1.409622
 20
-2.973917
  0
VERTEX
  8
PLAN_1
  6
CONTINUOUS
 10
1.414421
 20
-2.976717
  0
VERTEX
  8
PLAN_1
  6
CONTINUOUS
 10
1.418819
 20
-2.980315
  0
VERTEX
  8
PLAN_1
  6
CONTINUOUS
 10
1.422819
 20
-2.983913
  0
VERTEX
  8
PLAN_1
  6
CONTINUOUS
 10
1.426417
 20
-2.988311
  0
VERTEX
  8
PLAN_1
  6
CONTINUOUS
 10
1.429217
 20
-2.993110
  0
VERTEX
  8
PLAN_1
  6
CONTINUOUS
 10
1.431618
 20
-2.998709
  0
VERTEX
  8
PLAN_1
  6
CONTINUOUS
 10
1.433217
 20
-3.005106
  0
VERTEX
  8
PLAN_1
  6
CONTINUOUS
 10
1.434417
 20
-3.011906
  0
VERTEX
  8
PLAN_1
  6
CONTINUOUS
 10
1.434815
 20
-3.019504
  0
VERTEX
  8
PLAN_1
  6
CONTINUOUS
 10
1.434815
 20
-3.024701
  0
VERTEX
  8
PLAN_1
  6
CONTINUOUS
 10
1.434016
 20
-3.029500
  0
VERTEX
  8
PLAN_1
  6
CONTINUOUS
 10
1.433217
 20
-3.034295
  0
VERTEX
  8
PLAN_1
  6
CONTINUOUS
 10
1.432417
 20
-3.038295
  0
VERTEX
  8
PLAN_1
  6
CONTINUOUS
 10
1.430815
 20
-3.041894
  0
VERTEX
  8
PLAN_1
  6
CONTINUOUS
 10
1.429618
 20
-3.045492
  0
VERTEX
  8
PLAN_1
  6
CONTINUOUS
 10
1.427618
 20
-3.048693
  0
VERTEX
  8
PLAN_1
  6
CONTINUOUS
 10
1.425618
 20
-3.051492
  0
VERTEX
  8
PLAN_1
  6
CONTINUOUS
 10
1.423618
 20
-3.054291
  0
VERTEX
  8
PLAN_1
  6
CONTINUOUS
 10
1.421618
 20
-3.056689
  0
VERTEX
  8
PLAN_1
  6
CONTINUOUS
 10
1.419220
 20
-3.058689
  0
VERTEX
  8
PLAN_1
  6
CONTINUOUS
 10
1.416823
 20
-3.060689
  0
VERTEX
  8
PLAN_1
  6
CONTINUOUS
 10
1.412024
 20
-3.064287
  0
VERTEX
  8
PLAN_1
  6
CONTINUOUS
 10
1.407224
 20
-3.067087
  0
VERTEX
  8
PLAN_1
  6
CONTINUOUS
 10
1.411224
 20
-3.069087
  0
VERTEX
  8
PLAN_1
  6
CONTINUOUS
 10
1.415622
 20
-3.071083
  0
VERTEX
  8
PLAN_1
  6
CONTINUOUS
 10
1.417622
 20
-3.072283
  0
VERTEX
  8
PLAN_1
  6
CONTINUOUS
 10
1.419220
 20
-3.073882
  0
VERTEX
  8
PLAN_1
  6
CONTINUOUS
 10
1.421220
 20
-3.075484
  0
VERTEX
  8
PLAN_1
  6
CONTINUOUS
 10
1.422819
 20
-3.077083
  0
VERTEX
  8
PLAN_1
  6
CONTINUOUS
 10
1.424417
 20
-3.079480
  0
VERTEX
  8
PLAN_1
  6
CONTINUOUS
 10
1.426020
 20
-3.081882
  0
VERTEX
  8
PLAN_1
  6
CONTINUOUS
 10
1.427217
 20
-3.084681
  0
VERTEX
  8
PLAN_1
  6
CONTINUOUS
 10
1.428417
 20
-3.087878
  0
VERTEX
  8
PLAN_1
  6
CONTINUOUS
 10
1.429217
 20
-3.091476
  0
VERTEX
  8
PLAN_1
  6
CONTINUOUS
 10
1.430016
 20
-3.095075
  0
VERTEX
  8
PLAN_1
  6
CONTINUOUS
 10
1.430815
 20
-3.099874
  0
VERTEX
  8
PLAN_1
  6
CONTINUOUS
 10
1.430815
 20
-3.104673
  0
VERTEX
  8
PLAN_1
  6
CONTINUOUS
 10
1.432815
 20
-3.140661
  0
VERTEX
  8
PLAN_1
  6
CONTINUOUS
 10
1.432815
 20
-3.144661
  0
VERTEX
  8
PLAN_1
  6
CONTINUOUS
 10
1.433217
 20
-3.147858
  0
VERTEX
  8
PLAN_1
  6
CONTINUOUS
 10
1.433614
 20
-3.150657
  0
VERTEX
  8
PLAN_1
  6
CONTINUOUS
 10
1.434815
 20
-3.153055
  0
VERTEX
  8
PLAN_1
  6
CONTINUOUS
 10
1.436016
 20
-3.155055
  0
VERTEX
  8
PLAN_1
  6
CONTINUOUS
 10
1.437614
 20
-3.157055
  0
VERTEX
  8
PLAN_1
  6
CONTINUOUS
 10
1.440012
 20
-3.159055
  0
VERTEX
  8
PLAN_1
  6
CONTINUOUS
 10
1.442811
 20
-3.160654
  0
VERTEX
  8
PLAN_1
  6
CONTINUOUS
 10
1.442811
 20
-3.165051
  0
VERTEX
  8
PLAN_1
  6
CONTINUOUS
 10
1.409622
 20
-3.165051
  0
VERTEX
  8
PLAN_1
  6
CONTINUOUS
 10
1.408425
 20
-3.159854
  0
VERTEX
  8
PLAN_1
  6
CONTINUOUS
 10
1.407224
 20
-3.153055
  0
VERTEX
  8
PLAN_1
  6
CONTINUOUS
 10
1.406425
 20
-3.145858
  0
VERTEX
  8
PLAN_1
  6
CONTINUOUS
 10
1.405626
 20
-3.138264
  0
VERTEX
  8
PLAN_1
  6
CONTINUOUS
 10
1.405224
 20
-3.131063
  0
VERTEX
  8
PLAN_1
  6
CONTINUOUS
 10
1.405224
 20
-3.124268
  0
VERTEX
  8
PLAN_1
  6
CONTINUOUS
 10
1.404827
 20
-3.119067
  0
VERTEX
  8
PLAN_1
  6
CONTINUOUS
 10
1.404827
 20
-3.115071
  0
VERTEX
  8
PLAN_1
  6
CONTINUOUS
 10
1.404827
 20
-3.109071
  0
VERTEX
  8
PLAN_1
  6
CONTINUOUS
 10
1.404028
 20
-3.102673
  0
VERTEX
  8
PLAN_1
  6
CONTINUOUS
 10
1.403224
 20
-3.099874
  0
VERTEX
  8
PLAN_1
  6
CONTINUOUS
 10
1.402028
 20
-3.096677
  0
VERTEX
  8
PLAN_1
  6
CONTINUOUS
 10
1.400827
 20
-3.093878
  0
VERTEX
  8
PLAN_1
  6
CONTINUOUS
 10
1.399228
 20
-3.091476
  0
VERTEX
  8
PLAN_1
  6
CONTINUOUS
 10
1.397228
 20
-3.088677
  0
VERTEX
  8
PLAN_1
  6
CONTINUOUS
 10
1.394831
 20
-3.086681
  0
VERTEX
  8
PLAN_1
  6
CONTINUOUS
 10
1.392031
 20
-3.084681
  0
VERTEX
  8
PLAN_1
  6
CONTINUOUS
 10
1.388429
 20
-3.083079
  0
VERTEX
  8
PLAN_1
  6
CONTINUOUS
 10
1.384433
 20
-3.081480
  0
VERTEX
  8
PLAN_1
  6
CONTINUOUS
 10
1.380035
 20
-3.080681
  0
VERTEX
  8
PLAN_1
  6
CONTINUOUS
 10
1.375236
 20
-3.079882
  0
VERTEX
  8
PLAN_1
  6
CONTINUOUS
 10
1.369236
 20
-3.079480
  0
VERTEX
  8
PLAN_1
  6
CONTINUOUS
 10
1.304059
 20
-3.079480
  0
VERTEX
  8
PLAN_1
  6
CONTINUOUS
 10
1.304059
 20
-3.165051
  0
SEQEND
  8
0
  0
POLYLINE
  8
PLAN_1
  6
CONTINUOUS
 66
     1
 40
0.003000
 41
0.003000
  0
VERTEX
  8
PLAN_1
  6
CONTINUOUS
 10
1.304059
 20
-3.056689
  0
VERTEX
  8
PLAN_1
  6
CONTINUOUS
 10
1.366437
 20
-3.056689
  0
VERTEX
  8
PLAN_1
  6
CONTINUOUS
 10
1.374035
 20
-3.056291
  0
VERTEX
  8
PLAN_1
  6
CONTINUOUS
 10
1.381232
 20
-3.055488
  0
VERTEX
  8
PLAN_1
  6
CONTINUOUS
 10
1.384831
 20
-3.054689
  0
VERTEX
  8
PLAN_1
  6
CONTINUOUS
 10
1.388031
 20
-3.053492
  0
VERTEX
  8
PLAN_1
  6
CONTINUOUS
 10
1.391228
 20
-3.052291
  0
VERTEX
  8
PLAN_1
  6
CONTINUOUS
 10
1.394429
 20
-3.050291
  0
VERTEX
  8
PLAN_1
  6
CONTINUOUS
 10
1.396827
 20
-3.048291
  0
VERTEX
  8
PLAN_1
  6
CONTINUOUS
 10
1.399626
 20
-3.045894
  0
VERTEX
  8
PLAN_1
  6
CONTINUOUS
 10
1.401626
 20
-3.043094
  0
VERTEX
  8
PLAN_1
  6
CONTINUOUS
 10
1.403626
 20
-3.039894
  0
VERTEX
  8
PLAN_1
  6
CONTINUOUS
 10
1.405224
 20
-3.036295
  0
VERTEX
  8
PLAN_1
  6
CONTINUOUS
 10
1.406024
 20
-3.032299
  0
VERTEX
  8
PLAN_1
  6
CONTINUOUS
 10
1.406823
 20
-3.027500
  0
VERTEX
  8
PLAN_1
  6
CONTINUOUS
 10
1.407224
 20
-3.022299
  0
VERTEX
  8
PLAN_1
  6
CONTINUOUS
 10
1.406823
 20
-3.016705
  0
VERTEX
  8
PLAN_1
  6
CONTINUOUS
 10
1.406024
 20
-3.011906
  0
VERTEX
  8
PLAN_1
  6
CONTINUOUS
 10
1.404827
 20
-3.007906
  0
VERTEX
  8
PLAN_1
  6
CONTINUOUS
 10
1.403224
 20
-3.003906
  0
VERTEX
  8
PLAN_1
  6
CONTINUOUS
 10
1.401626
 20
-3.000709
  0
VERTEX
  8
PLAN_1
  6
CONTINUOUS
 10
1.399228
 20
-2.998311
  0
VERTEX
  8
PLAN_1
  6
CONTINUOUS
 10
1.396827
 20
-2.995909
  0
VERTEX
  8
PLAN_1
  6
CONTINUOUS
 10
1.394028
 20
-2.993909
  0
VERTEX
  8
PLAN_1
  6
CONTINUOUS
 10
1.391228
 20
-2.992311
  0
VERTEX
  8
PLAN_1
  6
CONTINUOUS
 10
1.388429
 20
-2.991512
  0
VERTEX
  8
PLAN_1
  6
CONTINUOUS
 10
1.385634
 20
-2.990311
  0
VERTEX
  8
PLAN_1
  6
CONTINUOUS
 10
1.382433
 20
-2.989913
  0
VERTEX
  8
PLAN_1
  6
CONTINUOUS
 10
1.376835
 20
-2.989114
  0
VERTEX
  8
PLAN_1
  6
CONTINUOUS
 10
1.371236
 20
-2.988713
  0
VERTEX
  8
PLAN_1
  6
CONTINUOUS
 10
1.304059
 20
-2.988713
  0
VERTEX
  8
PLAN_1
  6
CONTINUOUS
 10
1.304059
 20
-3.056689
  0
SEQEND
  8
0
  0
SOLID
  8
PLAN_1
 10
1.506390
 20
-3.165051
 11
1.477602
 21
-3.165051
 12
1.506390
 22
-3.135862
 13
1.477602
 23
-3.135862
  0
POLYLINE
  8
PLAN_1
  6
CONTINUOUS
 66
     1
 40
0.003000
 41
0.003000
  0
VERTEX
  8
PLAN_1
  6
CONTINUOUS
 10
1.506390
 20
-3.165051
  0
VERTEX
  8
PLAN_1
  6
CONTINUOUS
 10
1.477602
 20
-3.165051
  0
VERTEX
  8
PLAN_1
  6
CONTINUOUS
 10
1.477602
 20
-3.135862
  0
VERTEX
  8
PLAN_1
  6
CONTINUOUS
 10
1.506390
 20
-3.135862
  0
VERTEX
  8
PLAN_1
  6
CONTINUOUS
 10
1.506390
 20
-3.165051
  0
SEQEND
  8
0
  0
POLYLINE
  8
PLAN_1
  6
CONTINUOUS
 66
     1
 40
0.003000
 41
0.003000
  0
VERTEX
  8
PLAN_1
  6
CONTINUOUS
 10
1.701524
 20
-3.165051
  0
VERTEX
  8
PLAN_1
  6
CONTINUOUS
 10
1.554374
 20
-3.165051
  0
VERTEX
  8
PLAN_1
  6
CONTINUOUS
 10
1.554374
 20
-2.965921
  0
VERTEX
  8
PLAN_1
  6
CONTINUOUS
 10
1.699528
 20
-2.965921
  0
VERTEX
  8
PLAN_1
  6
CONTINUOUS
 10
1.699528
 20
-2.989913
  0
VERTEX
  8
PLAN_1
  6
CONTINUOUS
 10
1.581165
 20
-2.989913
  0
VERTEX
  8
PLAN_1
  6
CONTINUOUS
 10
1.581165
 20
-3.050693
  0
VERTEX
  8
PLAN_1
  6
CONTINUOUS
 10
1.690331
 20
-3.050693
  0
VERTEX
  8
PLAN_1
  6
CONTINUOUS
 10
1.690331
 20
-3.074685
  0
VERTEX
  8
PLAN_1
  6
CONTINUOUS
 10
1.581165
 20
-3.074685
  0
VERTEX
  8
PLAN_1
  6
CONTINUOUS
 10
1.581165
 20
-3.141461
  0
VERTEX
  8
PLAN_1
  6
CONTINUOUS
 10
1.701524
 20
-3.141461
  0
VERTEX
  8
PLAN_1
  6
CONTINUOUS
 10
1.701524
 20
-3.165051
  0
SEQEND
  8
0
  0
POLYLINE
  8
PLAN_1
  6
CONTINUOUS
 66
     1
 40
0.003000
 41
0.003000
  0
VERTEX
  8
PLAN_1
  6
CONTINUOUS
 10
1.766303
 20
-3.165051
  0
VERTEX
  8
PLAN_1
  6
CONTINUOUS
 10
1.739512
 20
-3.165051
  0
VERTEX
  8
PLAN_1
  6
CONTINUOUS
 10
1.739512
 20
-2.965921
  0
VERTEX
  8
PLAN_1
  6
CONTINUOUS
 10
1.829083
 20
-2.965921
  0
VERTEX
  8
PLAN_1
  6
CONTINUOUS
 10
1.835882
 20
-2.966319
  0
VERTEX
  8
PLAN_1
  6
CONTINUOUS
 10
1.842280
 20
-2.967118
  0
VERTEX
  8
PLAN_1
  6
CONTINUOUS
 10
1.848276
 20
-2.968319
  0
VERTEX
  8
PLAN_1
  6
CONTINUOUS
 10
1.853874
 20
-2.969917
  0
VERTEX
  8
PLAN_1
  6
CONTINUOUS
 10
1.859071
 20
-2.972319
  0
VERTEX
  8
PLAN_1
  6
CONTINUOUS
 10
1.864272
 20
-2.975118
  0
VERTEX
  8
PLAN_1
  6
CONTINUOUS
 10
1.868669
 20
-2.978315
  0
VERTEX
  8
PLAN_1
  6
CONTINUOUS
 10
1.872669
 20
-2.981913
  0
VERTEX
  8
PLAN_1
  6
CONTINUOUS
 10
1.876268
 20
-2.985913
  0
VERTEX
  8
PLAN_1
  6
CONTINUOUS
 10
1.879465
 20
-2.989913
  0
VERTEX
  8
PLAN_1
  6
CONTINUOUS
 10
1.881866
 20
-2.994709
  0
VERTEX
  8
PLAN_1
  6
CONTINUOUS
 10
1.884264
 20
-2.999508
  0
VERTEX
  8
PLAN_1
  6
CONTINUOUS
 10
1.885862
 20
-3.004709
  0
VERTEX
  8
PLAN_1
  6
CONTINUOUS
 10
1.887465
 20
-3.010307
  0
VERTEX
  8
PLAN_1
  6
CONTINUOUS
 10
1.887862
 20
-3.015902
  0
VERTEX
  8
PLAN_1
  6
CONTINUOUS
 10
1.888264
 20
-3.021902
  0
VERTEX
  8
PLAN_1
  6
CONTINUOUS
 10
1.888264
 20
-3.027098
  0
VERTEX
  8
PLAN_1
  6
CONTINUOUS
 10
1.887465
 20
-3.032299
  0
VERTEX
  8
PLAN_1
  6
CONTINUOUS
 10
1.886661
 20
-3.037898
  0
VERTEX
  8
PLAN_1
  6
CONTINUOUS
 10
1.885063
 20
-3.042693
  0
VERTEX
  8
PLAN_1
  6
CONTINUOUS
 10
1.883465
 20
-3.047894
  0
VERTEX
  8
PLAN_1
  6
CONTINUOUS
 10
1.881063
 20
-3.052689
  0
VERTEX
  8
PLAN_1
  6
CONTINUOUS
 10
1.878264
 20
-3.057488
  0
VERTEX
  8
PLAN_1
  6
CONTINUOUS
 10
1.875067
 20
-3.061886
  0
VERTEX
  8
PLAN_1
  6
CONTINUOUS
 10
1.871067
 20
-3.065886
  0
VERTEX
  8
PLAN_1
  6
CONTINUOUS
 10
1.867071
 20
-3.069484
  0
VERTEX
  8
PLAN_1
  6
CONTINUOUS
 10
1.862272
 20
-3.073083
  0
VERTEX
  8
PLAN_1
  6
CONTINUOUS
 10
1.856673
 20
-3.075882
  0
VERTEX
  8
PLAN_1
  6
CONTINUOUS
 10
1.850673
 20
-3.077882
  0
VERTEX
  8
PLAN_1
  6
CONTINUOUS
 10
1.844276
 20
-3.079480
  0
VERTEX
  8
PLAN_1
  6
CONTINUOUS
 10
1.837079
 20
-3.080681
  0
VERTEX
  8
PLAN_1
  6
CONTINUOUS
 10
1.829083
 20
-3.081083
  0
VERTEX
  8
PLAN_1
  6
CONTINUOUS
 10
1.766303
 20
-3.081083
  0
VERTEX
  8
PLAN_1
  6
CONTINUOUS
 10
1.766303
 20
-3.165051
  0
SEQEND
  8
0
  0
POLYLINE
  8
PLAN_1
  6
CONTINUOUS
 66
     1
 40
0.003000
 41
0.003000
  0
VERTEX
  8
PLAN_1
  6
CONTINUOUS
 10
1.766303
 20
-3.057890
  0
VERTEX
  8
PLAN_1
  6
CONTINUOUS
 10
1.819886
 20
-3.057890
  0
VERTEX
  8
PLAN_1
  6
CONTINUOUS
 10
1.824283
 20
-3.057890
  0
VERTEX
  8
PLAN_1
  6
CONTINUOUS
 10
1.828681
 20
-3.057488
  0
VERTEX
  8
PLAN_1
  6
CONTINUOUS
 10
1.832681
 20
-3.057091
  0
VERTEX
  8
PLAN_1
  6
CONTINUOUS
 10
1.836681
 20
-3.056291
  0
VERTEX
  8
PLAN_1
  6
CONTINUOUS
 10
1.840280
 20
-3.055091
  0
VERTEX
  8
PLAN_1
  6
CONTINUOUS
 10
1.843476
 20
-3.053890
  0
VERTEX
  8
PLAN_1
  6
CONTINUOUS
 10
1.846677
 20
-3.052291
  0
VERTEX
  8
PLAN_1
  6
CONTINUOUS
 10
1.849476
 20
-3.050291
  0
VERTEX
  8
PLAN_1
  6
CONTINUOUS
 10
1.851874
 20
-3.047894
  0
VERTEX
  8
PLAN_1
  6
CONTINUOUS
 10
1.854276
 20
-3.045492
  0
VERTEX
  8
PLAN_1
  6
CONTINUOUS
 10
1.855874
 20
-3.042295
  0
VERTEX
  8
PLAN_1
  6
CONTINUOUS
 10
1.857472
 20
-3.039094
  0
VERTEX
  8
PLAN_1
  6
CONTINUOUS
 10
1.859071
 20
-3.035496
  0
VERTEX
  8
PLAN_1
  6
CONTINUOUS
 10
1.859870
 20
-3.031496
  0
VERTEX
  8
PLAN_1
  6
CONTINUOUS
 10
1.860272
 20
-3.027098
  0
VERTEX
  8
PLAN_1
  6
CONTINUOUS
 10
1.860673
 20
-3.022299
  0
VERTEX
  8
PLAN_1
  6
CONTINUOUS
 10
1.860272
 20
-3.017504
  0
VERTEX
  8
PLAN_1
  6
CONTINUOUS
 10
1.859870
 20
-3.013504
  0
VERTEX
  8
PLAN_1
  6
CONTINUOUS
 10
1.858673
 20
-3.009906
  0
VERTEX
  8
PLAN_1
  6
CONTINUOUS
 10
1.857472
 20
-3.006307
  0
VERTEX
  8
PLAN_1
  6
CONTINUOUS
 10
1.855874
 20
-3.003106
  0
VERTEX
  8
PLAN_1
  6
CONTINUOUS
 10
1.853874
 20
-3.000709
  0
VERTEX
  8
PLAN_1
  6
CONTINUOUS
 10
1.851874
 20
-2.998311
  0
VERTEX
  8
PLAN_1
  6
CONTINUOUS
 10
1.849075
 20
-2.995909
  0
VERTEX
  8
PLAN_1
  6
CONTINUOUS
 10
1.846276
 20
-2.994311
  0
VERTEX
  8
PLAN_1
  6
CONTINUOUS
 10
1.843476
 20
-2.992713
  0
VERTEX
  8
PLAN_1
  6
CONTINUOUS
 10
1.840280
 20
-2.991512
  0
VERTEX
  8
PLAN_1
  6
CONTINUOUS
 10
1.836681
 20
-2.990713
  0
VERTEX
  8
PLAN_1
  6
CONTINUOUS
 10
1.833083
 20
-2.989913
  0
VERTEX
  8
PLAN_1
  6
CONTINUOUS
 10
1.829083
 20
-2.989114
  0
VERTEX
  8
PLAN_1
  6
CONTINUOUS
 10
1.825083
 20
-2.989114
  0
VERTEX
  8
PLAN_1
  6
CONTINUOUS
 10
1.821087
 20
-2.988713
  0
VERTEX
  8
PLAN_1
  6
CONTINUOUS
 10
1.766303
 20
-2.988713
  0
VERTEX
  8
PLAN_1
  6
CONTINUOUS
 10
1.766303
 20
-3.057890
  0
SEQEND
  8
0
  0
POLYLINE
  8
PLAN_1
  6
CONTINUOUS
 66
     1
 40
0.003000
 41
0.003000
  0
VERTEX
  8
PLAN_1
  6
CONTINUOUS
 10
2.042209
 20
-3.024299
  0
VERTEX
  8
PLAN_1
  6
CONTINUOUS
 10
2.041811
 20
-3.018701
  0
VERTEX
  8
PLAN_1
  6
CONTINUOUS
 10
2.040610
 20
-3.013504
  0
VERTEX
  8
PLAN_1
  6
CONTINUOUS
 10
2.039012
 20
-3.009106
  0
VERTEX
  8
PLAN_1
  6
CONTINUOUS
 10
2.037012
 20
-3.004709
  0
VERTEX
  8
PLAN_1
  6
CONTINUOUS
 10
2.034614
 20
-3.001106
  0
VERTEX
  8
PLAN_1
  6
CONTINUOUS
 10
2.031815
 20
-2.997909
  0
VERTEX
  8
PLAN_1
  6
CONTINUOUS
 10
2.028614
 20
-2.994709
  0
VERTEX
  8
PLAN_1
  6
CONTINUOUS
 10
2.025417
 20
-2.992311
  0
VERTEX
  8
PLAN_1
  6
CONTINUOUS
 10
2.021819
 20
-2.990311
  0
VERTEX
  8
PLAN_1
  6
CONTINUOUS
 10
2.017819
 20
-2.988311
  0
VERTEX
  8
PLAN_1
  6
CONTINUOUS
 10
2.013819
 20
-2.986713
  0
VERTEX
  8
PLAN_1
  6
CONTINUOUS
 10
2.009823
 20
-2.985512
  0
VERTEX
  8
PLAN_1
  6
CONTINUOUS
 10
2.005421
 20
-2.984713
  0
VERTEX
  8
PLAN_1
  6
CONTINUOUS
 10
2.001425
 20
-2.984315
  0
VERTEX
  8
PLAN_1
  6
CONTINUOUS
 10
1.997028
 20
-2.983913
  0
VERTEX
  8
PLAN_1
  6
CONTINUOUS
 10
1.992626
 20
-2.983516
  0
VERTEX
  8
PLAN_1
  6
CONTINUOUS
 10
1.985831
 20
-2.983913
  0
VERTEX
  8
PLAN_1
  6
CONTINUOUS
 10
1.978630
 20
-2.984713
  0
VERTEX
  8
PLAN_1
  6
CONTINUOUS
 10
1.974634
 20
-2.985512
  0
VERTEX
  8
PLAN_1
  6
CONTINUOUS
 10
1.971035
 20
-2.986713
  0
VERTEX
  8
PLAN_1
  6
CONTINUOUS
 10
1.967035
 20
-2.987913
  0
VERTEX
  8
PLAN_1
  6
CONTINUOUS
 10
1.963839
 20
-2.989913
  0
VERTEX
  8
PLAN_1
  6
CONTINUOUS
 10
1.960236
 20
-2.991909
  0
VERTEX
  8
PLAN_1
  6
CONTINUOUS
 10
1.957039
 20
-2.994311
  0
VERTEX
  8
PLAN_1
  6
CONTINUOUS
 10
1.954240
 20
-2.997110
  0
VERTEX
  8
PLAN_1
  6
CONTINUOUS
 10
1.951843
 20
-3.000307
  0
VERTEX
  8
PLAN_1
  6
CONTINUOUS
 10
1.949843
 20
-3.004307
  0
VERTEX
  8
PLAN_1
  6
CONTINUOUS
 10
1.948642
 20
-3.008307
  0
VERTEX
  8
PLAN_1
  6
CONTINUOUS
 10
1.947441
 20
-3.013102
  0
VERTEX
  8
PLAN_1
  6
CONTINUOUS
 10
1.947441
 20
-3.018701
  0
VERTEX
  8
PLAN_1
  6
CONTINUOUS
 10
1.947441
 20
-3.021500
  0
VERTEX
  8
PLAN_1
  6
CONTINUOUS
 10
1.947843
 20
-3.024299
  0
VERTEX
  8
PLAN_1
  6
CONTINUOUS
 10
1.948240
 20
-3.027098
  0
VERTEX
  8
PLAN_1
  6
CONTINUOUS
 10
1.949441
 20
-3.029500
  0
VERTEX
  8
PLAN_1
  6
CONTINUOUS
 10
1.950240
 20
-3.031496
  0
VERTEX
  8
PLAN_1
  6
CONTINUOUS
 10
1.951843
 20
-3.033496
  0
VERTEX
  8
PLAN_1
  6
CONTINUOUS
 10
1.953039
 20
-3.035098
  0
VERTEX
  8
PLAN_1
  6
CONTINUOUS
 10
1.954642
 20
-3.036697
  0
VERTEX
  8
PLAN_1
  6
CONTINUOUS
 10
1.958240
 20
-3.039094
  0
VERTEX
  8
PLAN_1
  6
CONTINUOUS
 10
1.962236
 20
-3.041094
  0
VERTEX
  8
PLAN_1
  6
CONTINUOUS
 10
1.966638
 20
-3.042693
  0
VERTEX
  8
PLAN_1
  6
CONTINUOUS
 10
1.971035
 20
-3.043894
  0
VERTEX
  8
PLAN_1
  6
CONTINUOUS
 10
2.027815
 20
-3.057091
  0
VERTEX
  8
PLAN_1
  6
CONTINUOUS
 10
2.032614
 20
-3.058287
  0
VERTEX
  8
PLAN_1
  6
CONTINUOUS
 10
2.037012
 20
-3.059488
  0
VERTEX
  8
PLAN_1
  6
CONTINUOUS
 10
2.041409
 20
-3.061488
  0
VERTEX
  8
PLAN_1
  6
CONTINUOUS
 10
2.045811
 20
-3.063488
  0
VERTEX
  8
PLAN_1
  6
CONTINUOUS
 10
2.049807
 20
-3.065488
  0
VERTEX
  8
PLAN_1
  6
CONTINUOUS
 10
2.053406
 20
-3.068287
  0
VERTEX
  8
PLAN_1
  6
CONTINUOUS
 10
2.057004
 20
-3.071083
  0
VERTEX
  8
PLAN_1
  6
CONTINUOUS
 10
2.060205
 20
-3.073882
  0
VERTEX
  8
PLAN_1
  6
CONTINUOUS
 10
2.063004
 20
-3.077484
  0
VERTEX
  8
PLAN_1
  6
CONTINUOUS
 10
2.065402
 20
-3.081083
  0
VERTEX
  8
PLAN_1
  6
CONTINUOUS
 10
2.067803
 20
-3.085079
  0
VERTEX
  8
PLAN_1
  6
CONTINUOUS
 10
2.069402
 20
-3.089480
  0
VERTEX
  8
PLAN_1
  6
CONTINUOUS
 10
2.071000
 20
-3.093878
  0
VERTEX
  8
PLAN_1
  6
CONTINUOUS
 10
2.072201
 20
-3.099075
  0
VERTEX
  8
PLAN_1
  6
CONTINUOUS
 10
2.072598
 20
-3.104272
  0
VERTEX
  8
PLAN_1
  6
CONTINUOUS
 10
2.073000
 20
-3.110272
  0
VERTEX
  8
PLAN_1
  6
CONTINUOUS
 10
2.073000
 20
-3.114669
  0
VERTEX
  8
PLAN_1
  6
CONTINUOUS
 10
2.072598
 20
-3.118669
  0
VERTEX
  8
PLAN_1
  6
CONTINUOUS
 10
2.071799
 20
-3.122665
  0
VERTEX
  8
PLAN_1
  6
CONTINUOUS
 10
2.071000
 20
-3.126268
  0
VERTEX
  8
PLAN_1
  6
CONTINUOUS
 10
2.069799
 20
-3.129866
  0
VERTEX
  8
PLAN_1
  6
CONTINUOUS
 10
2.068602
 20
-3.133465
  0
VERTEX
  8
PLAN_1
  6
CONTINUOUS
 10
2.067402
 20
-3.136661
  0
VERTEX
  8
PLAN_1
  6
CONTINUOUS
 10
2.065803
 20
-3.139461
  0
VERTEX
  8
PLAN_1
  6
CONTINUOUS
 10
2.063803
 20
-3.142260
  0
VERTEX
  8
PLAN_1
  6
CONTINUOUS
 10
2.061803
 20
-3.145059
  0
VERTEX
  8
PLAN_1
  6
CONTINUOUS
 10
2.059803
 20
-3.147461
  0
VERTEX
  8
PLAN_1
  6
CONTINUOUS
 10
2.057406
 20
-3.149858
  0
VERTEX
  8
PLAN_1
  6
CONTINUOUS
 10
2.052209
 20
-3.154256
  0
VERTEX
  8
PLAN_1
  6
CONTINUOUS
 10
2.046610
 20
-3.157854
  0
VERTEX
  8
PLAN_1
  6
CONTINUOUS
 10
2.041012
 20
-3.161055
  0
VERTEX
  8
PLAN_1
  6
CONTINUOUS
 10
2.034614
 20
-3.163854
  0
VERTEX
  8
PLAN_1
  6
CONTINUOUS
 10
2.028217
 20
-3.165854
  0
VERTEX
  8
PLAN_1
  6
CONTINUOUS
 10
2.021417
 20
-3.167850
  0
VERTEX
  8
PLAN_1
  6
CONTINUOUS
 10
2.015020
 20
-3.169051
  0
VERTEX
  8
PLAN_1
  6
CONTINUOUS
 10
2.008220
 20
-3.169850
  0
VERTEX
  8
PLAN_1
  6
CONTINUOUS
 10
2.001425
 20
-3.170252
  0
VERTEX
  8
PLAN_1
  6
CONTINUOUS
 10
1.995028
 20
-3.170252
  0
VERTEX
  8
PLAN_1
  6
CONTINUOUS
 10
1.988228
 20
-3.170252
  0
VERTEX
  8
PLAN_1
  6
CONTINUOUS
 10
1.982232
 20
-3.169850
  0
VERTEX
  8
PLAN_1
  6
CONTINUOUS
 10
1.976634
 20
-3.169453
  0
VERTEX
  8
PLAN_1
  6
CONTINUOUS
 10
1.971433
 20
-3.168654
  0
VERTEX
  8
PLAN_1
  6
CONTINUOUS
 10
1.966638
 20
-3.167453
  0
VERTEX
  8
PLAN_1
  6
CONTINUOUS
 10
1.962236
 20
-3.166654
  0
VERTEX
  8
PLAN_1
  6
CONTINUOUS
 10
1.958240
 20
-3.165051
  0
VERTEX
  8
PLAN_1
  6
CONTINUOUS
 10
1.954240
 20
-3.163854
  0
VERTEX
  8
PLAN_1
  6
CONTINUOUS
 10
1.947843
 20
-3.161055
  0
VERTEX
  8
PLAN_1
  6
CONTINUOUS
 10
1.942646
 20
-3.157854
  0
VERTEX
  8
PLAN_1
  6
CONTINUOUS
 10
1.938244
 20
-3.154256
  0
VERTEX
  8
PLAN_1
  6
CONTINUOUS
 10
1.934646
 20
-3.151457
  0
VERTEX
  8
PLAN_1
  6
CONTINUOUS
 10
1.931846
 20
-3.148260
  0
VERTEX
  8
PLAN_1
  6
CONTINUOUS
 10
1.929047
 20
-3.145461
  0
VERTEX
  8
PLAN_1
  6
CONTINUOUS
 10
1.926650
 20
-3.142661
  0
VERTEX
  8
PLAN_1
  6
CONTINUOUS
 10
1.924650
 20
-3.139461
  0
VERTEX
  8
PLAN_1
  6
CONTINUOUS
 10
1.922650
 20
-3.136661
  0
VERTEX
  8
PLAN_1
  6
CONTINUOUS
 10
1.921051
 20
-3.133465
  0
VERTEX
  8
PLAN_1
  6
CONTINUOUS
 10
1.919453
 20
-3.130264
  0
VERTEX
  8
PLAN_1
  6
CONTINUOUS
 10
1.918252
 20
-3.127465
  0
VERTEX
  8
PLAN_1
  6
CONTINUOUS
 10
1.916654
 20
-3.121067
  0
VERTEX
  8
PLAN_1
  6
CONTINUOUS
 10
1.915453
 20
-3.114272
  0
VERTEX
  8
PLAN_1
  6
CONTINUOUS
 10
1.914654
 20
-3.107472
  0
VERTEX
  8
PLAN_1
  6
CONTINUOUS
 10
1.914654
 20
-3.100673
  0
VERTEX
  8
PLAN_1
  6
CONTINUOUS
 10
1.939846
 20
-3.100673
  0
VERTEX
  8
PLAN_1
  6
CONTINUOUS
 10
1.940244
 20
-3.107071
  0
VERTEX
  8
PLAN_1
  6
CONTINUOUS
 10
1.941043
 20
-3.113071
  0
VERTEX
  8
PLAN_1
  6
CONTINUOUS
 10
1.942646
 20
-3.118669
  0
VERTEX
  8
PLAN_1
  6
CONTINUOUS
 10
1.944642
 20
-3.123469
  0
VERTEX
  8
PLAN_1
  6
CONTINUOUS
 10
1.947441
 20
-3.127465
  0
VERTEX
  8
PLAN_1
  6
CONTINUOUS
 10
1.950240
 20
-3.131465
  0
VERTEX
  8
PLAN_1
  6
CONTINUOUS
 10
1.953839
 20
-3.134661
  0
VERTEX
  8
PLAN_1
  6
CONTINUOUS
 10
1.957839
 20
-3.137461
  0
VERTEX
  8
PLAN_1
  6
CONTINUOUS
 10
1.961839
 20
-3.140260
  0
VERTEX
  8
PLAN_1
  6
CONTINUOUS
 10
1.966236
 20
-3.142260
  0
VERTEX
  8
PLAN_1
  6
CONTINUOUS
 10
1.970634
 20
-3.143858
  0
VERTEX
  8
PLAN_1
  6
CONTINUOUS
 10
1.975433
 20
-3.145059
  0
VERTEX
  8
PLAN_1
  6
CONTINUOUS
 10
1.980232
 20
-3.146260
  0
VERTEX
  8
PLAN_1
  6
CONTINUOUS
 10
1.985031
 20
-3.147059
  0
VERTEX
  8
PLAN_1
  6
CONTINUOUS
 10
1.989827
 20
-3.147461
  0
VERTEX
  8
PLAN_1
  6
CONTINUOUS
 10
1.994626
 20
-3.147461
  0
VERTEX
  8
PLAN_1
  6
CONTINUOUS
 10
2.002622
 20
-3.147059
  0
VERTEX
  8
PLAN_1
  6
CONTINUOUS
 10
2.011020
 20
-3.146260
  0
VERTEX
  8
PLAN_1
  6
CONTINUOUS
 10
2.015421
 20
-3.145461
  0
VERTEX
  8
PLAN_1
  6
CONTINUOUS
 10
2.019819
 20
-3.144260
  0
VERTEX
  8
PLAN_1
  6
CONTINUOUS
 10
2.023815
 20
-3.143059
  0
VERTEX
  8
PLAN_1
  6
CONTINUOUS
 10
2.028217
 20
-3.141461
  0
VERTEX
  8
PLAN_1
  6
CONTINUOUS
 10
2.031815
 20
-3.139461
  0
VERTEX
  8
PLAN_1
  6
CONTINUOUS
 10
2.035413
 20
-3.137063
  0
VERTEX
  8
PLAN_1
  6
CONTINUOUS
 10
2.038610
 20
-3.134264
  0
VERTEX
  8
PLAN_1
  6
CONTINUOUS
 10
2.041409
 20
-3.131063
  0
VERTEX
  8
PLAN_1
  6
CONTINUOUS
 10
2.043811
 20
-3.127465
  0
VERTEX
  8
PLAN_1
  6
CONTINUOUS
 10
2.045409
 20
-3.123469
  0
VERTEX
  8
PLAN_1
  6
CONTINUOUS
 10
2.046610
 20
-3.119067
  0
VERTEX
  8
PLAN_1
  6
CONTINUOUS
 10
2.047008
 20
-3.113870
  0
VERTEX
  8
PLAN_1
  6
CONTINUOUS
 10
2.046610
 20
-3.109870
  0
VERTEX
  8
PLAN_1
  6
CONTINUOUS
 10
2.046610
 20
-3.106673
  0
VERTEX
  8
PLAN_1
  6
CONTINUOUS
 10
2.045811
 20
-3.103472
  0
VERTEX
  8
PLAN_1
  6
CONTINUOUS
 10
2.045008
 20
-3.100673
  0
VERTEX
  8
PLAN_1
  6
CONTINUOUS
 10
2.043811
 20
-3.097874
  0
VERTEX
  8
PLAN_1
  6
CONTINUOUS
 10
2.042209
 20
-3.095476
  0
VERTEX
  8
PLAN_1
  6
CONTINUOUS
 10
2.040213
 20
-3.093476
  0
VERTEX
  8
PLAN_1
  6
CONTINUOUS
 10
2.037811
 20
-3.091476
  0
VERTEX
  8
PLAN_1
  6
CONTINUOUS
 10
2.035413
 20
-3.089480
  0
VERTEX
  8
PLAN_1
  6
CONTINUOUS
 10
2.032213
 20
-3.087480
  0
VERTEX
  8
PLAN_1
  6
CONTINUOUS
 10
2.028614
 20
-3.085878
  0
VERTEX
  8
PLAN_1
  6
CONTINUOUS
 10
2.025016
 20
-3.084280
  0
VERTEX
  8
PLAN_1
  6
CONTINUOUS
 10
2.015819
 20
-3.081480
  0
VERTEX
  8
PLAN_1
  6
CONTINUOUS
 10
2.004622
 20
-3.078681
  0
VERTEX
  8
PLAN_1
  6
CONTINUOUS
 10
1.963839
 20
-3.069087
  0
VERTEX
  8
PLAN_1
  6
CONTINUOUS
 10
1.958240
 20
-3.067484
  0
VERTEX
  8
PLAN_1
  6
CONTINUOUS
 10
1.951441
 20
-3.065488
  0
VERTEX
  8
PLAN_1
  6
CONTINUOUS
 10
1.947843
 20
-3.063886
  0
VERTEX
  8
PLAN_1
  6
CONTINUOUS
 10
1.944642
 20
-3.062287
  0
VERTEX
  8
PLAN_1
  6
CONTINUOUS
 10
1.941043
 20
-3.059890
  0
VERTEX
  8
PLAN_1
  6
CONTINUOUS
 10
1.937445
 20
-3.057488
  0
VERTEX
  8
PLAN_1
  6
CONTINUOUS
 10
1.934248
 20
-3.054689
  0
VERTEX
  8
PLAN_1
  6
CONTINUOUS
 10
1.931047
 20
-3.051492
  0
VERTEX
  8
PLAN_1
  6
CONTINUOUS
 10
1.928248
 20
-3.047894
  0
VERTEX
  8
PLAN_1
  6
CONTINUOUS
 10
1.925850
 20
-3.043894
  0
VERTEX
  8
PLAN_1
  6
CONTINUOUS
 10
1.923850
 20
-3.039094
  0
VERTEX
  8
PLAN_1
  6
CONTINUOUS
 10
1.922650
 20
-3.033898
  0
VERTEX
  8
PLAN_1
  6
CONTINUOUS
 10
1.921453
 20
-3.028299
  0
VERTEX
  8
PLAN_1
  6
CONTINUOUS
 10
1.921051
 20
-3.022299
  0
VERTEX
  8
PLAN_1
  6
CONTINUOUS
 10
1.921453
 20
-3.016303
  0
VERTEX
  8
PLAN_1
  6
CONTINUOUS
 10
1.922252
 20
-3.010705
  0
VERTEX
  8
PLAN_1
  6
CONTINUOUS
 10
1.923449
 20
-3.005106
  0
VERTEX
  8
PLAN_1
  6
CONTINUOUS
 10
1.925051
 20
-2.999508
  0
VERTEX
  8
PLAN_1
  6
CONTINUOUS
 10
1.927449
 20
-2.994311
  0
VERTEX
  8
PLAN_1
  6
CONTINUOUS
 10
1.930248
 20
-2.989114
  0
VERTEX
  8
PLAN_1
  6
CONTINUOUS
 10
1.933449
 20
-2.984315
  0
VERTEX
  8
PLAN_1
  6
CONTINUOUS
 10
1.937445
 20
-2.979917
  0
VERTEX
  8
PLAN_1
  6
CONTINUOUS
 10
1.941843
 20
-2.975516
  0
VERTEX
  8
PLAN_1
  6
CONTINUOUS
 10
1.946642
 20
-2.971917
  0
VERTEX
  8
PLAN_1
  6
CONTINUOUS
 10
1.952240
 20
-2.968720
  0
VERTEX
  8
PLAN_1
  6
CONTINUOUS
 10
1.958638
 20
-2.965921
  0
VERTEX
  8
PLAN_1
  6
CONTINUOUS
 10
1.965437
 20
-2.963520
  0
VERTEX
  8
PLAN_1
  6
CONTINUOUS
 10
1.973035
 20
-2.961921
  0
VERTEX
  8
PLAN_1
  6
CONTINUOUS
 10
1.981031
 20
-2.961122
  0
VERTEX
  8
PLAN_1
  6
CONTINUOUS
 10
1.989827
 20
-2.960720
  0
VERTEX
  8
PLAN_1
  6
CONTINUOUS
 10
1.996224
 20
-2.960720
  0
VERTEX
  8
PLAN_1
  6
CONTINUOUS
 10
2.002224
 20
-2.961122
  0
VERTEX
  8
PLAN_1
  6
CONTINUOUS
 10
2.007823
 20
-2.961520
  0
VERTEX
  8
PLAN_1
  6
CONTINUOUS
 10
2.013020
 20
-2.962323
  0
VERTEX
  8
PLAN_1
  6
CONTINUOUS
 10
2.017819
 20
-2.963520
  0
VERTEX
  8
PLAN_1
  6
CONTINUOUS
 10
2.022618
 20
-2.964720
  0
VERTEX
  8
PLAN_1
  6
CONTINUOUS
 10
2.027016
 20
-2.965921
  0
VERTEX
  8
PLAN_1
  6
CONTINUOUS
 10
2.031016
 20
-2.967520
  0
VERTEX
  8
PLAN_1
  6
CONTINUOUS
 10
2.035012
 20
-2.969118
  0
VERTEX
  8
PLAN_1
  6
CONTINUOUS
 10
2.038213
 20
-2.971118
  0
VERTEX
  8
PLAN_1
  6
CONTINUOUS
 10
2.041811
 20
-2.972717
  0
VERTEX
  8
PLAN_1
  6
CONTINUOUS
 10
2.044610
 20
-2.975118
  0
VERTEX
  8
PLAN_1
  6
CONTINUOUS
 10
2.047409
 20
-2.977118
  0
VERTEX
  8
PLAN_1
  6
CONTINUOUS
 10
2.049807
 20
-2.979516
  0
VERTEX
  8
PLAN_1
  6
CONTINUOUS
 10
2.052209
 20
-2.981913
  0
VERTEX
  8
PLAN_1
  6
CONTINUOUS
 10
2.054205
 20
-2.984315
  0
VERTEX
  8
PLAN_1
  6
CONTINUOUS
 10
2.057807
 20
-2.989114
  0
VERTEX
  8
PLAN_1
  6
CONTINUOUS
 10
2.060602
 20
-2.994311
  0
VERTEX
  8
PLAN_1
  6
CONTINUOUS
 10
2.063004
 20
-2.999909
  0
VERTEX
  8
PLAN_1
  6
CONTINUOUS
 10
2.064602
 20
-3.005106
  0
VERTEX
  8
PLAN_1
  6
CONTINUOUS
 10
2.065803
 20
-3.010307
  0
VERTEX
  8
PLAN_1
  6
CONTINUOUS
 10
2.066602
 20
-3.015102
  0
VERTEX
  8
PLAN_1
  6
CONTINUOUS
 10
2.067004
 20
-3.019902
  0
VERTEX
  8
PLAN_1
  6
CONTINUOUS
 10
2.067402
 20
-3.024299
  0
VERTEX
  8
PLAN_1
  6
CONTINUOUS
 10
2.042209
 20
-3.024299
  0
SEQEND
  8
0
  0
POLYLINE
  8
PLAN_1
  6
CONTINUOUS
 66
     1
 40
0.008394
 41
0.008394
  0
VERTEX
  8
PLAN_1
  6
CONTINUOUS
 10
-1.670138
 20
2.224327
  0
VERTEX
  8
PLAN_1
  6
CONTINUOUS
 10
-1.285067
 20
2.224327
  0
VERTEX
  8
PLAN_1
  6
CONTINUOUS
 10
-1.285067
 20
2.865311
  0
VERTEX
  8
PLAN_1
  6
CONTINUOUS
 10
-1.671736
 20
2.865311
  0
VERTEX
  8
PLAN_1
  6
CONTINUOUS
 10
-1.726520
 20
2.832122
  0
VERTEX
  8
PLAN_1
  6
CONTINUOUS
 10
-1.726520
 20
2.265913
  0
VERTEX
  8
PLAN_1
  6
CONTINUOUS
 10
-1.670138
 20
2.224327
  0
SEQEND
  8
0
  0
POLYLINE
  8
PLAN_1
  6
CONTINUOUS
 66
     1
 40
0.008394
 41
0.008394
  0
VERTEX
  8
PLAN_1
  6
CONTINUOUS
 10
-1.670138
 20
2.224327
  0
VERTEX
  8
PLAN_1
  6
CONTINUOUS
 10
-1.670138
 20
2.865311
  0
SEQEND
  8
0
  0
POLYLINE
  8
PLAN_1
  6
CONTINUOUS
 66
     1
 40
0.008394
 41
0.008394
  0
VERTEX
  8
PLAN_1
  6
CONTINUOUS
 10
-1.976433
 20
2.370681
  0
VERTEX
  8
PLAN_1
  6
CONTINUOUS
 10
-1.726520
 20
2.370681
  0
VERTEX
  8
PLAN_1
  6
CONTINUOUS
 10
-1.726520
 20
2.724161
  0
VERTEX
  8
PLAN_1
  6
CONTINUOUS
 10
-1.974035
 20
2.724161
  0
SEQEND
  8
0
  0
POLYLINE
  8
PLAN_1
  6
CONTINUOUS
 66
     1
 40
0.008394
 41
0.008394
  0
VERTEX
  8
PLAN_1
  6
CONTINUOUS
 10
-1.974035
 20
2.724161
  0
VERTEX
  8
PLAN_1
  6
CONTINUOUS
 10
-1.978433
 20
2.721760
  0
VERTEX
  8
PLAN_1
  6
CONTINUOUS
 10
-1.989228
 20
2.714161
  0
VERTEX
  8
PLAN_1
  6
CONTINUOUS
 10
-1.996827
 20
2.708165
  0
VERTEX
  8
PLAN_1
  6
CONTINUOUS
 10
-2.004823
 20
2.701366
  0
VERTEX
  8
PLAN_1
  6
CONTINUOUS
 10
-2.014020
 20
2.692969
  0
VERTEX
  8
PLAN_1
  6
CONTINUOUS
 10
-2.022819
 20
2.683374
  0
VERTEX
  8
PLAN_1
  6
CONTINUOUS
 10
-2.027618
 20
2.678177
  0
VERTEX
  8
PLAN_1
  6
CONTINUOUS
 10
-2.032016
 20
2.672579
  0
VERTEX
  8
PLAN_1
  6
CONTINUOUS
 10
-2.036413
 20
2.666980
  0
VERTEX
  8
PLAN_1
  6
CONTINUOUS
 10
-2.040811
 20
2.660583
  0
VERTEX
  8
PLAN_1
  6
CONTINUOUS
 10
-2.045209
 20
2.654185
  0
VERTEX
  8
PLAN_1
  6
CONTINUOUS
 10
-2.049209
 20
2.647386
  0
VERTEX
  8
PLAN_1
  6
CONTINUOUS
 10
-2.052807
 20
2.640189
  0
VERTEX
  8
PLAN_1
  6
CONTINUOUS
 10
-2.056406
 20
2.632591
  0
VERTEX
  8
PLAN_1
  6
CONTINUOUS
 10
-2.060004
 20
2.624594
  0
VERTEX
  8
PLAN_1
  6
CONTINUOUS
 10
-2.062803
 20
2.616594
  0
VERTEX
  8
PLAN_1
  6
CONTINUOUS
 10
-2.065602
 20
2.608201
  0
VERTEX
  8
PLAN_1
  6
CONTINUOUS
 10
-2.067602
 20
2.599402
  0
VERTEX
  8
PLAN_1
  6
CONTINUOUS
 10
-2.069602
 20
2.590205
  0
VERTEX
  8
PLAN_1
  6
CONTINUOUS
 10
-2.070803
 20
2.580610
  0
VERTEX
  8
PLAN_1
  6
CONTINUOUS
 10
-2.071602
 20
2.571012
  0
VERTEX
  8
PLAN_1
  6
CONTINUOUS
 10
-2.072000
 20
2.560614
  0
VERTEX
  8
PLAN_1
  6
CONTINUOUS
 10
-2.071602
 20
2.550618
  0
VERTEX
  8
PLAN_1
  6
CONTINUOUS
 10
-2.070803
 20
2.540622
  0
VERTEX
  8
PLAN_1
  6
CONTINUOUS
 10
-2.069602
 20
2.530626
  0
VERTEX
  8
PLAN_1
  6
CONTINUOUS
 10
-2.067602
 20
2.521028
  0
VERTEX
  8
PLAN_1
  6
CONTINUOUS
 10
-2.065602
 20
2.511831
  0
VERTEX
  8
PLAN_1
  6
CONTINUOUS
 10
-2.063205
 20
2.502634
  0
VERTEX
  8
PLAN_1
  6
CONTINUOUS
 10
-2.060004
 20
2.493437
  0
VERTEX
  8
PLAN_1
  6
CONTINUOUS
 10
-2.056807
 20
2.484642
  0
VERTEX
  8
PLAN_1
  6
CONTINUOUS
 10
-2.053606
 20
2.476244
  0
VERTEX
  8
PLAN_1
  6
CONTINUOUS
 10
-2.049610
 20
2.467846
  0
VERTEX
  8
PLAN_1
  6
CONTINUOUS
 10
-2.046012
 20
2.459850
  0
VERTEX
  8
PLAN_1
  6
CONTINUOUS
 10
-2.041610
 20
2.452252
  0
VERTEX
  8
PLAN_1
  6
CONTINUOUS
 10
-2.037614
 20
2.445055
  0
VERTEX
  8
PLAN_1
  6
CONTINUOUS
 10
-2.033213
 20
2.437858
  0
VERTEX
  8
PLAN_1
  6
CONTINUOUS
 10
-2.028815
 20
2.431059
  0
VERTEX
  8
PLAN_1
  6
CONTINUOUS
 10
-2.024016
 20
2.424661
  0
VERTEX
  8
PLAN_1
  6
CONTINUOUS
 10
-2.015220
 20
2.412264
  0
VERTEX
  8
PLAN_1
  6
CONTINUOUS
 10
-2.006823
 20
2.401870
  0
VERTEX
  8
PLAN_1
  6
CONTINUOUS
 10
-1.998827
 20
2.392673
  0
VERTEX
  8
PLAN_1
  6
CONTINUOUS
 10
-1.991630
 20
2.384673
  0
VERTEX
  8
PLAN_1
  6
CONTINUOUS
 10
-1.980831
 20
2.374280
  0
VERTEX
  8
PLAN_1
  6
CONTINUOUS
 10
-1.976433
 20
2.370681
  0
SEQEND
  8
0
  0
POLYLINE
  8
PLAN_1
  6
CONTINUOUS
 66
     1
 40
0.008394
 41
0.008394
  0
VERTEX
  8
PLAN_1
  6
CONTINUOUS
 10
-1.976433
 20
2.370681
  0
VERTEX
  8
PLAN_1
  6
CONTINUOUS
 10
-1.976433
 20
2.724161
  0
SEQEND
  8
0
  0
POLYLINE
  8
PLAN_1
  6
CONTINUOUS
 66
     1
 40
0.008394
 41
0.008394
  0
VERTEX
  8
PLAN_1
  6
CONTINUOUS
 10
-0.046283
 20
2.079177
  0
VERTEX
  8
PLAN_1
  6
CONTINUOUS
 10
-0.046283
 20
2.938488
  0
VERTEX
  8
PLAN_1
  6
CONTINUOUS
 10
-1.286268
 20
2.938488
  0
VERTEX
  8
PLAN_1
  6
CONTINUOUS
 10
-1.286268
 20
2.079177
  0
VERTEX
  8
PLAN_1
  6
CONTINUOUS
 10
-0.046283
 20
2.079177
  0
SEQEND
  8
0
  0
POLYLINE
  8
PLAN_1
  6
CONTINUOUS
 66
     1
 40
0.008394
 41
0.008394
  0
VERTEX
  8
PLAN_1
  6
CONTINUOUS
 10
-0.466945
 20
1.683713
  0
VERTEX
  8
PLAN_1
  6
CONTINUOUS
 10
-0.466945
 20
1.727697
  0
VERTEX
  8
PLAN_1
  6
CONTINUOUS
 10
-0.845614
 20
1.727697
  0
VERTEX
  8
PLAN_1
  6
CONTINUOUS
 10
-0.845614
 20
1.683713
  0
VERTEX
  8
PLAN_1
  6
CONTINUOUS
 10
-0.466945
 20
1.683713
  0
SEQEND
  8
0
  0
POLYLINE
  8
PLAN_1
  6
CONTINUOUS
 66
     1
 40
0.008394
 41
0.008394
  0
VERTEX
  8
PLAN_1
  6
CONTINUOUS
 10
-0.147051
 20
2.055587
  0
VERTEX
  8
PLAN_1
  6
CONTINUOUS
 10
-0.147051
 20
2.078378
  0
VERTEX
  8
PLAN_1
  6
CONTINUOUS
 10
-1.165106
 20
2.078378
  0
VERTEX
  8
PLAN_1
  6
CONTINUOUS
 10
-1.165106
 20
2.055587
  0
VERTEX
  8
PLAN_1
  6
CONTINUOUS
 10
-0.147051
 20
2.055587
  0
SEQEND
  8
0
  0
POLYLINE
  8
PLAN_1
  6
CONTINUOUS
 66
     1
 40
0.008394
 41
0.008394
  0
VERTEX
  8
PLAN_1
  6
CONTINUOUS
 10
-0.371374
 20
1.727697
  0
VERTEX
  8
PLAN_1
  6
CONTINUOUS
 10
-0.371374
 20
2.055587
  0
VERTEX
  8
PLAN_1
  6
CONTINUOUS
 10
-0.959575
 20
2.055587
  0
VERTEX
  8
PLAN_1
  6
CONTINUOUS
 10
-0.959575
 20
1.727697
  0
VERTEX
  8
PLAN_1
  6
CONTINUOUS
 10
-0.371374
 20
1.727697
  0
SEQEND
  8
0
  0
POLYLINE
  8
PLAN_1
 62
     5
  6
CONTINUOUS
 66
     1
 40
0.003000
 41
0.003000
  0
VERTEX
  8
PLAN_1
 62
     5
  6
CONTINUOUS
 10
-1.444213
 20
1.415000
  0
VERTEX
  8
PLAN_1
 62
     5
  6
CONTINUOUS
 10
-1.444213
 20
1.423000
  0
SEQEND
  8
0
  0
POLYLINE
  8
PLAN_1
 62
     5
  6
CONTINUOUS
 66
     1
 40
0.003000
 41
0.003000
  0
VERTEX
  8
PLAN_1
 62
     5
  6
CONTINUOUS
 10
-1.444213
 20
1.431398
  0
VERTEX
  8
PLAN_1
 62
     5
  6
CONTINUOUS
 10
-1.444213
 20
1.439791
  0
SEQEND
  8
0
  0
POLYLINE
  8
PLAN_1
 62
     5
  6
CONTINUOUS
 66
     1
 40
0.003000
 41
0.003000
  0
VERTEX
  8
PLAN_1
 62
     5
  6
CONTINUOUS
 10
-1.444213
 20
1.448189
  0
VERTEX
  8
PLAN_1
 62
     5
  6
CONTINUOUS
 10
-1.444213
 20
1.456587
  0
SEQEND
  8
0
  0
POLYLINE
  8
PLAN_1
 62
     5
  6
CONTINUOUS
 66
     1
 40
0.003000
 41
0.003000
  0
VERTEX
  8
PLAN_1
 62
     5
  6
CONTINUOUS
 10
-1.444213
 20
1.464984
  0
VERTEX
  8
PLAN_1
 62
     5
  6
CONTINUOUS
 10
-1.444213
 20
1.472980
  0
SEQEND
  8
0
  0
POLYLINE
  8
PLAN_1
 62
     5
  6
CONTINUOUS
 66
     1
 40
0.003000
 41
0.003000
  0
VERTEX
  8
PLAN_1
 62
     5
  6
CONTINUOUS
 10
-1.444213
 20
1.481378
  0
VERTEX
  8
PLAN_1
 62
     5
  6
CONTINUOUS
 10
-1.444213
 20
1.489776
  0
SEQEND
  8
0
  0
POLYLINE
  8
PLAN_1
 62
     5
  6
CONTINUOUS
 66
     1
 40
0.003000
 41
0.003000
  0
VERTEX
  8
PLAN_1
 62
     5
  6
CONTINUOUS
 10
-1.444213
 20
1.498173
  0
VERTEX
  8
PLAN_1
 62
     5
  6
CONTINUOUS
 10
-1.444213
 20
1.506571
  0
SEQEND
  8
0
  0
POLYLINE
  8
PLAN_1
 62
     5
  6
CONTINUOUS
 66
     1
 40
0.003000
 41
0.003000
  0
VERTEX
  8
PLAN_1
 62
     5
  6
CONTINUOUS
 10
-1.444213
 20
1.514969
  0
VERTEX
  8
PLAN_1
 62
     5
  6
CONTINUOUS
 10
-1.444213
 20
1.522965
  0
SEQEND
  8
0
  0
POLYLINE
  8
PLAN_1
 62
     5
  6
CONTINUOUS
 66
     1
 40
0.003000
 41
0.003000
  0
VERTEX
  8
PLAN_1
 62
     5
  6
CONTINUOUS
 10
-1.444213
 20
1.531362
  0
VERTEX
  8
PLAN_1
 62
     5
  6
CONTINUOUS
 10
-1.444213
 20
1.539760
  0
SEQEND
  8
0
  0
POLYLINE
  8
PLAN_1
 62
     5
  6
CONTINUOUS
 66
     1
 40
0.003000
 41
0.003000
  0
VERTEX
  8
PLAN_1
 62
     5
  6
CONTINUOUS
 10
-1.444213
 20
1.548157
  0
VERTEX
  8
PLAN_1
 62
     5
  6
CONTINUOUS
 10
-1.444213
 20
1.556555
  0
SEQEND
  8
0
  0
POLYLINE
  8
PLAN_1
 62
     5
  6
CONTINUOUS
 66
     1
 40
0.003000
 41
0.003000
  0
VERTEX
  8
PLAN_1
 62
     5
  6
CONTINUOUS
 10
-1.444213
 20
1.564953
  0
VERTEX
  8
PLAN_1
 62
     5
  6
CONTINUOUS
 10
-1.444213
 20
1.572949
  0
SEQEND
  8
0
  0
POLYLINE
  8
PLAN_1
 62
     5
  6
CONTINUOUS
 66
     1
 40
0.003000
 41
0.003000
  0
VERTEX
  8
PLAN_1
 62
     5
  6
CONTINUOUS
 10
-1.444213
 20
1.581346
  0
VERTEX
  8
PLAN_1
 62
     5
  6
CONTINUOUS
 10
-1.444213
 20
1.589744
  0
SEQEND
  8
0
  0
POLYLINE
  8
PLAN_1
 62
     5
  6
CONTINUOUS
 66
     1
 40
0.003000
 41
0.003000
  0
VERTEX
  8
PLAN_1
 62
     5
  6
CONTINUOUS
 10
-1.444213
 20
1.598142
  0
VERTEX
  8
PLAN_1
 62
     5
  6
CONTINUOUS
 10
-1.444213
 20
1.606535
  0
SEQEND
  8
0
  0
POLYLINE
  8
PLAN_1
 62
     5
  6
CONTINUOUS
 66
     1
 40
0.003000
 41
0.003000
  0
VERTEX
  8
PLAN_1
 62
     5
  6
CONTINUOUS
 10
-1.444213
 20
1.614933
  0
VERTEX
  8
PLAN_1
 62
     5
  6
CONTINUOUS
 10
-1.444213
 20
1.622933
  0
SEQEND
  8
0
  0
POLYLINE
  8
PLAN_1
 62
     5
  6
CONTINUOUS
 66
     1
 40
0.003000
 41
0.003000
  0
VERTEX
  8
PLAN_1
 62
     5
  6
CONTINUOUS
 10
-1.444213
 20
1.631327
  0
VERTEX
  8
PLAN_1
 62
     5
  6
CONTINUOUS
 10
-1.444213
 20
1.639724
  0
SEQEND
  8
0
  0
POLYLINE
  8
PLAN_1
 62
     5
  6
CONTINUOUS
 66
     1
 40
0.003000
 41
0.003000
  0
VERTEX
  8
PLAN_1
 62
     5
  6
CONTINUOUS
 10
-1.444213
 20
1.648122
  0
VERTEX
  8
PLAN_1
 62
     5
  6
CONTINUOUS
 10
-1.444213
 20
1.656520
  0
SEQEND
  8
0
  0
POLYLINE
  8
PLAN_1
 62
     5
  6
CONTINUOUS
 66
     1
 40
0.003000
 41
0.003000
  0
VERTEX
  8
PLAN_1
 62
     5
  6
CONTINUOUS
 10
-1.444213
 20
1.664516
  0
VERTEX
  8
PLAN_1
 62
     5
  6
CONTINUOUS
 10
-1.444213
 20
1.672913
  0
SEQEND
  8
0
  0
POLYLINE
  8
PLAN_1
 62
     5
  6
CONTINUOUS
 66
     1
 40
0.003000
 41
0.003000
  0
VERTEX
  8
PLAN_1
 62
     5
  6
CONTINUOUS
 10
-1.444213
 20
1.681311
  0
VERTEX
  8
PLAN_1
 62
     5
  6
CONTINUOUS
 10
-1.444213
 20
1.689709
  0
SEQEND
  8
0
  0
POLYLINE
  8
PLAN_1
 62
     5
  6
CONTINUOUS
 66
     1
 40
0.003000
 41
0.003000
  0
VERTEX
  8
PLAN_1
 62
     5
  6
CONTINUOUS
 10
-1.444213
 20
1.698106
  0
VERTEX
  8
PLAN_1
 62
     5
  6
CONTINUOUS
 10
-1.444213
 20
1.706504
  0
SEQEND
  8
0
  0
POLYLINE
  8
PLAN_1
 62
     5
  6
CONTINUOUS
 66
     1
 40
0.003000
 41
0.003000
  0
VERTEX
  8
PLAN_1
 62
     5
  6
CONTINUOUS
 10
-1.444213
 20
1.714500
  0
VERTEX
  8
PLAN_1
 62
     5
  6
CONTINUOUS
 10
-1.444213
 20
1.722898
  0
SEQEND
  8
0
  0
POLYLINE
  8
PLAN_1
 62
     5
  6
CONTINUOUS
 66
     1
 40
0.003000
 41
0.003000
  0
VERTEX
  8
PLAN_1
 62
     5
  6
CONTINUOUS
 10
-1.444213
 20
1.731295
  0
VERTEX
  8
PLAN_1
 62
     5
  6
CONTINUOUS
 10
-1.444213
 20
1.739693
  0
SEQEND
  8
0
  0
POLYLINE
  8
PLAN_1
 62
     5
  6
CONTINUOUS
 66
     1
 40
0.003000
 41
0.003000
  0
VERTEX
  8
PLAN_1
 62
     5
  6
CONTINUOUS
 10
-1.444213
 20
1.748091
  0
VERTEX
  8
PLAN_1
 62
     5
  6
CONTINUOUS
 10
-1.444213
 20
1.756488
  0
SEQEND
  8
0
  0
POLYLINE
  8
PLAN_1
 62
     5
  6
CONTINUOUS
 66
     1
 40
0.003000
 41
0.003000
  0
VERTEX
  8
PLAN_1
 62
     5
  6
CONTINUOUS
 10
-1.444213
 20
1.764484
  0
VERTEX
  8
PLAN_1
 62
     5
  6
CONTINUOUS
 10
-1.444213
 20
1.772882
  0
SEQEND
  8
0
  0
POLYLINE
  8
PLAN_1
 62
     5
  6
CONTINUOUS
 66
     1
 40
0.003000
 41
0.003000
  0
VERTEX
  8
PLAN_1
 62
     5
  6
CONTINUOUS
 10
-1.444213
 20
1.781280
  0
VERTEX
  8
PLAN_1
 62
     5
  6
CONTINUOUS
 10
-1.444213
 20
1.789677
  0
SEQEND
  8
0
  0
POLYLINE
  8
PLAN_1
 62
     5
  6
CONTINUOUS
 66
     1
 40
0.003000
 41
0.003000
  0
VERTEX
  8
PLAN_1
 62
     5
  6
CONTINUOUS
 10
-1.444213
 20
1.798071
  0
VERTEX
  8
PLAN_1
 62
     5
  6
CONTINUOUS
 10
-1.444213
 20
1.806469
  0
SEQEND
  8
0
  0
POLYLINE
  8
PLAN_1
 62
     5
  6
CONTINUOUS
 66
     1
 40
0.003000
 41
0.003000
  0
VERTEX
  8
PLAN_1
 62
     5
  6
CONTINUOUS
 10
-1.444213
 20
1.814469
  0
VERTEX
  8
PLAN_1
 62
     5
  6
CONTINUOUS
 10
-1.444213
 20
1.822862
  0
SEQEND
  8
0
  0
POLYLINE
  8
PLAN_1
 62
     5
  6
CONTINUOUS
 66
     1
 40
0.003000
 41
0.003000
  0
VERTEX
  8
PLAN_1
 62
     5
  6
CONTINUOUS
 10
-1.444213
 20
1.831260
  0
VERTEX
  8
PLAN_1
 62
     5
  6
CONTINUOUS
 10
-1.444213
 20
1.839657
  0
SEQEND
  8
0
  0
POLYLINE
  8
PLAN_1
 62
     5
  6
CONTINUOUS
 66
     1
 40
0.003000
 41
0.003000
  0
VERTEX
  8
PLAN_1
 62
     5
  6
CONTINUOUS
 10
-1.444213
 20
1.848055
  0
VERTEX
  8
PLAN_1
 62
     5
  6
CONTINUOUS
 10
-1.444213
 20
1.856453
  0
SEQEND
  8
0
  0
POLYLINE
  8
PLAN_1
 62
     5
  6
CONTINUOUS
 66
     1
 40
0.003000
 41
0.003000
  0
VERTEX
  8
PLAN_1
 62
     5
  6
CONTINUOUS
 10
-1.444213
 20
1.864449
  0
VERTEX
  8
PLAN_1
 62
     5
  6
CONTINUOUS
 10
-1.444213
 20
1.872846
  0
SEQEND
  8
0
  0
POLYLINE
  8
PLAN_1
 62
     5
  6
CONTINUOUS
 66
     1
 40
0.003000
 41
0.003000
  0
VERTEX
  8
PLAN_1
 62
     5
  6
CONTINUOUS
 10
-1.444213
 20
1.881244
  0
VERTEX
  8
PLAN_1
 62
     5
  6
CONTINUOUS
 10
-1.444213
 20
1.889642
  0
SEQEND
  8
0
  0
POLYLINE
  8
PLAN_1
 62
     5
  6
CONTINUOUS
 66
     1
 40
0.003000
 41
0.003000
  0
VERTEX
  8
PLAN_1
 62
     5
  6
CONTINUOUS
 10
-1.444213
 20
1.898039
  0
VERTEX
  8
PLAN_1
 62
     5
  6
CONTINUOUS
 10
-1.444213
 20
1.906437
  0
SEQEND
  8
0
  0
POLYLINE
  8
PLAN_1
 62
     5
  6
CONTINUOUS
 66
     1
 40
0.003000
 41
0.003000
  0
VERTEX
  8
PLAN_1
 62
     5
  6
CONTINUOUS
 10
-1.444213
 20
1.914433
  0
VERTEX
  8
PLAN_1
 62
     5
  6
CONTINUOUS
 10
-1.444213
 20
1.922831
  0
SEQEND
  8
0
  0
POLYLINE
  8
PLAN_1
 62
     5
  6
CONTINUOUS
 66
     1
 40
0.003000
 41
0.003000
  0
VERTEX
  8
PLAN_1
 62
     5
  6
CONTINUOUS
 10
-1.444213
 20
1.931228
  0
VERTEX
  8
PLAN_1
 62
     5
  6
CONTINUOUS
 10
-1.444213
 20
1.939626
  0
SEQEND
  8
0
  0
POLYLINE
  8
PLAN_1
 62
     5
  6
CONTINUOUS
 66
     1
 40
0.003000
 41
0.003000
  0
VERTEX
  8
PLAN_1
 62
     5
  6
CONTINUOUS
 10
-1.444213
 20
1.948024
  0
VERTEX
  8
PLAN_1
 62
     5
  6
CONTINUOUS
 10
-1.444213
 20
1.956020
  0
SEQEND
  8
0
  0
POLYLINE
  8
PLAN_1
 62
     5
  6
CONTINUOUS
 66
     1
 40
0.003000
 41
0.003000
  0
VERTEX
  8
PLAN_1
 62
     5
  6
CONTINUOUS
 10
-1.444213
 20
1.964417
  0
VERTEX
  8
PLAN_1
 62
     5
  6
CONTINUOUS
 10
-1.444213
 20
1.972815
  0
SEQEND
  8
0
  0
POLYLINE
  8
PLAN_1
 62
     5
  6
CONTINUOUS
 66
     1
 40
0.003000
 41
0.003000
  0
VERTEX
  8
PLAN_1
 62
     5
  6
CONTINUOUS
 10
-1.444213
 20
1.981209
  0
VERTEX
  8
PLAN_1
 62
     5
  6
CONTINUOUS
 10
-1.444213
 20
1.989606
  0
SEQEND
  8
0
  0
POLYLINE
  8
PLAN_1
 62
     5
  6
CONTINUOUS
 66
     1
 40
0.003000
 41
0.003000
  0
VERTEX
  8
PLAN_1
 62
     5
  6
CONTINUOUS
 10
-1.444213
 20
1.998004
  0
VERTEX
  8
PLAN_1
 62
     5
  6
CONTINUOUS
 10
-1.444213
 20
2.006004
  0
SEQEND
  8
0
  0
POLYLINE
  8
PLAN_1
 62
     5
  6
CONTINUOUS
 66
     1
 40
0.003000
 41
0.003000
  0
VERTEX
  8
PLAN_1
 62
     5
  6
CONTINUOUS
 10
-1.444213
 20
2.014398
  0
VERTEX
  8
PLAN_1
 62
     5
  6
CONTINUOUS
 10
-1.444213
 20
2.022795
  0
SEQEND
  8
0
  0
POLYLINE
  8
PLAN_1
 62
     5
  6
CONTINUOUS
 66
     1
 40
0.003000
 41
0.003000
  0
VERTEX
  8
PLAN_1
 62
     5
  6
CONTINUOUS
 10
-1.444213
 20
2.031193
  0
VERTEX
  8
PLAN_1
 62
     5
  6
CONTINUOUS
 10
-1.444213
 20
2.039591
  0
SEQEND
  8
0
  0
POLYLINE
  8
PLAN_1
 62
     5
  6
CONTINUOUS
 66
     1
 40
0.003000
 41
0.003000
  0
VERTEX
  8
PLAN_1
 62
     5
  6
CONTINUOUS
 10
-1.444213
 20
2.047988
  0
VERTEX
  8
PLAN_1
 62
     5
  6
CONTINUOUS
 10
-1.444213
 20
2.055984
  0
SEQEND
  8
0
  0
POLYLINE
  8
PLAN_1
 62
     5
  6
CONTINUOUS
 66
     1
 40
0.003000
 41
0.003000
  0
VERTEX
  8
PLAN_1
 62
     5
  6
CONTINUOUS
 10
-1.444213
 20
2.064382
  0
VERTEX
  8
PLAN_1
 62
     5
  6
CONTINUOUS
 10
-1.444213
 20
2.072780
  0
SEQEND
  8
0
  0
POLYLINE
  8
PLAN_1
 62
     5
  6
CONTINUOUS
 66
     1
 40
0.003000
 41
0.003000
  0
VERTEX
  8
PLAN_1
 62
     5
  6
CONTINUOUS
 10
-1.442614
 20
2.079579
  0
VERTEX
  8
PLAN_1
 62
     5
  6
CONTINUOUS
 10
-1.434217
 20
2.079579
  0
SEQEND
  8
0
  0
POLYLINE
  8
PLAN_1
 62
     5
  6
CONTINUOUS
 66
     1
 40
0.003000
 41
0.003000
  0
VERTEX
  8
PLAN_1
 62
     5
  6
CONTINUOUS
 10
-1.425819
 20
2.079579
  0
VERTEX
  8
PLAN_1
 62
     5
  6
CONTINUOUS
 10
-1.417421
 20
2.079579
  0
SEQEND
  8
0
  0
POLYLINE
  8
PLAN_1
 62
     5
  6
CONTINUOUS
 66
     1
 40
0.003000
 41
0.003000
  0
VERTEX
  8
PLAN_1
 62
     5
  6
CONTINUOUS
 10
-1.409425
 20
2.079579
  0
VERTEX
  8
PLAN_1
 62
     5
  6
CONTINUOUS
 10
-1.401028
 20
2.079579
  0
SEQEND
  8
0
  0
POLYLINE
  8
PLAN_1
 62
     5
  6
CONTINUOUS
 66
     1
 40
0.003000
 41
0.003000
  0
VERTEX
  8
PLAN_1
 62
     5
  6
CONTINUOUS
 10
-1.392630
 20
2.079579
  0
VERTEX
  8
PLAN_1
 62
     5
  6
CONTINUOUS
 10
-1.384232
 20
2.079579
  0
SEQEND
  8
0
  0
POLYLINE
  8
PLAN_1
 62
     5
  6
CONTINUOUS
 66
     1
 40
0.003000
 41
0.003000
  0
VERTEX
  8
PLAN_1
 62
     5
  6
CONTINUOUS
 10
-1.375835
 20
2.079579
  0
VERTEX
  8
PLAN_1
 62
     5
  6
CONTINUOUS
 10
-1.367441
 20
2.079579
  0
SEQEND
  8
0
  0
POLYLINE
  8
PLAN_1
 62
     5
  6
CONTINUOUS
 66
     1
 40
0.003000
 41
0.003000
  0
VERTEX
  8
PLAN_1
 62
     5
  6
CONTINUOUS
 10
-1.359441
 20
2.079579
  0
VERTEX
  8
PLAN_1
 62
     5
  6
CONTINUOUS
 10
-1.351043
 20
2.079579
  0
SEQEND
  8
0
  0
POLYLINE
  8
PLAN_1
 62
     5
  6
CONTINUOUS
 66
     1
 40
0.003000
 41
0.003000
  0
VERTEX
  8
PLAN_1
 62
     5
  6
CONTINUOUS
 10
-1.342646
 20
2.079579
  0
VERTEX
  8
PLAN_1
 62
     5
  6
CONTINUOUS
 10
-1.334252
 20
2.079579
  0
SEQEND
  8
0
  0
POLYLINE
  8
PLAN_1
 62
     5
  6
CONTINUOUS
 66
     1
 40
0.003000
 41
0.003000
  0
VERTEX
  8
PLAN_1
 62
     5
  6
CONTINUOUS
 10
-1.325854
 20
2.079579
  0
VERTEX
  8
PLAN_1
 62
     5
  6
CONTINUOUS
 10
-1.317457
 20
2.079579
  0
SEQEND
  8
0
  0
POLYLINE
  8
PLAN_1
 62
     5
  6
CONTINUOUS
 66
     1
 40
0.003000
 41
0.003000
  0
VERTEX
  8
PLAN_1
 62
     5
  6
CONTINUOUS
 10
-1.309457
 20
2.079579
  0
VERTEX
  8
PLAN_1
 62
     5
  6
CONTINUOUS
 10
-1.301063
 20
2.079579
  0
SEQEND
  8
0
  0
POLYLINE
  8
PLAN_1
 62
     5
  6
CONTINUOUS
 66
     1
 40
0.003000
 41
0.003000
  0
VERTEX
  8
PLAN_1
 62
     5
  6
CONTINUOUS
 10
-1.292665
 20
2.079579
  0
VERTEX
  8
PLAN_1
 62
     5
  6
CONTINUOUS
 10
-1.284268
 20
2.079579
  0
SEQEND
  8
0
  0
POLYLINE
  8
PLAN_1
 62
     5
  6
CONTINUOUS
 66
     1
 40
0.003000
 41
0.003000
  0
VERTEX
  8
PLAN_1
 62
     5
  6
CONTINUOUS
 10
-1.275870
 20
2.079579
  0
VERTEX
  8
PLAN_1
 62
     5
  6
CONTINUOUS
 10
-1.267472
 20
2.079579
  0
SEQEND
  8
0
  0
POLYLINE
  8
PLAN_1
 62
     5
  6
CONTINUOUS
 66
     1
 40
0.003000
 41
0.003000
  0
VERTEX
  8
PLAN_1
 62
     5
  6
CONTINUOUS
 10
-1.259476
 20
2.079579
  0
VERTEX
  8
PLAN_1
 62
     5
  6
CONTINUOUS
 10
-1.251079
 20
2.079579
  0
SEQEND
  8
0
  0
POLYLINE
  8
PLAN_1
 62
     5
  6
CONTINUOUS
 66
     1
 40
0.003000
 41
0.003000
  0
VERTEX
  8
PLAN_1
 62
     5
  6
CONTINUOUS
 10
-1.242681
 20
2.079579
  0
VERTEX
  8
PLAN_1
 62
     5
  6
CONTINUOUS
 10
-1.234283
 20
2.079579
  0
SEQEND
  8
0
  0
POLYLINE
  8
PLAN_1
 62
     5
  6
CONTINUOUS
 66
     1
 40
0.003000
 41
0.003000
  0
VERTEX
  8
PLAN_1
 62
     5
  6
CONTINUOUS
 10
-1.225886
 20
2.079579
  0
VERTEX
  8
PLAN_1
 62
     5
  6
CONTINUOUS
 10
-1.217488
 20
2.079579
  0
SEQEND
  8
0
  0
POLYLINE
  8
PLAN_1
 62
     5
  6
CONTINUOUS
 66
     1
 40
0.003000
 41
0.003000
  0
VERTEX
  8
PLAN_1
 62
     5
  6
CONTINUOUS
 10
-1.209492
 20
2.079579
  0
VERTEX
  8
PLAN_1
 62
     5
  6
CONTINUOUS
 10
-1.201094
 20
2.079579
  0
SEQEND
  8
0
  0
POLYLINE
  8
PLAN_1
 62
     5
  6
CONTINUOUS
 66
     1
 40
0.003000
 41
0.003000
  0
VERTEX
  8
PLAN_1
 62
     5
  6
CONTINUOUS
 10
-1.192697
 20
2.079579
  0
VERTEX
  8
PLAN_1
 62
     5
  6
CONTINUOUS
 10
-1.184299
 20
2.079579
  0
SEQEND
  8
0
  0
POLYLINE
  8
PLAN_1
 62
     5
  6
CONTINUOUS
 66
     1
 40
0.003000
 41
0.003000
  0
VERTEX
  8
PLAN_1
 62
     5
  6
CONTINUOUS
 10
-1.175906
 20
2.079579
  0
VERTEX
  8
PLAN_1
 62
     5
  6
CONTINUOUS
 10
-1.167906
 20
2.079579
  0
SEQEND
  8
0
  0
POLYLINE
  8
PLAN_1
 62
     5
  6
CONTINUOUS
 66
     1
 40
0.003000
 41
0.003000
  0
VERTEX
  8
PLAN_1
 62
     5
  6
CONTINUOUS
 10
-1.159508
 20
2.079579
  0
VERTEX
  8
PLAN_1
 62
     5
  6
CONTINUOUS
 10
-1.151110
 20
2.079579
  0
SEQEND
  8
0
  0
POLYLINE
  8
PLAN_1
 62
     5
  6
CONTINUOUS
 66
     1
 40
0.003000
 41
0.003000
  0
VERTEX
  8
PLAN_1
 62
     5
  6
CONTINUOUS
 10
-1.142717
 20
2.079579
  0
VERTEX
  8
PLAN_1
 62
     5
  6
CONTINUOUS
 10
-1.134319
 20
2.079579
  0
SEQEND
  8
0
  0
POLYLINE
  8
PLAN_1
 62
     5
  6
CONTINUOUS
 66
     1
 40
0.003000
 41
0.003000
  0
VERTEX
  8
PLAN_1
 62
     5
  6
CONTINUOUS
 10
-1.125921
 20
2.079579
  0
VERTEX
  8
PLAN_1
 62
     5
  6
CONTINUOUS
 10
-1.117925
 20
2.079579
  0
SEQEND
  8
0
  0
POLYLINE
  8
PLAN_1
 62
     5
  6
CONTINUOUS
 66
     1
 40
0.003000
 41
0.003000
  0
VERTEX
  8
PLAN_1
 62
     5
  6
CONTINUOUS
 10
-1.109528
 20
2.079579
  0
VERTEX
  8
PLAN_1
 62
     5
  6
CONTINUOUS
 10
-1.101130
 20
2.079579
  0
SEQEND
  8
0
  0
POLYLINE
  8
PLAN_1
 62
     5
  6
CONTINUOUS
 66
     1
 40
0.003000
 41
0.003000
  0
VERTEX
  8
PLAN_1
 62
     5
  6
CONTINUOUS
 10
-1.092732
 20
2.079579
  0
VERTEX
  8
PLAN_1
 62
     5
  6
CONTINUOUS
 10
-1.084335
 20
2.079579
  0
SEQEND
  8
0
  0
POLYLINE
  8
PLAN_1
 62
     5
  6
CONTINUOUS
 66
     1
 40
0.003000
 41
0.003000
  0
VERTEX
  8
PLAN_1
 62
     5
  6
CONTINUOUS
 10
-1.075937
 20
2.079579
  0
VERTEX
  8
PLAN_1
 62
     5
  6
CONTINUOUS
 10
-1.067941
 20
2.079579
  0
SEQEND
  8
0
  0
POLYLINE
  8
PLAN_1
 62
     5
  6
CONTINUOUS
 66
     1
 40
0.003000
 41
0.003000
  0
VERTEX
  8
PLAN_1
 62
     5
  6
CONTINUOUS
 10
-1.059543
 20
2.079579
  0
VERTEX
  8
PLAN_1
 62
     5
  6
CONTINUOUS
 10
-1.051146
 20
2.079579
  0
SEQEND
  8
0
  0
POLYLINE
  8
PLAN_1
 62
     5
  6
CONTINUOUS
 66
     1
 40
0.003000
 41
0.003000
  0
VERTEX
  8
PLAN_1
 62
     5
  6
CONTINUOUS
 10
-1.042748
 20
2.079579
  0
VERTEX
  8
PLAN_1
 62
     5
  6
CONTINUOUS
 10
-1.034350
 20
2.079579
  0
SEQEND
  8
0
  0
POLYLINE
  8
PLAN_1
 62
     5
  6
CONTINUOUS
 66
     1
 40
0.003000
 41
0.003000
  0
VERTEX
  8
PLAN_1
 62
     5
  6
CONTINUOUS
 10
-1.025953
 20
2.079579
  0
VERTEX
  8
PLAN_1
 62
     5
  6
CONTINUOUS
 10
-1.017957
 20
2.079579
  0
SEQEND
  8
0
  0
POLYLINE
  8
PLAN_1
 62
     5
  6
CONTINUOUS
 66
     1
 40
0.003000
 41
0.003000
  0
VERTEX
  8
PLAN_1
 62
     5
  6
CONTINUOUS
 10
-1.009559
 20
2.079579
  0
VERTEX
  8
PLAN_1
 62
     5
  6
CONTINUOUS
 10
-1.001161
 20
2.079579
  0
SEQEND
  8
0
  0
POLYLINE
  8
PLAN_1
 62
     5
  6
CONTINUOUS
 66
     1
 40
0.003000
 41
0.003000
  0
VERTEX
  8
PLAN_1
 62
     5
  6
CONTINUOUS
 10
-0.992764
 20
2.079579
  0
VERTEX
  8
PLAN_1
 62
     5
  6
CONTINUOUS
 10
-0.984370
 20
2.079579
  0
SEQEND
  8
0
  0
POLYLINE
  8
PLAN_1
 62
     5
  6
CONTINUOUS
 66
     1
 40
0.003000
 41
0.003000
  0
VERTEX
  8
PLAN_1
 62
     5
  6
CONTINUOUS
 10
-0.975972
 20
2.079579
  0
VERTEX
  8
PLAN_1
 62
     5
  6
CONTINUOUS
 10
-0.967972
 20
2.079579
  0
SEQEND
  8
0
  0
POLYLINE
  8
PLAN_1
 62
     5
  6
CONTINUOUS
 66
     1
 40
0.003000
 41
0.003000
  0
VERTEX
  8
PLAN_1
 62
     5
  6
CONTINUOUS
 10
-0.959575
 20
2.079579
  0
VERTEX
  8
PLAN_1
 62
     5
  6
CONTINUOUS
 10
-0.951181
 20
2.079579
  0
SEQEND
  8
0
  0
POLYLINE
  8
PLAN_1
 62
     5
  6
CONTINUOUS
 66
     1
 40
0.003000
 41
0.003000
  0
VERTEX
  8
PLAN_1
 62
     5
  6
CONTINUOUS
 10
-0.942783
 20
2.079579
  0
VERTEX
  8
PLAN_1
 62
     5
  6
CONTINUOUS
 10
-0.934386
 20
2.079579
  0
SEQEND
  8
0
  0
POLYLINE
  8
PLAN_1
 62
     5
  6
CONTINUOUS
 66
     1
 40
0.003000
 41
0.003000
  0
VERTEX
  8
PLAN_1
 62
     5
  6
CONTINUOUS
 10
-0.925988
 20
2.079579
  0
VERTEX
  8
PLAN_1
 62
     5
  6
CONTINUOUS
 10
-0.917992
 20
2.079579
  0
SEQEND
  8
0
  0
POLYLINE
  8
PLAN_1
 62
     5
  6
CONTINUOUS
 66
     1
 40
0.003000
 41
0.003000
  0
VERTEX
  8
PLAN_1
 62
     5
  6
CONTINUOUS
 10
-0.909594
 20
2.079579
  0
VERTEX
  8
PLAN_1
 62
     5
  6
CONTINUOUS
 10
-0.901197
 20
2.079579
  0
SEQEND
  8
0
  0
POLYLINE
  8
PLAN_1
 62
     5
  6
CONTINUOUS
 66
     1
 40
0.003000
 41
0.003000
  0
VERTEX
  8
PLAN_1
 62
     5
  6
CONTINUOUS
 10
-0.892799
 20
2.079579
  0
VERTEX
  8
PLAN_1
 62
     5
  6
CONTINUOUS
 10
-0.884402
 20
2.079579
  0
SEQEND
  8
0
  0
POLYLINE
  8
PLAN_1
 62
     5
  6
CONTINUOUS
 66
     1
 40
0.003000
 41
0.003000
  0
VERTEX
  8
PLAN_1
 62
     5
  6
CONTINUOUS
 10
-0.876406
 20
2.079579
  0
VERTEX
  8
PLAN_1
 62
     5
  6
CONTINUOUS
 10
-0.868008
 20
2.079579
  0
SEQEND
  8
0
  0
POLYLINE
  8
PLAN_1
 62
     5
  6
CONTINUOUS
 66
     1
 40
0.003000
 41
0.003000
  0
VERTEX
  8
PLAN_1
 62
     5
  6
CONTINUOUS
 10
-0.859610
 20
2.079579
  0
VERTEX
  8
PLAN_1
 62
     5
  6
CONTINUOUS
 10
-0.851213
 20
2.079579
  0
SEQEND
  8
0
  0
POLYLINE
  8
PLAN_1
 62
     5
  6
CONTINUOUS
 66
     1
 40
0.003000
 41
0.003000
  0
VERTEX
  8
PLAN_1
 62
     5
  6
CONTINUOUS
 10
-0.842815
 20
2.079579
  0
VERTEX
  8
PLAN_1
 62
     5
  6
CONTINUOUS
 10
-0.834417
 20
2.079579
  0
SEQEND
  8
0
  0
POLYLINE
  8
PLAN_1
 62
     5
  6
CONTINUOUS
 66
     1
 40
0.003000
 41
0.003000
  0
VERTEX
  8
PLAN_1
 62
     5
  6
CONTINUOUS
 10
-0.826421
 20
2.079579
  0
VERTEX
  8
PLAN_1
 62
     5
  6
CONTINUOUS
 10
-0.818024
 20
2.079579
  0
SEQEND
  8
0
  0
POLYLINE
  8
PLAN_1
 62
     5
  6
CONTINUOUS
 66
     1
 40
0.003000
 41
0.003000
  0
VERTEX
  8
PLAN_1
 62
     5
  6
CONTINUOUS
 10
-0.809626
 20
2.079579
  0
VERTEX
  8
PLAN_1
 62
     5
  6
CONTINUOUS
 10
-0.801228
 20
2.079579
  0
SEQEND
  8
0
  0
POLYLINE
  8
PLAN_1
 62
     5
  6
CONTINUOUS
 66
     1
 40
0.003000
 41
0.003000
  0
VERTEX
  8
PLAN_1
 62
     5
  6
CONTINUOUS
 10
-0.792835
 20
2.079579
  0
VERTEX
  8
PLAN_1
 62
     5
  6
CONTINUOUS
 10
-0.784437
 20
2.079579
  0
SEQEND
  8
0
  0
POLYLINE
  8
PLAN_1
 62
     5
  6
CONTINUOUS
 66
     1
 40
0.003000
 41
0.003000
  0
VERTEX
  8
PLAN_1
 62
     5
  6
CONTINUOUS
 10
-0.776437
 20
2.079579
  0
VERTEX
  8
PLAN_1
 62
     5
  6
CONTINUOUS
 10
-0.768043
 20
2.079579
  0
SEQEND
  8
0
  0
POLYLINE
  8
PLAN_1
 62
     5
  6
CONTINUOUS
 66
     1
 40
0.003000
 41
0.003000
  0
VERTEX
  8
PLAN_1
 62
     5
  6
CONTINUOUS
 10
-0.759646
 20
2.079579
  0
VERTEX
  8
PLAN_1
 62
     5
  6
CONTINUOUS
 10
-0.751248
 20
2.079579
  0
SEQEND
  8
0
  0
POLYLINE
  8
PLAN_1
 62
     5
  6
CONTINUOUS
 66
     1
 40
0.003000
 41
0.003000
  0
VERTEX
  8
PLAN_1
 62
     5
  6
CONTINUOUS
 10
-0.742850
 20
2.079579
  0
VERTEX
  8
PLAN_1
 62
     5
  6
CONTINUOUS
 10
-0.734453
 20
2.079579
  0
SEQEND
  8
0
  0
POLYLINE
  8
PLAN_1
 62
     5
  6
CONTINUOUS
 66
     1
 40
0.003000
 41
0.003000
  0
VERTEX
  8
PLAN_1
 62
     5
  6
CONTINUOUS
 10
-0.726457
 20
2.079579
  0
VERTEX
  8
PLAN_1
 62
     5
  6
CONTINUOUS
 10
-0.718059
 20
2.079579
  0
SEQEND
  8
0
  0
POLYLINE
  8
PLAN_1
 62
     5
  6
CONTINUOUS
 66
     1
 40
0.003000
 41
0.003000
  0
VERTEX
  8
PLAN_1
 62
     5
  6
CONTINUOUS
 10
-0.709661
 20
2.079579
  0
VERTEX
  8
PLAN_1
 62
     5
  6
CONTINUOUS
 10
-0.701264
 20
2.079579
  0
SEQEND
  8
0
  0
POLYLINE
  8
PLAN_1
 62
     5
  6
CONTINUOUS
 66
     1
 40
0.003000
 41
0.003000
  0
VERTEX
  8
PLAN_1
 62
     5
  6
CONTINUOUS
 10
-0.692866
 20
2.079579
  0
VERTEX
  8
PLAN_1
 62
     5
  6
CONTINUOUS
 10
-0.684469
 20
2.079579
  0
SEQEND
  8
0
  0
POLYLINE
  8
PLAN_1
 62
     5
  6
CONTINUOUS
 66
     1
 40
0.003000
 41
0.003000
  0
VERTEX
  8
PLAN_1
 62
     5
  6
CONTINUOUS
 10
-0.676472
 20
2.079579
  0
VERTEX
  8
PLAN_1
 62
     5
  6
CONTINUOUS
 10
-0.668075
 20
2.079579
  0
SEQEND
  8
0
  0
POLYLINE
  8
PLAN_1
 62
     5
  6
CONTINUOUS
 66
     1
 40
0.003000
 41
0.003000
  0
VERTEX
  8
PLAN_1
 62
     5
  6
CONTINUOUS
 10
-0.659677
 20
2.079579
  0
VERTEX
  8
PLAN_1
 62
     5
  6
CONTINUOUS
 10
-0.651280
 20
2.079579
  0
SEQEND
  8
0
  0
POLYLINE
  8
PLAN_1
 62
     5
  6
CONTINUOUS
 66
     1
 40
0.003000
 41
0.003000
  0
VERTEX
  8
PLAN_1
 62
     5
  6
CONTINUOUS
 10
-0.642882
 20
2.079579
  0
VERTEX
  8
PLAN_1
 62
     5
  6
CONTINUOUS
 10
-0.634488
 20
2.079579
  0
SEQEND
  8
0
  0
POLYLINE
  8
PLAN_1
 62
     5
  6
CONTINUOUS
 66
     1
 40
0.003000
 41
0.003000
  0
VERTEX
  8
PLAN_1
 62
     5
  6
CONTINUOUS
 10
-0.626488
 20
2.079579
  0
VERTEX
  8
PLAN_1
 62
     5
  6
CONTINUOUS
 10
-0.618091
 20
2.079579
  0
SEQEND
  8
0
  0
POLYLINE
  8
PLAN_1
 62
     5
  6
CONTINUOUS
 66
     1
 40
0.003000
 41
0.003000
  0
VERTEX
  8
PLAN_1
 62
     5
  6
CONTINUOUS
 10
-0.609693
 20
2.079579
  0
VERTEX
  8
PLAN_1
 62
     5
  6
CONTINUOUS
 10
-0.601299
 20
2.079579
  0
SEQEND
  8
0
  0
POLYLINE
  8
PLAN_1
 62
     5
  6
CONTINUOUS
 66
     1
 40
0.003000
 41
0.003000
  0
VERTEX
  8
PLAN_1
 62
     5
  6
CONTINUOUS
 10
-0.592902
 20
2.079579
  0
VERTEX
  8
PLAN_1
 62
     5
  6
CONTINUOUS
 10
-0.584902
 20
2.079579
  0
SEQEND
  8
0
  0
POLYLINE
  8
PLAN_1
 62
     5
  6
CONTINUOUS
 66
     1
 40
0.003000
 41
0.003000
  0
VERTEX
  8
PLAN_1
 62
     5
  6
CONTINUOUS
 10
-0.576508
 20
2.079579
  0
VERTEX
  8
PLAN_1
 62
     5
  6
CONTINUOUS
 10
-0.568110
 20
2.079579
  0
SEQEND
  8
0
  0
POLYLINE
  8
PLAN_1
 62
     5
  6
CONTINUOUS
 66
     1
 40
0.003000
 41
0.003000
  0
VERTEX
  8
PLAN_1
 62
     5
  6
CONTINUOUS
 10
-0.559713
 20
2.079579
  0
VERTEX
  8
PLAN_1
 62
     5
  6
CONTINUOUS
 10
-0.551315
 20
2.079579
  0
SEQEND
  8
0
  0
POLYLINE
  8
PLAN_1
 62
     5
  6
CONTINUOUS
 66
     1
 40
0.003000
 41
0.003000
  0
VERTEX
  8
PLAN_1
 62
     5
  6
CONTINUOUS
 10
-0.542917
 20
2.079579
  0
VERTEX
  8
PLAN_1
 62
     5
  6
CONTINUOUS
 10
-0.534921
 20
2.079579
  0
SEQEND
  8
0
  0
POLYLINE
  8
PLAN_1
 62
     5
  6
CONTINUOUS
 66
     1
 40
0.003000
 41
0.003000
  0
VERTEX
  8
PLAN_1
 62
     5
  6
CONTINUOUS
 10
-0.526524
 20
2.079579
  0
VERTEX
  8
PLAN_1
 62
     5
  6
CONTINUOUS
 10
-0.518126
 20
2.079579
  0
SEQEND
  8
0
  0
POLYLINE
  8
PLAN_1
 62
     5
  6
CONTINUOUS
 66
     1
 40
0.003000
 41
0.003000
  0
VERTEX
  8
PLAN_1
 62
     5
  6
CONTINUOUS
 10
-0.509728
 20
2.079579
  0
VERTEX
  8
PLAN_1
 62
     5
  6
CONTINUOUS
 10
-0.501331
 20
2.079579
  0
SEQEND
  8
0
  0
POLYLINE
  8
PLAN_1
 62
     5
  6
CONTINUOUS
 66
     1
 40
0.003000
 41
0.003000
  0
VERTEX
  8
PLAN_1
 62
     5
  6
CONTINUOUS
 10
-0.492933
 20
2.079579
  0
VERTEX
  8
PLAN_1
 62
     5
  6
CONTINUOUS
 10
-0.484937
 20
2.079579
  0
SEQEND
  8
0
  0
POLYLINE
  8
PLAN_1
 62
     5
  6
CONTINUOUS
 66
     1
 40
0.003000
 41
0.003000
  0
VERTEX
  8
PLAN_1
 62
     5
  6
CONTINUOUS
 10
-0.476539
 20
2.079579
  0
VERTEX
  8
PLAN_1
 62
     5
  6
CONTINUOUS
 10
-0.468142
 20
2.079579
  0
SEQEND
  8
0
  0
POLYLINE
  8
PLAN_1
 62
     5
  6
CONTINUOUS
 66
     1
 40
0.003000
 41
0.003000
  0
VERTEX
  8
PLAN_1
 62
     5
  6
CONTINUOUS
 10
-0.459744
 20
2.079579
  0
VERTEX
  8
PLAN_1
 62
     5
  6
CONTINUOUS
 10
-0.451346
 20
2.079579
  0
SEQEND
  8
0
  0
POLYLINE
  8
PLAN_1
 62
     5
  6
CONTINUOUS
 66
     1
 40
0.003000
 41
0.003000
  0
VERTEX
  8
PLAN_1
 62
     5
  6
CONTINUOUS
 10
-0.442953
 20
2.079579
  0
VERTEX
  8
PLAN_1
 62
     5
  6
CONTINUOUS
 10
-0.434953
 20
2.079579
  0
SEQEND
  8
0
  0
POLYLINE
  8
PLAN_1
 62
     5
  6
CONTINUOUS
 66
     1
 40
0.003000
 41
0.003000
  0
VERTEX
  8
PLAN_1
 62
     5
  6
CONTINUOUS
 10
-0.426555
 20
2.079579
  0
VERTEX
  8
PLAN_1
 62
     5
  6
CONTINUOUS
 10
-0.418157
 20
2.079579
  0
SEQEND
  8
0
  0
POLYLINE
  8
PLAN_1
 62
     5
  6
CONTINUOUS
 66
     1
 40
0.003000
 41
0.003000
  0
VERTEX
  8
PLAN_1
 62
     5
  6
CONTINUOUS
 10
-0.409764
 20
2.079579
  0
VERTEX
  8
PLAN_1
 62
     5
  6
CONTINUOUS
 10
-0.401366
 20
2.079579
  0
SEQEND
  8
0
  0
POLYLINE
  8
PLAN_1
 62
     5
  6
CONTINUOUS
 66
     1
 40
0.003000
 41
0.003000
  0
VERTEX
  8
PLAN_1
 62
     5
  6
CONTINUOUS
 10
-0.392969
 20
2.079579
  0
VERTEX
  8
PLAN_1
 62
     5
  6
CONTINUOUS
 10
-0.384972
 20
2.079579
  0
SEQEND
  8
0
  0
POLYLINE
  8
PLAN_1
 62
     5
  6
CONTINUOUS
 66
     1
 40
0.003000
 41
0.003000
  0
VERTEX
  8
PLAN_1
 62
     5
  6
CONTINUOUS
 10
-0.376575
 20
2.079579
  0
VERTEX
  8
PLAN_1
 62
     5
  6
CONTINUOUS
 10
-0.368177
 20
2.079579
  0
SEQEND
  8
0
  0
POLYLINE
  8
PLAN_1
 62
     5
  6
CONTINUOUS
 66
     1
 40
0.003000
 41
0.003000
  0
VERTEX
  8
PLAN_1
 62
     5
  6
CONTINUOUS
 10
-0.359780
 20
2.079579
  0
VERTEX
  8
PLAN_1
 62
     5
  6
CONTINUOUS
 10
-0.351382
 20
2.079579
  0
SEQEND
  8
0
  0
POLYLINE
  8
PLAN_1
 62
     5
  6
CONTINUOUS
 66
     1
 40
0.003000
 41
0.003000
  0
VERTEX
  8
PLAN_1
 62
     5
  6
CONTINUOUS
 10
-0.342984
 20
2.079579
  0
VERTEX
  8
PLAN_1
 62
     5
  6
CONTINUOUS
 10
-0.334988
 20
2.079579
  0
SEQEND
  8
0
  0
POLYLINE
  8
PLAN_1
 62
     5
  6
CONTINUOUS
 66
     1
 40
0.003000
 41
0.003000
  0
VERTEX
  8
PLAN_1
 62
     5
  6
CONTINUOUS
 10
-0.326591
 20
2.079579
  0
VERTEX
  8
PLAN_1
 62
     5
  6
CONTINUOUS
 10
-0.318193
 20
2.079579
  0
SEQEND
  8
0
  0
POLYLINE
  8
PLAN_1
 62
     5
  6
CONTINUOUS
 66
     1
 40
0.003000
 41
0.003000
  0
VERTEX
  8
PLAN_1
 62
     5
  6
CONTINUOUS
 10
-0.309795
 20
2.079579
  0
VERTEX
  8
PLAN_1
 62
     5
  6
CONTINUOUS
 10
-0.301398
 20
2.079579
  0
SEQEND
  8
0
  0
POLYLINE
  8
PLAN_1
 62
     5
  6
CONTINUOUS
 66
     1
 40
0.003000
 41
0.003000
  0
VERTEX
  8
PLAN_1
 62
     5
  6
CONTINUOUS
 10
-0.293000
 20
2.079579
  0
VERTEX
  8
PLAN_1
 62
     5
  6
CONTINUOUS
 10
-0.285004
 20
2.079579
  0
SEQEND
  8
0
  0
POLYLINE
  8
PLAN_1
 62
     5
  6
CONTINUOUS
 66
     1
 40
0.003000
 41
0.003000
  0
VERTEX
  8
PLAN_1
 62
     5
  6
CONTINUOUS
 10
-0.276606
 20
2.079579
  0
VERTEX
  8
PLAN_1
 62
     5
  6
CONTINUOUS
 10
-0.268209
 20
2.079579
  0
SEQEND
  8
0
  0
POLYLINE
  8
PLAN_1
 62
     5
  6
CONTINUOUS
 66
     1
 40
0.003000
 41
0.003000
  0
VERTEX
  8
PLAN_1
 62
     5
  6
CONTINUOUS
 10
-0.259811
 20
2.079579
  0
VERTEX
  8
PLAN_1
 62
     5
  6
CONTINUOUS
 10
-0.251417
 20
2.079579
  0
SEQEND
  8
0
  0
POLYLINE
  8
PLAN_1
 62
     5
  6
CONTINUOUS
 66
     1
 40
0.003000
 41
0.003000
  0
VERTEX
  8
PLAN_1
 62
     5
  6
CONTINUOUS
 10
-0.243417
 20
2.079579
  0
VERTEX
  8
PLAN_1
 62
     5
  6
CONTINUOUS
 10
-0.235020
 20
2.079579
  0
SEQEND
  8
0
  0
POLYLINE
  8
PLAN_1
 62
     5
  6
CONTINUOUS
 66
     1
 40
0.003000
 41
0.003000
  0
VERTEX
  8
PLAN_1
 62
     5
  6
CONTINUOUS
 10
-0.226626
 20
2.079579
  0
VERTEX
  8
PLAN_1
 62
     5
  6
CONTINUOUS
 10
-0.218228
 20
2.079579
  0
SEQEND
  8
0
  0
POLYLINE
  8
PLAN_1
 62
     5
  6
CONTINUOUS
 66
     1
 40
0.003000
 41
0.003000
  0
VERTEX
  8
PLAN_1
 62
     5
  6
CONTINUOUS
 10
-0.209831
 20
2.079579
  0
VERTEX
  8
PLAN_1
 62
     5
  6
CONTINUOUS
 10
-0.201433
 20
2.079579
  0
SEQEND
  8
0
  0
POLYLINE
  8
PLAN_1
 62
     5
  6
CONTINUOUS
 66
     1
 40
0.003000
 41
0.003000
  0
VERTEX
  8
PLAN_1
 62
     5
  6
CONTINUOUS
 10
-0.193437
 20
2.079579
  0
VERTEX
  8
PLAN_1
 62
     5
  6
CONTINUOUS
 10
-0.185039
 20
2.079579
  0
SEQEND
  8
0
  0
POLYLINE
  8
PLAN_1
 62
     5
  6
CONTINUOUS
 66
     1
 40
0.003000
 41
0.003000
  0
VERTEX
  8
PLAN_1
 62
     5
  6
CONTINUOUS
 10
-0.176642
 20
2.079579
  0
VERTEX
  8
PLAN_1
 62
     5
  6
CONTINUOUS
 10
-0.168244
 20
2.079579
  0
SEQEND
  8
0
  0
POLYLINE
  8
PLAN_1
 62
     5
  6
CONTINUOUS
 66
     1
 40
0.003000
 41
0.003000
  0
VERTEX
  8
PLAN_1
 62
     5
  6
CONTINUOUS
 10
-0.159846
 20
2.079579
  0
VERTEX
  8
PLAN_1
 62
     5
  6
CONTINUOUS
 10
-0.151449
 20
2.079579
  0
SEQEND
  8
0
  0
POLYLINE
  8
PLAN_1
 62
     5
  6
CONTINUOUS
 66
     1
 40
0.003000
 41
0.003000
  0
VERTEX
  8
PLAN_1
 62
     5
  6
CONTINUOUS
 10
-0.143453
 20
2.079579
  0
VERTEX
  8
PLAN_1
 62
     5
  6
CONTINUOUS
 10
-0.135055
 20
2.079579
  0
SEQEND
  8
0
  0
POLYLINE
  8
PLAN_1
 62
     5
  6
CONTINUOUS
 66
     1
 40
0.003000
 41
0.003000
  0
VERTEX
  8
PLAN_1
 62
     5
  6
CONTINUOUS
 10
-0.126657
 20
2.079579
  0
VERTEX
  8
PLAN_1
 62
     5
  6
CONTINUOUS
 10
-0.118260
 20
2.079579
  0
SEQEND
  8
0
  0
POLYLINE
  8
PLAN_1
 62
     5
  6
CONTINUOUS
 66
     1
 40
0.003000
 41
0.003000
  0
VERTEX
  8
PLAN_1
 62
     5
  6
CONTINUOUS
 10
-0.109862
 20
2.079579
  0
VERTEX
  8
PLAN_1
 62
     5
  6
CONTINUOUS
 10
-0.101465
 20
2.079579
  0
SEQEND
  8
0
  0
POLYLINE
  8
PLAN_1
 62
     5
  6
CONTINUOUS
 66
     1
 40
0.003000
 41
0.003000
  0
VERTEX
  8
PLAN_1
 62
     5
  6
CONTINUOUS
 10
-0.093469
 20
2.079579
  0
VERTEX
  8
PLAN_1
 62
     5
  6
CONTINUOUS
 10
-0.085071
 20
2.079579
  0
SEQEND
  8
0
  0
POLYLINE
  8
PLAN_1
 62
     5
  6
CONTINUOUS
 66
     1
 40
0.003000
 41
0.003000
  0
VERTEX
  8
PLAN_1
 62
     5
  6
CONTINUOUS
 10
-0.076673
 20
2.079579
  0
VERTEX
  8
PLAN_1
 62
     5
  6
CONTINUOUS
 10
-0.068276
 20
2.079579
  0
SEQEND
  8
0
  0
POLYLINE
  8
PLAN_1
 62
     5
  6
CONTINUOUS
 66
     1
 40
0.003000
 41
0.003000
  0
VERTEX
  8
PLAN_1
 62
     5
  6
CONTINUOUS
 10
-0.059882
 20
2.079579
  0
VERTEX
  8
PLAN_1
 62
     5
  6
CONTINUOUS
 10
-0.051484
 20
2.079579
  0
SEQEND
  8
0
  0
POLYLINE
  8
PLAN_1
 62
     5
  6
CONTINUOUS
 66
     1
 40
0.003000
 41
0.003000
  0
VERTEX
  8
PLAN_1
 62
     5
  6
CONTINUOUS
 10
-0.047484
 20
2.075177
  0
VERTEX
  8
PLAN_1
 62
     5
  6
CONTINUOUS
 10
-0.047484
 20
2.066783
  0
SEQEND
  8
0
  0
POLYLINE
  8
PLAN_1
 62
     5
  6
CONTINUOUS
 66
     1
 40
0.003000
 41
0.003000
  0
VERTEX
  8
PLAN_1
 62
     5
  6
CONTINUOUS
 10
-0.047484
 20
2.058386
  0
VERTEX
  8
PLAN_1
 62
     5
  6
CONTINUOUS
 10
-0.047484
 20
2.049988
  0
SEQEND
  8
0
  0
POLYLINE
  8
PLAN_1
 62
     5
  6
CONTINUOUS
 66
     1
 40
0.003000
 41
0.003000
  0
VERTEX
  8
PLAN_1
 62
     5
  6
CONTINUOUS
 10
-0.047484
 20
2.041988
  0
VERTEX
  8
PLAN_1
 62
     5
  6
CONTINUOUS
 10
-0.047484
 20
2.033594
  0
SEQEND
  8
0
  0
POLYLINE
  8
PLAN_1
 62
     5
  6
CONTINUOUS
 66
     1
 40
0.003000
 41
0.003000
  0
VERTEX
  8
PLAN_1
 62
     5
  6
CONTINUOUS
 10
-0.047484
 20
2.025197
  0
VERTEX
  8
PLAN_1
 62
     5
  6
CONTINUOUS
 10
-0.047484
 20
2.016799
  0
SEQEND
  8
0
  0
POLYLINE
  8
PLAN_1
 62
     5
  6
CONTINUOUS
 66
     1
 40
0.003000
 41
0.003000
  0
VERTEX
  8
PLAN_1
 62
     5
  6
CONTINUOUS
 10
-0.047484
 20
2.008402
  0
VERTEX
  8
PLAN_1
 62
     5
  6
CONTINUOUS
 10
-0.047484
 20
2.000004
  0
SEQEND
  8
0
  0
POLYLINE
  8
PLAN_1
 62
     5
  6
CONTINUOUS
 66
     1
 40
0.003000
 41
0.003000
  0
VERTEX
  8
PLAN_1
 62
     5
  6
CONTINUOUS
 10
-0.047484
 20
1.992008
  0
VERTEX
  8
PLAN_1
 62
     5
  6
CONTINUOUS
 10
-0.047484
 20
1.983610
  0
SEQEND
  8
0
  0
POLYLINE
  8
PLAN_1
 62
     5
  6
CONTINUOUS
 66
     1
 40
0.003000
 41
0.003000
  0
VERTEX
  8
PLAN_1
 62
     5
  6
CONTINUOUS
 10
-0.047484
 20
1.975213
  0
VERTEX
  8
PLAN_1
 62
     5
  6
CONTINUOUS
 10
-0.047484
 20
1.966815
  0
SEQEND
  8
0
  0
POLYLINE
  8
PLAN_1
 62
     5
  6
CONTINUOUS
 66
     1
 40
0.003000
 41
0.003000
  0
VERTEX
  8
PLAN_1
 62
     5
  6
CONTINUOUS
 10
-0.047484
 20
1.958417
  0
VERTEX
  8
PLAN_1
 62
     5
  6
CONTINUOUS
 10
-0.047484
 20
1.950421
  0
SEQEND
  8
0
  0
POLYLINE
  8
PLAN_1
 62
     5
  6
CONTINUOUS
 66
     1
 40
0.003000
 41
0.003000
  0
VERTEX
  8
PLAN_1
 62
     5
  6
CONTINUOUS
 10
-0.045484
 20
1.944024
  0
VERTEX
  8
PLAN_1
 62
     5
  6
CONTINUOUS
 10
-0.037087
 20
1.944024
  0
SEQEND
  8
0
  0
POLYLINE
  8
PLAN_1
 62
     5
  6
CONTINUOUS
 66
     1
 40
0.003000
 41
0.003000
  0
VERTEX
  8
PLAN_1
 62
     5
  6
CONTINUOUS
 10
-0.028689
 20
1.944024
  0
VERTEX
  8
PLAN_1
 62
     5
  6
CONTINUOUS
 10
-0.020295
 20
1.944024
  0
SEQEND
  8
0
  0
POLYLINE
  8
PLAN_1
 62
     5
  6
CONTINUOUS
 66
     1
 40
0.003000
 41
0.003000
  0
VERTEX
  8
PLAN_1
 62
     5
  6
CONTINUOUS
 10
-0.011898
 20
1.944024
  0
VERTEX
  8
PLAN_1
 62
     5
  6
CONTINUOUS
 10
-0.010295
 20
1.944024
  0
VERTEX
  8
PLAN_1
 62
     5
  6
CONTINUOUS
 10
-0.010295
 20
1.937626
  0
SEQEND
  8
0
  0
POLYLINE
  8
PLAN_1
 62
     5
  6
CONTINUOUS
 66
     1
 40
0.003000
 41
0.003000
  0
VERTEX
  8
PLAN_1
 62
     5
  6
CONTINUOUS
 10
-0.010295
 20
1.929228
  0
VERTEX
  8
PLAN_1
 62
     5
  6
CONTINUOUS
 10
-0.010295
 20
1.920831
  0
SEQEND
  8
0
  0
POLYLINE
  8
PLAN_1
 62
     5
  6
CONTINUOUS
 66
     1
 40
0.003000
 41
0.003000
  0
VERTEX
  8
PLAN_1
 62
     5
  6
CONTINUOUS
 10
-0.010295
 20
1.912433
  0
VERTEX
  8
PLAN_1
 62
     5
  6
CONTINUOUS
 10
-0.010295
 20
1.904035
  0
SEQEND
  8
0
  0
POLYLINE
  8
PLAN_1
 62
     5
  6
CONTINUOUS
 66
     1
 40
0.003000
 41
0.003000
  0
VERTEX
  8
PLAN_1
 62
     5
  6
CONTINUOUS
 10
-0.010295
 20
1.895638
  0
VERTEX
  8
PLAN_1
 62
     5
  6
CONTINUOUS
 10
-0.010295
 20
1.887642
  0
SEQEND
  8
0
  0
POLYLINE
  8
PLAN_1
 62
     5
  6
CONTINUOUS
 66
     1
 40
0.003000
 41
0.003000
  0
VERTEX
  8
PLAN_1
 62
     5
  6
CONTINUOUS
 10
-0.010295
 20
1.879244
  0
VERTEX
  8
PLAN_1
 62
     5
  6
CONTINUOUS
 10
-0.010295
 20
1.870846
  0
SEQEND
  8
0
  0
POLYLINE
  8
PLAN_1
 62
     5
  6
CONTINUOUS
 66
     1
 40
0.003000
 41
0.003000
  0
VERTEX
  8
PLAN_1
 62
     5
  6
CONTINUOUS
 10
-0.010295
 20
1.862449
  0
VERTEX
  8
PLAN_1
 62
     5
  6
CONTINUOUS
 10
-0.010295
 20
1.854055
  0
SEQEND
  8
0
  0
POLYLINE
  8
PLAN_1
 62
     5
  6
CONTINUOUS
 66
     1
 40
0.003000
 41
0.003000
  0
VERTEX
  8
PLAN_1
 62
     5
  6
CONTINUOUS
 10
-0.010295
 20
1.845657
  0
VERTEX
  8
PLAN_1
 62
     5
  6
CONTINUOUS
 10
-0.010295
 20
1.837657
  0
SEQEND
  8
0
  0
POLYLINE
  8
PLAN_1
 62
     5
  6
CONTINUOUS
 66
     1
 40
0.003000
 41
0.003000
  0
VERTEX
  8
PLAN_1
 62
     5
  6
CONTINUOUS
 10
-0.010295
 20
1.829264
  0
VERTEX
  8
PLAN_1
 62
     5
  6
CONTINUOUS
 10
-0.010295
 20
1.820866
  0
SEQEND
  8
0
  0
POLYLINE
  8
PLAN_1
 62
     5
  6
CONTINUOUS
 66
     1
 40
0.003000
 41
0.003000
  0
VERTEX
  8
PLAN_1
 62
     5
  6
CONTINUOUS
 10
-0.010295
 20
1.812469
  0
VERTEX
  8
PLAN_1
 62
     5
  6
CONTINUOUS
 10
-0.010295
 20
1.804071
  0
SEQEND
  8
0
  0
POLYLINE
  8
PLAN_1
 62
     5
  6
CONTINUOUS
 66
     1
 40
0.003000
 41
0.003000
  0
VERTEX
  8
PLAN_1
 62
     5
  6
CONTINUOUS
 10
-0.010295
 20
1.795673
  0
VERTEX
  8
PLAN_1
 62
     5
  6
CONTINUOUS
 10
-0.010295
 20
1.787677
  0
SEQEND
  8
0
  0
POLYLINE
  8
PLAN_1
 62
     5
  6
CONTINUOUS
 66
     1
 40
0.003000
 41
0.003000
  0
VERTEX
  8
PLAN_1
 62
     5
  6
CONTINUOUS
 10
-0.010295
 20
1.779280
  0
VERTEX
  8
PLAN_1
 62
     5
  6
CONTINUOUS
 10
-0.010295
 20
1.770882
  0
SEQEND
  8
0
  0
POLYLINE
  8
PLAN_1
 62
     5
  6
CONTINUOUS
 66
     1
 40
0.003000
 41
0.003000
  0
VERTEX
  8
PLAN_1
 62
     5
  6
CONTINUOUS
 10
-0.010295
 20
1.762484
  0
VERTEX
  8
PLAN_1
 62
     5
  6
CONTINUOUS
 10
-0.010295
 20
1.754087
  0
SEQEND
  8
0
  0
POLYLINE
  8
PLAN_1
 62
     5
  6
CONTINUOUS
 66
     1
 40
0.003000
 41
0.003000
  0
VERTEX
  8
PLAN_1
 62
     5
  6
CONTINUOUS
 10
-0.010295
 20
1.746091
  0
VERTEX
  8
PLAN_1
 62
     5
  6
CONTINUOUS
 10
-0.010295
 20
1.737693
  0
SEQEND
  8
0
  0
POLYLINE
  8
PLAN_1
 62
     5
  6
CONTINUOUS
 66
     1
 40
0.003000
 41
0.003000
  0
VERTEX
  8
PLAN_1
 62
     5
  6
CONTINUOUS
 10
-0.010295
 20
1.729295
  0
VERTEX
  8
PLAN_1
 62
     5
  6
CONTINUOUS
 10
-0.010295
 20
1.720898
  0
SEQEND
  8
0
  0
POLYLINE
  8
PLAN_1
 62
     5
  6
CONTINUOUS
 66
     1
 40
0.003000
 41
0.003000
  0
VERTEX
  8
PLAN_1
 62
     5
  6
CONTINUOUS
 10
-0.010295
 20
1.712500
  0
VERTEX
  8
PLAN_1
 62
     5
  6
CONTINUOUS
 10
-0.010295
 20
1.704102
  0
SEQEND
  8
0
  0
POLYLINE
  8
PLAN_1
 62
     5
  6
CONTINUOUS
 66
     1
 40
0.003000
 41
0.003000
  0
VERTEX
  8
PLAN_1
 62
     5
  6
CONTINUOUS
 10
-0.010295
 20
1.696106
  0
VERTEX
  8
PLAN_1
 62
     5
  6
CONTINUOUS
 10
-0.010295
 20
1.687709
  0
SEQEND
  8
0
  0
POLYLINE
  8
PLAN_1
 62
     5
  6
CONTINUOUS
 66
     1
 40
0.003000
 41
0.003000
  0
VERTEX
  8
PLAN_1
 62
     5
  6
CONTINUOUS
 10
-0.010295
 20
1.679311
  0
VERTEX
  8
PLAN_1
 62
     5
  6
CONTINUOUS
 10
-0.010295
 20
1.673713
  0
VERTEX
  8
PLAN_1
 62
     5
  6
CONTINUOUS
 10
-0.013094
 20
1.673713
  0
SEQEND
  8
0
  0
POLYLINE
  8
PLAN_1
 62
     5
  6
CONTINUOUS
 66
     1
 40
0.003000
 41
0.003000
  0
VERTEX
  8
PLAN_1
 62
     5
  6
CONTINUOUS
 10
-0.021492
 20
1.673713
  0
VERTEX
  8
PLAN_1
 62
     5
  6
CONTINUOUS
 10
-0.029492
 20
1.673713
  0
SEQEND
  8
0
  0
POLYLINE
  8
PLAN_1
 62
     5
  6
CONTINUOUS
 66
     1
 40
0.003000
 41
0.003000
  0
VERTEX
  8
PLAN_1
 62
     5
  6
CONTINUOUS
 10
-0.037886
 20
1.673713
  0
VERTEX
  8
PLAN_1
 62
     5
  6
CONTINUOUS
 10
-0.046283
 20
1.673713
  0
SEQEND
  8
0
  0
POLYLINE
  8
PLAN_1
 62
     5
  6
CONTINUOUS
 66
     1
 40
0.003000
 41
0.003000
  0
VERTEX
  8
PLAN_1
 62
     5
  6
CONTINUOUS
 10
-0.047484
 20
1.666516
  0
VERTEX
  8
PLAN_1
 62
     5
  6
CONTINUOUS
 10
-0.047484
 20
1.658118
  0
SEQEND
  8
0
  0
POLYLINE
  8
PLAN_1
 62
     5
  6
CONTINUOUS
 66
     1
 40
0.003000
 41
0.003000
  0
VERTEX
  8
PLAN_1
 62
     5
  6
CONTINUOUS
 10
-0.047484
 20
1.649720
  0
VERTEX
  8
PLAN_1
 62
     5
  6
CONTINUOUS
 10
-0.047484
 20
1.641327
  0
SEQEND
  8
0
  0
POLYLINE
  8
PLAN_1
 62
     5
  6
CONTINUOUS
 66
     1
 40
0.003000
 41
0.003000
  0
VERTEX
  8
PLAN_1
 62
     5
  6
CONTINUOUS
 10
-0.047484
 20
1.633327
  0
VERTEX
  8
PLAN_1
 62
     5
  6
CONTINUOUS
 10
-0.047484
 20
1.624929
  0
SEQEND
  8
0
  0
POLYLINE
  8
PLAN_1
 62
     5
  6
CONTINUOUS
 66
     1
 40
0.003000
 41
0.003000
  0
VERTEX
  8
PLAN_1
 62
     5
  6
CONTINUOUS
 10
-0.047484
 20
1.616535
  0
VERTEX
  8
PLAN_1
 62
     5
  6
CONTINUOUS
 10
-0.047484
 20
1.608138
  0
SEQEND
  8
0
  0
POLYLINE
  8
PLAN_1
 62
     5
  6
CONTINUOUS
 66
     1
 40
0.003000
 41
0.003000
  0
VERTEX
  8
PLAN_1
 62
     5
  6
CONTINUOUS
 10
-0.047484
 20
1.599740
  0
VERTEX
  8
PLAN_1
 62
     5
  6
CONTINUOUS
 10
-0.047484
 20
1.591740
  0
SEQEND
  8
0
  0
POLYLINE
  8
PLAN_1
 62
     5
  6
CONTINUOUS
 66
     1
 40
0.003000
 41
0.003000
  0
VERTEX
  8
PLAN_1
 62
     5
  6
CONTINUOUS
 10
-0.047484
 20
1.583346
  0
VERTEX
  8
PLAN_1
 62
     5
  6
CONTINUOUS
 10
-0.047484
 20
1.574949
  0
SEQEND
  8
0
  0
POLYLINE
  8
PLAN_1
 62
     5
  6
CONTINUOUS
 66
     1
 40
0.003000
 41
0.003000
  0
VERTEX
  8
PLAN_1
 62
     5
  6
CONTINUOUS
 10
-0.047484
 20
1.566551
  0
VERTEX
  8
PLAN_1
 62
     5
  6
CONTINUOUS
 10
-0.047484
 20
1.558154
  0
SEQEND
  8
0
  0
POLYLINE
  8
PLAN_1
 62
     5
  6
CONTINUOUS
 66
     1
 40
0.003000
 41
0.003000
  0
VERTEX
  8
PLAN_1
 62
     5
  6
CONTINUOUS
 10
-0.047484
 20
1.549756
  0
VERTEX
  8
PLAN_1
 62
     5
  6
CONTINUOUS
 10
-0.047484
 20
1.541760
  0
SEQEND
  8
0
  0
POLYLINE
  8
PLAN_1
 62
     5
  6
CONTINUOUS
 66
     1
 40
0.003000
 41
0.003000
  0
VERTEX
  8
PLAN_1
 62
     5
  6
CONTINUOUS
 10
-0.047484
 20
1.533362
  0
VERTEX
  8
PLAN_1
 62
     5
  6
CONTINUOUS
 10
-0.047484
 20
1.524965
  0
SEQEND
  8
0
  0
POLYLINE
  8
PLAN_1
 62
     5
  6
CONTINUOUS
 66
     1
 40
0.003000
 41
0.003000
  0
VERTEX
  8
PLAN_1
 62
     5
  6
CONTINUOUS
 10
-0.047484
 20
1.516567
  0
VERTEX
  8
PLAN_1
 62
     5
  6
CONTINUOUS
 10
-0.047484
 20
1.508169
  0
SEQEND
  8
0
  0
POLYLINE
  8
PLAN_1
 62
     5
  6
CONTINUOUS
 66
     1
 40
0.003000
 41
0.003000
  0
VERTEX
  8
PLAN_1
 62
     5
  6
CONTINUOUS
 10
-0.047484
 20
1.499772
  0
VERTEX
  8
PLAN_1
 62
     5
  6
CONTINUOUS
 10
-0.047484
 20
1.491776
  0
SEQEND
  8
0
  0
POLYLINE
  8
PLAN_1
 62
     5
  6
CONTINUOUS
 66
     1
 40
0.003000
 41
0.003000
  0
VERTEX
  8
PLAN_1
 62
     5
  6
CONTINUOUS
 10
-0.047484
 20
1.483378
  0
VERTEX
  8
PLAN_1
 62
     5
  6
CONTINUOUS
 10
-0.047484
 20
1.474980
  0
SEQEND
  8
0
  0
POLYLINE
  8
PLAN_1
 62
     5
  6
CONTINUOUS
 66
     1
 40
0.003000
 41
0.003000
  0
VERTEX
  8
PLAN_1
 62
     5
  6
CONTINUOUS
 10
-0.047484
 20
1.466583
  0
VERTEX
  8
PLAN_1
 62
     5
  6
CONTINUOUS
 10
-0.047484
 20
1.458189
  0
SEQEND
  8
0
  0
POLYLINE
  8
PLAN_1
 62
     5
  6
CONTINUOUS
 66
     1
 40
0.003000
 41
0.003000
  0
VERTEX
  8
PLAN_1
 62
     5
  6
CONTINUOUS
 10
-0.047484
 20
1.449791
  0
VERTEX
  8
PLAN_1
 62
     5
  6
CONTINUOUS
 10
-0.047484
 20
1.441791
  0
SEQEND
  8
0
  0
POLYLINE
  8
PLAN_1
 62
     5
  6
CONTINUOUS
 66
     1
 40
0.003000
 41
0.003000
  0
VERTEX
  8
PLAN_1
 62
     5
  6
CONTINUOUS
 10
-0.047484
 20
1.433394
  0
VERTEX
  8
PLAN_1
 62
     5
  6
CONTINUOUS
 10
-0.047484
 20
1.425000
  0
SEQEND
  8
0
  0
POLYLINE
  8
PLAN_1
 62
     5
  6
CONTINUOUS
 66
     1
 40
0.003000
 41
0.003000
  0
VERTEX
  8
PLAN_1
 62
     5
  6
CONTINUOUS
 10
-0.047484
 20
1.416602
  0
VERTEX
  8
PLAN_1
 62
     5
  6
CONTINUOUS
 10
-0.047484
 20
1.415000
  0
SEQEND
  8
0
  0
POLYLINE
  8
PLAN_1
 62
     5
  6
CONTINUOUS
 66
     1
 40
0.003000
 41
0.003000
  0
VERTEX
  8
PLAN_1
 62
     5
  6
CONTINUOUS
 10
-0.047484
 20
1.416602
  0
VERTEX
  8
PLAN_1
 62
     5
  6
CONTINUOUS
 10
-0.047484
 20
1.415000
  0
SEQEND
  8
0
  0
POLYLINE
  8
PLAN_1
  6
CONTINUOUS
 66
     1
 40
0.008394
 41
0.008394
  0
VERTEX
  8
PLAN_1
  6
CONTINUOUS
 10
-0.959177
 20
2.080776
  0
VERTEX
  8
PLAN_1
  6
CONTINUOUS
 10
-0.959177
 20
2.245122
  0
VERTEX
  8
PLAN_1
  6
CONTINUOUS
 10
-1.290264
 20
2.245122
  0
SEQEND
  8
0
  0
POLYLINE
  8
PLAN_1
  6
CONTINUOUS
 66
     1
 40
0.008394
 41
0.008394
  0
VERTEX
  8
PLAN_1
  6
CONTINUOUS
 10
-0.045484
 20
2.245122
  0
VERTEX
  8
PLAN_1
  6
CONTINUOUS
 10
-0.358579
 20
2.245122
  0
VERTEX
  8
PLAN_1
  6
CONTINUOUS
 10
-0.358579
 20
2.080776
  0
SEQEND
  8
0
  0
POLYLINE
  8
PLAN_1
  6
CONTINUOUS
 66
     1
 40
0.008394
 41
0.008394
  0
VERTEX
  8
PLAN_1
  6
CONTINUOUS
 10
-1.058744
 20
2.082776
  0
VERTEX
  8
PLAN_1
  6
CONTINUOUS
 10
-1.058744
 20
2.245122
  0
SEQEND
  8
0
  0
POLYLINE
  8
PLAN_1
  6
CONTINUOUS
 66
     1
 40
0.008394
 41
0.008394
  0
VERTEX
  8
PLAN_1
  6
CONTINUOUS
 10
-0.274209
 20
2.082776
  0
VERTEX
  8
PLAN_1
  6
CONTINUOUS
 10
-0.274209
 20
2.245122
  0
SEQEND
  8
0
  0
POLYLINE
  8
PLAN_1
 62
     2
  6
CONTINUOUS
 66
     1
 40
0.003996
 41
0.003996
  0
VERTEX
  8
PLAN_1
 62
     2
  6
CONTINUOUS
 10
-2.041213
 20
3.101232
  0
VERTEX
  8
PLAN_1
 62
     2
  6
CONTINUOUS
 10
-0.041488
 20
3.101232
  0
SEQEND
  8
0
  0
SOLID
  8
PLAN_1
 62
     2
 10
-0.012295
 20
3.101232
 11
-0.071075
 21
3.116827
 12
-0.012295
 22
3.101232
 13
-0.071075
 23
3.085638
  0
POLYLINE
  8
PLAN_1
 62
     2
  6
CONTINUOUS
 66
     1
 40
0.003000
 41
0.003000
  0
VERTEX
  8
PLAN_1
 62
     2
  6
CONTINUOUS
 10
-0.012295
 20
3.101232
  0
VERTEX
  8
PLAN_1
 62
     2
  6
CONTINUOUS
 10
-0.071075
 20
3.116827
  0
VERTEX
  8
PLAN_1
 62
     2
  6
CONTINUOUS
 10
-0.071075
 20
3.085638
  0
VERTEX
  8
PLAN_1
 62
     2
  6
CONTINUOUS
 10
-0.012295
 20
3.101232
  0
SEQEND
  8
0
  0
SOLID
  8
PLAN_1
 62
     2
 10
-2.070803
 20
3.101232
 11
-2.011622
 21
3.116827
 12
-2.070803
 22
3.101232
 13
-2.011622
 23
3.085638
  0
POLYLINE
  8
PLAN_1
 62
     2
  6
CONTINUOUS
 66
     1
 40
0.003000
 41
0.003000
  0
VERTEX
  8
PLAN_1
 62
     2
  6
CONTINUOUS
 10
-2.070803
 20
3.101232
  0
VERTEX
  8
PLAN_1
 62
     2
  6
CONTINUOUS
 10
-2.011622
 20
3.116827
  0
VERTEX
  8
PLAN_1
 62
     2
  6
CONTINUOUS
 10
-2.011622
 20
3.085638
  0
VERTEX
  8
PLAN_1
 62
     2
  6
CONTINUOUS
 10
-2.070803
 20
3.101232
  0
SEQEND
  8
0
  0
POLYLINE
  8
PLAN_1
 62
     2
  6
CONTINUOUS
 66
     1
 40
0.003000
 41
0.003000
  0
VERTEX
  8
PLAN_1
 62
     2
  6
CONTINUOUS
 10
-1.127520
 20
3.167610
  0
VERTEX
  8
PLAN_1
 62
     2
  6
CONTINUOUS
 10
-1.126319
 20
3.168409
  0
VERTEX
  8
PLAN_1
 62
     2
  6
CONTINUOUS
 10
-1.124720
 20
3.169209
  0
VERTEX
  8
PLAN_1
 62
     2
  6
CONTINUOUS
 10
-1.123122
 20
3.170008
  0
VERTEX
  8
PLAN_1
 62
     2
  6
CONTINUOUS
 10
-1.121524
 20
3.170409
  0
VERTEX
  8
PLAN_1
 62
     2
  6
CONTINUOUS
 10
-1.119921
 20
3.171209
  0
VERTEX
  8
PLAN_1
 62
     2
  6
CONTINUOUS
 10
-1.117925
 20
3.171610
  0
VERTEX
  8
PLAN_1
 62
     2
  6
CONTINUOUS
 10
-1.115524
 20
3.172008
  0
VERTEX
  8
PLAN_1
 62
     2
  6
CONTINUOUS
 10
-1.113126
 20
3.172008
  0
VERTEX
  8
PLAN_1
 62
     2
  6
CONTINUOUS
 10
-1.108728
 20
3.171610
  0
VERTEX
  8
PLAN_1
 62
     2
  6
CONTINUOUS
 10
-1.104327
 20
3.170409
  0
VERTEX
  8
PLAN_1
 62
     2
  6
CONTINUOUS
 10
-1.102327
 20
3.169610
  0
VERTEX
  8
PLAN_1
 62
     2
  6
CONTINUOUS
 10
-1.100331
 20
3.168409
  0
VERTEX
  8
PLAN_1
 62
     2
  6
CONTINUOUS
 10
-1.098728
 20
3.167209
  0
VERTEX
  8
PLAN_1
 62
     2
  6
CONTINUOUS
 10
-1.096732
 20
3.166012
  0
VERTEX
  8
PLAN_1
 62
     2
  6
CONTINUOUS
 10
-1.095130
 20
3.164409
  0
VERTEX
  8
PLAN_1
 62
     2
  6
CONTINUOUS
 10
-1.093531
 20
3.162811
  0
VERTEX
  8
PLAN_1
 62
     2
  6
CONTINUOUS
 10
-1.092331
 20
3.160811
  0
VERTEX
  8
PLAN_1
 62
     2
  6
CONTINUOUS
 10
-1.091531
 20
3.158413
  0
VERTEX
  8
PLAN_1
 62
     2
  6
CONTINUOUS
 10
-1.090331
 20
3.156413
  0
VERTEX
  8
PLAN_1
 62
     2
  6
CONTINUOUS
 10
-1.089933
 20
3.154016
  0
VERTEX
  8
PLAN_1
 62
     2
  6
CONTINUOUS
 10
-1.089531
 20
3.151217
  0
VERTEX
  8
PLAN_1
 62
     2
  6
CONTINUOUS
 10
-1.089134
 20
3.148417
  0
VERTEX
  8
PLAN_1
 62
     2
  6
CONTINUOUS
 10
-1.089531
 20
3.145217
  0
VERTEX
  8
PLAN_1
 62
     2
  6
CONTINUOUS
 10
-1.090331
 20
3.141220
  0
VERTEX
  8
PLAN_1
 62
     2
  6
CONTINUOUS
 10
-1.090732
 20
3.139220
  0
VERTEX
  8
PLAN_1
 62
     2
  6
CONTINUOUS
 10
-1.091531
 20
3.136819
  0
VERTEX
  8
PLAN_1
 62
     2
  6
CONTINUOUS
 10
-1.092732
 20
3.134823
  0
VERTEX
  8
PLAN_1
 62
     2
  6
CONTINUOUS
 10
-1.093933
 20
3.132823
  0
VERTEX
  8
PLAN_1
 62
     2
  6
CONTINUOUS
 10
-1.095531
 20
3.130823
  0
VERTEX
  8
PLAN_1
 62
     2
  6
CONTINUOUS
 10
-1.097130
 20
3.128823
  0
VERTEX
  8
PLAN_1
 62
     2
  6
CONTINUOUS
 10
-1.099528
 20
3.127224
  0
VERTEX
  8
PLAN_1
 62
     2
  6
CONTINUOUS
 10
-1.101929
 20
3.125626
  0
VERTEX
  8
PLAN_1
 62
     2
  6
CONTINUOUS
 10
-1.104728
 20
3.124425
  0
VERTEX
  8
PLAN_1
 62
     2
  6
CONTINUOUS
 10
-1.107925
 20
3.123626
  0
VERTEX
  8
PLAN_1
 62
     2
  6
CONTINUOUS
 10
-1.111524
 20
3.123224
  0
VERTEX
  8
PLAN_1
 62
     2
  6
CONTINUOUS
 10
-1.115925
 20
3.122827
  0
VERTEX
  8
PLAN_1
 62
     2
  6
CONTINUOUS
 10
-1.119524
 20
3.123224
  0
VERTEX
  8
PLAN_1
 62
     2
  6
CONTINUOUS
 10
-1.123122
 20
3.123626
  0
VERTEX
  8
PLAN_1
 62
     2
  6
CONTINUOUS
 10
-1.127122
 20
3.124823
  0
VERTEX
  8
PLAN_1
 62
     2
  6
CONTINUOUS
 10
-1.130319
 20
3.126823
  0
VERTEX
  8
PLAN_1
 62
     2
  6
CONTINUOUS
 10
-1.132319
 20
3.128024
  0
VERTEX
  8
PLAN_1
 62
     2
  6
CONTINUOUS
 10
-1.133520
 20
3.129622
  0
VERTEX
  8
PLAN_1
 62
     2
  6
CONTINUOUS
 10
-1.135118
 20
3.131224
  0
VERTEX
  8
PLAN_1
 62
     2
  6
CONTINUOUS
 10
-1.136319
 20
3.133220
  0
VERTEX
  8
PLAN_1
 62
     2
  6
CONTINUOUS
 10
-1.137516
 20
3.135220
  0
VERTEX
  8
PLAN_1
 62
     2
  6
CONTINUOUS
 10
-1.138315
 20
3.137622
  0
VERTEX
  8
PLAN_1
 62
     2
  6
CONTINUOUS
 10
-1.139114
 20
3.140020
  0
VERTEX
  8
PLAN_1
 62
     2
  6
CONTINUOUS
 10
-1.139516
 20
3.143217
  0
VERTEX
  8
PLAN_1
 62
     2
  6
CONTINUOUS
 10
-1.129917
 20
3.143217
  0
VERTEX
  8
PLAN_1
 62
     2
  6
CONTINUOUS
 10
-1.129520
 20
3.140020
  0
VERTEX
  8
PLAN_1
 62
     2
  6
CONTINUOUS
 10
-1.128319
 20
3.137622
  0
VERTEX
  8
PLAN_1
 62
     2
  6
CONTINUOUS
 10
-1.126720
 20
3.135622
  0
VERTEX
  8
PLAN_1
 62
     2
  6
CONTINUOUS
 10
-1.124720
 20
3.133622
  0
VERTEX
  8
PLAN_1
 62
     2
  6
CONTINUOUS
 10
-1.122720
 20
3.132421
  0
VERTEX
  8
PLAN_1
 62
     2
  6
CONTINUOUS
 10
-1.120323
 20
3.131622
  0
VERTEX
  8
PLAN_1
 62
     2
  6
CONTINUOUS
 10
-1.117524
 20
3.130823
  0
VERTEX
  8
PLAN_1
 62
     2
  6
CONTINUOUS
 10
-1.114323
 20
3.130823
  0
VERTEX
  8
PLAN_1
 62
     2
  6
CONTINUOUS
 10
-1.111126
 20
3.131224
  0
VERTEX
  8
PLAN_1
 62
     2
  6
CONTINUOUS
 10
-1.107925
 20
3.132024
  0
VERTEX
  8
PLAN_1
 62
     2
  6
CONTINUOUS
 10
-1.105528
 20
3.133622
  0
VERTEX
  8
PLAN_1
 62
     2
  6
CONTINUOUS
 10
-1.103130
 20
3.135622
  0
VERTEX
  8
PLAN_1
 62
     2
  6
CONTINUOUS
 10
-1.101528
 20
3.138020
  0
VERTEX
  8
PLAN_1
 62
     2
  6
CONTINUOUS
 10
-1.099929
 20
3.141220
  0
VERTEX
  8
PLAN_1
 62
     2
  6
CONTINUOUS
 10
-1.099130
 20
3.144020
  0
VERTEX
  8
PLAN_1
 62
     2
  6
CONTINUOUS
 10
-1.099130
 20
3.147618
  0
VERTEX
  8
PLAN_1
 62
     2
  6
CONTINUOUS
 10
-1.099528
 20
3.151217
  0
VERTEX
  8
PLAN_1
 62
     2
  6
CONTINUOUS
 10
-1.100331
 20
3.154413
  0
VERTEX
  8
PLAN_1
 62
     2
  6
CONTINUOUS
 10
-1.101929
 20
3.157213
  0
VERTEX
  8
PLAN_1
 62
     2
  6
CONTINUOUS
 10
-1.103929
 20
3.159614
  0
VERTEX
  8
PLAN_1
 62
     2
  6
CONTINUOUS
 10
-1.106327
 20
3.161213
  0
VERTEX
  8
PLAN_1
 62
     2
  6
CONTINUOUS
 10
-1.108728
 20
3.162811
  0
VERTEX
  8
PLAN_1
 62
     2
  6
CONTINUOUS
 10
-1.111925
 20
3.163610
  0
VERTEX
  8
PLAN_1
 62
     2
  6
CONTINUOUS
 10
-1.115126
 20
3.163610
  0
VERTEX
  8
PLAN_1
 62
     2
  6
CONTINUOUS
 10
-1.117122
 20
3.163610
  0
VERTEX
  8
PLAN_1
 62
     2
  6
CONTINUOUS
 10
-1.119122
 20
3.163213
  0
VERTEX
  8
PLAN_1
 62
     2
  6
CONTINUOUS
 10
-1.121122
 20
3.162811
  0
VERTEX
  8
PLAN_1
 62
     2
  6
CONTINUOUS
 10
-1.122720
 20
3.162012
  0
VERTEX
  8
PLAN_1
 62
     2
  6
CONTINUOUS
 10
-1.124323
 20
3.160811
  0
VERTEX
  8
PLAN_1
 62
     2
  6
CONTINUOUS
 10
-1.125921
 20
3.159614
  0
VERTEX
  8
PLAN_1
 62
     2
  6
CONTINUOUS
 10
-1.127520
 20
3.158413
  0
VERTEX
  8
PLAN_1
 62
     2
  6
CONTINUOUS
 10
-1.128720
 20
3.156815
  0
VERTEX
  8
PLAN_1
 62
     2
  6
CONTINUOUS
 10
-1.136717
 20
3.157213
  0
VERTEX
  8
PLAN_1
 62
     2
  6
CONTINUOUS
 10
-1.131118
 20
3.196402
  0
VERTEX
  8
PLAN_1
 62
     2
  6
CONTINUOUS
 10
-1.093130
 20
3.196402
  0
VERTEX
  8
PLAN_1
 62
     2
  6
CONTINUOUS
 10
-1.093130
 20
3.187602
  0
VERTEX
  8
PLAN_1
 62
     2
  6
CONTINUOUS
 10
-1.124323
 20
3.187602
  0
VERTEX
  8
PLAN_1
 62
     2
  6
CONTINUOUS
 10
-1.127520
 20
3.167610
  0
SEQEND
  8
0
  0
POLYLINE
  8
PLAN_1
 62
     2
  6
CONTINUOUS
 66
     1
 40
0.003000
 41
0.003000
  0
VERTEX
  8
PLAN_1
 62
     2
  6
CONTINUOUS
 10
-1.080335
 20
3.171610
  0
VERTEX
  8
PLAN_1
 62
     2
  6
CONTINUOUS
 10
-1.079937
 20
3.176008
  0
VERTEX
  8
PLAN_1
 62
     2
  6
CONTINUOUS
 10
-1.079535
 20
3.179606
  0
VERTEX
  8
PLAN_1
 62
     2
  6
CONTINUOUS
 10
-1.078736
 20
3.183205
  0
VERTEX
  8
PLAN_1
 62
     2
  6
CONTINUOUS
 10
-1.077535
 20
3.186004
  0
VERTEX
  8
PLAN_1
 62
     2
  6
CONTINUOUS
 10
-1.075937
 20
3.188402
  0
VERTEX
  8
PLAN_1
 62
     2
  6
CONTINUOUS
 10
-1.074339
 20
3.190402
  0
VERTEX
  8
PLAN_1
 62
     2
  6
CONTINUOUS
 10
-1.072339
 20
3.192402
  0
VERTEX
  8
PLAN_1
 62
     2
  6
CONTINUOUS
 10
-1.070740
 20
3.194000
  0
VERTEX
  8
PLAN_1
 62
     2
  6
CONTINUOUS
 10
-1.068339
 20
3.195201
  0
VERTEX
  8
PLAN_1
 62
     2
  6
CONTINUOUS
 10
-1.066343
 20
3.196000
  0
VERTEX
  8
PLAN_1
 62
     2
  6
CONTINUOUS
 10
-1.064343
 20
3.196799
  0
VERTEX
  8
PLAN_1
 62
     2
  6
CONTINUOUS
 10
-1.062343
 20
3.197201
  0
VERTEX
  8
PLAN_1
 62
     2
  6
CONTINUOUS
 10
-1.058343
 20
3.198000
  0
VERTEX
  8
PLAN_1
 62
     2
  6
CONTINUOUS
 10
-1.055146
 20
3.198000
  0
VERTEX
  8
PLAN_1
 62
     2
  6
CONTINUOUS
 10
-1.050346
 20
3.197598
  0
VERTEX
  8
PLAN_1
 62
     2
  6
CONTINUOUS
 10
-1.045949
 20
3.196402
  0
VERTEX
  8
PLAN_1
 62
     2
  6
CONTINUOUS
 10
-1.043949
 20
3.195602
  0
VERTEX
  8
PLAN_1
 62
     2
  6
CONTINUOUS
 10
-1.042350
 20
3.194799
  0
VERTEX
  8
PLAN_1
 62
     2
  6
CONTINUOUS
 10
-1.040350
 20
3.193602
  0
VERTEX
  8
PLAN_1
 62
     2
  6
CONTINUOUS
 10
-1.038752
 20
3.192004
  0
VERTEX
  8
PLAN_1
 62
     2
  6
CONTINUOUS
 10
-1.037150
 20
3.190803
  0
VERTEX
  8
PLAN_1
 62
     2
  6
CONTINUOUS
 10
-1.035953
 20
3.189205
  0
VERTEX
  8
PLAN_1
 62
     2
  6
CONTINUOUS
 10
-1.034752
 20
3.187205
  0
VERTEX
  8
PLAN_1
 62
     2
  6
CONTINUOUS
 10
-1.033953
 20
3.185205
  0
VERTEX
  8
PLAN_1
 62
     2
  6
CONTINUOUS
 10
-1.033154
 20
3.183205
  0
VERTEX
  8
PLAN_1
 62
     2
  6
CONTINUOUS
 10
-1.032350
 20
3.180807
  0
VERTEX
  8
PLAN_1
 62
     2
  6
CONTINUOUS
 10
-1.032350
 20
3.178807
  0
VERTEX
  8
PLAN_1
 62
     2
  6
CONTINUOUS
 10
-1.031953
 20
3.176008
  0
VERTEX
  8
PLAN_1
 62
     2
  6
CONTINUOUS
 10
-1.032350
 20
3.173606
  0
VERTEX
  8
PLAN_1
 62
     2
  6
CONTINUOUS
 10
-1.032350
 20
3.171610
  0
VERTEX
  8
PLAN_1
 62
     2
  6
CONTINUOUS
 10
-1.033154
 20
3.169610
  0
VERTEX
  8
PLAN_1
 62
     2
  6
CONTINUOUS
 10
-1.033551
 20
3.167610
  0
VERTEX
  8
PLAN_1
 62
     2
  6
CONTINUOUS
 10
-1.035551
 20
3.164012
  0
VERTEX
  8
PLAN_1
 62
     2
  6
CONTINUOUS
 10
-1.037949
 20
3.161213
  0
VERTEX
  8
PLAN_1
 62
     2
  6
CONTINUOUS
 10
-1.040748
 20
3.158413
  0
VERTEX
  8
PLAN_1
 62
     2
  6
CONTINUOUS
 10
-1.043949
 20
3.156016
  0
VERTEX
  8
PLAN_1
 62
     2
  6
CONTINUOUS
 10
-1.047547
 20
3.154016
  0
VERTEX
  8
PLAN_1
 62
     2
  6
CONTINUOUS
 10
-1.051547
 20
3.151614
  0
VERTEX
  8
PLAN_1
 62
     2
  6
CONTINUOUS
 10
-1.059142
 20
3.147618
  0
VERTEX
  8
PLAN_1
 62
     2
  6
CONTINUOUS
 10
-1.062740
 20
3.145618
  0
VERTEX
  8
PLAN_1
 62
     2
  6
CONTINUOUS
 10
-1.065539
 20
3.143217
  0
VERTEX
  8
PLAN_1
 62
     2
  6
CONTINUOUS
 10
-1.067539
 20
3.141220
  0
VERTEX
  8
PLAN_1
 62
     2
  6
CONTINUOUS
 10
-1.069138
 20
3.139618
  0
VERTEX
  8
PLAN_1
 62
     2
  6
CONTINUOUS
 10
-1.070339
 20
3.137622
  0
VERTEX
  8
PLAN_1
 62
     2
  6
CONTINUOUS
 10
-1.071138
 20
3.136020
  0
VERTEX
  8
PLAN_1
 62
     2
  6
CONTINUOUS
 10
-1.071539
 20
3.134823
  0
VERTEX
  8
PLAN_1
 62
     2
  6
CONTINUOUS
 10
-1.071937
 20
3.133622
  0
VERTEX
  8
PLAN_1
 62
     2
  6
CONTINUOUS
 10
-1.031953
 20
3.133622
  0
VERTEX
  8
PLAN_1
 62
     2
  6
CONTINUOUS
 10
-1.031953
 20
3.124823
  0
VERTEX
  8
PLAN_1
 62
     2
  6
CONTINUOUS
 10
-1.081937
 20
3.124823
  0
VERTEX
  8
PLAN_1
 62
     2
  6
CONTINUOUS
 10
-1.081535
 20
3.130421
  0
VERTEX
  8
PLAN_1
 62
     2
  6
CONTINUOUS
 10
-1.080736
 20
3.134823
  0
VERTEX
  8
PLAN_1
 62
     2
  6
CONTINUOUS
 10
-1.079138
 20
3.139220
  0
VERTEX
  8
PLAN_1
 62
     2
  6
CONTINUOUS
 10
-1.077138
 20
3.142819
  0
VERTEX
  8
PLAN_1
 62
     2
  6
CONTINUOUS
 10
-1.074736
 20
3.146016
  0
VERTEX
  8
PLAN_1
 62
     2
  6
CONTINUOUS
 10
-1.071539
 20
3.149217
  0
VERTEX
  8
PLAN_1
 62
     2
  6
CONTINUOUS
 10
-1.068339
 20
3.151614
  0
VERTEX
  8
PLAN_1
 62
     2
  6
CONTINUOUS
 10
-1.065142
 20
3.154016
  0
VERTEX
  8
PLAN_1
 62
     2
  6
CONTINUOUS
 10
-1.055146
 20
3.159614
  0
VERTEX
  8
PLAN_1
 62
     2
  6
CONTINUOUS
 10
-1.052346
 20
3.161213
  0
VERTEX
  8
PLAN_1
 62
     2
  6
CONTINUOUS
 10
-1.049945
 20
3.162811
  0
VERTEX
  8
PLAN_1
 62
     2
  6
CONTINUOUS
 10
-1.047547
 20
3.164409
  0
VERTEX
  8
PLAN_1
 62
     2
  6
CONTINUOUS
 10
-1.045547
 20
3.166012
  0
VERTEX
  8
PLAN_1
 62
     2
  6
CONTINUOUS
 10
-1.043949
 20
3.168012
  0
VERTEX
  8
PLAN_1
 62
     2
  6
CONTINUOUS
 10
-1.042748
 20
3.170409
  0
VERTEX
  8
PLAN_1
 62
     2
  6
CONTINUOUS
 10
-1.041949
 20
3.173209
  0
VERTEX
  8
PLAN_1
 62
     2
  6
CONTINUOUS
 10
-1.041949
 20
3.176406
  0
VERTEX
  8
PLAN_1
 62
     2
  6
CONTINUOUS
 10
-1.041949
 20
3.178807
  0
VERTEX
  8
PLAN_1
 62
     2
  6
CONTINUOUS
 10
-1.042748
 20
3.181205
  0
VERTEX
  8
PLAN_1
 62
     2
  6
CONTINUOUS
 10
-1.043547
 20
3.183205
  0
VERTEX
  8
PLAN_1
 62
     2
  6
CONTINUOUS
 10
-1.045150
 20
3.185205
  0
VERTEX
  8
PLAN_1
 62
     2
  6
CONTINUOUS
 10
-1.047146
 20
3.187205
  0
VERTEX
  8
PLAN_1
 62
     2
  6
CONTINUOUS
 10
-1.049547
 20
3.188402
  0
VERTEX
  8
PLAN_1
 62
     2
  6
CONTINUOUS
 10
-1.052744
 20
3.189602
  0
VERTEX
  8
PLAN_1
 62
     2
  6
CONTINUOUS
 10
-1.056343
 20
3.189602
  0
VERTEX
  8
PLAN_1
 62
     2
  6
CONTINUOUS
 10
-1.058744
 20
3.189602
  0
VERTEX
  8
PLAN_1
 62
     2
  6
CONTINUOUS
 10
-1.060744
 20
3.189205
  0
VERTEX
  8
PLAN_1
 62
     2
  6
CONTINUOUS
 10
-1.062740
 20
3.188402
  0
VERTEX
  8
PLAN_1
 62
     2
  6
CONTINUOUS
 10
-1.064343
 20
3.187602
  0
VERTEX
  8
PLAN_1
 62
     2
  6
CONTINUOUS
 10
-1.065941
 20
3.186803
  0
VERTEX
  8
PLAN_1
 62
     2
  6
CONTINUOUS
 10
-1.067142
 20
3.185602
  0
VERTEX
  8
PLAN_1
 62
     2
  6
CONTINUOUS
 10
-1.067941
 20
3.184004
  0
VERTEX
  8
PLAN_1
 62
     2
  6
CONTINUOUS
 10
-1.068740
 20
3.182807
  0
VERTEX
  8
PLAN_1
 62
     2
  6
CONTINUOUS
 10
-1.069941
 20
3.179606
  0
VERTEX
  8
PLAN_1
 62
     2
  6
CONTINUOUS
 10
-1.070740
 20
3.176807
  0
VERTEX
  8
PLAN_1
 62
     2
  6
CONTINUOUS
 10
-1.071138
 20
3.174008
  0
VERTEX
  8
PLAN_1
 62
     2
  6
CONTINUOUS
 10
-1.071138
 20
3.171610
  0
VERTEX
  8
PLAN_1
 62
     2
  6
CONTINUOUS
 10
-1.080335
 20
3.171610
  0
SEQEND
  8
0
  0
POLYLINE
  8
PLAN_1
 62
     2
  6
CONTINUOUS
 66
     1
 40
0.003000
 41
0.003000
  0
VERTEX
  8
PLAN_1
 62
     2
  6
CONTINUOUS
 10
-1.017957
 20
3.124823
  0
VERTEX
  8
PLAN_1
 62
     2
  6
CONTINUOUS
 10
-1.012358
 20
3.124823
  0
VERTEX
  8
PLAN_1
 62
     2
  6
CONTINUOUS
 10
-1.012358
 20
3.123224
  0
VERTEX
  8
PLAN_1
 62
     2
  6
CONTINUOUS
 10
-1.012760
 20
3.121224
  0
VERTEX
  8
PLAN_1
 62
     2
  6
CONTINUOUS
 10
-1.013157
 20
3.119626
  0
VERTEX
  8
PLAN_1
 62
     2
  6
CONTINUOUS
 10
-1.013559
 20
3.118028
  0
VERTEX
  8
PLAN_1
 62
     2
  6
CONTINUOUS
 10
-1.014358
 20
3.116429
  0
VERTEX
  8
PLAN_1
 62
     2
  6
CONTINUOUS
 10
-1.015157
 20
3.115626
  0
VERTEX
  8
PLAN_1
 62
     2
  6
CONTINUOUS
 10
-1.016358
 20
3.114827
  0
VERTEX
  8
PLAN_1
 62
     2
  6
CONTINUOUS
 10
-1.017957
 20
3.114429
  0
VERTEX
  8
PLAN_1
 62
     2
  6
CONTINUOUS
 10
-1.017957
 20
3.109630
  0
VERTEX
  8
PLAN_1
 62
     2
  6
CONTINUOUS
 10
-1.016756
 20
3.109630
  0
VERTEX
  8
PLAN_1
 62
     2
  6
CONTINUOUS
 10
-1.015157
 20
3.110429
  0
VERTEX
  8
PLAN_1
 62
     2
  6
CONTINUOUS
 10
-1.013559
 20
3.111228
  0
VERTEX
  8
PLAN_1
 62
     2
  6
CONTINUOUS
 10
-1.011559
 20
3.112429
  0
VERTEX
  8
PLAN_1
 62
     2
  6
CONTINUOUS
 10
-1.009961
 20
3.114429
  0
VERTEX
  8
PLAN_1
 62
     2
  6
CONTINUOUS
 10
-1.008362
 20
3.117228
  0
VERTEX
  8
PLAN_1
 62
     2
  6
CONTINUOUS
 10
-1.007559
 20
3.120827
  0
VERTEX
  8
PLAN_1
 62
     2
  6
CONTINUOUS
 10
-1.007161
 20
3.125626
  0
VERTEX
  8
PLAN_1
 62
     2
  6
CONTINUOUS
 10
-1.007161
 20
3.136020
  0
VERTEX
  8
PLAN_1
 62
     2
  6
CONTINUOUS
 10
-1.017957
 20
3.136020
  0
VERTEX
  8
PLAN_1
 62
     2
  6
CONTINUOUS
 10
-1.017957
 20
3.124823
  0
SEQEND
  8
0
  0
POLYLINE
  8
PLAN_1
 62
     2
  6
CONTINUOUS
 66
     1
 40
0.003000
 41
0.003000
  0
VERTEX
  8
PLAN_1
 62
     2
  6
CONTINUOUS
 10
-0.974772
 20
3.166409
  0
VERTEX
  8
PLAN_1
 62
     2
  6
CONTINUOUS
 10
-0.973972
 20
3.166409
  0
VERTEX
  8
PLAN_1
 62
     2
  6
CONTINUOUS
 10
-0.973571
 20
3.166409
  0
VERTEX
  8
PLAN_1
 62
     2
  6
CONTINUOUS
 10
-0.972772
 20
3.166409
  0
VERTEX
  8
PLAN_1
 62
     2
  6
CONTINUOUS
 10
-0.972374
 20
3.166409
  0
VERTEX
  8
PLAN_1
 62
     2
  6
CONTINUOUS
 10
-0.971571
 20
3.166409
  0
VERTEX
  8
PLAN_1
 62
     2
  6
CONTINUOUS
 10
-0.971173
 20
3.166409
  0
VERTEX
  8
PLAN_1
 62
     2
  6
CONTINUOUS
 10
-0.970374
 20
3.166409
  0
VERTEX
  8
PLAN_1
 62
     2
  6
CONTINUOUS
 10
-0.969972
 20
3.166409
  0
VERTEX
  8
PLAN_1
 62
     2
  6
CONTINUOUS
 10
-0.967173
 20
3.166409
  0
VERTEX
  8
PLAN_1
 62
     2
  6
CONTINUOUS
 10
-0.964776
 20
3.166811
  0
VERTEX
  8
PLAN_1
 62
     2
  6
CONTINUOUS
 10
-0.962374
 20
3.167610
  0
VERTEX
  8
PLAN_1
 62
     2
  6
CONTINUOUS
 10
-0.960378
 20
3.168811
  0
VERTEX
  8
PLAN_1
 62
     2
  6
CONTINUOUS
 10
-0.958378
 20
3.170409
  0
VERTEX
  8
PLAN_1
 62
     2
  6
CONTINUOUS
 10
-0.957177
 20
3.172409
  0
VERTEX
  8
PLAN_1
 62
     2
  6
CONTINUOUS
 10
-0.956378
 20
3.175209
  0
VERTEX
  8
PLAN_1
 62
     2
  6
CONTINUOUS
 10
-0.955976
 20
3.178406
  0
VERTEX
  8
PLAN_1
 62
     2
  6
CONTINUOUS
 10
-0.955976
 20
3.180008
  0
VERTEX
  8
PLAN_1
 62
     2
  6
CONTINUOUS
 10
-0.956378
 20
3.182004
  0
VERTEX
  8
PLAN_1
 62
     2
  6
CONTINUOUS
 10
-0.957177
 20
3.183606
  0
VERTEX
  8
PLAN_1
 62
     2
  6
CONTINUOUS
 10
-0.958776
 20
3.185602
  0
VERTEX
  8
PLAN_1
 62
     2
  6
CONTINUOUS
 10
-0.960378
 20
3.187205
  0
VERTEX
  8
PLAN_1
 62
     2
  6
CONTINUOUS
 10
-0.962776
 20
3.188402
  0
VERTEX
  8
PLAN_1
 62
     2
  6
CONTINUOUS
 10
-0.965976
 20
3.189602
  0
VERTEX
  8
PLAN_1
 62
     2
  6
CONTINUOUS
 10
-0.969575
 20
3.189602
  0
VERTEX
  8
PLAN_1
 62
     2
  6
CONTINUOUS
 10
-0.971972
 20
3.189602
  0
VERTEX
  8
PLAN_1
 62
     2
  6
CONTINUOUS
 10
-0.973972
 20
3.189205
  0
VERTEX
  8
PLAN_1
 62
     2
  6
CONTINUOUS
 10
-0.975571
 20
3.188803
  0
VERTEX
  8
PLAN_1
 62
     2
  6
CONTINUOUS
 10
-0.977169
 20
3.188004
  0
VERTEX
  8
PLAN_1
 62
     2
  6
CONTINUOUS
 10
-0.978370
 20
3.187205
  0
VERTEX
  8
PLAN_1
 62
     2
  6
CONTINUOUS
 10
-0.979571
 20
3.186004
  0
VERTEX
  8
PLAN_1
 62
     2
  6
CONTINUOUS
 10
-0.980370
 20
3.185205
  0
VERTEX
  8
PLAN_1
 62
     2
  6
CONTINUOUS
 10
-0.981169
 20
3.184004
  0
VERTEX
  8
PLAN_1
 62
     2
  6
CONTINUOUS
 10
-0.982370
 20
3.181205
  0
VERTEX
  8
PLAN_1
 62
     2
  6
CONTINUOUS
 10
-0.983169
 20
3.178807
  0
VERTEX
  8
PLAN_1
 62
     2
  6
CONTINUOUS
 10
-0.983567
 20
3.176008
  0
VERTEX
  8
PLAN_1
 62
     2
  6
CONTINUOUS
 10
-0.983567
 20
3.174008
  0
VERTEX
  8
PLAN_1
 62
     2
  6
CONTINUOUS
 10
-0.992764
 20
3.174008
  0
VERTEX
  8
PLAN_1
 62
     2
  6
CONTINUOUS
 10
-0.992366
 20
3.178008
  0
VERTEX
  8
PLAN_1
 62
     2
  6
CONTINUOUS
 10
-0.991567
 20
3.182406
  0
VERTEX
  8
PLAN_1
 62
     2
  6
CONTINUOUS
 10
-0.991165
 20
3.184406
  0
VERTEX
  8
PLAN_1
 62
     2
  6
CONTINUOUS
 10
-0.990366
 20
3.186406
  0
VERTEX
  8
PLAN_1
 62
     2
  6
CONTINUOUS
 10
-0.989165
 20
3.188402
  0
VERTEX
  8
PLAN_1
 62
     2
  6
CONTINUOUS
 10
-0.987969
 20
3.190004
  0
VERTEX
  8
PLAN_1
 62
     2
  6
CONTINUOUS
 10
-0.986768
 20
3.191602
  0
VERTEX
  8
PLAN_1
 62
     2
  6
CONTINUOUS
 10
-0.985169
 20
3.193201
  0
VERTEX
  8
PLAN_1
 62
     2
  6
CONTINUOUS
 10
-0.983169
 20
3.194402
  0
VERTEX
  8
PLAN_1
 62
     2
  6
CONTINUOUS
 10
-0.980768
 20
3.195602
  0
VERTEX
  8
PLAN_1
 62
     2
  6
CONTINUOUS
 10
-0.978370
 20
3.196799
  0
VERTEX
  8
PLAN_1
 62
     2
  6
CONTINUOUS
 10
-0.975571
 20
3.197598
  0
VERTEX
  8
PLAN_1
 62
     2
  6
CONTINUOUS
 10
-0.972374
 20
3.198000
  0
VERTEX
  8
PLAN_1
 62
     2
  6
CONTINUOUS
 10
-0.969173
 20
3.198000
  0
VERTEX
  8
PLAN_1
 62
     2
  6
CONTINUOUS
 10
-0.963976
 20
3.197598
  0
VERTEX
  8
PLAN_1
 62
     2
  6
CONTINUOUS
 10
-0.959575
 20
3.196402
  0
VERTEX
  8
PLAN_1
 62
     2
  6
CONTINUOUS
 10
-0.957579
 20
3.195602
  0
VERTEX
  8
PLAN_1
 62
     2
  6
CONTINUOUS
 10
-0.955579
 20
3.194799
  0
VERTEX
  8
PLAN_1
 62
     2
  6
CONTINUOUS
 10
-0.953980
 20
3.193602
  0
VERTEX
  8
PLAN_1
 62
     2
  6
CONTINUOUS
 10
-0.952378
 20
3.192402
  0
VERTEX
  8
PLAN_1
 62
     2
  6
CONTINUOUS
 10
-0.951181
 20
3.191201
  0
VERTEX
  8
PLAN_1
 62
     2
  6
CONTINUOUS
 10
-0.949980
 20
3.189602
  0
VERTEX
  8
PLAN_1
 62
     2
  6
CONTINUOUS
 10
-0.948780
 20
3.188004
  0
VERTEX
  8
PLAN_1
 62
     2
  6
CONTINUOUS
 10
-0.947980
 20
3.186406
  0
VERTEX
  8
PLAN_1
 62
     2
  6
CONTINUOUS
 10
-0.947181
 20
3.184803
  0
VERTEX
  8
PLAN_1
 62
     2
  6
CONTINUOUS
 10
-0.946780
 20
3.182807
  0
VERTEX
  8
PLAN_1
 62
     2
  6
CONTINUOUS
 10
-0.946780
 20
3.180807
  0
VERTEX
  8
PLAN_1
 62
     2
  6
CONTINUOUS
 10
-0.946382
 20
3.178807
  0
VERTEX
  8
PLAN_1
 62
     2
  6
CONTINUOUS
 10
-0.946780
 20
3.175606
  0
VERTEX
  8
PLAN_1
 62
     2
  6
CONTINUOUS
 10
-0.947583
 20
3.172807
  0
VERTEX
  8
PLAN_1
 62
     2
  6
CONTINUOUS
 10
-0.948382
 20
3.170008
  0
VERTEX
  8
PLAN_1
 62
     2
  6
CONTINUOUS
 10
-0.949579
 20
3.168012
  0
VERTEX
  8
PLAN_1
 62
     2
  6
CONTINUOUS
 10
-0.951181
 20
3.166409
  0
VERTEX
  8
PLAN_1
 62
     2
  6
CONTINUOUS
 10
-0.952780
 20
3.165213
  0
VERTEX
  8
PLAN_1
 62
     2
  6
CONTINUOUS
 10
-0.954378
 20
3.164409
  0
VERTEX
  8
PLAN_1
 62
     2
  6
CONTINUOUS
 10
-0.955976
 20
3.163610
  0
VERTEX
  8
PLAN_1
 62
     2
  6
CONTINUOUS
 10
-0.953177
 20
3.162413
  0
VERTEX
  8
PLAN_1
 62
     2
  6
CONTINUOUS
 10
-0.951181
 20
3.161213
  0
VERTEX
  8
PLAN_1
 62
     2
  6
CONTINUOUS
 10
-0.948780
 20
3.159614
  0
VERTEX
  8
PLAN_1
 62
     2
  6
CONTINUOUS
 10
-0.947181
 20
3.157614
  0
VERTEX
  8
PLAN_1
 62
     2
  6
CONTINUOUS
 10
-0.945583
 20
3.155614
  0
VERTEX
  8
PLAN_1
 62
     2
  6
CONTINUOUS
 10
-0.944783
 20
3.152815
  0
VERTEX
  8
PLAN_1
 62
     2
  6
CONTINUOUS
 10
-0.943980
 20
3.150016
  0
VERTEX
  8
PLAN_1
 62
     2
  6
CONTINUOUS
 10
-0.943583
 20
3.146417
  0
VERTEX
  8
PLAN_1
 62
     2
  6
CONTINUOUS
 10
-0.943980
 20
3.142020
  0
VERTEX
  8
PLAN_1
 62
     2
  6
CONTINUOUS
 10
-0.945181
 20
3.137622
  0
VERTEX
  8
PLAN_1
 62
     2
  6
CONTINUOUS
 10
-0.945980
 20
3.135622
  0
VERTEX
  8
PLAN_1
 62
     2
  6
CONTINUOUS
 10
-0.947181
 20
3.133622
  0
VERTEX
  8
PLAN_1
 62
     2
  6
CONTINUOUS
 10
-0.948382
 20
3.132024
  0
VERTEX
  8
PLAN_1
 62
     2
  6
CONTINUOUS
 10
-0.949980
 20
3.130024
  0
VERTEX
  8
PLAN_1
 62
     2
  6
CONTINUOUS
 10
-0.951579
 20
3.128425
  0
VERTEX
  8
PLAN_1
 62
     2
  6
CONTINUOUS
 10
-0.953579
 20
3.127224
  0
VERTEX
  8
PLAN_1
 62
     2
  6
CONTINUOUS
 10
-0.955579
 20
3.126024
  0
VERTEX
  8
PLAN_1
 62
     2
  6
CONTINUOUS
 10
-0.957976
 20
3.124823
  0
VERTEX
  8
PLAN_1
 62
     2
  6
CONTINUOUS
 10
-0.960776
 20
3.124024
  0
VERTEX
  8
PLAN_1
 62
     2
  6
CONTINUOUS
 10
-0.963575
 20
3.123224
  0
VERTEX
  8
PLAN_1
 62
     2
  6
CONTINUOUS
 10
-0.966776
 20
3.122827
  0
VERTEX
  8
PLAN_1
 62
     2
  6
CONTINUOUS
 10
-0.969972
 20
3.122827
  0
VERTEX
  8
PLAN_1
 62
     2
  6
CONTINUOUS
 10
-0.971972
 20
3.122827
  0
VERTEX
  8
PLAN_1
 62
     2
  6
CONTINUOUS
 10
-0.973972
 20
3.123224
  0
VERTEX
  8
PLAN_1
 62
     2
  6
CONTINUOUS
 10
-0.975571
 20
3.123224
  0
VERTEX
  8
PLAN_1
 62
     2
  6
CONTINUOUS
 10
-0.977571
 20
3.123626
  0
VERTEX
  8
PLAN_1
 62
     2
  6
CONTINUOUS
 10
-0.979169
 20
3.124425
  0
VERTEX
  8
PLAN_1
 62
     2
  6
CONTINUOUS
 10
-0.980768
 20
3.124823
  0
VERTEX
  8
PLAN_1
 62
     2
  6
CONTINUOUS
 10
-0.981969
 20
3.125626
  0
VERTEX
  8
PLAN_1
 62
     2
  6
CONTINUOUS
 10
-0.983567
 20
3.126024
  0
VERTEX
  8
PLAN_1
 62
     2
  6
CONTINUOUS
 10
-0.986366
 20
3.128024
  0
VERTEX
  8
PLAN_1
 62
     2
  6
CONTINUOUS
 10
-0.988768
 20
3.130024
  0
VERTEX
  8
PLAN_1
 62
     2
  6
CONTINUOUS
 10
-0.990366
 20
3.132421
  0
VERTEX
  8
PLAN_1
 62
     2
  6
CONTINUOUS
 10
-0.991965
 20
3.135220
  0
VERTEX
  8
PLAN_1
 62
     2
  6
CONTINUOUS
 10
-0.992764
 20
3.138020
  0
VERTEX
  8
PLAN_1
 62
     2
  6
CONTINUOUS
 10
-0.993567
 20
3.140819
  0
VERTEX
  8
PLAN_1
 62
     2
  6
CONTINUOUS
 10
-0.993965
 20
3.144020
  0
VERTEX
  8
PLAN_1
 62
     2
  6
CONTINUOUS
 10
-0.994366
 20
3.147217
  0
VERTEX
  8
PLAN_1
 62
     2
  6
CONTINUOUS
 10
-0.985169
 20
3.147217
  0
VERTEX
  8
PLAN_1
 62
     2
  6
CONTINUOUS
 10
-0.984768
 20
3.144417
  0
VERTEX
  8
PLAN_1
 62
     2
  6
CONTINUOUS
 10
-0.984370
 20
3.141618
  0
VERTEX
  8
PLAN_1
 62
     2
  6
CONTINUOUS
 10
-0.983567
 20
3.139220
  0
VERTEX
  8
PLAN_1
 62
     2
  6
CONTINUOUS
 10
-0.982370
 20
3.136421
  0
VERTEX
  8
PLAN_1
 62
     2
  6
CONTINUOUS
 10
-0.981169
 20
3.135622
  0
VERTEX
  8
PLAN_1
 62
     2
  6
CONTINUOUS
 10
-0.980370
 20
3.134421
  0
VERTEX
  8
PLAN_1
 62
     2
  6
CONTINUOUS
 10
-0.979169
 20
3.133622
  0
VERTEX
  8
PLAN_1
 62
     2
  6
CONTINUOUS
 10
-0.977571
 20
3.132823
  0
VERTEX
  8
PLAN_1
 62
     2
  6
CONTINUOUS
 10
-0.975972
 20
3.132024
  0
VERTEX
  8
PLAN_1
 62
     2
  6
CONTINUOUS
 10
-0.973972
 20
3.131622
  0
VERTEX
  8
PLAN_1
 62
     2
  6
CONTINUOUS
 10
-0.971972
 20
3.131224
  0
VERTEX
  8
PLAN_1
 62
     2
  6
CONTINUOUS
 10
-0.969575
 20
3.131224
  0
VERTEX
  8
PLAN_1
 62
     2
  6
CONTINUOUS
 10
-0.965976
 20
3.131224
  0
VERTEX
  8
PLAN_1
 62
     2
  6
CONTINUOUS
 10
-0.962776
 20
3.132024
  0
VERTEX
  8
PLAN_1
 62
     2
  6
CONTINUOUS
 10
-0.960378
 20
3.133220
  0
VERTEX
  8
PLAN_1
 62
     2
  6
CONTINUOUS
 10
-0.957976
 20
3.134823
  0
VERTEX
  8
PLAN_1
 62
     2
  6
CONTINUOUS
 10
-0.955976
 20
3.137220
  0
VERTEX
  8
PLAN_1
 62
     2
  6
CONTINUOUS
 10
-0.954780
 20
3.139618
  0
VERTEX
  8
PLAN_1
 62
     2
  6
CONTINUOUS
 10
-0.953980
 20
3.142417
  0
VERTEX
  8
PLAN_1
 62
     2
  6
CONTINUOUS
 10
-0.953579
 20
3.145217
  0
VERTEX
  8
PLAN_1
 62
     2
  6
CONTINUOUS
 10
-0.953579
 20
3.147618
  0
VERTEX
  8
PLAN_1
 62
     2
  6
CONTINUOUS
 10
-0.953980
 20
3.149217
  0
VERTEX
  8
PLAN_1
 62
     2
  6
CONTINUOUS
 10
-0.954378
 20
3.151217
  0
VERTEX
  8
PLAN_1
 62
     2
  6
CONTINUOUS
 10
-0.955177
 20
3.152417
  0
VERTEX
  8
PLAN_1
 62
     2
  6
CONTINUOUS
 10
-0.956378
 20
3.153614
  0
VERTEX
  8
PLAN_1
 62
     2
  6
CONTINUOUS
 10
-0.957177
 20
3.154815
  0
VERTEX
  8
PLAN_1
 62
     2
  6
CONTINUOUS
 10
-0.958378
 20
3.155614
  0
VERTEX
  8
PLAN_1
 62
     2
  6
CONTINUOUS
 10
-0.959575
 20
3.156413
  0
VERTEX
  8
PLAN_1
 62
     2
  6
CONTINUOUS
 10
-0.962374
 20
3.157614
  0
VERTEX
  8
PLAN_1
 62
     2
  6
CONTINUOUS
 10
-0.965173
 20
3.158413
  0
VERTEX
  8
PLAN_1
 62
     2
  6
CONTINUOUS
 10
-0.967972
 20
3.158413
  0
VERTEX
  8
PLAN_1
 62
     2
  6
CONTINUOUS
 10
-0.970374
 20
3.158815
  0
VERTEX
  8
PLAN_1
 62
     2
  6
CONTINUOUS
 10
-0.971173
 20
3.158815
  0
VERTEX
  8
PLAN_1
 62
     2
  6
CONTINUOUS
 10
-0.971571
 20
3.158815
  0
VERTEX
  8
PLAN_1
 62
     2
  6
CONTINUOUS
 10
-0.971972
 20
3.158815
  0
VERTEX
  8
PLAN_1
 62
     2
  6
CONTINUOUS
 10
-0.972772
 20
3.158815
  0
VERTEX
  8
PLAN_1
 62
     2
  6
CONTINUOUS
 10
-0.973173
 20
3.158413
  0
VERTEX
  8
PLAN_1
 62
     2
  6
CONTINUOUS
 10
-0.973571
 20
3.158413
  0
VERTEX
  8
PLAN_1
 62
     2
  6
CONTINUOUS
 10
-0.974370
 20
3.158413
  0
VERTEX
  8
PLAN_1
 62
     2
  6
CONTINUOUS
 10
-0.974772
 20
3.158413
  0
VERTEX
  8
PLAN_1
 62
     2
  6
CONTINUOUS
 10
-0.974772
 20
3.166409
  0
SEQEND
  8
0
  0
POLYLINE
  8
PLAN_1
 62
     2
  6
CONTINUOUS
 66
     1
 40
0.003996
 41
0.003996
  0
VERTEX
  8
PLAN_1
 62
     2
  6
CONTINUOUS
 10
-0.012295
 20
1.967614
  0
VERTEX
  8
PLAN_1
 62
     2
  6
CONTINUOUS
 10
-0.012295
 20
3.138421
  0
SEQEND
  8
0
  0
POLYLINE
  8
PLAN_1
 62
     2
  6
CONTINUOUS
 66
     1
 40
0.003996
 41
0.003996
  0
VERTEX
  8
PLAN_1
 62
     2
  6
CONTINUOUS
 10
-2.070803
 20
2.659382
  0
VERTEX
  8
PLAN_1
 62
     2
  6
CONTINUOUS
 10
-2.070803
 20
3.124823
  0
SEQEND
  8
0
  0
ENDSEC
  0
EOF
