  0
SECTION
  2
HEADER
  9
$ACADVER
  1
AC1006
  9
$EXTMIN
 10
-2.114791
 20
-3.387795
  9
$EXTMAX
 10
2.105000
 20
3.392000
  9
$LTSCALE
 40
0.000394
  9
$PDMODE
 70
    35
  9
$PDSIZE
 40
0.000315
  0
ENDSEC
  0
SECTION
  2
TABLES
  0
TABLE
  2
LTYPE
 70
     9
  0
LTYPE
  2
CONTINUOUS
 70
    64
  3
Solid line
 72
    65
 73
     0
 40
0.000000
  0
LTYPE
  2
DASHED
 70
    64
  3
__ __ __ __ __ __ __ __ __ __ __ __ __ __ __
 72
    65
 73
     2
 40
0.000003
 49
0.000002
 49
-0.000001
  0
LTYPE
  2
HIDDEN
 70
    64
  3
 _ _ _ _ _ _ _ _ _ _ _ _ _ _ _ _ _ _ _ _ _ _
 72
    65
 73
     2
 40
0.000001
 49
0.000001
 49
-0.000000
  0
LTYPE
  2
CENTER
 70
    64
  3
____ _ ____ _ ____ _ ____ _ ____ _ ____ _ ____
 72
    65
 73
     4
 40
0.000008
 49
0.000005
 49
-0.000001
 49
0.000001
 49
-0.000001
  0
LTYPE
  2
PHANTOM
 70
    64
  3
_____ _ _ _____ _ _ _____ _ _ _____ _ _ ____
 72
    65
 73
     6
 40
0.000010
 49
0.000005
 49
-0.000001
 49
0.000001
 49
-0.000001
 49
0.000001
 49
-0.000001
  0
LTYPE
  2
DOT
 70
    64
  3
...............................................
 72
    65
 73
     2
 40
0.000001
 49
0.000000
 49
-0.000001
  0
LTYPE
  2
DASHDOT
 70
    64
  3
__ . __ . __ . __ . __ . __ . __ . __ . __ . __
 72
    65
 73
     4
 40
0.000004
 49
0.000002
 49
-0.000001
 49
0.000000
 49
-0.000001
  0
LTYPE
  2
BORDER
 70
    64
  3
__ __ . __ __ . __ __ . __ __ . __ __ . __ __
 72
    65
 73
     6
 40
0.000007
 49
0.000002
 49
-0.000001
 49
0.000002
 49
-0.000001
 49
0.000000
 49
-0.000001
  0
LTYPE
  2
DIVIDE
 70
    64
  3
__ . . __ . . __ . . __ . . __ . . __ . . __
 72
    65
 73
     6
 40
0.000005
 49
0.000002
 49
-0.000001
 49
0.000000
 49
-0.000001
 49
0.000000
 49
-0.000001
  0
LTYPE
  2
DOTDOT
 70
    64
  3
 . .  . .  . .  . .  . .  . . 
 72
    65
 73
     5
 40
0.000002
 49
-0.000001
 49
0.000000
 49
-0.000001
 49
0.000000
 49
-0.000001
  0
ENDTAB
  0
TABLE
  2
STYLE
 70
     0
  0
ENDTAB
  0
TABLE
  2
LAYER
 70
     3
  0
LAYER
  2
FOREGROUND
 70
    64
 62
     7
  6
CONTINUOUS
  0
LAYER
  2
BACKGROUND
 70
    65
 62
    -7
  6
CONTINUOUS
  0
LAYER
  2
PLAN_1
 70
    64
 62
     7
  6
CONTINUOUS
  0
ENDTAB
  0
ENDSEC
  0
SECTION
  2
ENTITIES
  0
POLYLINE
  8
PLAN_1
  6
CONTINUOUS
 66
     1
 40
0.003000
 41
0.003000
  0
VERTEX
  8
PLAN_1
  6
CONTINUOUS
 10
0.316406
 20
-3.353051
  0
VERTEX
  8
PLAN_1
  6
CONTINUOUS
 10
0.159622
 20
-3.353051
  0
VERTEX
  8
PLAN_1
  6
CONTINUOUS
 10
0.159622
 20
-3.330594
  0
VERTEX
  8
PLAN_1
  6
CONTINUOUS
 10
0.282083
 20
-3.177622
  0
VERTEX
  8
PLAN_1
  6
CONTINUOUS
 10
0.168945
 20
-3.177622
  0
VERTEX
  8
PLAN_1
  6
CONTINUOUS
 10
0.168945
 20
-3.153894
  0
VERTEX
  8
PLAN_1
  6
CONTINUOUS
 10
0.316406
 20
-3.153894
  0
VERTEX
  8
PLAN_1
  6
CONTINUOUS
 10
0.316406
 20
-3.177201
  0
VERTEX
  8
PLAN_1
  6
CONTINUOUS
 10
0.193945
 20
-3.329323
  0
VERTEX
  8
PLAN_1
  6
CONTINUOUS
 10
0.316406
 20
-3.329323
  0
VERTEX
  8
PLAN_1
  6
CONTINUOUS
 10
0.316406
 20
-3.353051
  0
SEQEND
  8
0
  0
POLYLINE
  8
PLAN_1
  6
CONTINUOUS
 66
     1
 40
0.003000
 41
0.003000
  0
VERTEX
  8
PLAN_1
  6
CONTINUOUS
 10
0.484205
 20
-3.213642
  0
VERTEX
  8
PLAN_1
  6
CONTINUOUS
 10
0.482508
 20
-3.207709
  0
VERTEX
  8
PLAN_1
  6
CONTINUOUS
 10
0.480390
 20
-3.201776
  0
VERTEX
  8
PLAN_1
  6
CONTINUOUS
 10
0.477850
 20
-3.197114
  0
VERTEX
  8
PLAN_1
  6
CONTINUOUS
 10
0.474882
 20
-3.192453
  0
VERTEX
  8
PLAN_1
  6
CONTINUOUS
 10
0.471492
 20
-3.188642
  0
VERTEX
  8
PLAN_1
  6
CONTINUOUS
 10
0.468102
 20
-3.185252
  0
VERTEX
  8
PLAN_1
  6
CONTINUOUS
 10
0.464287
 20
-3.182283
  0
VERTEX
  8
PLAN_1
  6
CONTINUOUS
 10
0.460476
 20
-3.180165
  0
VERTEX
  8
PLAN_1
  6
CONTINUOUS
 10
0.456236
 20
-3.178047
  0
VERTEX
  8
PLAN_1
  6
CONTINUOUS
 10
0.452425
 20
-3.176350
  0
VERTEX
  8
PLAN_1
  6
CONTINUOUS
 10
0.448189
 20
-3.175083
  0
VERTEX
  8
PLAN_1
  6
CONTINUOUS
 10
0.443949
 20
-3.173811
  0
VERTEX
  8
PLAN_1
  6
CONTINUOUS
 10
0.435898
 20
-3.172539
  0
VERTEX
  8
PLAN_1
  6
CONTINUOUS
 10
0.428272
 20
-3.172539
  0
VERTEX
  8
PLAN_1
  6
CONTINUOUS
 10
0.421492
 20
-3.172539
  0
VERTEX
  8
PLAN_1
  6
CONTINUOUS
 10
0.415134
 20
-3.173811
  0
VERTEX
  8
PLAN_1
  6
CONTINUOUS
 10
0.408780
 20
-3.175083
  0
VERTEX
  8
PLAN_1
  6
CONTINUOUS
 10
0.402846
 20
-3.177201
  0
VERTEX
  8
PLAN_1
  6
CONTINUOUS
 10
0.396913
 20
-3.180165
  0
VERTEX
  8
PLAN_1
  6
CONTINUOUS
 10
0.391831
 20
-3.183555
  0
VERTEX
  8
PLAN_1
  6
CONTINUOUS
 10
0.386744
 20
-3.187791
  0
VERTEX
  8
PLAN_1
  6
CONTINUOUS
 10
0.382083
 20
-3.192453
  0
VERTEX
  8
PLAN_1
  6
CONTINUOUS
 10
0.377846
 20
-3.197539
  0
VERTEX
  8
PLAN_1
  6
CONTINUOUS
 10
0.374031
 20
-3.203472
  0
VERTEX
  8
PLAN_1
  6
CONTINUOUS
 10
0.370642
 20
-3.209827
  0
VERTEX
  8
PLAN_1
  6
CONTINUOUS
 10
0.368102
 20
-3.217031
  0
VERTEX
  8
PLAN_1
  6
CONTINUOUS
 10
0.365980
 20
-3.224657
  0
VERTEX
  8
PLAN_1
  6
CONTINUOUS
 10
0.364287
 20
-3.233134
  0
VERTEX
  8
PLAN_1
  6
CONTINUOUS
 10
0.363441
 20
-3.242031
  0
VERTEX
  8
PLAN_1
  6
CONTINUOUS
 10
0.363016
 20
-3.251354
  0
VERTEX
  8
PLAN_1
  6
CONTINUOUS
 10
0.363016
 20
-3.260252
  0
VERTEX
  8
PLAN_1
  6
CONTINUOUS
 10
0.363862
 20
-3.268728
  0
VERTEX
  8
PLAN_1
  6
CONTINUOUS
 10
0.364713
 20
-3.276780
  0
VERTEX
  8
PLAN_1
  6
CONTINUOUS
 10
0.366406
 20
-3.284406
  0
VERTEX
  8
PLAN_1
  6
CONTINUOUS
 10
0.368524
 20
-3.291610
  0
VERTEX
  8
PLAN_1
  6
CONTINUOUS
 10
0.371067
 20
-3.298390
  0
VERTEX
  8
PLAN_1
  6
CONTINUOUS
 10
0.374031
 20
-3.304744
  0
VERTEX
  8
PLAN_1
  6
CONTINUOUS
 10
0.377421
 20
-3.310677
  0
VERTEX
  8
PLAN_1
  6
CONTINUOUS
 10
0.379543
 20
-3.313220
  0
VERTEX
  8
PLAN_1
  6
CONTINUOUS
 10
0.381661
 20
-3.315764
  0
VERTEX
  8
PLAN_1
  6
CONTINUOUS
 10
0.383780
 20
-3.318303
  0
VERTEX
  8
PLAN_1
  6
CONTINUOUS
 10
0.386323
 20
-3.320421
  0
VERTEX
  8
PLAN_1
  6
CONTINUOUS
 10
0.388862
 20
-3.322543
  0
VERTEX
  8
PLAN_1
  6
CONTINUOUS
 10
0.391831
 20
-3.324661
  0
VERTEX
  8
PLAN_1
  6
CONTINUOUS
 10
0.394795
 20
-3.326354
  0
VERTEX
  8
PLAN_1
  6
CONTINUOUS
 10
0.397764
 20
-3.328051
  0
VERTEX
  8
PLAN_1
  6
CONTINUOUS
 10
0.401154
 20
-3.329744
  0
VERTEX
  8
PLAN_1
  6
CONTINUOUS
 10
0.404543
 20
-3.331016
  0
VERTEX
  8
PLAN_1
  6
CONTINUOUS
 10
0.408354
 20
-3.331862
  0
VERTEX
  8
PLAN_1
  6
CONTINUOUS
 10
0.412169
 20
-3.332713
  0
VERTEX
  8
PLAN_1
  6
CONTINUOUS
 10
0.415984
 20
-3.333559
  0
VERTEX
  8
PLAN_1
  6
CONTINUOUS
 10
0.420220
 20
-3.333984
  0
VERTEX
  8
PLAN_1
  6
CONTINUOUS
 10
0.424457
 20
-3.334406
  0
VERTEX
  8
PLAN_1
  6
CONTINUOUS
 10
0.429118
 20
-3.334406
  0
VERTEX
  8
PLAN_1
  6
CONTINUOUS
 10
0.432508
 20
-3.334406
  0
VERTEX
  8
PLAN_1
  6
CONTINUOUS
 10
0.436323
 20
-3.333984
  0
VERTEX
  8
PLAN_1
  6
CONTINUOUS
 10
0.440138
 20
-3.333559
  0
VERTEX
  8
PLAN_1
  6
CONTINUOUS
 10
0.443949
 20
-3.332287
  0
VERTEX
  8
PLAN_1
  6
CONTINUOUS
 10
0.448189
 20
-3.331016
  0
VERTEX
  8
PLAN_1
  6
CONTINUOUS
 10
0.452425
 20
-3.329323
  0
VERTEX
  8
PLAN_1
  6
CONTINUOUS
 10
0.456661
 20
-3.327201
  0
VERTEX
  8
PLAN_1
  6
CONTINUOUS
 10
0.460476
 20
-3.324661
  0
VERTEX
  8
PLAN_1
  6
CONTINUOUS
 10
0.464713
 20
-3.321272
  0
VERTEX
  8
PLAN_1
  6
CONTINUOUS
 10
0.468528
 20
-3.317457
  0
VERTEX
  8
PLAN_1
  6
CONTINUOUS
 10
0.472339
 20
-3.313220
  0
VERTEX
  8
PLAN_1
  6
CONTINUOUS
 10
0.475728
 20
-3.308134
  0
VERTEX
  8
PLAN_1
  6
CONTINUOUS
 10
0.478697
 20
-3.302201
  0
VERTEX
  8
PLAN_1
  6
CONTINUOUS
 10
0.481661
 20
-3.295421
  0
VERTEX
  8
PLAN_1
  6
CONTINUOUS
 10
0.484205
 20
-3.288220
  0
VERTEX
  8
PLAN_1
  6
CONTINUOUS
 10
0.485902
 20
-3.279744
  0
VERTEX
  8
PLAN_1
  6
CONTINUOUS
 10
0.512173
 20
-3.279744
  0
VERTEX
  8
PLAN_1
  6
CONTINUOUS
 10
0.510902
 20
-3.286524
  0
VERTEX
  8
PLAN_1
  6
CONTINUOUS
 10
0.509205
 20
-3.293303
  0
VERTEX
  8
PLAN_1
  6
CONTINUOUS
 10
0.507512
 20
-3.299236
  0
VERTEX
  8
PLAN_1
  6
CONTINUOUS
 10
0.505815
 20
-3.304744
  0
VERTEX
  8
PLAN_1
  6
CONTINUOUS
 10
0.503697
 20
-3.310252
  0
VERTEX
  8
PLAN_1
  6
CONTINUOUS
 10
0.501154
 20
-3.314913
  0
VERTEX
  8
PLAN_1
  6
CONTINUOUS
 10
0.498610
 20
-3.319575
  0
VERTEX
  8
PLAN_1
  6
CONTINUOUS
 10
0.496071
 20
-3.323811
  0
VERTEX
  8
PLAN_1
  6
CONTINUOUS
 10
0.493102
 20
-3.327626
  0
VERTEX
  8
PLAN_1
  6
CONTINUOUS
 10
0.490138
 20
-3.331441
  0
VERTEX
  8
PLAN_1
  6
CONTINUOUS
 10
0.486748
 20
-3.334831
  0
VERTEX
  8
PLAN_1
  6
CONTINUOUS
 10
0.483358
 20
-3.337795
  0
VERTEX
  8
PLAN_1
  6
CONTINUOUS
 10
0.480390
 20
-3.340339
  0
VERTEX
  8
PLAN_1
  6
CONTINUOUS
 10
0.477000
 20
-3.342882
  0
VERTEX
  8
PLAN_1
  6
CONTINUOUS
 10
0.473189
 20
-3.345425
  0
VERTEX
  8
PLAN_1
  6
CONTINUOUS
 10
0.469799
 20
-3.347118
  0
VERTEX
  8
PLAN_1
  6
CONTINUOUS
 10
0.463020
 20
-3.350933
  0
VERTEX
  8
PLAN_1
  6
CONTINUOUS
 10
0.456236
 20
-3.353476
  0
VERTEX
  8
PLAN_1
  6
CONTINUOUS
 10
0.449457
 20
-3.355169
  0
VERTEX
  8
PLAN_1
  6
CONTINUOUS
 10
0.443102
 20
-3.356866
  0
VERTEX
  8
PLAN_1
  6
CONTINUOUS
 10
0.432508
 20
-3.358134
  0
VERTEX
  8
PLAN_1
  6
CONTINUOUS
 10
0.424882
 20
-3.358559
  0
VERTEX
  8
PLAN_1
  6
CONTINUOUS
 10
0.416406
 20
-3.358134
  0
VERTEX
  8
PLAN_1
  6
CONTINUOUS
 10
0.407933
 20
-3.356866
  0
VERTEX
  8
PLAN_1
  6
CONTINUOUS
 10
0.399882
 20
-3.355169
  0
VERTEX
  8
PLAN_1
  6
CONTINUOUS
 10
0.391831
 20
-3.352626
  0
VERTEX
  8
PLAN_1
  6
CONTINUOUS
 10
0.388016
 20
-3.350933
  0
VERTEX
  8
PLAN_1
  6
CONTINUOUS
 10
0.384201
 20
-3.349236
  0
VERTEX
  8
PLAN_1
  6
CONTINUOUS
 10
0.380390
 20
-3.347118
  0
VERTEX
  8
PLAN_1
  6
CONTINUOUS
 10
0.376575
 20
-3.345000
  0
VERTEX
  8
PLAN_1
  6
CONTINUOUS
 10
0.373185
 20
-3.342457
  0
VERTEX
  8
PLAN_1
  6
CONTINUOUS
 10
0.369795
 20
-3.339913
  0
VERTEX
  8
PLAN_1
  6
CONTINUOUS
 10
0.366406
 20
-3.336949
  0
VERTEX
  8
PLAN_1
  6
CONTINUOUS
 10
0.363016
 20
-3.333984
  0
VERTEX
  8
PLAN_1
  6
CONTINUOUS
 10
0.360051
 20
-3.331016
  0
VERTEX
  8
PLAN_1
  6
CONTINUOUS
 10
0.357083
 20
-3.327201
  0
VERTEX
  8
PLAN_1
  6
CONTINUOUS
 10
0.354118
 20
-3.323390
  0
VERTEX
  8
PLAN_1
  6
CONTINUOUS
 10
0.351575
 20
-3.319575
  0
VERTEX
  8
PLAN_1
  6
CONTINUOUS
 10
0.349031
 20
-3.315339
  0
VERTEX
  8
PLAN_1
  6
CONTINUOUS
 10
0.346913
 20
-3.311102
  0
VERTEX
  8
PLAN_1
  6
CONTINUOUS
 10
0.344795
 20
-3.306016
  0
VERTEX
  8
PLAN_1
  6
CONTINUOUS
 10
0.342677
 20
-3.301354
  0
VERTEX
  8
PLAN_1
  6
CONTINUOUS
 10
0.340980
 20
-3.295846
  0
VERTEX
  8
PLAN_1
  6
CONTINUOUS
 10
0.339709
 20
-3.290760
  0
VERTEX
  8
PLAN_1
  6
CONTINUOUS
 10
0.338441
 20
-3.284831
  0
VERTEX
  8
PLAN_1
  6
CONTINUOUS
 10
0.337169
 20
-3.278898
  0
VERTEX
  8
PLAN_1
  6
CONTINUOUS
 10
0.336319
 20
-3.272539
  0
VERTEX
  8
PLAN_1
  6
CONTINUOUS
 10
0.335898
 20
-3.266185
  0
VERTEX
  8
PLAN_1
  6
CONTINUOUS
 10
0.335472
 20
-3.259406
  0
VERTEX
  8
PLAN_1
  6
CONTINUOUS
 10
0.335047
 20
-3.252201
  0
VERTEX
  8
PLAN_1
  6
CONTINUOUS
 10
0.335472
 20
-3.241185
  0
VERTEX
  8
PLAN_1
  6
CONTINUOUS
 10
0.336744
 20
-3.230165
  0
VERTEX
  8
PLAN_1
  6
CONTINUOUS
 10
0.337591
 20
-3.225083
  0
VERTEX
  8
PLAN_1
  6
CONTINUOUS
 10
0.338862
 20
-3.219996
  0
VERTEX
  8
PLAN_1
  6
CONTINUOUS
 10
0.340134
 20
-3.214913
  0
VERTEX
  8
PLAN_1
  6
CONTINUOUS
 10
0.341406
 20
-3.210252
  0
VERTEX
  8
PLAN_1
  6
CONTINUOUS
 10
0.343098
 20
-3.205591
  0
VERTEX
  8
PLAN_1
  6
CONTINUOUS
 10
0.345220
 20
-3.200929
  0
VERTEX
  8
PLAN_1
  6
CONTINUOUS
 10
0.347339
 20
-3.196693
  0
VERTEX
  8
PLAN_1
  6
CONTINUOUS
 10
0.349457
 20
-3.192453
  0
VERTEX
  8
PLAN_1
  6
CONTINUOUS
 10
0.351575
 20
-3.188642
  0
VERTEX
  8
PLAN_1
  6
CONTINUOUS
 10
0.354118
 20
-3.184827
  0
VERTEX
  8
PLAN_1
  6
CONTINUOUS
 10
0.357083
 20
-3.181012
  0
VERTEX
  8
PLAN_1
  6
CONTINUOUS
 10
0.360051
 20
-3.177622
  0
VERTEX
  8
PLAN_1
  6
CONTINUOUS
 10
0.363016
 20
-3.174232
  0
VERTEX
  8
PLAN_1
  6
CONTINUOUS
 10
0.366406
 20
-3.170843
  0
VERTEX
  8
PLAN_1
  6
CONTINUOUS
 10
0.369795
 20
-3.167878
  0
VERTEX
  8
PLAN_1
  6
CONTINUOUS
 10
0.373185
 20
-3.165335
  0
VERTEX
  8
PLAN_1
  6
CONTINUOUS
 10
0.377000
 20
-3.162791
  0
VERTEX
  8
PLAN_1
  6
CONTINUOUS
 10
0.380811
 20
-3.160252
  0
VERTEX
  8
PLAN_1
  6
CONTINUOUS
 10
0.385051
 20
-3.158130
  0
VERTEX
  8
PLAN_1
  6
CONTINUOUS
 10
0.389287
 20
-3.156012
  0
VERTEX
  8
PLAN_1
  6
CONTINUOUS
 10
0.393524
 20
-3.154319
  0
VERTEX
  8
PLAN_1
  6
CONTINUOUS
 10
0.398185
 20
-3.153047
  0
VERTEX
  8
PLAN_1
  6
CONTINUOUS
 10
0.402846
 20
-3.151350
  0
VERTEX
  8
PLAN_1
  6
CONTINUOUS
 10
0.407508
 20
-3.150504
  0
VERTEX
  8
PLAN_1
  6
CONTINUOUS
 10
0.412594
 20
-3.149657
  0
VERTEX
  8
PLAN_1
  6
CONTINUOUS
 10
0.417677
 20
-3.149232
  0
VERTEX
  8
PLAN_1
  6
CONTINUOUS
 10
0.422764
 20
-3.148811
  0
VERTEX
  8
PLAN_1
  6
CONTINUOUS
 10
0.428272
 20
-3.148386
  0
VERTEX
  8
PLAN_1
  6
CONTINUOUS
 10
0.437594
 20
-3.148811
  0
VERTEX
  8
PLAN_1
  6
CONTINUOUS
 10
0.446492
 20
-3.150079
  0
VERTEX
  8
PLAN_1
  6
CONTINUOUS
 10
0.454543
 20
-3.151776
  0
VERTEX
  8
PLAN_1
  6
CONTINUOUS
 10
0.462169
 20
-3.153894
  0
VERTEX
  8
PLAN_1
  6
CONTINUOUS
 10
0.469374
 20
-3.156862
  0
VERTEX
  8
PLAN_1
  6
CONTINUOUS
 10
0.475728
 20
-3.160252
  0
VERTEX
  8
PLAN_1
  6
CONTINUOUS
 10
0.481661
 20
-3.164488
  0
VERTEX
  8
PLAN_1
  6
CONTINUOUS
 10
0.487169
 20
-3.168724
  0
VERTEX
  8
PLAN_1
  6
CONTINUOUS
 10
0.491831
 20
-3.173386
  0
VERTEX
  8
PLAN_1
  6
CONTINUOUS
 10
0.496071
 20
-3.178472
  0
VERTEX
  8
PLAN_1
  6
CONTINUOUS
 10
0.499882
 20
-3.183980
  0
VERTEX
  8
PLAN_1
  6
CONTINUOUS
 10
0.502850
 20
-3.189488
  0
VERTEX
  8
PLAN_1
  6
CONTINUOUS
 10
0.505390
 20
-3.195421
  0
VERTEX
  8
PLAN_1
  6
CONTINUOUS
 10
0.507512
 20
-3.201354
  0
VERTEX
  8
PLAN_1
  6
CONTINUOUS
 10
0.509205
 20
-3.207709
  0
VERTEX
  8
PLAN_1
  6
CONTINUOUS
 10
0.510051
 20
-3.213642
  0
VERTEX
  8
PLAN_1
  6
CONTINUOUS
 10
0.484205
 20
-3.213642
  0
SEQEND
  8
0
  0
POLYLINE
  8
PLAN_1
  6
CONTINUOUS
 66
     1
 40
0.003000
 41
0.003000
  0
VERTEX
  8
PLAN_1
  6
CONTINUOUS
 10
0.571496
 20
-3.353051
  0
VERTEX
  8
PLAN_1
  6
CONTINUOUS
 10
0.544799
 20
-3.353051
  0
VERTEX
  8
PLAN_1
  6
CONTINUOUS
 10
0.544799
 20
-3.153894
  0
VERTEX
  8
PLAN_1
  6
CONTINUOUS
 10
0.571496
 20
-3.153894
  0
VERTEX
  8
PLAN_1
  6
CONTINUOUS
 10
0.571496
 20
-3.250508
  0
VERTEX
  8
PLAN_1
  6
CONTINUOUS
 10
0.668106
 20
-3.153894
  0
VERTEX
  8
PLAN_1
  6
CONTINUOUS
 10
0.705394
 20
-3.153894
  0
VERTEX
  8
PLAN_1
  6
CONTINUOUS
 10
0.622343
 20
-3.234406
  0
VERTEX
  8
PLAN_1
  6
CONTINUOUS
 10
0.707516
 20
-3.353051
  0
VERTEX
  8
PLAN_1
  6
CONTINUOUS
 10
0.672768
 20
-3.353051
  0
VERTEX
  8
PLAN_1
  6
CONTINUOUS
 10
0.602850
 20
-3.253047
  0
VERTEX
  8
PLAN_1
  6
CONTINUOUS
 10
0.571496
 20
-3.283134
  0
VERTEX
  8
PLAN_1
  6
CONTINUOUS
 10
0.571496
 20
-3.353051
  0
SEQEND
  8
0
  0
POLYLINE
  8
PLAN_1
  6
CONTINUOUS
 66
     1
 40
0.003000
 41
0.003000
  0
VERTEX
  8
PLAN_1
  6
CONTINUOUS
 10
0.879976
 20
-3.353051
  0
VERTEX
  8
PLAN_1
  6
CONTINUOUS
 10
0.732516
 20
-3.353051
  0
VERTEX
  8
PLAN_1
  6
CONTINUOUS
 10
0.732516
 20
-3.153894
  0
VERTEX
  8
PLAN_1
  6
CONTINUOUS
 10
0.877858
 20
-3.153894
  0
VERTEX
  8
PLAN_1
  6
CONTINUOUS
 10
0.877858
 20
-3.177622
  0
VERTEX
  8
PLAN_1
  6
CONTINUOUS
 10
0.759634
 20
-3.177622
  0
VERTEX
  8
PLAN_1
  6
CONTINUOUS
 10
0.759634
 20
-3.238642
  0
VERTEX
  8
PLAN_1
  6
CONTINUOUS
 10
0.868535
 20
-3.238642
  0
VERTEX
  8
PLAN_1
  6
CONTINUOUS
 10
0.868535
 20
-3.262795
  0
VERTEX
  8
PLAN_1
  6
CONTINUOUS
 10
0.759634
 20
-3.262795
  0
VERTEX
  8
PLAN_1
  6
CONTINUOUS
 10
0.759634
 20
-3.329323
  0
VERTEX
  8
PLAN_1
  6
CONTINUOUS
 10
0.879976
 20
-3.329323
  0
VERTEX
  8
PLAN_1
  6
CONTINUOUS
 10
0.879976
 20
-3.353051
  0
SEQEND
  8
0
  0
POLYLINE
  8
PLAN_1
  6
CONTINUOUS
 66
     1
 40
0.003000
 41
0.003000
  0
VERTEX
  8
PLAN_1
  6
CONTINUOUS
 10
1.009638
 20
-3.209827
  0
VERTEX
  8
PLAN_1
  6
CONTINUOUS
 10
1.008366
 20
-3.203472
  0
VERTEX
  8
PLAN_1
  6
CONTINUOUS
 10
1.006248
 20
-3.197965
  0
VERTEX
  8
PLAN_1
  6
CONTINUOUS
 10
1.004976
 20
-3.195421
  0
VERTEX
  8
PLAN_1
  6
CONTINUOUS
 10
1.003283
 20
-3.192878
  0
VERTEX
  8
PLAN_1
  6
CONTINUOUS
 10
1.001587
 20
-3.190335
  0
VERTEX
  8
PLAN_1
  6
CONTINUOUS
 10
0.999894
 20
-3.188642
  0
VERTEX
  8
PLAN_1
  6
CONTINUOUS
 10
0.997776
 20
-3.186524
  0
VERTEX
  8
PLAN_1
  6
CONTINUOUS
 10
0.995232
 20
-3.184827
  0
VERTEX
  8
PLAN_1
  6
CONTINUOUS
 10
0.992689
 20
-3.183555
  0
VERTEX
  8
PLAN_1
  6
CONTINUOUS
 10
0.989724
 20
-3.182283
  0
VERTEX
  8
PLAN_1
  6
CONTINUOUS
 10
0.986756
 20
-3.181012
  0
VERTEX
  8
PLAN_1
  6
CONTINUOUS
 10
0.983366
 20
-3.180591
  0
VERTEX
  8
PLAN_1
  6
CONTINUOUS
 10
0.979976
 20
-3.180165
  0
VERTEX
  8
PLAN_1
  6
CONTINUOUS
 10
0.976165
 20
-3.179744
  0
VERTEX
  8
PLAN_1
  6
CONTINUOUS
 10
0.972776
 20
-3.180165
  0
VERTEX
  8
PLAN_1
  6
CONTINUOUS
 10
0.969386
 20
-3.180591
  0
VERTEX
  8
PLAN_1
  6
CONTINUOUS
 10
0.965992
 20
-3.181012
  0
VERTEX
  8
PLAN_1
  6
CONTINUOUS
 10
0.963028
 20
-3.182283
  0
VERTEX
  8
PLAN_1
  6
CONTINUOUS
 10
0.960484
 20
-3.183555
  0
VERTEX
  8
PLAN_1
  6
CONTINUOUS
 10
0.957520
 20
-3.184827
  0
VERTEX
  8
PLAN_1
  6
CONTINUOUS
 10
0.954976
 20
-3.186524
  0
VERTEX
  8
PLAN_1
  6
CONTINUOUS
 10
0.952858
 20
-3.188217
  0
VERTEX
  8
PLAN_1
  6
CONTINUOUS
 10
0.948622
 20
-3.192453
  0
VERTEX
  8
PLAN_1
  6
CONTINUOUS
 10
0.944807
 20
-3.197114
  0
VERTEX
  8
PLAN_1
  6
CONTINUOUS
 10
0.941417
 20
-3.202622
  0
VERTEX
  8
PLAN_1
  6
CONTINUOUS
 10
0.938453
 20
-3.208134
  0
VERTEX
  8
PLAN_1
  6
CONTINUOUS
 10
0.936331
 20
-3.214063
  0
VERTEX
  8
PLAN_1
  6
CONTINUOUS
 10
0.934213
 20
-3.220421
  0
VERTEX
  8
PLAN_1
  6
CONTINUOUS
 10
0.932941
 20
-3.226354
  0
VERTEX
  8
PLAN_1
  6
CONTINUOUS
 10
0.931673
 20
-3.232287
  0
VERTEX
  8
PLAN_1
  6
CONTINUOUS
 10
0.930402
 20
-3.242878
  0
VERTEX
  8
PLAN_1
  6
CONTINUOUS
 10
0.929976
 20
-3.252201
  0
VERTEX
  8
PLAN_1
  6
CONTINUOUS
 10
0.930402
 20
-3.252626
  0
VERTEX
  8
PLAN_1
  6
CONTINUOUS
 10
0.932941
 20
-3.248386
  0
VERTEX
  8
PLAN_1
  6
CONTINUOUS
 10
0.936331
 20
-3.244575
  0
VERTEX
  8
PLAN_1
  6
CONTINUOUS
 10
0.940571
 20
-3.240335
  0
VERTEX
  8
PLAN_1
  6
CONTINUOUS
 10
0.945654
 20
-3.236524
  0
VERTEX
  8
PLAN_1
  6
CONTINUOUS
 10
0.948622
 20
-3.235252
  0
VERTEX
  8
PLAN_1
  6
CONTINUOUS
 10
0.952012
 20
-3.233555
  0
VERTEX
  8
PLAN_1
  6
CONTINUOUS
 10
0.955402
 20
-3.232287
  0
VERTEX
  8
PLAN_1
  6
CONTINUOUS
 10
0.959213
 20
-3.231016
  0
VERTEX
  8
PLAN_1
  6
CONTINUOUS
 10
0.963028
 20
-3.230165
  0
VERTEX
  8
PLAN_1
  6
CONTINUOUS
 10
0.967264
 20
-3.229319
  0
VERTEX
  8
PLAN_1
  6
CONTINUOUS
 10
0.971925
 20
-3.228898
  0
VERTEX
  8
PLAN_1
  6
CONTINUOUS
 10
0.976587
 20
-3.228898
  0
VERTEX
  8
PLAN_1
  6
CONTINUOUS
 10
0.981248
 20
-3.228898
  0
VERTEX
  8
PLAN_1
  6
CONTINUOUS
 10
0.986335
 20
-3.229319
  0
VERTEX
  8
PLAN_1
  6
CONTINUOUS
 10
0.991417
 20
-3.230591
  0
VERTEX
  8
PLAN_1
  6
CONTINUOUS
 10
0.996504
 20
-3.231862
  0
VERTEX
  8
PLAN_1
  6
CONTINUOUS
 10
1.001587
 20
-3.233555
  0
VERTEX
  8
PLAN_1
  6
CONTINUOUS
 10
1.006673
 20
-3.236098
  0
VERTEX
  8
PLAN_1
  6
CONTINUOUS
 10
1.011335
 20
-3.239067
  0
VERTEX
  8
PLAN_1
  6
CONTINUOUS
 10
1.016417
 20
-3.242031
  0
VERTEX
  8
PLAN_1
  6
CONTINUOUS
 10
1.020657
 20
-3.246268
  0
VERTEX
  8
PLAN_1
  6
CONTINUOUS
 10
1.024894
 20
-3.250508
  0
VERTEX
  8
PLAN_1
  6
CONTINUOUS
 10
1.028283
 20
-3.255591
  0
VERTEX
  8
PLAN_1
  6
CONTINUOUS
 10
1.031673
 20
-3.261098
  0
VERTEX
  8
PLAN_1
  6
CONTINUOUS
 10
1.034217
 20
-3.267457
  0
VERTEX
  8
PLAN_1
  6
CONTINUOUS
 10
1.036335
 20
-3.274657
  0
VERTEX
  8
PLAN_1
  6
CONTINUOUS
 10
1.036760
 20
-3.278472
  0
VERTEX
  8
PLAN_1
  6
CONTINUOUS
 10
1.037606
 20
-3.282287
  0
VERTEX
  8
PLAN_1
  6
CONTINUOUS
 10
1.037606
 20
-3.286524
  0
VERTEX
  8
PLAN_1
  6
CONTINUOUS
 10
1.038028
 20
-3.290760
  0
VERTEX
  8
PLAN_1
  6
CONTINUOUS
 10
1.037606
 20
-3.297965
  0
VERTEX
  8
PLAN_1
  6
CONTINUOUS
 10
1.036760
 20
-3.304744
  0
VERTEX
  8
PLAN_1
  6
CONTINUOUS
 10
1.035488
 20
-3.311102
  0
VERTEX
  8
PLAN_1
  6
CONTINUOUS
 10
1.033370
 20
-3.317031
  0
VERTEX
  8
PLAN_1
  6
CONTINUOUS
 10
1.030827
 20
-3.322965
  0
VERTEX
  8
PLAN_1
  6
CONTINUOUS
 10
1.027858
 20
-3.328472
  0
VERTEX
  8
PLAN_1
  6
CONTINUOUS
 10
1.024047
 20
-3.333984
  0
VERTEX
  8
PLAN_1
  6
CONTINUOUS
 10
1.019386
 20
-3.339492
  0
VERTEX
  8
PLAN_1
  6
CONTINUOUS
 10
1.015146
 20
-3.343728
  0
VERTEX
  8
PLAN_1
  6
CONTINUOUS
 10
1.010909
 20
-3.347118
  0
VERTEX
  8
PLAN_1
  6
CONTINUOUS
 10
1.006248
 20
-3.350508
  0
VERTEX
  8
PLAN_1
  6
CONTINUOUS
 10
1.001165
 20
-3.353051
  0
VERTEX
  8
PLAN_1
  6
CONTINUOUS
 10
0.994807
 20
-3.355594
  0
VERTEX
  8
PLAN_1
  6
CONTINUOUS
 10
0.987606
 20
-3.356866
  0
VERTEX
  8
PLAN_1
  6
CONTINUOUS
 10
0.979555
 20
-3.358134
  0
VERTEX
  8
PLAN_1
  6
CONTINUOUS
 10
0.969807
 20
-3.358559
  0
VERTEX
  8
PLAN_1
  6
CONTINUOUS
 10
0.963874
 20
-3.358134
  0
VERTEX
  8
PLAN_1
  6
CONTINUOUS
 10
0.957520
 20
-3.356866
  0
VERTEX
  8
PLAN_1
  6
CONTINUOUS
 10
0.951161
 20
-3.355169
  0
VERTEX
  8
PLAN_1
  6
CONTINUOUS
 10
0.944382
 20
-3.352205
  0
VERTEX
  8
PLAN_1
  6
CONTINUOUS
 10
0.940992
 20
-3.350508
  0
VERTEX
  8
PLAN_1
  6
CONTINUOUS
 10
0.937602
 20
-3.348390
  0
VERTEX
  8
PLAN_1
  6
CONTINUOUS
 10
0.934213
 20
-3.346272
  0
VERTEX
  8
PLAN_1
  6
CONTINUOUS
 10
0.931248
 20
-3.343728
  0
VERTEX
  8
PLAN_1
  6
CONTINUOUS
 10
0.927858
 20
-3.340764
  0
VERTEX
  8
PLAN_1
  6
CONTINUOUS
 10
0.924890
 20
-3.337374
  0
VERTEX
  8
PLAN_1
  6
CONTINUOUS
 10
0.922350
 20
-3.333984
  0
VERTEX
  8
PLAN_1
  6
CONTINUOUS
 10
0.919382
 20
-3.330169
  0
VERTEX
  8
PLAN_1
  6
CONTINUOUS
 10
0.917264
 20
-3.326780
  0
VERTEX
  8
PLAN_1
  6
CONTINUOUS
 10
0.915571
 20
-3.322965
  0
VERTEX
  8
PLAN_1
  6
CONTINUOUS
 10
0.913874
 20
-3.319154
  0
VERTEX
  8
PLAN_1
  6
CONTINUOUS
 10
0.912181
 20
-3.315339
  0
VERTEX
  8
PLAN_1
  6
CONTINUOUS
 10
0.909638
 20
-3.307287
  0
VERTEX
  8
PLAN_1
  6
CONTINUOUS
 10
0.907520
 20
-3.298811
  0
VERTEX
  8
PLAN_1
  6
CONTINUOUS
 10
0.906248
 20
-3.290339
  0
VERTEX
  8
PLAN_1
  6
CONTINUOUS
 10
0.905402
 20
-3.281016
  0
VERTEX
  8
PLAN_1
  6
CONTINUOUS
 10
0.904551
 20
-3.271693
  0
VERTEX
  8
PLAN_1
  6
CONTINUOUS
 10
0.904551
 20
-3.262370
  0
VERTEX
  8
PLAN_1
  6
CONTINUOUS
 10
0.904551
 20
-3.254319
  0
VERTEX
  8
PLAN_1
  6
CONTINUOUS
 10
0.905402
 20
-3.245421
  0
VERTEX
  8
PLAN_1
  6
CONTINUOUS
 10
0.906248
 20
-3.236945
  0
VERTEX
  8
PLAN_1
  6
CONTINUOUS
 10
0.907520
 20
-3.228047
  0
VERTEX
  8
PLAN_1
  6
CONTINUOUS
 10
0.909638
 20
-3.219150
  0
VERTEX
  8
PLAN_1
  6
CONTINUOUS
 10
0.912181
 20
-3.210673
  0
VERTEX
  8
PLAN_1
  6
CONTINUOUS
 10
0.915146
 20
-3.202201
  0
VERTEX
  8
PLAN_1
  6
CONTINUOUS
 10
0.918961
 20
-3.194150
  0
VERTEX
  8
PLAN_1
  6
CONTINUOUS
 10
0.921079
 20
-3.190335
  0
VERTEX
  8
PLAN_1
  6
CONTINUOUS
 10
0.923197
 20
-3.186524
  0
VERTEX
  8
PLAN_1
  6
CONTINUOUS
 10
0.925740
 20
-3.183134
  0
VERTEX
  8
PLAN_1
  6
CONTINUOUS
 10
0.928280
 20
-3.179744
  0
VERTEX
  8
PLAN_1
  6
CONTINUOUS
 10
0.931248
 20
-3.176350
  0
VERTEX
  8
PLAN_1
  6
CONTINUOUS
 10
0.934213
 20
-3.173386
  0
VERTEX
  8
PLAN_1
  6
CONTINUOUS
 10
0.937602
 20
-3.170843
  0
VERTEX
  8
PLAN_1
  6
CONTINUOUS
 10
0.940992
 20
-3.168303
  0
VERTEX
  8
PLAN_1
  6
CONTINUOUS
 10
0.944382
 20
-3.166181
  0
VERTEX
  8
PLAN_1
  6
CONTINUOUS
 10
0.948622
 20
-3.164063
  0
VERTEX
  8
PLAN_1
  6
CONTINUOUS
 10
0.952433
 20
-3.162370
  0
VERTEX
  8
PLAN_1
  6
CONTINUOUS
 10
0.957094
 20
-3.160673
  0
VERTEX
  8
PLAN_1
  6
CONTINUOUS
 10
0.961335
 20
-3.159402
  0
VERTEX
  8
PLAN_1
  6
CONTINUOUS
 10
0.966417
 20
-3.158555
  0
VERTEX
  8
PLAN_1
  6
CONTINUOUS
 10
0.971504
 20
-3.158130
  0
VERTEX
  8
PLAN_1
  6
CONTINUOUS
 10
0.976587
 20
-3.158130
  0
VERTEX
  8
PLAN_1
  6
CONTINUOUS
 10
0.981248
 20
-3.158130
  0
VERTEX
  8
PLAN_1
  6
CONTINUOUS
 10
0.985484
 20
-3.158555
  0
VERTEX
  8
PLAN_1
  6
CONTINUOUS
 10
0.990146
 20
-3.159402
  0
VERTEX
  8
PLAN_1
  6
CONTINUOUS
 10
0.994807
 20
-3.160673
  0
VERTEX
  8
PLAN_1
  6
CONTINUOUS
 10
0.999469
 20
-3.161945
  0
VERTEX
  8
PLAN_1
  6
CONTINUOUS
 10
1.004130
 20
-3.164063
  0
VERTEX
  8
PLAN_1
  6
CONTINUOUS
 10
1.008366
 20
-3.166181
  0
VERTEX
  8
PLAN_1
  6
CONTINUOUS
 10
1.012606
 20
-3.169150
  0
VERTEX
  8
PLAN_1
  6
CONTINUOUS
 10
1.016843
 20
-3.172114
  0
VERTEX
  8
PLAN_1
  6
CONTINUOUS
 10
1.020657
 20
-3.175929
  0
VERTEX
  8
PLAN_1
  6
CONTINUOUS
 10
1.024047
 20
-3.180165
  0
VERTEX
  8
PLAN_1
  6
CONTINUOUS
 10
1.027012
 20
-3.184827
  0
VERTEX
  8
PLAN_1
  6
CONTINUOUS
 10
1.029555
 20
-3.190335
  0
VERTEX
  8
PLAN_1
  6
CONTINUOUS
 10
1.031248
 20
-3.196268
  0
VERTEX
  8
PLAN_1
  6
CONTINUOUS
 10
1.032945
 20
-3.202622
  0
VERTEX
  8
PLAN_1
  6
CONTINUOUS
 10
1.033791
 20
-3.209827
  0
VERTEX
  8
PLAN_1
  6
CONTINUOUS
 10
1.009638
 20
-3.209827
  0
SEQEND
  8
0
  0
POLYLINE
  8
PLAN_1
  6
CONTINUOUS
 66
     1
 40
0.003000
 41
0.003000
  0
VERTEX
  8
PLAN_1
  6
CONTINUOUS
 10
0.974043
 20
-3.336524
  0
VERTEX
  8
PLAN_1
  6
CONTINUOUS
 10
0.978705
 20
-3.336102
  0
VERTEX
  8
PLAN_1
  6
CONTINUOUS
 10
0.982520
 20
-3.335677
  0
VERTEX
  8
PLAN_1
  6
CONTINUOUS
 10
0.986335
 20
-3.334406
  0
VERTEX
  8
PLAN_1
  6
CONTINUOUS
 10
0.990146
 20
-3.333134
  0
VERTEX
  8
PLAN_1
  6
CONTINUOUS
 10
0.993535
 20
-3.331441
  0
VERTEX
  8
PLAN_1
  6
CONTINUOUS
 10
0.996504
 20
-3.329323
  0
VERTEX
  8
PLAN_1
  6
CONTINUOUS
 10
0.999469
 20
-3.326780
  0
VERTEX
  8
PLAN_1
  6
CONTINUOUS
 10
1.002012
 20
-3.323811
  0
VERTEX
  8
PLAN_1
  6
CONTINUOUS
 10
1.004555
 20
-3.320846
  0
VERTEX
  8
PLAN_1
  6
CONTINUOUS
 10
1.006673
 20
-3.317457
  0
VERTEX
  8
PLAN_1
  6
CONTINUOUS
 10
1.008366
 20
-3.313642
  0
VERTEX
  8
PLAN_1
  6
CONTINUOUS
 10
1.009638
 20
-3.309831
  0
VERTEX
  8
PLAN_1
  6
CONTINUOUS
 10
1.010909
 20
-3.305591
  0
VERTEX
  8
PLAN_1
  6
CONTINUOUS
 10
1.011756
 20
-3.301354
  0
VERTEX
  8
PLAN_1
  6
CONTINUOUS
 10
1.012181
 20
-3.296693
  0
VERTEX
  8
PLAN_1
  6
CONTINUOUS
 10
1.012606
 20
-3.291610
  0
VERTEX
  8
PLAN_1
  6
CONTINUOUS
 10
1.012606
 20
-3.288642
  0
VERTEX
  8
PLAN_1
  6
CONTINUOUS
 10
1.012181
 20
-3.285252
  0
VERTEX
  8
PLAN_1
  6
CONTINUOUS
 10
1.011335
 20
-3.281441
  0
VERTEX
  8
PLAN_1
  6
CONTINUOUS
 10
1.010488
 20
-3.278047
  0
VERTEX
  8
PLAN_1
  6
CONTINUOUS
 10
1.009638
 20
-3.274657
  0
VERTEX
  8
PLAN_1
  6
CONTINUOUS
 10
1.007945
 20
-3.271268
  0
VERTEX
  8
PLAN_1
  6
CONTINUOUS
 10
1.006248
 20
-3.267878
  0
VERTEX
  8
PLAN_1
  6
CONTINUOUS
 10
1.004130
 20
-3.264913
  0
VERTEX
  8
PLAN_1
  6
CONTINUOUS
 10
1.001587
 20
-3.261949
  0
VERTEX
  8
PLAN_1
  6
CONTINUOUS
 10
0.999047
 20
-3.258980
  0
VERTEX
  8
PLAN_1
  6
CONTINUOUS
 10
0.995657
 20
-3.256862
  0
VERTEX
  8
PLAN_1
  6
CONTINUOUS
 10
0.992268
 20
-3.254744
  0
VERTEX
  8
PLAN_1
  6
CONTINUOUS
 10
0.988028
 20
-3.253047
  0
VERTEX
  8
PLAN_1
  6
CONTINUOUS
 10
0.983366
 20
-3.251776
  0
VERTEX
  8
PLAN_1
  6
CONTINUOUS
 10
0.978705
 20
-3.250929
  0
VERTEX
  8
PLAN_1
  6
CONTINUOUS
 10
0.973197
 20
-3.250508
  0
VERTEX
  8
PLAN_1
  6
CONTINUOUS
 10
0.968114
 20
-3.250929
  0
VERTEX
  8
PLAN_1
  6
CONTINUOUS
 10
0.963874
 20
-3.251354
  0
VERTEX
  8
PLAN_1
  6
CONTINUOUS
 10
0.959638
 20
-3.252626
  0
VERTEX
  8
PLAN_1
  6
CONTINUOUS
 10
0.955402
 20
-3.253898
  0
VERTEX
  8
PLAN_1
  6
CONTINUOUS
 10
0.952012
 20
-3.256016
  0
VERTEX
  8
PLAN_1
  6
CONTINUOUS
 10
0.948622
 20
-3.258134
  0
VERTEX
  8
PLAN_1
  6
CONTINUOUS
 10
0.945654
 20
-3.260677
  0
VERTEX
  8
PLAN_1
  6
CONTINUOUS
 10
0.943114
 20
-3.263217
  0
VERTEX
  8
PLAN_1
  6
CONTINUOUS
 10
0.940571
 20
-3.266185
  0
VERTEX
  8
PLAN_1
  6
CONTINUOUS
 10
0.938874
 20
-3.269575
  0
VERTEX
  8
PLAN_1
  6
CONTINUOUS
 10
0.937181
 20
-3.272965
  0
VERTEX
  8
PLAN_1
  6
CONTINUOUS
 10
0.935484
 20
-3.276780
  0
VERTEX
  8
PLAN_1
  6
CONTINUOUS
 10
0.934638
 20
-3.280591
  0
VERTEX
  8
PLAN_1
  6
CONTINUOUS
 10
0.933791
 20
-3.284831
  0
VERTEX
  8
PLAN_1
  6
CONTINUOUS
 10
0.933366
 20
-3.289067
  0
VERTEX
  8
PLAN_1
  6
CONTINUOUS
 10
0.933366
 20
-3.293303
  0
VERTEX
  8
PLAN_1
  6
CONTINUOUS
 10
0.933366
 20
-3.297118
  0
VERTEX
  8
PLAN_1
  6
CONTINUOUS
 10
0.933791
 20
-3.300929
  0
VERTEX
  8
PLAN_1
  6
CONTINUOUS
 10
0.934638
 20
-3.304744
  0
VERTEX
  8
PLAN_1
  6
CONTINUOUS
 10
0.935484
 20
-3.308559
  0
VERTEX
  8
PLAN_1
  6
CONTINUOUS
 10
0.936756
 20
-3.312370
  0
VERTEX
  8
PLAN_1
  6
CONTINUOUS
 10
0.938453
 20
-3.316185
  0
VERTEX
  8
PLAN_1
  6
CONTINUOUS
 10
0.940571
 20
-3.319575
  0
VERTEX
  8
PLAN_1
  6
CONTINUOUS
 10
0.943114
 20
-3.322543
  0
VERTEX
  8
PLAN_1
  6
CONTINUOUS
 10
0.945654
 20
-3.325508
  0
VERTEX
  8
PLAN_1
  6
CONTINUOUS
 10
0.948622
 20
-3.328051
  0
VERTEX
  8
PLAN_1
  6
CONTINUOUS
 10
0.952012
 20
-3.330594
  0
VERTEX
  8
PLAN_1
  6
CONTINUOUS
 10
0.955823
 20
-3.332713
  0
VERTEX
  8
PLAN_1
  6
CONTINUOUS
 10
0.959638
 20
-3.334406
  0
VERTEX
  8
PLAN_1
  6
CONTINUOUS
 10
0.964299
 20
-3.335252
  0
VERTEX
  8
PLAN_1
  6
CONTINUOUS
 10
0.968961
 20
-3.336102
  0
VERTEX
  8
PLAN_1
  6
CONTINUOUS
 10
0.974043
 20
-3.336524
  0
SEQEND
  8
0
  0
POLYLINE
  8
PLAN_1
  6
CONTINUOUS
 66
     1
 40
0.003000
 41
0.003000
  0
VERTEX
  8
PLAN_1
  6
CONTINUOUS
 10
1.148201
 20
-3.353051
  0
VERTEX
  8
PLAN_1
  6
CONTINUOUS
 10
1.121929
 20
-3.353051
  0
VERTEX
  8
PLAN_1
  6
CONTINUOUS
 10
1.121929
 20
-3.214488
  0
VERTEX
  8
PLAN_1
  6
CONTINUOUS
 10
1.076591
 20
-3.214488
  0
VERTEX
  8
PLAN_1
  6
CONTINUOUS
 10
1.076591
 20
-3.194996
  0
VERTEX
  8
PLAN_1
  6
CONTINUOUS
 10
1.087606
 20
-3.194150
  0
VERTEX
  8
PLAN_1
  6
CONTINUOUS
 10
1.096929
 20
-3.192878
  0
VERTEX
  8
PLAN_1
  6
CONTINUOUS
 10
1.101165
 20
-3.192031
  0
VERTEX
  8
PLAN_1
  6
CONTINUOUS
 10
1.104980
 20
-3.190760
  0
VERTEX
  8
PLAN_1
  6
CONTINUOUS
 10
1.108370
 20
-3.189488
  0
VERTEX
  8
PLAN_1
  6
CONTINUOUS
 10
1.111760
 20
-3.187791
  0
VERTEX
  8
PLAN_1
  6
CONTINUOUS
 10
1.114724
 20
-3.185673
  0
VERTEX
  8
PLAN_1
  6
CONTINUOUS
 10
1.117268
 20
-3.183134
  0
VERTEX
  8
PLAN_1
  6
CONTINUOUS
 10
1.119811
 20
-3.180165
  0
VERTEX
  8
PLAN_1
  6
CONTINUOUS
 10
1.121929
 20
-3.176776
  0
VERTEX
  8
PLAN_1
  6
CONTINUOUS
 10
1.124047
 20
-3.172961
  0
VERTEX
  8
PLAN_1
  6
CONTINUOUS
 10
1.125744
 20
-3.168724
  0
VERTEX
  8
PLAN_1
  6
CONTINUOUS
 10
1.127437
 20
-3.163642
  0
VERTEX
  8
PLAN_1
  6
CONTINUOUS
 10
1.129134
 20
-3.158130
  0
VERTEX
  8
PLAN_1
  6
CONTINUOUS
 10
1.148201
 20
-3.158130
  0
VERTEX
  8
PLAN_1
  6
CONTINUOUS
 10
1.148201
 20
-3.353051
  0
SEQEND
  8
0
  0
SOLID
  8
PLAN_1
 10
1.202862
 20
-3.387795
 11
1.202862
 21
-3.373815
 12
1.357102
 22
-3.387795
 13
1.357102
 23
-3.373815
  0
POLYLINE
  8
PLAN_1
  6
CONTINUOUS
 66
     1
 40
0.003000
 41
0.003000
  0
VERTEX
  8
PLAN_1
  6
CONTINUOUS
 10
1.202862
 20
-3.387795
  0
VERTEX
  8
PLAN_1
  6
CONTINUOUS
 10
1.202862
 20
-3.373815
  0
VERTEX
  8
PLAN_1
  6
CONTINUOUS
 10
1.357102
 20
-3.373815
  0
VERTEX
  8
PLAN_1
  6
CONTINUOUS
 10
1.357102
 20
-3.387795
  0
VERTEX
  8
PLAN_1
  6
CONTINUOUS
 10
1.202862
 20
-3.387795
  0
SEQEND
  8
0
  0
POLYLINE
  8
PLAN_1
  6
CONTINUOUS
 66
     1
 40
0.003000
 41
0.003000
  0
VERTEX
  8
PLAN_1
  6
CONTINUOUS
 10
1.407953
 20
-3.353051
  0
VERTEX
  8
PLAN_1
  6
CONTINUOUS
 10
1.381256
 20
-3.353051
  0
VERTEX
  8
PLAN_1
  6
CONTINUOUS
 10
1.381256
 20
-3.153894
  0
VERTEX
  8
PLAN_1
  6
CONTINUOUS
 10
1.518972
 20
-3.153894
  0
VERTEX
  8
PLAN_1
  6
CONTINUOUS
 10
1.518972
 20
-3.177622
  0
VERTEX
  8
PLAN_1
  6
CONTINUOUS
 10
1.407953
 20
-3.177622
  0
VERTEX
  8
PLAN_1
  6
CONTINUOUS
 10
1.407953
 20
-3.238642
  0
VERTEX
  8
PLAN_1
  6
CONTINUOUS
 10
1.505835
 20
-3.238642
  0
VERTEX
  8
PLAN_1
  6
CONTINUOUS
 10
1.505835
 20
-3.262795
  0
VERTEX
  8
PLAN_1
  6
CONTINUOUS
 10
1.407953
 20
-3.262795
  0
VERTEX
  8
PLAN_1
  6
CONTINUOUS
 10
1.407953
 20
-3.353051
  0
SEQEND
  8
0
  0
SOLID
  8
PLAN_1
 10
1.538465
 20
-3.353051
 11
1.509224
 21
-3.353051
 12
1.538465
 22
-3.323811
 13
1.509224
 23
-3.323811
  0
POLYLINE
  8
PLAN_1
  6
CONTINUOUS
 66
     1
 40
0.003000
 41
0.003000
  0
VERTEX
  8
PLAN_1
  6
CONTINUOUS
 10
1.538465
 20
-3.353051
  0
VERTEX
  8
PLAN_1
  6
CONTINUOUS
 10
1.509224
 20
-3.353051
  0
VERTEX
  8
PLAN_1
  6
CONTINUOUS
 10
1.509224
 20
-3.323811
  0
VERTEX
  8
PLAN_1
  6
CONTINUOUS
 10
1.538465
 20
-3.323811
  0
VERTEX
  8
PLAN_1
  6
CONTINUOUS
 10
1.538465
 20
-3.353051
  0
SEQEND
  8
0
  0
POLYLINE
  8
PLAN_1
  6
CONTINUOUS
 66
     1
 40
0.003000
 41
0.003000
  0
VERTEX
  8
PLAN_1
  6
CONTINUOUS
 10
1.733382
 20
-3.353051
  0
VERTEX
  8
PLAN_1
  6
CONTINUOUS
 10
1.586346
 20
-3.353051
  0
VERTEX
  8
PLAN_1
  6
CONTINUOUS
 10
1.586346
 20
-3.153894
  0
VERTEX
  8
PLAN_1
  6
CONTINUOUS
 10
1.731264
 20
-3.153894
  0
VERTEX
  8
PLAN_1
  6
CONTINUOUS
 10
1.731264
 20
-3.177622
  0
VERTEX
  8
PLAN_1
  6
CONTINUOUS
 10
1.613039
 20
-3.177622
  0
VERTEX
  8
PLAN_1
  6
CONTINUOUS
 10
1.613039
 20
-3.238642
  0
VERTEX
  8
PLAN_1
  6
CONTINUOUS
 10
1.722366
 20
-3.238642
  0
VERTEX
  8
PLAN_1
  6
CONTINUOUS
 10
1.722366
 20
-3.262795
  0
VERTEX
  8
PLAN_1
  6
CONTINUOUS
 10
1.613039
 20
-3.262795
  0
VERTEX
  8
PLAN_1
  6
CONTINUOUS
 10
1.613039
 20
-3.329323
  0
VERTEX
  8
PLAN_1
  6
CONTINUOUS
 10
1.733382
 20
-3.329323
  0
VERTEX
  8
PLAN_1
  6
CONTINUOUS
 10
1.733382
 20
-3.353051
  0
SEQEND
  8
0
  0
POLYLINE
  8
PLAN_1
  6
CONTINUOUS
 66
     1
 40
0.003000
 41
0.003000
  0
VERTEX
  8
PLAN_1
  6
CONTINUOUS
 10
1.798638
 20
-3.353051
  0
VERTEX
  8
PLAN_1
  6
CONTINUOUS
 10
1.771520
 20
-3.353051
  0
VERTEX
  8
PLAN_1
  6
CONTINUOUS
 10
1.771520
 20
-3.153894
  0
VERTEX
  8
PLAN_1
  6
CONTINUOUS
 10
1.861350
 20
-3.153894
  0
VERTEX
  8
PLAN_1
  6
CONTINUOUS
 10
1.868130
 20
-3.153894
  0
VERTEX
  8
PLAN_1
  6
CONTINUOUS
 10
1.874488
 20
-3.154740
  0
VERTEX
  8
PLAN_1
  6
CONTINUOUS
 10
1.880417
 20
-3.156012
  0
VERTEX
  8
PLAN_1
  6
CONTINUOUS
 10
1.885929
 20
-3.158130
  0
VERTEX
  8
PLAN_1
  6
CONTINUOUS
 10
1.891437
 20
-3.160252
  0
VERTEX
  8
PLAN_1
  6
CONTINUOUS
 10
1.896098
 20
-3.163217
  0
VERTEX
  8
PLAN_1
  6
CONTINUOUS
 10
1.900760
 20
-3.166181
  0
VERTEX
  8
PLAN_1
  6
CONTINUOUS
 10
1.904571
 20
-3.169571
  0
VERTEX
  8
PLAN_1
  6
CONTINUOUS
 10
1.907961
 20
-3.173811
  0
VERTEX
  8
PLAN_1
  6
CONTINUOUS
 10
1.911350
 20
-3.178047
  0
VERTEX
  8
PLAN_1
  6
CONTINUOUS
 10
1.913894
 20
-3.182709
  0
VERTEX
  8
PLAN_1
  6
CONTINUOUS
 10
1.916437
 20
-3.187370
  0
VERTEX
  8
PLAN_1
  6
CONTINUOUS
 10
1.918130
 20
-3.192878
  0
VERTEX
  8
PLAN_1
  6
CONTINUOUS
 10
1.919402
 20
-3.198386
  0
VERTEX
  8
PLAN_1
  6
CONTINUOUS
 10
1.920252
 20
-3.203894
  0
VERTEX
  8
PLAN_1
  6
CONTINUOUS
 10
1.920252
 20
-3.209827
  0
VERTEX
  8
PLAN_1
  6
CONTINUOUS
 10
1.920252
 20
-3.214913
  0
VERTEX
  8
PLAN_1
  6
CONTINUOUS
 10
1.919402
 20
-3.220421
  0
VERTEX
  8
PLAN_1
  6
CONTINUOUS
 10
1.918555
 20
-3.225504
  0
VERTEX
  8
PLAN_1
  6
CONTINUOUS
 10
1.917283
 20
-3.231016
  0
VERTEX
  8
PLAN_1
  6
CONTINUOUS
 10
1.915165
 20
-3.236098
  0
VERTEX
  8
PLAN_1
  6
CONTINUOUS
 10
1.913047
 20
-3.240760
  0
VERTEX
  8
PLAN_1
  6
CONTINUOUS
 10
1.910083
 20
-3.245421
  0
VERTEX
  8
PLAN_1
  6
CONTINUOUS
 10
1.907114
 20
-3.249657
  0
VERTEX
  8
PLAN_1
  6
CONTINUOUS
 10
1.903299
 20
-3.253898
  0
VERTEX
  8
PLAN_1
  6
CONTINUOUS
 10
1.899063
 20
-3.257709
  0
VERTEX
  8
PLAN_1
  6
CONTINUOUS
 10
1.893980
 20
-3.260677
  0
VERTEX
  8
PLAN_1
  6
CONTINUOUS
 10
1.888894
 20
-3.263642
  0
VERTEX
  8
PLAN_1
  6
CONTINUOUS
 10
1.882539
 20
-3.265760
  0
VERTEX
  8
PLAN_1
  6
CONTINUOUS
 10
1.876181
 20
-3.267457
  0
VERTEX
  8
PLAN_1
  6
CONTINUOUS
 10
1.868976
 20
-3.268728
  0
VERTEX
  8
PLAN_1
  6
CONTINUOUS
 10
1.861350
 20
-3.269150
  0
VERTEX
  8
PLAN_1
  6
CONTINUOUS
 10
1.798638
 20
-3.269150
  0
VERTEX
  8
PLAN_1
  6
CONTINUOUS
 10
1.798638
 20
-3.353051
  0
SEQEND
  8
0
  0
POLYLINE
  8
PLAN_1
  6
CONTINUOUS
 66
     1
 40
0.003000
 41
0.003000
  0
VERTEX
  8
PLAN_1
  6
CONTINUOUS
 10
1.798638
 20
-3.245846
  0
VERTEX
  8
PLAN_1
  6
CONTINUOUS
 10
1.852028
 20
-3.245846
  0
VERTEX
  8
PLAN_1
  6
CONTINUOUS
 10
1.856268
 20
-3.245846
  0
VERTEX
  8
PLAN_1
  6
CONTINUOUS
 10
1.860504
 20
-3.245421
  0
VERTEX
  8
PLAN_1
  6
CONTINUOUS
 10
1.864740
 20
-3.244996
  0
VERTEX
  8
PLAN_1
  6
CONTINUOUS
 10
1.868555
 20
-3.244150
  0
VERTEX
  8
PLAN_1
  6
CONTINUOUS
 10
1.871945
 20
-3.242878
  0
VERTEX
  8
PLAN_1
  6
CONTINUOUS
 10
1.875335
 20
-3.241606
  0
VERTEX
  8
PLAN_1
  6
CONTINUOUS
 10
1.878724
 20
-3.239913
  0
VERTEX
  8
PLAN_1
  6
CONTINUOUS
 10
1.881268
 20
-3.238217
  0
VERTEX
  8
PLAN_1
  6
CONTINUOUS
 10
1.883811
 20
-3.236098
  0
VERTEX
  8
PLAN_1
  6
CONTINUOUS
 10
1.885929
 20
-3.233134
  0
VERTEX
  8
PLAN_1
  6
CONTINUOUS
 10
1.888047
 20
-3.230591
  0
VERTEX
  8
PLAN_1
  6
CONTINUOUS
 10
1.889740
 20
-3.227201
  0
VERTEX
  8
PLAN_1
  6
CONTINUOUS
 10
1.891012
 20
-3.223386
  0
VERTEX
  8
PLAN_1
  6
CONTINUOUS
 10
1.891858
 20
-3.219575
  0
VERTEX
  8
PLAN_1
  6
CONTINUOUS
 10
1.892283
 20
-3.214913
  0
VERTEX
  8
PLAN_1
  6
CONTINUOUS
 10
1.892709
 20
-3.210252
  0
VERTEX
  8
PLAN_1
  6
CONTINUOUS
 10
1.892283
 20
-3.205591
  0
VERTEX
  8
PLAN_1
  6
CONTINUOUS
 10
1.891858
 20
-3.201354
  0
VERTEX
  8
PLAN_1
  6
CONTINUOUS
 10
1.891012
 20
-3.197539
  0
VERTEX
  8
PLAN_1
  6
CONTINUOUS
 10
1.889319
 20
-3.194150
  0
VERTEX
  8
PLAN_1
  6
CONTINUOUS
 10
1.888047
 20
-3.191181
  0
VERTEX
  8
PLAN_1
  6
CONTINUOUS
 10
1.885929
 20
-3.188642
  0
VERTEX
  8
PLAN_1
  6
CONTINUOUS
 10
1.883811
 20
-3.186098
  0
VERTEX
  8
PLAN_1
  6
CONTINUOUS
 10
1.881268
 20
-3.183980
  0
VERTEX
  8
PLAN_1
  6
CONTINUOUS
 10
1.878299
 20
-3.182283
  0
VERTEX
  8
PLAN_1
  6
CONTINUOUS
 10
1.875335
 20
-3.180591
  0
VERTEX
  8
PLAN_1
  6
CONTINUOUS
 10
1.871945
 20
-3.179319
  0
VERTEX
  8
PLAN_1
  6
CONTINUOUS
 10
1.868555
 20
-3.178472
  0
VERTEX
  8
PLAN_1
  6
CONTINUOUS
 10
1.865165
 20
-3.177622
  0
VERTEX
  8
PLAN_1
  6
CONTINUOUS
 10
1.861350
 20
-3.177201
  0
VERTEX
  8
PLAN_1
  6
CONTINUOUS
 10
1.857114
 20
-3.176776
  0
VERTEX
  8
PLAN_1
  6
CONTINUOUS
 10
1.853299
 20
-3.176776
  0
VERTEX
  8
PLAN_1
  6
CONTINUOUS
 10
1.798638
 20
-3.176776
  0
VERTEX
  8
PLAN_1
  6
CONTINUOUS
 10
1.798638
 20
-3.245846
  0
SEQEND
  8
0
  0
POLYLINE
  8
PLAN_1
  6
CONTINUOUS
 66
     1
 40
0.003000
 41
0.003000
  0
VERTEX
  8
PLAN_1
  6
CONTINUOUS
 10
2.074067
 20
-3.211945
  0
VERTEX
  8
PLAN_1
  6
CONTINUOUS
 10
2.073642
 20
-3.206437
  0
VERTEX
  8
PLAN_1
  6
CONTINUOUS
 10
2.072374
 20
-3.201354
  0
VERTEX
  8
PLAN_1
  6
CONTINUOUS
 10
2.071102
 20
-3.197114
  0
VERTEX
  8
PLAN_1
  6
CONTINUOUS
 10
2.068984
 20
-3.192878
  0
VERTEX
  8
PLAN_1
  6
CONTINUOUS
 10
2.066441
 20
-3.189063
  0
VERTEX
  8
PLAN_1
  6
CONTINUOUS
 10
2.063898
 20
-3.185673
  0
VERTEX
  8
PLAN_1
  6
CONTINUOUS
 10
2.060933
 20
-3.182709
  0
VERTEX
  8
PLAN_1
  6
CONTINUOUS
 10
2.057543
 20
-3.180165
  0
VERTEX
  8
PLAN_1
  6
CONTINUOUS
 10
2.053728
 20
-3.178047
  0
VERTEX
  8
PLAN_1
  6
CONTINUOUS
 10
2.049913
 20
-3.176350
  0
VERTEX
  8
PLAN_1
  6
CONTINUOUS
 10
2.046102
 20
-3.174657
  0
VERTEX
  8
PLAN_1
  6
CONTINUOUS
 10
2.041862
 20
-3.173386
  0
VERTEX
  8
PLAN_1
  6
CONTINUOUS
 10
2.037626
 20
-3.172539
  0
VERTEX
  8
PLAN_1
  6
CONTINUOUS
 10
2.033390
 20
-3.172114
  0
VERTEX
  8
PLAN_1
  6
CONTINUOUS
 10
2.029150
 20
-3.171693
  0
VERTEX
  8
PLAN_1
  6
CONTINUOUS
 10
2.024913
 20
-3.171693
  0
VERTEX
  8
PLAN_1
  6
CONTINUOUS
 10
2.018134
 20
-3.171693
  0
VERTEX
  8
PLAN_1
  6
CONTINUOUS
 10
2.010508
 20
-3.172961
  0
VERTEX
  8
PLAN_1
  6
CONTINUOUS
 10
2.006693
 20
-3.173386
  0
VERTEX
  8
PLAN_1
  6
CONTINUOUS
 10
2.002878
 20
-3.174657
  0
VERTEX
  8
PLAN_1
  6
CONTINUOUS
 10
1.999067
 20
-3.175929
  0
VERTEX
  8
PLAN_1
  6
CONTINUOUS
 10
1.995677
 20
-3.177622
  0
VERTEX
  8
PLAN_1
  6
CONTINUOUS
 10
1.992287
 20
-3.179744
  0
VERTEX
  8
PLAN_1
  6
CONTINUOUS
 10
1.989319
 20
-3.182283
  0
VERTEX
  8
PLAN_1
  6
CONTINUOUS
 10
1.986354
 20
-3.184827
  0
VERTEX
  8
PLAN_1
  6
CONTINUOUS
 10
1.983811
 20
-3.188217
  0
VERTEX
  8
PLAN_1
  6
CONTINUOUS
 10
1.982118
 20
-3.192031
  0
VERTEX
  8
PLAN_1
  6
CONTINUOUS
 10
1.980421
 20
-3.196268
  0
VERTEX
  8
PLAN_1
  6
CONTINUOUS
 10
1.979575
 20
-3.201354
  0
VERTEX
  8
PLAN_1
  6
CONTINUOUS
 10
1.979150
 20
-3.206437
  0
VERTEX
  8
PLAN_1
  6
CONTINUOUS
 10
1.979575
 20
-3.209406
  0
VERTEX
  8
PLAN_1
  6
CONTINUOUS
 10
1.979996
 20
-3.212370
  0
VERTEX
  8
PLAN_1
  6
CONTINUOUS
 10
1.980421
 20
-3.214913
  0
VERTEX
  8
PLAN_1
  6
CONTINUOUS
 10
1.981268
 20
-3.217457
  0
VERTEX
  8
PLAN_1
  6
CONTINUOUS
 10
1.982539
 20
-3.219150
  0
VERTEX
  8
PLAN_1
  6
CONTINUOUS
 10
1.983811
 20
-3.221268
  0
VERTEX
  8
PLAN_1
  6
CONTINUOUS
 10
1.985083
 20
-3.222965
  0
VERTEX
  8
PLAN_1
  6
CONTINUOUS
 10
1.986776
 20
-3.224657
  0
VERTEX
  8
PLAN_1
  6
CONTINUOUS
 10
1.990165
 20
-3.227201
  0
VERTEX
  8
PLAN_1
  6
CONTINUOUS
 10
1.994406
 20
-3.228898
  0
VERTEX
  8
PLAN_1
  6
CONTINUOUS
 10
1.998642
 20
-3.230591
  0
VERTEX
  8
PLAN_1
  6
CONTINUOUS
 10
2.002878
 20
-3.231862
  0
VERTEX
  8
PLAN_1
  6
CONTINUOUS
 10
2.059661
 20
-3.244996
  0
VERTEX
  8
PLAN_1
  6
CONTINUOUS
 10
2.064323
 20
-3.246268
  0
VERTEX
  8
PLAN_1
  6
CONTINUOUS
 10
2.068984
 20
-3.247539
  0
VERTEX
  8
PLAN_1
  6
CONTINUOUS
 10
2.073642
 20
-3.249236
  0
VERTEX
  8
PLAN_1
  6
CONTINUOUS
 10
2.077882
 20
-3.251354
  0
VERTEX
  8
PLAN_1
  6
CONTINUOUS
 10
2.081693
 20
-3.253472
  0
VERTEX
  8
PLAN_1
  6
CONTINUOUS
 10
2.085508
 20
-3.256016
  0
VERTEX
  8
PLAN_1
  6
CONTINUOUS
 10
2.088898
 20
-3.258980
  0
VERTEX
  8
PLAN_1
  6
CONTINUOUS
 10
2.091862
 20
-3.261949
  0
VERTEX
  8
PLAN_1
  6
CONTINUOUS
 10
2.094831
 20
-3.265339
  0
VERTEX
  8
PLAN_1
  6
CONTINUOUS
 10
2.097374
 20
-3.269150
  0
VERTEX
  8
PLAN_1
  6
CONTINUOUS
 10
2.099492
 20
-3.272965
  0
VERTEX
  8
PLAN_1
  6
CONTINUOUS
 10
2.101610
 20
-3.277201
  0
VERTEX
  8
PLAN_1
  6
CONTINUOUS
 10
2.102882
 20
-3.281862
  0
VERTEX
  8
PLAN_1
  6
CONTINUOUS
 10
2.104154
 20
-3.286949
  0
VERTEX
  8
PLAN_1
  6
CONTINUOUS
 10
2.104575
 20
-3.292457
  0
VERTEX
  8
PLAN_1
  6
CONTINUOUS
 10
2.105000
 20
-3.297965
  0
VERTEX
  8
PLAN_1
  6
CONTINUOUS
 10
2.105000
 20
-3.302626
  0
VERTEX
  8
PLAN_1
  6
CONTINUOUS
 10
2.104575
 20
-3.306441
  0
VERTEX
  8
PLAN_1
  6
CONTINUOUS
 10
2.103728
 20
-3.310677
  0
VERTEX
  8
PLAN_1
  6
CONTINUOUS
 10
2.102882
 20
-3.314492
  0
VERTEX
  8
PLAN_1
  6
CONTINUOUS
 10
2.102035
 20
-3.317882
  0
VERTEX
  8
PLAN_1
  6
CONTINUOUS
 10
2.100764
 20
-3.321272
  0
VERTEX
  8
PLAN_1
  6
CONTINUOUS
 10
2.099067
 20
-3.324236
  0
VERTEX
  8
PLAN_1
  6
CONTINUOUS
 10
2.097795
 20
-3.327626
  0
VERTEX
  8
PLAN_1
  6
CONTINUOUS
 10
2.095677
 20
-3.330169
  0
VERTEX
  8
PLAN_1
  6
CONTINUOUS
 10
2.093984
 20
-3.333134
  0
VERTEX
  8
PLAN_1
  6
CONTINUOUS
 10
2.091441
 20
-3.335677
  0
VERTEX
  8
PLAN_1
  6
CONTINUOUS
 10
2.089323
 20
-3.337795
  0
VERTEX
  8
PLAN_1
  6
CONTINUOUS
 10
2.084236
 20
-3.342457
  0
VERTEX
  8
PLAN_1
  6
CONTINUOUS
 10
2.078728
 20
-3.345846
  0
VERTEX
  8
PLAN_1
  6
CONTINUOUS
 10
2.072795
 20
-3.349236
  0
VERTEX
  8
PLAN_1
  6
CONTINUOUS
 10
2.066862
 20
-3.351780
  0
VERTEX
  8
PLAN_1
  6
CONTINUOUS
 10
2.060083
 20
-3.353898
  0
VERTEX
  8
PLAN_1
  6
CONTINUOUS
 10
2.053728
 20
-3.355594
  0
VERTEX
  8
PLAN_1
  6
CONTINUOUS
 10
2.046949
 20
-3.356866
  0
VERTEX
  8
PLAN_1
  6
CONTINUOUS
 10
2.040169
 20
-3.357713
  0
VERTEX
  8
PLAN_1
  6
CONTINUOUS
 10
2.033390
 20
-3.358134
  0
VERTEX
  8
PLAN_1
  6
CONTINUOUS
 10
2.027031
 20
-3.358559
  0
VERTEX
  8
PLAN_1
  6
CONTINUOUS
 10
2.020252
 20
-3.358134
  0
VERTEX
  8
PLAN_1
  6
CONTINUOUS
 10
2.014319
 20
-3.357713
  0
VERTEX
  8
PLAN_1
  6
CONTINUOUS
 10
2.008390
 20
-3.357287
  0
VERTEX
  8
PLAN_1
  6
CONTINUOUS
 10
2.003303
 20
-3.356441
  0
VERTEX
  8
PLAN_1
  6
CONTINUOUS
 10
1.998642
 20
-3.355594
  0
VERTEX
  8
PLAN_1
  6
CONTINUOUS
 10
1.993980
 20
-3.354323
  0
VERTEX
  8
PLAN_1
  6
CONTINUOUS
 10
1.990165
 20
-3.353051
  0
VERTEX
  8
PLAN_1
  6
CONTINUOUS
 10
1.986354
 20
-3.351780
  0
VERTEX
  8
PLAN_1
  6
CONTINUOUS
 10
1.979996
 20
-3.348815
  0
VERTEX
  8
PLAN_1
  6
CONTINUOUS
 10
1.974913
 20
-3.345425
  0
VERTEX
  8
PLAN_1
  6
CONTINUOUS
 10
1.970252
 20
-3.342457
  0
VERTEX
  8
PLAN_1
  6
CONTINUOUS
 10
1.966862
 20
-3.339067
  0
VERTEX
  8
PLAN_1
  6
CONTINUOUS
 10
1.963894
 20
-3.336524
  0
VERTEX
  8
PLAN_1
  6
CONTINUOUS
 10
1.960929
 20
-3.333559
  0
VERTEX
  8
PLAN_1
  6
CONTINUOUS
 10
1.958386
 20
-3.330594
  0
VERTEX
  8
PLAN_1
  6
CONTINUOUS
 10
1.956268
 20
-3.327626
  0
VERTEX
  8
PLAN_1
  6
CONTINUOUS
 10
1.954575
 20
-3.324661
  0
VERTEX
  8
PLAN_1
  6
CONTINUOUS
 10
1.952878
 20
-3.321272
  0
VERTEX
  8
PLAN_1
  6
CONTINUOUS
 10
1.951606
 20
-3.318303
  0
VERTEX
  8
PLAN_1
  6
CONTINUOUS
 10
1.950335
 20
-3.315339
  0
VERTEX
  8
PLAN_1
  6
CONTINUOUS
 10
1.948642
 20
-3.308980
  0
VERTEX
  8
PLAN_1
  6
CONTINUOUS
 10
1.947370
 20
-3.302201
  0
VERTEX
  8
PLAN_1
  6
CONTINUOUS
 10
1.946524
 20
-3.295421
  0
VERTEX
  8
PLAN_1
  6
CONTINUOUS
 10
1.946524
 20
-3.288642
  0
VERTEX
  8
PLAN_1
  6
CONTINUOUS
 10
1.971945
 20
-3.288642
  0
VERTEX
  8
PLAN_1
  6
CONTINUOUS
 10
1.971945
 20
-3.295000
  0
VERTEX
  8
PLAN_1
  6
CONTINUOUS
 10
1.973217
 20
-3.300929
  0
VERTEX
  8
PLAN_1
  6
CONTINUOUS
 10
1.974488
 20
-3.306441
  0
VERTEX
  8
PLAN_1
  6
CONTINUOUS
 10
1.976606
 20
-3.311102
  0
VERTEX
  8
PLAN_1
  6
CONTINUOUS
 10
1.979150
 20
-3.315339
  0
VERTEX
  8
PLAN_1
  6
CONTINUOUS
 10
1.982539
 20
-3.319154
  0
VERTEX
  8
PLAN_1
  6
CONTINUOUS
 10
1.985929
 20
-3.322543
  0
VERTEX
  8
PLAN_1
  6
CONTINUOUS
 10
1.989744
 20
-3.325508
  0
VERTEX
  8
PLAN_1
  6
CONTINUOUS
 10
1.993555
 20
-3.328051
  0
VERTEX
  8
PLAN_1
  6
CONTINUOUS
 10
1.998217
 20
-3.330169
  0
VERTEX
  8
PLAN_1
  6
CONTINUOUS
 10
2.002457
 20
-3.331862
  0
VERTEX
  8
PLAN_1
  6
CONTINUOUS
 10
2.007539
 20
-3.333134
  0
VERTEX
  8
PLAN_1
  6
CONTINUOUS
 10
2.012201
 20
-3.333984
  0
VERTEX
  8
PLAN_1
  6
CONTINUOUS
 10
2.016862
 20
-3.334831
  0
VERTEX
  8
PLAN_1
  6
CONTINUOUS
 10
2.021949
 20
-3.335252
  0
VERTEX
  8
PLAN_1
  6
CONTINUOUS
 10
2.026610
 20
-3.335252
  0
VERTEX
  8
PLAN_1
  6
CONTINUOUS
 10
2.034661
 20
-3.335252
  0
VERTEX
  8
PLAN_1
  6
CONTINUOUS
 10
2.043134
 20
-3.333984
  0
VERTEX
  8
PLAN_1
  6
CONTINUOUS
 10
2.047370
 20
-3.333134
  0
VERTEX
  8
PLAN_1
  6
CONTINUOUS
 10
2.051610
 20
-3.332287
  0
VERTEX
  8
PLAN_1
  6
CONTINUOUS
 10
2.055846
 20
-3.331016
  0
VERTEX
  8
PLAN_1
  6
CONTINUOUS
 10
2.060083
 20
-3.329323
  0
VERTEX
  8
PLAN_1
  6
CONTINUOUS
 10
2.063898
 20
-3.327201
  0
VERTEX
  8
PLAN_1
  6
CONTINUOUS
 10
2.067713
 20
-3.325083
  0
VERTEX
  8
PLAN_1
  6
CONTINUOUS
 10
2.070677
 20
-3.322118
  0
VERTEX
  8
PLAN_1
  6
CONTINUOUS
 10
2.073642
 20
-3.319154
  0
VERTEX
  8
PLAN_1
  6
CONTINUOUS
 10
2.075764
 20
-3.315339
  0
VERTEX
  8
PLAN_1
  6
CONTINUOUS
 10
2.077457
 20
-3.311524
  0
VERTEX
  8
PLAN_1
  6
CONTINUOUS
 10
2.078728
 20
-3.306862
  0
VERTEX
  8
PLAN_1
  6
CONTINUOUS
 10
2.078728
 20
-3.301780
  0
VERTEX
  8
PLAN_1
  6
CONTINUOUS
 10
2.078728
 20
-3.297965
  0
VERTEX
  8
PLAN_1
  6
CONTINUOUS
 10
2.078303
 20
-3.294575
  0
VERTEX
  8
PLAN_1
  6
CONTINUOUS
 10
2.077882
 20
-3.291610
  0
VERTEX
  8
PLAN_1
  6
CONTINUOUS
 10
2.077031
 20
-3.288642
  0
VERTEX
  8
PLAN_1
  6
CONTINUOUS
 10
2.075764
 20
-3.286098
  0
VERTEX
  8
PLAN_1
  6
CONTINUOUS
 10
2.074067
 20
-3.283559
  0
VERTEX
  8
PLAN_1
  6
CONTINUOUS
 10
2.072374
 20
-3.281441
  0
VERTEX
  8
PLAN_1
  6
CONTINUOUS
 10
2.069831
 20
-3.279319
  0
VERTEX
  8
PLAN_1
  6
CONTINUOUS
 10
2.067287
 20
-3.277201
  0
VERTEX
  8
PLAN_1
  6
CONTINUOUS
 10
2.064323
 20
-3.275508
  0
VERTEX
  8
PLAN_1
  6
CONTINUOUS
 10
2.060933
 20
-3.273811
  0
VERTEX
  8
PLAN_1
  6
CONTINUOUS
 10
2.056693
 20
-3.272539
  0
VERTEX
  8
PLAN_1
  6
CONTINUOUS
 10
2.047795
 20
-3.269575
  0
VERTEX
  8
PLAN_1
  6
CONTINUOUS
 10
2.036354
 20
-3.266610
  0
VERTEX
  8
PLAN_1
  6
CONTINUOUS
 10
1.995677
 20
-3.256862
  0
VERTEX
  8
PLAN_1
  6
CONTINUOUS
 10
1.990165
 20
-3.255591
  0
VERTEX
  8
PLAN_1
  6
CONTINUOUS
 10
1.983386
 20
-3.253472
  0
VERTEX
  8
PLAN_1
  6
CONTINUOUS
 10
1.979996
 20
-3.251776
  0
VERTEX
  8
PLAN_1
  6
CONTINUOUS
 10
1.976606
 20
-3.250083
  0
VERTEX
  8
PLAN_1
  6
CONTINUOUS
 10
1.972795
 20
-3.247965
  0
VERTEX
  8
PLAN_1
  6
CONTINUOUS
 10
1.969406
 20
-3.245421
  0
VERTEX
  8
PLAN_1
  6
CONTINUOUS
 10
1.966016
 20
-3.242457
  0
VERTEX
  8
PLAN_1
  6
CONTINUOUS
 10
1.963047
 20
-3.239488
  0
VERTEX
  8
PLAN_1
  6
CONTINUOUS
 10
1.960504
 20
-3.235677
  0
VERTEX
  8
PLAN_1
  6
CONTINUOUS
 10
1.957965
 20
-3.231862
  0
VERTEX
  8
PLAN_1
  6
CONTINUOUS
 10
1.955843
 20
-3.227201
  0
VERTEX
  8
PLAN_1
  6
CONTINUOUS
 10
1.954575
 20
-3.222114
  0
VERTEX
  8
PLAN_1
  6
CONTINUOUS
 10
1.953303
 20
-3.216185
  0
VERTEX
  8
PLAN_1
  6
CONTINUOUS
 10
1.953303
 20
-3.210252
  0
VERTEX
  8
PLAN_1
  6
CONTINUOUS
 10
1.953303
 20
-3.204319
  0
VERTEX
  8
PLAN_1
  6
CONTINUOUS
 10
1.954150
 20
-3.198386
  0
VERTEX
  8
PLAN_1
  6
CONTINUOUS
 10
1.955421
 20
-3.192878
  0
VERTEX
  8
PLAN_1
  6
CONTINUOUS
 10
1.957114
 20
-3.187370
  0
VERTEX
  8
PLAN_1
  6
CONTINUOUS
 10
1.959236
 20
-3.182283
  0
VERTEX
  8
PLAN_1
  6
CONTINUOUS
 10
1.962201
 20
-3.177201
  0
VERTEX
  8
PLAN_1
  6
CONTINUOUS
 10
1.965591
 20
-3.172114
  0
VERTEX
  8
PLAN_1
  6
CONTINUOUS
 10
1.969406
 20
-3.167878
  0
VERTEX
  8
PLAN_1
  6
CONTINUOUS
 10
1.973642
 20
-3.163642
  0
VERTEX
  8
PLAN_1
  6
CONTINUOUS
 10
1.978724
 20
-3.159827
  0
VERTEX
  8
PLAN_1
  6
CONTINUOUS
 10
1.984236
 20
-3.156437
  0
VERTEX
  8
PLAN_1
  6
CONTINUOUS
 10
1.990591
 20
-3.153894
  0
VERTEX
  8
PLAN_1
  6
CONTINUOUS
 10
1.997370
 20
-3.151350
  0
VERTEX
  8
PLAN_1
  6
CONTINUOUS
 10
2.004996
 20
-3.150079
  0
VERTEX
  8
PLAN_1
  6
CONTINUOUS
 10
2.013047
 20
-3.148811
  0
VERTEX
  8
PLAN_1
  6
CONTINUOUS
 10
2.021524
 20
-3.148386
  0
VERTEX
  8
PLAN_1
  6
CONTINUOUS
 10
2.027878
 20
-3.148811
  0
VERTEX
  8
PLAN_1
  6
CONTINUOUS
 10
2.034236
 20
-3.148811
  0
VERTEX
  8
PLAN_1
  6
CONTINUOUS
 10
2.039744
 20
-3.149657
  0
VERTEX
  8
PLAN_1
  6
CONTINUOUS
 10
2.044831
 20
-3.150504
  0
VERTEX
  8
PLAN_1
  6
CONTINUOUS
 10
2.049913
 20
-3.151350
  0
VERTEX
  8
PLAN_1
  6
CONTINUOUS
 10
2.054575
 20
-3.152622
  0
VERTEX
  8
PLAN_1
  6
CONTINUOUS
 10
2.059236
 20
-3.153894
  0
VERTEX
  8
PLAN_1
  6
CONTINUOUS
 10
2.063051
 20
-3.155591
  0
VERTEX
  8
PLAN_1
  6
CONTINUOUS
 10
2.066862
 20
-3.156862
  0
VERTEX
  8
PLAN_1
  6
CONTINUOUS
 10
2.070252
 20
-3.158980
  0
VERTEX
  8
PLAN_1
  6
CONTINUOUS
 10
2.073642
 20
-3.160673
  0
VERTEX
  8
PLAN_1
  6
CONTINUOUS
 10
2.076610
 20
-3.162791
  0
VERTEX
  8
PLAN_1
  6
CONTINUOUS
 10
2.079575
 20
-3.164909
  0
VERTEX
  8
PLAN_1
  6
CONTINUOUS
 10
2.081693
 20
-3.167453
  0
VERTEX
  8
PLAN_1
  6
CONTINUOUS
 10
2.084236
 20
-3.169571
  0
VERTEX
  8
PLAN_1
  6
CONTINUOUS
 10
2.086354
 20
-3.172114
  0
VERTEX
  8
PLAN_1
  6
CONTINUOUS
 10
2.089744
 20
-3.177201
  0
VERTEX
  8
PLAN_1
  6
CONTINUOUS
 10
2.092713
 20
-3.182283
  0
VERTEX
  8
PLAN_1
  6
CONTINUOUS
 10
2.094831
 20
-3.187791
  0
VERTEX
  8
PLAN_1
  6
CONTINUOUS
 10
2.096524
 20
-3.192878
  0
VERTEX
  8
PLAN_1
  6
CONTINUOUS
 10
2.097795
 20
-3.197965
  0
VERTEX
  8
PLAN_1
  6
CONTINUOUS
 10
2.098646
 20
-3.203047
  0
VERTEX
  8
PLAN_1
  6
CONTINUOUS
 10
2.099067
 20
-3.207709
  0
VERTEX
  8
PLAN_1
  6
CONTINUOUS
 10
2.099492
 20
-3.211945
  0
VERTEX
  8
PLAN_1
  6
CONTINUOUS
 10
2.074067
 20
-3.211945
  0
SEQEND
  8
0
  0
POLYLINE
  8
PLAN_1
 62
     5
  6
CONTINUOUS
 66
     1
 40
0.003000
 41
0.003000
  0
VERTEX
  8
PLAN_1
 62
     5
  6
CONTINUOUS
 10
-2.112882
 20
1.141531
  0
VERTEX
  8
PLAN_1
 62
     5
  6
CONTINUOUS
 10
-2.112882
 20
1.149583
  0
SEQEND
  8
0
  0
POLYLINE
  8
PLAN_1
 62
     5
  6
CONTINUOUS
 66
     1
 40
0.003000
 41
0.003000
  0
VERTEX
  8
PLAN_1
 62
     5
  6
CONTINUOUS
 10
-2.112882
 20
1.158055
  0
VERTEX
  8
PLAN_1
 62
     5
  6
CONTINUOUS
 10
-2.112882
 20
1.166531
  0
SEQEND
  8
0
  0
POLYLINE
  8
PLAN_1
 62
     5
  6
CONTINUOUS
 66
     1
 40
0.003000
 41
0.003000
  0
VERTEX
  8
PLAN_1
 62
     5
  6
CONTINUOUS
 10
-2.112882
 20
1.174583
  0
VERTEX
  8
PLAN_1
 62
     5
  6
CONTINUOUS
 10
-2.112882
 20
1.183059
  0
SEQEND
  8
0
  0
POLYLINE
  8
PLAN_1
 62
     5
  6
CONTINUOUS
 66
     1
 40
0.003000
 41
0.003000
  0
VERTEX
  8
PLAN_1
 62
     5
  6
CONTINUOUS
 10
-2.112882
 20
1.191531
  0
VERTEX
  8
PLAN_1
 62
     5
  6
CONTINUOUS
 10
-2.112882
 20
1.199583
  0
SEQEND
  8
0
  0
POLYLINE
  8
PLAN_1
 62
     5
  6
CONTINUOUS
 66
     1
 40
0.003000
 41
0.003000
  0
VERTEX
  8
PLAN_1
 62
     5
  6
CONTINUOUS
 10
-2.112882
 20
1.208059
  0
VERTEX
  8
PLAN_1
 62
     5
  6
CONTINUOUS
 10
-2.112882
 20
1.216531
  0
SEQEND
  8
0
  0
POLYLINE
  8
PLAN_1
 62
     5
  6
CONTINUOUS
 66
     1
 40
0.003000
 41
0.003000
  0
VERTEX
  8
PLAN_1
 62
     5
  6
CONTINUOUS
 10
-2.112882
 20
1.224583
  0
VERTEX
  8
PLAN_1
 62
     5
  6
CONTINUOUS
 10
-2.112882
 20
1.233059
  0
SEQEND
  8
0
  0
POLYLINE
  8
PLAN_1
 62
     5
  6
CONTINUOUS
 66
     1
 40
0.003000
 41
0.003000
  0
VERTEX
  8
PLAN_1
 62
     5
  6
CONTINUOUS
 10
-2.112882
 20
1.241110
  0
VERTEX
  8
PLAN_1
 62
     5
  6
CONTINUOUS
 10
-2.112882
 20
1.249583
  0
SEQEND
  8
0
  0
POLYLINE
  8
PLAN_1
 62
     5
  6
CONTINUOUS
 66
     1
 40
0.003000
 41
0.003000
  0
VERTEX
  8
PLAN_1
 62
     5
  6
CONTINUOUS
 10
-2.112882
 20
1.258059
  0
VERTEX
  8
PLAN_1
 62
     5
  6
CONTINUOUS
 10
-2.112882
 20
1.266110
  0
SEQEND
  8
0
  0
POLYLINE
  8
PLAN_1
 62
     5
  6
CONTINUOUS
 66
     1
 40
0.003000
 41
0.003000
  0
VERTEX
  8
PLAN_1
 62
     5
  6
CONTINUOUS
 10
-2.112882
 20
1.274583
  0
VERTEX
  8
PLAN_1
 62
     5
  6
CONTINUOUS
 10
-2.112882
 20
1.283059
  0
SEQEND
  8
0
  0
POLYLINE
  8
PLAN_1
 62
     5
  6
CONTINUOUS
 66
     1
 40
0.003000
 41
0.003000
  0
VERTEX
  8
PLAN_1
 62
     5
  6
CONTINUOUS
 10
-2.112882
 20
1.291110
  0
VERTEX
  8
PLAN_1
 62
     5
  6
CONTINUOUS
 10
-2.112882
 20
1.299587
  0
SEQEND
  8
0
  0
POLYLINE
  8
PLAN_1
 62
     5
  6
CONTINUOUS
 66
     1
 40
0.003000
 41
0.003000
  0
VERTEX
  8
PLAN_1
 62
     5
  6
CONTINUOUS
 10
-2.112882
 20
1.308059
  0
VERTEX
  8
PLAN_1
 62
     5
  6
CONTINUOUS
 10
-2.112882
 20
1.316110
  0
SEQEND
  8
0
  0
POLYLINE
  8
PLAN_1
 62
     5
  6
CONTINUOUS
 66
     1
 40
0.003000
 41
0.003000
  0
VERTEX
  8
PLAN_1
 62
     5
  6
CONTINUOUS
 10
-2.112882
 20
1.324587
  0
VERTEX
  8
PLAN_1
 62
     5
  6
CONTINUOUS
 10
-2.112882
 20
1.333059
  0
SEQEND
  8
0
  0
POLYLINE
  8
PLAN_1
 62
     5
  6
CONTINUOUS
 66
     1
 40
0.003000
 41
0.003000
  0
VERTEX
  8
PLAN_1
 62
     5
  6
CONTINUOUS
 10
-2.112882
 20
1.341110
  0
VERTEX
  8
PLAN_1
 62
     5
  6
CONTINUOUS
 10
-2.112882
 20
1.349587
  0
SEQEND
  8
0
  0
POLYLINE
  8
PLAN_1
 62
     5
  6
CONTINUOUS
 66
     1
 40
0.003000
 41
0.003000
  0
VERTEX
  8
PLAN_1
 62
     5
  6
CONTINUOUS
 10
-2.112882
 20
1.358059
  0
VERTEX
  8
PLAN_1
 62
     5
  6
CONTINUOUS
 10
-2.112882
 20
1.366110
  0
SEQEND
  8
0
  0
POLYLINE
  8
PLAN_1
 62
     5
  6
CONTINUOUS
 66
     1
 40
0.003000
 41
0.003000
  0
VERTEX
  8
PLAN_1
 62
     5
  6
CONTINUOUS
 10
-2.112882
 20
1.374587
  0
VERTEX
  8
PLAN_1
 62
     5
  6
CONTINUOUS
 10
-2.112882
 20
1.383063
  0
SEQEND
  8
0
  0
POLYLINE
  8
PLAN_1
 62
     5
  6
CONTINUOUS
 66
     1
 40
0.003000
 41
0.003000
  0
VERTEX
  8
PLAN_1
 62
     5
  6
CONTINUOUS
 10
-2.112882
 20
1.391114
  0
VERTEX
  8
PLAN_1
 62
     5
  6
CONTINUOUS
 10
-2.112882
 20
1.399587
  0
SEQEND
  8
0
  0
POLYLINE
  8
PLAN_1
 62
     5
  6
CONTINUOUS
 66
     1
 40
0.003000
 41
0.003000
  0
VERTEX
  8
PLAN_1
 62
     5
  6
CONTINUOUS
 10
-2.112882
 20
1.408063
  0
VERTEX
  8
PLAN_1
 62
     5
  6
CONTINUOUS
 10
-2.112882
 20
1.416114
  0
SEQEND
  8
0
  0
POLYLINE
  8
PLAN_1
 62
     5
  6
CONTINUOUS
 66
     1
 40
0.003000
 41
0.003000
  0
VERTEX
  8
PLAN_1
 62
     5
  6
CONTINUOUS
 10
-2.112882
 20
1.424587
  0
VERTEX
  8
PLAN_1
 62
     5
  6
CONTINUOUS
 10
-2.112882
 20
1.433063
  0
SEQEND
  8
0
  0
POLYLINE
  8
PLAN_1
 62
     5
  6
CONTINUOUS
 66
     1
 40
0.003000
 41
0.003000
  0
VERTEX
  8
PLAN_1
 62
     5
  6
CONTINUOUS
 10
-2.112882
 20
1.441114
  0
VERTEX
  8
PLAN_1
 62
     5
  6
CONTINUOUS
 10
-2.112882
 20
1.449587
  0
SEQEND
  8
0
  0
POLYLINE
  8
PLAN_1
 62
     5
  6
CONTINUOUS
 66
     1
 40
0.003000
 41
0.003000
  0
VERTEX
  8
PLAN_1
 62
     5
  6
CONTINUOUS
 10
-2.112882
 20
1.458063
  0
VERTEX
  8
PLAN_1
 62
     5
  6
CONTINUOUS
 10
-2.112882
 20
1.466114
  0
SEQEND
  8
0
  0
POLYLINE
  8
PLAN_1
 62
     5
  6
CONTINUOUS
 66
     1
 40
0.003000
 41
0.003000
  0
VERTEX
  8
PLAN_1
 62
     5
  6
CONTINUOUS
 10
-2.112882
 20
1.474591
  0
VERTEX
  8
PLAN_1
 62
     5
  6
CONTINUOUS
 10
-2.112882
 20
1.483063
  0
SEQEND
  8
0
  0
POLYLINE
  8
PLAN_1
 62
     5
  6
CONTINUOUS
 66
     1
 40
0.003000
 41
0.003000
  0
VERTEX
  8
PLAN_1
 62
     5
  6
CONTINUOUS
 10
-2.112882
 20
1.491114
  0
VERTEX
  8
PLAN_1
 62
     5
  6
CONTINUOUS
 10
-2.112882
 20
1.499591
  0
SEQEND
  8
0
  0
POLYLINE
  8
PLAN_1
 62
     5
  6
CONTINUOUS
 66
     1
 40
0.003000
 41
0.003000
  0
VERTEX
  8
PLAN_1
 62
     5
  6
CONTINUOUS
 10
-2.112882
 20
1.507642
  0
VERTEX
  8
PLAN_1
 62
     5
  6
CONTINUOUS
 10
-2.112882
 20
1.516114
  0
SEQEND
  8
0
  0
POLYLINE
  8
PLAN_1
 62
     5
  6
CONTINUOUS
 66
     1
 40
0.003000
 41
0.003000
  0
VERTEX
  8
PLAN_1
 62
     5
  6
CONTINUOUS
 10
-2.112882
 20
1.524591
  0
VERTEX
  8
PLAN_1
 62
     5
  6
CONTINUOUS
 10
-2.112882
 20
1.532642
  0
SEQEND
  8
0
  0
POLYLINE
  8
PLAN_1
 62
     5
  6
CONTINUOUS
 66
     1
 40
0.003000
 41
0.003000
  0
VERTEX
  8
PLAN_1
 62
     5
  6
CONTINUOUS
 10
-2.112882
 20
1.541114
  0
VERTEX
  8
PLAN_1
 62
     5
  6
CONTINUOUS
 10
-2.112882
 20
1.549591
  0
SEQEND
  8
0
  0
POLYLINE
  8
PLAN_1
 62
     5
  6
CONTINUOUS
 66
     1
 40
0.003000
 41
0.003000
  0
VERTEX
  8
PLAN_1
 62
     5
  6
CONTINUOUS
 10
-2.112882
 20
1.557642
  0
VERTEX
  8
PLAN_1
 62
     5
  6
CONTINUOUS
 10
-2.112882
 20
1.566114
  0
SEQEND
  8
0
  0
POLYLINE
  8
PLAN_1
 62
     5
  6
CONTINUOUS
 66
     1
 40
0.003000
 41
0.003000
  0
VERTEX
  8
PLAN_1
 62
     5
  6
CONTINUOUS
 10
-2.112882
 20
1.574591
  0
VERTEX
  8
PLAN_1
 62
     5
  6
CONTINUOUS
 10
-2.112882
 20
1.582642
  0
SEQEND
  8
0
  0
POLYLINE
  8
PLAN_1
 62
     5
  6
CONTINUOUS
 66
     1
 40
0.003000
 41
0.003000
  0
VERTEX
  8
PLAN_1
 62
     5
  6
CONTINUOUS
 10
-2.112882
 20
1.591118
  0
VERTEX
  8
PLAN_1
 62
     5
  6
CONTINUOUS
 10
-2.112882
 20
1.599591
  0
SEQEND
  8
0
  0
POLYLINE
  8
PLAN_1
 62
     5
  6
CONTINUOUS
 66
     1
 40
0.003000
 41
0.003000
  0
VERTEX
  8
PLAN_1
 62
     5
  6
CONTINUOUS
 10
-2.112882
 20
1.607642
  0
VERTEX
  8
PLAN_1
 62
     5
  6
CONTINUOUS
 10
-2.112882
 20
1.616118
  0
SEQEND
  8
0
  0
POLYLINE
  8
PLAN_1
 62
     5
  6
CONTINUOUS
 66
     1
 40
0.003000
 41
0.003000
  0
VERTEX
  8
PLAN_1
 62
     5
  6
CONTINUOUS
 10
-2.112882
 20
1.624591
  0
VERTEX
  8
PLAN_1
 62
     5
  6
CONTINUOUS
 10
-2.112882
 20
1.632642
  0
SEQEND
  8
0
  0
POLYLINE
  8
PLAN_1
 62
     5
  6
CONTINUOUS
 66
     1
 40
0.003000
 41
0.003000
  0
VERTEX
  8
PLAN_1
 62
     5
  6
CONTINUOUS
 10
-2.112882
 20
1.641118
  0
VERTEX
  8
PLAN_1
 62
     5
  6
CONTINUOUS
 10
-2.112882
 20
1.649591
  0
SEQEND
  8
0
  0
POLYLINE
  8
PLAN_1
 62
     5
  6
CONTINUOUS
 66
     1
 40
0.003000
 41
0.003000
  0
VERTEX
  8
PLAN_1
 62
     5
  6
CONTINUOUS
 10
-2.112882
 20
1.657642
  0
VERTEX
  8
PLAN_1
 62
     5
  6
CONTINUOUS
 10
-2.112882
 20
1.666118
  0
SEQEND
  8
0
  0
POLYLINE
  8
PLAN_1
 62
     5
  6
CONTINUOUS
 66
     1
 40
0.003000
 41
0.003000
  0
VERTEX
  8
PLAN_1
 62
     5
  6
CONTINUOUS
 10
-2.112882
 20
1.674594
  0
VERTEX
  8
PLAN_1
 62
     5
  6
CONTINUOUS
 10
-2.112882
 20
1.682642
  0
SEQEND
  8
0
  0
POLYLINE
  8
PLAN_1
 62
     5
  6
CONTINUOUS
 66
     1
 40
0.003000
 41
0.003000
  0
VERTEX
  8
PLAN_1
 62
     5
  6
CONTINUOUS
 10
-2.112882
 20
1.691118
  0
VERTEX
  8
PLAN_1
 62
     5
  6
CONTINUOUS
 10
-2.112882
 20
1.699594
  0
SEQEND
  8
0
  0
POLYLINE
  8
PLAN_1
 62
     5
  6
CONTINUOUS
 66
     1
 40
0.003000
 41
0.003000
  0
VERTEX
  8
PLAN_1
 62
     5
  6
CONTINUOUS
 10
-2.112882
 20
1.707646
  0
VERTEX
  8
PLAN_1
 62
     5
  6
CONTINUOUS
 10
-2.112882
 20
1.716118
  0
SEQEND
  8
0
  0
POLYLINE
  8
PLAN_1
 62
     5
  6
CONTINUOUS
 66
     1
 40
0.003000
 41
0.003000
  0
VERTEX
  8
PLAN_1
 62
     5
  6
CONTINUOUS
 10
-2.112882
 20
1.724594
  0
VERTEX
  8
PLAN_1
 62
     5
  6
CONTINUOUS
 10
-2.112882
 20
1.732646
  0
SEQEND
  8
0
  0
POLYLINE
  8
PLAN_1
 62
     5
  6
CONTINUOUS
 66
     1
 40
0.003000
 41
0.003000
  0
VERTEX
  8
PLAN_1
 62
     5
  6
CONTINUOUS
 10
-2.112882
 20
1.741118
  0
VERTEX
  8
PLAN_1
 62
     5
  6
CONTINUOUS
 10
-2.112882
 20
1.749594
  0
SEQEND
  8
0
  0
POLYLINE
  8
PLAN_1
 62
     5
  6
CONTINUOUS
 66
     1
 40
0.003000
 41
0.003000
  0
VERTEX
  8
PLAN_1
 62
     5
  6
CONTINUOUS
 10
-2.112882
 20
1.757646
  0
VERTEX
  8
PLAN_1
 62
     5
  6
CONTINUOUS
 10
-2.112882
 20
1.766118
  0
SEQEND
  8
0
  0
POLYLINE
  8
PLAN_1
 62
     5
  6
CONTINUOUS
 66
     1
 40
0.003000
 41
0.003000
  0
VERTEX
  8
PLAN_1
 62
     5
  6
CONTINUOUS
 10
-2.112882
 20
1.774594
  0
VERTEX
  8
PLAN_1
 62
     5
  6
CONTINUOUS
 10
-2.112882
 20
1.782646
  0
SEQEND
  8
0
  0
POLYLINE
  8
PLAN_1
 62
     5
  6
CONTINUOUS
 66
     1
 40
0.003000
 41
0.003000
  0
VERTEX
  8
PLAN_1
 62
     5
  6
CONTINUOUS
 10
-2.112882
 20
1.791122
  0
VERTEX
  8
PLAN_1
 62
     5
  6
CONTINUOUS
 10
-2.112882
 20
1.799173
  0
SEQEND
  8
0
  0
POLYLINE
  8
PLAN_1
 62
     5
  6
CONTINUOUS
 66
     1
 40
0.003000
 41
0.003000
  0
VERTEX
  8
PLAN_1
 62
     5
  6
CONTINUOUS
 10
-2.112882
 20
1.807646
  0
VERTEX
  8
PLAN_1
 62
     5
  6
CONTINUOUS
 10
-2.112882
 20
1.816122
  0
SEQEND
  8
0
  0
POLYLINE
  8
PLAN_1
 62
     5
  6
CONTINUOUS
 66
     1
 40
0.003000
 41
0.003000
  0
VERTEX
  8
PLAN_1
 62
     5
  6
CONTINUOUS
 10
-2.112882
 20
1.824173
  0
VERTEX
  8
PLAN_1
 62
     5
  6
CONTINUOUS
 10
-2.112882
 20
1.832646
  0
SEQEND
  8
0
  0
POLYLINE
  8
PLAN_1
 62
     5
  6
CONTINUOUS
 66
     1
 40
0.003000
 41
0.003000
  0
VERTEX
  8
PLAN_1
 62
     5
  6
CONTINUOUS
 10
-2.112882
 20
1.841122
  0
VERTEX
  8
PLAN_1
 62
     5
  6
CONTINUOUS
 10
-2.112882
 20
1.849173
  0
SEQEND
  8
0
  0
POLYLINE
  8
PLAN_1
 62
     5
  6
CONTINUOUS
 66
     1
 40
0.003000
 41
0.003000
  0
VERTEX
  8
PLAN_1
 62
     5
  6
CONTINUOUS
 10
-2.112882
 20
1.855528
  0
VERTEX
  8
PLAN_1
 62
     5
  6
CONTINUOUS
 10
-2.113303
 20
1.859343
  0
VERTEX
  8
PLAN_1
 62
     5
  6
CONTINUOUS
 10
-2.112882
 20
1.863157
  0
VERTEX
  8
PLAN_1
 62
     5
  6
CONTINUOUS
 10
-2.112882
 20
1.863579
  0
SEQEND
  8
0
  0
POLYLINE
  8
PLAN_1
 62
     5
  6
CONTINUOUS
 66
     1
 40
0.003000
 41
0.003000
  0
VERTEX
  8
PLAN_1
 62
     5
  6
CONTINUOUS
 10
-2.110764
 20
1.871630
  0
VERTEX
  8
PLAN_1
 62
     5
  6
CONTINUOUS
 10
-2.109913
 20
1.874173
  0
VERTEX
  8
PLAN_1
 62
     5
  6
CONTINUOUS
 10
-2.108220
 20
1.877138
  0
VERTEX
  8
PLAN_1
 62
     5
  6
CONTINUOUS
 10
-2.106949
 20
1.879256
  0
SEQEND
  8
0
  0
POLYLINE
  8
PLAN_1
 62
     5
  6
CONTINUOUS
 66
     1
 40
0.003000
 41
0.003000
  0
VERTEX
  8
PLAN_1
 62
     5
  6
CONTINUOUS
 10
-2.101441
 20
1.885189
  0
VERTEX
  8
PLAN_1
 62
     5
  6
CONTINUOUS
 10
-2.098472
 20
1.887732
  0
VERTEX
  8
PLAN_1
 62
     5
  6
CONTINUOUS
 10
-2.095083
 20
1.889429
  0
VERTEX
  8
PLAN_1
 62
     5
  6
CONTINUOUS
 10
-2.094661
 20
1.889850
  0
SEQEND
  8
0
  0
POLYLINE
  8
PLAN_1
 62
     5
  6
CONTINUOUS
 66
     1
 40
0.003000
 41
0.003000
  0
VERTEX
  8
PLAN_1
 62
     5
  6
CONTINUOUS
 10
-2.086610
 20
1.892819
  0
VERTEX
  8
PLAN_1
 62
     5
  6
CONTINUOUS
 10
-2.084913
 20
1.893240
  0
VERTEX
  8
PLAN_1
 62
     5
  6
CONTINUOUS
 10
-2.081102
 20
1.893665
  0
VERTEX
  8
PLAN_1
 62
     5
  6
CONTINUOUS
 10
-2.078559
 20
1.894087
  0
SEQEND
  8
0
  0
POLYLINE
  8
PLAN_1
 62
     5
  6
CONTINUOUS
 66
     1
 40
0.003000
 41
0.003000
  0
VERTEX
  8
PLAN_1
 62
     5
  6
CONTINUOUS
 10
-2.076862
 20
1.894087
  0
VERTEX
  8
PLAN_1
 62
     5
  6
CONTINUOUS
 10
-2.068811
 20
1.894087
  0
SEQEND
  8
0
  0
POLYLINE
  8
PLAN_1
 62
     5
  6
CONTINUOUS
 66
     1
 40
0.003000
 41
0.003000
  0
VERTEX
  8
PLAN_1
 62
     5
  6
CONTINUOUS
 10
-2.060339
 20
1.894087
  0
VERTEX
  8
PLAN_1
 62
     5
  6
CONTINUOUS
 10
-2.052287
 20
1.894087
  0
SEQEND
  8
0
  0
POLYLINE
  8
PLAN_1
 62
     5
  6
CONTINUOUS
 66
     1
 40
0.003000
 41
0.003000
  0
VERTEX
  8
PLAN_1
 62
     5
  6
CONTINUOUS
 10
-2.043811
 20
1.894087
  0
VERTEX
  8
PLAN_1
 62
     5
  6
CONTINUOUS
 10
-2.035339
 20
1.894087
  0
SEQEND
  8
0
  0
POLYLINE
  8
PLAN_1
 62
     5
  6
CONTINUOUS
 66
     1
 40
0.003000
 41
0.003000
  0
VERTEX
  8
PLAN_1
 62
     5
  6
CONTINUOUS
 10
-2.027287
 20
1.894087
  0
VERTEX
  8
PLAN_1
 62
     5
  6
CONTINUOUS
 10
-2.018811
 20
1.894087
  0
SEQEND
  8
0
  0
POLYLINE
  8
PLAN_1
 62
     5
  6
CONTINUOUS
 66
     1
 40
0.003000
 41
0.003000
  0
VERTEX
  8
PLAN_1
 62
     5
  6
CONTINUOUS
 10
-2.010339
 20
1.894087
  0
VERTEX
  8
PLAN_1
 62
     5
  6
CONTINUOUS
 10
-2.002287
 20
1.894087
  0
SEQEND
  8
0
  0
POLYLINE
  8
PLAN_1
 62
     5
  6
CONTINUOUS
 66
     1
 40
0.003000
 41
0.003000
  0
VERTEX
  8
PLAN_1
 62
     5
  6
CONTINUOUS
 10
-1.993811
 20
1.894087
  0
VERTEX
  8
PLAN_1
 62
     5
  6
CONTINUOUS
 10
-1.985335
 20
1.894087
  0
SEQEND
  8
0
  0
POLYLINE
  8
PLAN_1
 62
     5
  6
CONTINUOUS
 66
     1
 40
0.003000
 41
0.003000
  0
VERTEX
  8
PLAN_1
 62
     5
  6
CONTINUOUS
 10
-1.977283
 20
1.894087
  0
VERTEX
  8
PLAN_1
 62
     5
  6
CONTINUOUS
 10
-1.968811
 20
1.894087
  0
SEQEND
  8
0
  0
POLYLINE
  8
PLAN_1
 62
     5
  6
CONTINUOUS
 66
     1
 40
0.003000
 41
0.003000
  0
VERTEX
  8
PLAN_1
 62
     5
  6
CONTINUOUS
 10
-1.960335
 20
1.894087
  0
VERTEX
  8
PLAN_1
 62
     5
  6
CONTINUOUS
 10
-1.952283
 20
1.894087
  0
SEQEND
  8
0
  0
POLYLINE
  8
PLAN_1
 62
     5
  6
CONTINUOUS
 66
     1
 40
0.003000
 41
0.003000
  0
VERTEX
  8
PLAN_1
 62
     5
  6
CONTINUOUS
 10
-1.943811
 20
1.894087
  0
VERTEX
  8
PLAN_1
 62
     5
  6
CONTINUOUS
 10
-1.935335
 20
1.894087
  0
SEQEND
  8
0
  0
POLYLINE
  8
PLAN_1
 62
     5
  6
CONTINUOUS
 66
     1
 40
0.003000
 41
0.003000
  0
VERTEX
  8
PLAN_1
 62
     5
  6
CONTINUOUS
 10
-1.927283
 20
1.894087
  0
VERTEX
  8
PLAN_1
 62
     5
  6
CONTINUOUS
 10
-1.918811
 20
1.894087
  0
SEQEND
  8
0
  0
POLYLINE
  8
PLAN_1
 62
     5
  6
CONTINUOUS
 66
     1
 40
0.003000
 41
0.003000
  0
VERTEX
  8
PLAN_1
 62
     5
  6
CONTINUOUS
 10
-1.910335
 20
1.894087
  0
VERTEX
  8
PLAN_1
 62
     5
  6
CONTINUOUS
 10
-1.902283
 20
1.894087
  0
SEQEND
  8
0
  0
POLYLINE
  8
PLAN_1
 62
     5
  6
CONTINUOUS
 66
     1
 40
0.003000
 41
0.003000
  0
VERTEX
  8
PLAN_1
 62
     5
  6
CONTINUOUS
 10
-1.893811
 20
1.894087
  0
VERTEX
  8
PLAN_1
 62
     5
  6
CONTINUOUS
 10
-1.885335
 20
1.894087
  0
SEQEND
  8
0
  0
POLYLINE
  8
PLAN_1
 62
     5
  6
CONTINUOUS
 66
     1
 40
0.003000
 41
0.003000
  0
VERTEX
  8
PLAN_1
 62
     5
  6
CONTINUOUS
 10
-1.877283
 20
1.894087
  0
VERTEX
  8
PLAN_1
 62
     5
  6
CONTINUOUS
 10
-1.868807
 20
1.894087
  0
SEQEND
  8
0
  0
POLYLINE
  8
PLAN_1
 62
     5
  6
CONTINUOUS
 66
     1
 40
0.003000
 41
0.003000
  0
VERTEX
  8
PLAN_1
 62
     5
  6
CONTINUOUS
 10
-1.860335
 20
1.894087
  0
VERTEX
  8
PLAN_1
 62
     5
  6
CONTINUOUS
 10
-1.852283
 20
1.894087
  0
SEQEND
  8
0
  0
POLYLINE
  8
PLAN_1
 62
     5
  6
CONTINUOUS
 66
     1
 40
0.003000
 41
0.003000
  0
VERTEX
  8
PLAN_1
 62
     5
  6
CONTINUOUS
 10
-1.843807
 20
1.894087
  0
VERTEX
  8
PLAN_1
 62
     5
  6
CONTINUOUS
 10
-1.835335
 20
1.894087
  0
SEQEND
  8
0
  0
POLYLINE
  8
PLAN_1
 62
     5
  6
CONTINUOUS
 66
     1
 40
0.003000
 41
0.003000
  0
VERTEX
  8
PLAN_1
 62
     5
  6
CONTINUOUS
 10
-1.827283
 20
1.894087
  0
VERTEX
  8
PLAN_1
 62
     5
  6
CONTINUOUS
 10
-1.818807
 20
1.894087
  0
SEQEND
  8
0
  0
POLYLINE
  8
PLAN_1
 62
     5
  6
CONTINUOUS
 66
     1
 40
0.003000
 41
0.003000
  0
VERTEX
  8
PLAN_1
 62
     5
  6
CONTINUOUS
 10
-1.810335
 20
1.894087
  0
VERTEX
  8
PLAN_1
 62
     5
  6
CONTINUOUS
 10
-1.802283
 20
1.894087
  0
SEQEND
  8
0
  0
POLYLINE
  8
PLAN_1
 62
     5
  6
CONTINUOUS
 66
     1
 40
0.003000
 41
0.003000
  0
VERTEX
  8
PLAN_1
 62
     5
  6
CONTINUOUS
 10
-1.793807
 20
1.894087
  0
VERTEX
  8
PLAN_1
 62
     5
  6
CONTINUOUS
 10
-1.785331
 20
1.894087
  0
SEQEND
  8
0
  0
POLYLINE
  8
PLAN_1
 62
     5
  6
CONTINUOUS
 66
     1
 40
0.003000
 41
0.003000
  0
VERTEX
  8
PLAN_1
 62
     5
  6
CONTINUOUS
 10
-1.777280
 20
1.894087
  0
VERTEX
  8
PLAN_1
 62
     5
  6
CONTINUOUS
 10
-1.768807
 20
1.894087
  0
SEQEND
  8
0
  0
POLYLINE
  8
PLAN_1
 62
     5
  6
CONTINUOUS
 66
     1
 40
0.003000
 41
0.003000
  0
VERTEX
  8
PLAN_1
 62
     5
  6
CONTINUOUS
 10
-1.760756
 20
1.894087
  0
VERTEX
  8
PLAN_1
 62
     5
  6
CONTINUOUS
 10
-1.752280
 20
1.894087
  0
SEQEND
  8
0
  0
POLYLINE
  8
PLAN_1
 62
     5
  6
CONTINUOUS
 66
     1
 40
0.003000
 41
0.003000
  0
VERTEX
  8
PLAN_1
 62
     5
  6
CONTINUOUS
 10
-1.743807
 20
1.894087
  0
VERTEX
  8
PLAN_1
 62
     5
  6
CONTINUOUS
 10
-1.735756
 20
1.894087
  0
SEQEND
  8
0
  0
POLYLINE
  8
PLAN_1
 62
     5
  6
CONTINUOUS
 66
     1
 40
0.003000
 41
0.003000
  0
VERTEX
  8
PLAN_1
 62
     5
  6
CONTINUOUS
 10
-1.727280
 20
1.894087
  0
VERTEX
  8
PLAN_1
 62
     5
  6
CONTINUOUS
 10
-1.718807
 20
1.894087
  0
SEQEND
  8
0
  0
POLYLINE
  8
PLAN_1
 62
     5
  6
CONTINUOUS
 66
     1
 40
0.003000
 41
0.003000
  0
VERTEX
  8
PLAN_1
 62
     5
  6
CONTINUOUS
 10
-1.710756
 20
1.894087
  0
VERTEX
  8
PLAN_1
 62
     5
  6
CONTINUOUS
 10
-1.702280
 20
1.894087
  0
SEQEND
  8
0
  0
POLYLINE
  8
PLAN_1
 62
     5
  6
CONTINUOUS
 66
     1
 40
0.003000
 41
0.003000
  0
VERTEX
  8
PLAN_1
 62
     5
  6
CONTINUOUS
 10
-1.693803
 20
1.894087
  0
VERTEX
  8
PLAN_1
 62
     5
  6
CONTINUOUS
 10
-1.685756
 20
1.894087
  0
SEQEND
  8
0
  0
POLYLINE
  8
PLAN_1
 62
     5
  6
CONTINUOUS
 66
     1
 40
0.003000
 41
0.003000
  0
VERTEX
  8
PLAN_1
 62
     5
  6
CONTINUOUS
 10
-1.677280
 20
1.894087
  0
VERTEX
  8
PLAN_1
 62
     5
  6
CONTINUOUS
 10
-1.668803
 20
1.894087
  0
SEQEND
  8
0
  0
POLYLINE
  8
PLAN_1
 62
     5
  6
CONTINUOUS
 66
     1
 40
0.003000
 41
0.003000
  0
VERTEX
  8
PLAN_1
 62
     5
  6
CONTINUOUS
 10
-1.660752
 20
1.894087
  0
VERTEX
  8
PLAN_1
 62
     5
  6
CONTINUOUS
 10
-1.652280
 20
1.894087
  0
SEQEND
  8
0
  0
POLYLINE
  8
PLAN_1
 62
     5
  6
CONTINUOUS
 66
     1
 40
0.003000
 41
0.003000
  0
VERTEX
  8
PLAN_1
 62
     5
  6
CONTINUOUS
 10
-1.643803
 20
1.894087
  0
VERTEX
  8
PLAN_1
 62
     5
  6
CONTINUOUS
 10
-1.635752
 20
1.894087
  0
SEQEND
  8
0
  0
POLYLINE
  8
PLAN_1
 62
     5
  6
CONTINUOUS
 66
     1
 40
0.003000
 41
0.003000
  0
VERTEX
  8
PLAN_1
 62
     5
  6
CONTINUOUS
 10
-1.627280
 20
1.894087
  0
VERTEX
  8
PLAN_1
 62
     5
  6
CONTINUOUS
 10
-1.618803
 20
1.894087
  0
SEQEND
  8
0
  0
POLYLINE
  8
PLAN_1
 62
     5
  6
CONTINUOUS
 66
     1
 40
0.003000
 41
0.003000
  0
VERTEX
  8
PLAN_1
 62
     5
  6
CONTINUOUS
 10
-1.610752
 20
1.894087
  0
VERTEX
  8
PLAN_1
 62
     5
  6
CONTINUOUS
 10
-1.602280
 20
1.894087
  0
SEQEND
  8
0
  0
POLYLINE
  8
PLAN_1
 62
     5
  6
CONTINUOUS
 66
     1
 40
0.003000
 41
0.003000
  0
VERTEX
  8
PLAN_1
 62
     5
  6
CONTINUOUS
 10
-1.593803
 20
1.894087
  0
VERTEX
  8
PLAN_1
 62
     5
  6
CONTINUOUS
 10
-1.585752
 20
1.894087
  0
SEQEND
  8
0
  0
POLYLINE
  8
PLAN_1
 62
     5
  6
CONTINUOUS
 66
     1
 40
0.003000
 41
0.003000
  0
VERTEX
  8
PLAN_1
 62
     5
  6
CONTINUOUS
 10
-1.577276
 20
1.894087
  0
VERTEX
  8
PLAN_1
 62
     5
  6
CONTINUOUS
 10
-1.568803
 20
1.894087
  0
SEQEND
  8
0
  0
POLYLINE
  8
PLAN_1
 62
     5
  6
CONTINUOUS
 66
     1
 40
0.003000
 41
0.003000
  0
VERTEX
  8
PLAN_1
 62
     5
  6
CONTINUOUS
 10
-1.560752
 20
1.894087
  0
VERTEX
  8
PLAN_1
 62
     5
  6
CONTINUOUS
 10
-1.552276
 20
1.894087
  0
SEQEND
  8
0
  0
POLYLINE
  8
PLAN_1
 62
     5
  6
CONTINUOUS
 66
     1
 40
0.003000
 41
0.003000
  0
VERTEX
  8
PLAN_1
 62
     5
  6
CONTINUOUS
 10
-1.543803
 20
1.894087
  0
VERTEX
  8
PLAN_1
 62
     5
  6
CONTINUOUS
 10
-1.535752
 20
1.894087
  0
SEQEND
  8
0
  0
POLYLINE
  8
PLAN_1
 62
     5
  6
CONTINUOUS
 66
     1
 40
0.003000
 41
0.003000
  0
VERTEX
  8
PLAN_1
 62
     5
  6
CONTINUOUS
 10
-1.527276
 20
1.894087
  0
VERTEX
  8
PLAN_1
 62
     5
  6
CONTINUOUS
 10
-1.518803
 20
1.894087
  0
SEQEND
  8
0
  0
POLYLINE
  8
PLAN_1
 62
     5
  6
CONTINUOUS
 66
     1
 40
0.003000
 41
0.003000
  0
VERTEX
  8
PLAN_1
 62
     5
  6
CONTINUOUS
 10
-1.510752
 20
1.894087
  0
VERTEX
  8
PLAN_1
 62
     5
  6
CONTINUOUS
 10
-1.502276
 20
1.894087
  0
SEQEND
  8
0
  0
POLYLINE
  8
PLAN_1
 62
     5
  6
CONTINUOUS
 66
     1
 40
0.003000
 41
0.003000
  0
VERTEX
  8
PLAN_1
 62
     5
  6
CONTINUOUS
 10
-1.493799
 20
1.894087
  0
VERTEX
  8
PLAN_1
 62
     5
  6
CONTINUOUS
 10
-1.485752
 20
1.894087
  0
SEQEND
  8
0
  0
POLYLINE
  8
PLAN_1
 62
     5
  6
CONTINUOUS
 66
     1
 40
0.003000
 41
0.003000
  0
VERTEX
  8
PLAN_1
 62
     5
  6
CONTINUOUS
 10
-1.477276
 20
1.894087
  0
VERTEX
  8
PLAN_1
 62
     5
  6
CONTINUOUS
 10
-1.469224
 20
1.894087
  0
SEQEND
  8
0
  0
POLYLINE
  8
PLAN_1
 62
     5
  6
CONTINUOUS
 66
     1
 40
0.003000
 41
0.003000
  0
VERTEX
  8
PLAN_1
 62
     5
  6
CONTINUOUS
 10
-1.460748
 20
1.894087
  0
VERTEX
  8
PLAN_1
 62
     5
  6
CONTINUOUS
 10
-1.452276
 20
1.894087
  0
SEQEND
  8
0
  0
POLYLINE
  8
PLAN_1
 62
     5
  6
CONTINUOUS
 66
     1
 40
0.003000
 41
0.003000
  0
VERTEX
  8
PLAN_1
 62
     5
  6
CONTINUOUS
 10
-1.444224
 20
1.894087
  0
VERTEX
  8
PLAN_1
 62
     5
  6
CONTINUOUS
 10
-1.435748
 20
1.894087
  0
SEQEND
  8
0
  0
POLYLINE
  8
PLAN_1
 62
     5
  6
CONTINUOUS
 66
     1
 40
0.003000
 41
0.003000
  0
VERTEX
  8
PLAN_1
 62
     5
  6
CONTINUOUS
 10
-1.427276
 20
1.894087
  0
VERTEX
  8
PLAN_1
 62
     5
  6
CONTINUOUS
 10
-1.419224
 20
1.894087
  0
SEQEND
  8
0
  0
POLYLINE
  8
PLAN_1
 62
     5
  6
CONTINUOUS
 66
     1
 40
0.003000
 41
0.003000
  0
VERTEX
  8
PLAN_1
 62
     5
  6
CONTINUOUS
 10
-1.410748
 20
1.894087
  0
VERTEX
  8
PLAN_1
 62
     5
  6
CONTINUOUS
 10
-1.402276
 20
1.894087
  0
SEQEND
  8
0
  0
POLYLINE
  8
PLAN_1
 62
     5
  6
CONTINUOUS
 66
     1
 40
0.003000
 41
0.003000
  0
VERTEX
  8
PLAN_1
 62
     5
  6
CONTINUOUS
 10
-1.394224
 20
1.894087
  0
VERTEX
  8
PLAN_1
 62
     5
  6
CONTINUOUS
 10
-1.385748
 20
1.894087
  0
SEQEND
  8
0
  0
POLYLINE
  8
PLAN_1
 62
     5
  6
CONTINUOUS
 66
     1
 40
0.003000
 41
0.003000
  0
VERTEX
  8
PLAN_1
 62
     5
  6
CONTINUOUS
 10
-1.377272
 20
1.894087
  0
VERTEX
  8
PLAN_1
 62
     5
  6
CONTINUOUS
 10
-1.369220
 20
1.894087
  0
SEQEND
  8
0
  0
POLYLINE
  8
PLAN_1
 62
     5
  6
CONTINUOUS
 66
     1
 40
0.003000
 41
0.003000
  0
VERTEX
  8
PLAN_1
 62
     5
  6
CONTINUOUS
 10
-1.360748
 20
1.894087
  0
VERTEX
  8
PLAN_1
 62
     5
  6
CONTINUOUS
 10
-1.352272
 20
1.894087
  0
SEQEND
  8
0
  0
POLYLINE
  8
PLAN_1
 62
     5
  6
CONTINUOUS
 66
     1
 40
0.003000
 41
0.003000
  0
VERTEX
  8
PLAN_1
 62
     5
  6
CONTINUOUS
 10
-1.344220
 20
1.894087
  0
VERTEX
  8
PLAN_1
 62
     5
  6
CONTINUOUS
 10
-1.335748
 20
1.894087
  0
SEQEND
  8
0
  0
POLYLINE
  8
PLAN_1
 62
     5
  6
CONTINUOUS
 66
     1
 40
0.003000
 41
0.003000
  0
VERTEX
  8
PLAN_1
 62
     5
  6
CONTINUOUS
 10
-1.327272
 20
1.894087
  0
VERTEX
  8
PLAN_1
 62
     5
  6
CONTINUOUS
 10
-1.319220
 20
1.894087
  0
SEQEND
  8
0
  0
POLYLINE
  8
PLAN_1
 62
     5
  6
CONTINUOUS
 66
     1
 40
0.003000
 41
0.003000
  0
VERTEX
  8
PLAN_1
 62
     5
  6
CONTINUOUS
 10
-1.310748
 20
1.894087
  0
VERTEX
  8
PLAN_1
 62
     5
  6
CONTINUOUS
 10
-1.302272
 20
1.894087
  0
SEQEND
  8
0
  0
POLYLINE
  8
PLAN_1
 62
     5
  6
CONTINUOUS
 66
     1
 40
0.003000
 41
0.003000
  0
VERTEX
  8
PLAN_1
 62
     5
  6
CONTINUOUS
 10
-1.294220
 20
1.894087
  0
VERTEX
  8
PLAN_1
 62
     5
  6
CONTINUOUS
 10
-1.285744
 20
1.894087
  0
SEQEND
  8
0
  0
POLYLINE
  8
PLAN_1
 62
     5
  6
CONTINUOUS
 66
     1
 40
0.003000
 41
0.003000
  0
VERTEX
  8
PLAN_1
 62
     5
  6
CONTINUOUS
 10
-1.277272
 20
1.894087
  0
VERTEX
  8
PLAN_1
 62
     5
  6
CONTINUOUS
 10
-1.269220
 20
1.894087
  0
SEQEND
  8
0
  0
POLYLINE
  8
PLAN_1
 62
     5
  6
CONTINUOUS
 66
     1
 40
0.003000
 41
0.003000
  0
VERTEX
  8
PLAN_1
 62
     5
  6
CONTINUOUS
 10
-1.260744
 20
1.894087
  0
VERTEX
  8
PLAN_1
 62
     5
  6
CONTINUOUS
 10
-1.252272
 20
1.894087
  0
SEQEND
  8
0
  0
POLYLINE
  8
PLAN_1
 62
     5
  6
CONTINUOUS
 66
     1
 40
0.003000
 41
0.003000
  0
VERTEX
  8
PLAN_1
 62
     5
  6
CONTINUOUS
 10
-1.244220
 20
1.894087
  0
VERTEX
  8
PLAN_1
 62
     5
  6
CONTINUOUS
 10
-1.235744
 20
1.894087
  0
SEQEND
  8
0
  0
POLYLINE
  8
PLAN_1
 62
     5
  6
CONTINUOUS
 66
     1
 40
0.003000
 41
0.003000
  0
VERTEX
  8
PLAN_1
 62
     5
  6
CONTINUOUS
 10
-1.227272
 20
1.894087
  0
VERTEX
  8
PLAN_1
 62
     5
  6
CONTINUOUS
 10
-1.219220
 20
1.894087
  0
SEQEND
  8
0
  0
POLYLINE
  8
PLAN_1
 62
     5
  6
CONTINUOUS
 66
     1
 40
0.003000
 41
0.003000
  0
VERTEX
  8
PLAN_1
 62
     5
  6
CONTINUOUS
 10
-1.210744
 20
1.894087
  0
VERTEX
  8
PLAN_1
 62
     5
  6
CONTINUOUS
 10
-1.202272
 20
1.894087
  0
SEQEND
  8
0
  0
POLYLINE
  8
PLAN_1
 62
     5
  6
CONTINUOUS
 66
     1
 40
0.003000
 41
0.003000
  0
VERTEX
  8
PLAN_1
 62
     5
  6
CONTINUOUS
 10
-1.194220
 20
1.894087
  0
VERTEX
  8
PLAN_1
 62
     5
  6
CONTINUOUS
 10
-1.185744
 20
1.894087
  0
SEQEND
  8
0
  0
POLYLINE
  8
PLAN_1
 62
     5
  6
CONTINUOUS
 66
     1
 40
0.003000
 41
0.003000
  0
VERTEX
  8
PLAN_1
 62
     5
  6
CONTINUOUS
 10
-1.177693
 20
1.894087
  0
VERTEX
  8
PLAN_1
 62
     5
  6
CONTINUOUS
 10
-1.169217
 20
1.894087
  0
SEQEND
  8
0
  0
POLYLINE
  8
PLAN_1
 62
     5
  6
CONTINUOUS
 66
     1
 40
0.003000
 41
0.003000
  0
VERTEX
  8
PLAN_1
 62
     5
  6
CONTINUOUS
 10
-1.160744
 20
1.894087
  0
VERTEX
  8
PLAN_1
 62
     5
  6
CONTINUOUS
 10
-1.152693
 20
1.894087
  0
SEQEND
  8
0
  0
POLYLINE
  8
PLAN_1
 62
     5
  6
CONTINUOUS
 66
     1
 40
0.003000
 41
0.003000
  0
VERTEX
  8
PLAN_1
 62
     5
  6
CONTINUOUS
 10
-1.144217
 20
1.894087
  0
VERTEX
  8
PLAN_1
 62
     5
  6
CONTINUOUS
 10
-1.135744
 20
1.894087
  0
SEQEND
  8
0
  0
POLYLINE
  8
PLAN_1
 62
     5
  6
CONTINUOUS
 66
     1
 40
0.003000
 41
0.003000
  0
VERTEX
  8
PLAN_1
 62
     5
  6
CONTINUOUS
 10
-1.127693
 20
1.894087
  0
VERTEX
  8
PLAN_1
 62
     5
  6
CONTINUOUS
 10
-1.119217
 20
1.894087
  0
SEQEND
  8
0
  0
POLYLINE
  8
PLAN_1
 62
     5
  6
CONTINUOUS
 66
     1
 40
0.003000
 41
0.003000
  0
VERTEX
  8
PLAN_1
 62
     5
  6
CONTINUOUS
 10
-1.110744
 20
1.894087
  0
VERTEX
  8
PLAN_1
 62
     5
  6
CONTINUOUS
 10
-1.102693
 20
1.894087
  0
SEQEND
  8
0
  0
POLYLINE
  8
PLAN_1
 62
     5
  6
CONTINUOUS
 66
     1
 40
0.003000
 41
0.003000
  0
VERTEX
  8
PLAN_1
 62
     5
  6
CONTINUOUS
 10
-1.094217
 20
1.894087
  0
VERTEX
  8
PLAN_1
 62
     5
  6
CONTINUOUS
 10
-1.085740
 20
1.894087
  0
SEQEND
  8
0
  0
POLYLINE
  8
PLAN_1
 62
     5
  6
CONTINUOUS
 66
     1
 40
0.003000
 41
0.003000
  0
VERTEX
  8
PLAN_1
 62
     5
  6
CONTINUOUS
 10
-1.077693
 20
1.894087
  0
VERTEX
  8
PLAN_1
 62
     5
  6
CONTINUOUS
 10
-1.069217
 20
1.894087
  0
SEQEND
  8
0
  0
POLYLINE
  8
PLAN_1
 62
     5
  6
CONTINUOUS
 66
     1
 40
0.003000
 41
0.003000
  0
VERTEX
  8
PLAN_1
 62
     5
  6
CONTINUOUS
 10
-1.060740
 20
1.894087
  0
VERTEX
  8
PLAN_1
 62
     5
  6
CONTINUOUS
 10
-1.052689
 20
1.894087
  0
SEQEND
  8
0
  0
POLYLINE
  8
PLAN_1
 62
     5
  6
CONTINUOUS
 66
     1
 40
0.003000
 41
0.003000
  0
VERTEX
  8
PLAN_1
 62
     5
  6
CONTINUOUS
 10
-1.044217
 20
1.894087
  0
VERTEX
  8
PLAN_1
 62
     5
  6
CONTINUOUS
 10
-1.035740
 20
1.894087
  0
SEQEND
  8
0
  0
POLYLINE
  8
PLAN_1
 62
     5
  6
CONTINUOUS
 66
     1
 40
0.003000
 41
0.003000
  0
VERTEX
  8
PLAN_1
 62
     5
  6
CONTINUOUS
 10
-1.027689
 20
1.894087
  0
VERTEX
  8
PLAN_1
 62
     5
  6
CONTINUOUS
 10
-1.019217
 20
1.894087
  0
SEQEND
  8
0
  0
POLYLINE
  8
PLAN_1
 62
     5
  6
CONTINUOUS
 66
     1
 40
0.003000
 41
0.003000
  0
VERTEX
  8
PLAN_1
 62
     5
  6
CONTINUOUS
 10
-1.010740
 20
1.894087
  0
VERTEX
  8
PLAN_1
 62
     5
  6
CONTINUOUS
 10
-1.002689
 20
1.894087
  0
SEQEND
  8
0
  0
POLYLINE
  8
PLAN_1
 62
     5
  6
CONTINUOUS
 66
     1
 40
0.003000
 41
0.003000
  0
VERTEX
  8
PLAN_1
 62
     5
  6
CONTINUOUS
 10
-0.994217
 20
1.894087
  0
VERTEX
  8
PLAN_1
 62
     5
  6
CONTINUOUS
 10
-0.985740
 20
1.894087
  0
SEQEND
  8
0
  0
POLYLINE
  8
PLAN_1
 62
     5
  6
CONTINUOUS
 66
     1
 40
0.003000
 41
0.003000
  0
VERTEX
  8
PLAN_1
 62
     5
  6
CONTINUOUS
 10
-0.977689
 20
1.894087
  0
VERTEX
  8
PLAN_1
 62
     5
  6
CONTINUOUS
 10
-0.969213
 20
1.894087
  0
SEQEND
  8
0
  0
POLYLINE
  8
PLAN_1
 62
     5
  6
CONTINUOUS
 66
     1
 40
0.003000
 41
0.003000
  0
VERTEX
  8
PLAN_1
 62
     5
  6
CONTINUOUS
 10
-0.960740
 20
1.894087
  0
VERTEX
  8
PLAN_1
 62
     5
  6
CONTINUOUS
 10
-0.952689
 20
1.894087
  0
SEQEND
  8
0
  0
POLYLINE
  8
PLAN_1
 62
     5
  6
CONTINUOUS
 66
     1
 40
0.003000
 41
0.003000
  0
VERTEX
  8
PLAN_1
 62
     5
  6
CONTINUOUS
 10
-0.944213
 20
1.894087
  0
VERTEX
  8
PLAN_1
 62
     5
  6
CONTINUOUS
 10
-0.935740
 20
1.894087
  0
SEQEND
  8
0
  0
POLYLINE
  8
PLAN_1
 62
     5
  6
CONTINUOUS
 66
     1
 40
0.003000
 41
0.003000
  0
VERTEX
  8
PLAN_1
 62
     5
  6
CONTINUOUS
 10
-0.927689
 20
1.894087
  0
VERTEX
  8
PLAN_1
 62
     5
  6
CONTINUOUS
 10
-0.919213
 20
1.894087
  0
SEQEND
  8
0
  0
POLYLINE
  8
PLAN_1
 62
     5
  6
CONTINUOUS
 66
     1
 40
0.003000
 41
0.003000
  0
VERTEX
  8
PLAN_1
 62
     5
  6
CONTINUOUS
 10
-0.910740
 20
1.894087
  0
VERTEX
  8
PLAN_1
 62
     5
  6
CONTINUOUS
 10
-0.902689
 20
1.894087
  0
SEQEND
  8
0
  0
POLYLINE
  8
PLAN_1
 62
     5
  6
CONTINUOUS
 66
     1
 40
0.003000
 41
0.003000
  0
VERTEX
  8
PLAN_1
 62
     5
  6
CONTINUOUS
 10
-0.894213
 20
1.894087
  0
VERTEX
  8
PLAN_1
 62
     5
  6
CONTINUOUS
 10
-0.885736
 20
1.894087
  0
SEQEND
  8
0
  0
POLYLINE
  8
PLAN_1
 62
     5
  6
CONTINUOUS
 66
     1
 40
0.003000
 41
0.003000
  0
VERTEX
  8
PLAN_1
 62
     5
  6
CONTINUOUS
 10
-0.877689
 20
1.894087
  0
VERTEX
  8
PLAN_1
 62
     5
  6
CONTINUOUS
 10
-0.869213
 20
1.894087
  0
SEQEND
  8
0
  0
POLYLINE
  8
PLAN_1
 62
     5
  6
CONTINUOUS
 66
     1
 40
0.003000
 41
0.003000
  0
VERTEX
  8
PLAN_1
 62
     5
  6
CONTINUOUS
 10
-0.861161
 20
1.894087
  0
VERTEX
  8
PLAN_1
 62
     5
  6
CONTINUOUS
 10
-0.852685
 20
1.894087
  0
SEQEND
  8
0
  0
POLYLINE
  8
PLAN_1
 62
     5
  6
CONTINUOUS
 66
     1
 40
0.003000
 41
0.003000
  0
VERTEX
  8
PLAN_1
 62
     5
  6
CONTINUOUS
 10
-0.844213
 20
1.894087
  0
VERTEX
  8
PLAN_1
 62
     5
  6
CONTINUOUS
 10
-0.836161
 20
1.894087
  0
SEQEND
  8
0
  0
POLYLINE
  8
PLAN_1
 62
     5
  6
CONTINUOUS
 66
     1
 40
0.003000
 41
0.003000
  0
VERTEX
  8
PLAN_1
 62
     5
  6
CONTINUOUS
 10
-0.827685
 20
1.894087
  0
VERTEX
  8
PLAN_1
 62
     5
  6
CONTINUOUS
 10
-0.819213
 20
1.894087
  0
SEQEND
  8
0
  0
POLYLINE
  8
PLAN_1
 62
     5
  6
CONTINUOUS
 66
     1
 40
0.003000
 41
0.003000
  0
VERTEX
  8
PLAN_1
 62
     5
  6
CONTINUOUS
 10
-0.811161
 20
1.894087
  0
VERTEX
  8
PLAN_1
 62
     5
  6
CONTINUOUS
 10
-0.802685
 20
1.894087
  0
SEQEND
  8
0
  0
POLYLINE
  8
PLAN_1
 62
     5
  6
CONTINUOUS
 66
     1
 40
0.003000
 41
0.003000
  0
VERTEX
  8
PLAN_1
 62
     5
  6
CONTINUOUS
 10
-0.794213
 20
1.894087
  0
VERTEX
  8
PLAN_1
 62
     5
  6
CONTINUOUS
 10
-0.786161
 20
1.894087
  0
SEQEND
  8
0
  0
POLYLINE
  8
PLAN_1
 62
     5
  6
CONTINUOUS
 66
     1
 40
0.003000
 41
0.003000
  0
VERTEX
  8
PLAN_1
 62
     5
  6
CONTINUOUS
 10
-0.777685
 20
1.894087
  0
VERTEX
  8
PLAN_1
 62
     5
  6
CONTINUOUS
 10
-0.769209
 20
1.894087
  0
SEQEND
  8
0
  0
POLYLINE
  8
PLAN_1
 62
     5
  6
CONTINUOUS
 66
     1
 40
0.003000
 41
0.003000
  0
VERTEX
  8
PLAN_1
 62
     5
  6
CONTINUOUS
 10
-0.761157
 20
1.894087
  0
VERTEX
  8
PLAN_1
 62
     5
  6
CONTINUOUS
 10
-0.752685
 20
1.894087
  0
SEQEND
  8
0
  0
POLYLINE
  8
PLAN_1
 62
     5
  6
CONTINUOUS
 66
     1
 40
0.003000
 41
0.003000
  0
VERTEX
  8
PLAN_1
 62
     5
  6
CONTINUOUS
 10
-0.744209
 20
1.894087
  0
VERTEX
  8
PLAN_1
 62
     5
  6
CONTINUOUS
 10
-0.736157
 20
1.894087
  0
SEQEND
  8
0
  0
POLYLINE
  8
PLAN_1
 62
     5
  6
CONTINUOUS
 66
     1
 40
0.003000
 41
0.003000
  0
VERTEX
  8
PLAN_1
 62
     5
  6
CONTINUOUS
 10
-0.727685
 20
1.894087
  0
VERTEX
  8
PLAN_1
 62
     5
  6
CONTINUOUS
 10
-0.719209
 20
1.894087
  0
SEQEND
  8
0
  0
POLYLINE
  8
PLAN_1
 62
     5
  6
CONTINUOUS
 66
     1
 40
0.003000
 41
0.003000
  0
VERTEX
  8
PLAN_1
 62
     5
  6
CONTINUOUS
 10
-0.711157
 20
1.894087
  0
VERTEX
  8
PLAN_1
 62
     5
  6
CONTINUOUS
 10
-0.702685
 20
1.894087
  0
SEQEND
  8
0
  0
POLYLINE
  8
PLAN_1
 62
     5
  6
CONTINUOUS
 66
     1
 40
0.003000
 41
0.003000
  0
VERTEX
  8
PLAN_1
 62
     5
  6
CONTINUOUS
 10
-0.694209
 20
1.894087
  0
VERTEX
  8
PLAN_1
 62
     5
  6
CONTINUOUS
 10
-0.686157
 20
1.894087
  0
SEQEND
  8
0
  0
POLYLINE
  8
PLAN_1
 62
     5
  6
CONTINUOUS
 66
     1
 40
0.003000
 41
0.003000
  0
VERTEX
  8
PLAN_1
 62
     5
  6
CONTINUOUS
 10
-0.677681
 20
1.894087
  0
VERTEX
  8
PLAN_1
 62
     5
  6
CONTINUOUS
 10
-0.669209
 20
1.894087
  0
SEQEND
  8
0
  0
POLYLINE
  8
PLAN_1
 62
     5
  6
CONTINUOUS
 66
     1
 40
0.003000
 41
0.003000
  0
VERTEX
  8
PLAN_1
 62
     5
  6
CONTINUOUS
 10
-0.661157
 20
1.894087
  0
VERTEX
  8
PLAN_1
 62
     5
  6
CONTINUOUS
 10
-0.652681
 20
1.894087
  0
SEQEND
  8
0
  0
POLYLINE
  8
PLAN_1
 62
     5
  6
CONTINUOUS
 66
     1
 40
0.003000
 41
0.003000
  0
VERTEX
  8
PLAN_1
 62
     5
  6
CONTINUOUS
 10
-0.644209
 20
1.894087
  0
VERTEX
  8
PLAN_1
 62
     5
  6
CONTINUOUS
 10
-0.636157
 20
1.894087
  0
SEQEND
  8
0
  0
POLYLINE
  8
PLAN_1
 62
     5
  6
CONTINUOUS
 66
     1
 40
0.003000
 41
0.003000
  0
VERTEX
  8
PLAN_1
 62
     5
  6
CONTINUOUS
 10
-0.627681
 20
1.894087
  0
VERTEX
  8
PLAN_1
 62
     5
  6
CONTINUOUS
 10
-0.619209
 20
1.894087
  0
SEQEND
  8
0
  0
POLYLINE
  8
PLAN_1
 62
     5
  6
CONTINUOUS
 66
     1
 40
0.003000
 41
0.003000
  0
VERTEX
  8
PLAN_1
 62
     5
  6
CONTINUOUS
 10
-0.611157
 20
1.894087
  0
VERTEX
  8
PLAN_1
 62
     5
  6
CONTINUOUS
 10
-0.602681
 20
1.894087
  0
SEQEND
  8
0
  0
POLYLINE
  8
PLAN_1
 62
     5
  6
CONTINUOUS
 66
     1
 40
0.003000
 41
0.003000
  0
VERTEX
  8
PLAN_1
 62
     5
  6
CONTINUOUS
 10
-0.594209
 20
1.894087
  0
VERTEX
  8
PLAN_1
 62
     5
  6
CONTINUOUS
 10
-0.586157
 20
1.894087
  0
SEQEND
  8
0
  0
POLYLINE
  8
PLAN_1
 62
     5
  6
CONTINUOUS
 66
     1
 40
0.003000
 41
0.003000
  0
VERTEX
  8
PLAN_1
 62
     5
  6
CONTINUOUS
 10
-0.577681
 20
1.894087
  0
VERTEX
  8
PLAN_1
 62
     5
  6
CONTINUOUS
 10
-0.569630
 20
1.894087
  0
SEQEND
  8
0
  0
POLYLINE
  8
PLAN_1
 62
     5
  6
CONTINUOUS
 66
     1
 40
0.003000
 41
0.003000
  0
VERTEX
  8
PLAN_1
 62
     5
  6
CONTINUOUS
 10
-0.563276
 20
1.894087
  0
VERTEX
  8
PLAN_1
 62
     5
  6
CONTINUOUS
 10
-0.559461
 20
1.893665
  0
VERTEX
  8
PLAN_1
 62
     5
  6
CONTINUOUS
 10
-0.555646
 20
1.893240
  0
VERTEX
  8
PLAN_1
 62
     5
  6
CONTINUOUS
 10
-0.555224
 20
1.893240
  0
SEQEND
  8
0
  0
POLYLINE
  8
PLAN_1
 62
     5
  6
CONTINUOUS
 66
     1
 40
0.003000
 41
0.003000
  0
VERTEX
  8
PLAN_1
 62
     5
  6
CONTINUOUS
 10
-0.547173
 20
1.890276
  0
VERTEX
  8
PLAN_1
 62
     5
  6
CONTINUOUS
 10
-0.545055
 20
1.889429
  0
VERTEX
  8
PLAN_1
 62
     5
  6
CONTINUOUS
 10
-0.542087
 20
1.887307
  0
VERTEX
  8
PLAN_1
 62
     5
  6
CONTINUOUS
 10
-0.539969
 20
1.886039
  0
SEQEND
  8
0
  0
POLYLINE
  8
PLAN_1
 62
     5
  6
CONTINUOUS
 66
     1
 40
0.003000
 41
0.003000
  0
VERTEX
  8
PLAN_1
 62
     5
  6
CONTINUOUS
 10
-0.534035
 20
1.880528
  0
VERTEX
  8
PLAN_1
 62
     5
  6
CONTINUOUS
 10
-0.533614
 20
1.880106
  0
VERTEX
  8
PLAN_1
 62
     5
  6
CONTINUOUS
 10
-0.531071
 20
1.877138
  0
VERTEX
  8
PLAN_1
 62
     5
  6
CONTINUOUS
 10
-0.529374
 20
1.873748
  0
VERTEX
  8
PLAN_1
 62
     5
  6
CONTINUOUS
 10
-0.528953
 20
1.873748
  0
SEQEND
  8
0
  0
POLYLINE
  8
PLAN_1
 62
     5
  6
CONTINUOUS
 66
     1
 40
0.003000
 41
0.003000
  0
VERTEX
  8
PLAN_1
 62
     5
  6
CONTINUOUS
 10
-0.525563
 20
1.866122
  0
VERTEX
  8
PLAN_1
 62
     5
  6
CONTINUOUS
 10
-0.524713
 20
1.863579
  0
VERTEX
  8
PLAN_1
 62
     5
  6
CONTINUOUS
 10
-0.523866
 20
1.859768
  0
VERTEX
  8
PLAN_1
 62
     5
  6
CONTINUOUS
 10
-0.523866
 20
1.858071
  0
SEQEND
  8
0
  0
POLYLINE
  8
PLAN_1
 62
     5
  6
CONTINUOUS
 66
     1
 40
0.003000
 41
0.003000
  0
VERTEX
  8
PLAN_1
 62
     5
  6
CONTINUOUS
 10
-0.523441
 20
1.855528
  0
VERTEX
  8
PLAN_1
 62
     5
  6
CONTINUOUS
 10
-0.523441
 20
1.847476
  0
SEQEND
  8
0
  0
POLYLINE
  8
PLAN_1
 62
     5
  6
CONTINUOUS
 66
     1
 40
0.003000
 41
0.003000
  0
VERTEX
  8
PLAN_1
 62
     5
  6
CONTINUOUS
 10
-0.523441
 20
1.839004
  0
VERTEX
  8
PLAN_1
 62
     5
  6
CONTINUOUS
 10
-0.523441
 20
1.830528
  0
SEQEND
  8
0
  0
POLYLINE
  8
PLAN_1
 62
     5
  6
CONTINUOUS
 66
     1
 40
0.003000
 41
0.003000
  0
VERTEX
  8
PLAN_1
 62
     5
  6
CONTINUOUS
 10
-0.523441
 20
1.822476
  0
VERTEX
  8
PLAN_1
 62
     5
  6
CONTINUOUS
 10
-0.523441
 20
1.814004
  0
SEQEND
  8
0
  0
POLYLINE
  8
PLAN_1
 62
     5
  6
CONTINUOUS
 66
     1
 40
0.003000
 41
0.003000
  0
VERTEX
  8
PLAN_1
 62
     5
  6
CONTINUOUS
 10
-0.523441
 20
1.805528
  0
VERTEX
  8
PLAN_1
 62
     5
  6
CONTINUOUS
 10
-0.523441
 20
1.797476
  0
SEQEND
  8
0
  0
POLYLINE
  8
PLAN_1
 62
     5
  6
CONTINUOUS
 66
     1
 40
0.003000
 41
0.003000
  0
VERTEX
  8
PLAN_1
 62
     5
  6
CONTINUOUS
 10
-0.523441
 20
1.789000
  0
VERTEX
  8
PLAN_1
 62
     5
  6
CONTINUOUS
 10
-0.523441
 20
1.780528
  0
SEQEND
  8
0
  0
POLYLINE
  8
PLAN_1
 62
     5
  6
CONTINUOUS
 66
     1
 40
0.003000
 41
0.003000
  0
VERTEX
  8
PLAN_1
 62
     5
  6
CONTINUOUS
 10
-0.523441
 20
1.772476
  0
VERTEX
  8
PLAN_1
 62
     5
  6
CONTINUOUS
 10
-0.523441
 20
1.764000
  0
SEQEND
  8
0
  0
POLYLINE
  8
PLAN_1
 62
     5
  6
CONTINUOUS
 66
     1
 40
0.003000
 41
0.003000
  0
VERTEX
  8
PLAN_1
 62
     5
  6
CONTINUOUS
 10
-0.523441
 20
1.755528
  0
VERTEX
  8
PLAN_1
 62
     5
  6
CONTINUOUS
 10
-0.523441
 20
1.747476
  0
SEQEND
  8
0
  0
POLYLINE
  8
PLAN_1
 62
     5
  6
CONTINUOUS
 66
     1
 40
0.003000
 41
0.003000
  0
VERTEX
  8
PLAN_1
 62
     5
  6
CONTINUOUS
 10
-0.523441
 20
1.739000
  0
VERTEX
  8
PLAN_1
 62
     5
  6
CONTINUOUS
 10
-0.523441
 20
1.730949
  0
SEQEND
  8
0
  0
POLYLINE
  8
PLAN_1
 62
     5
  6
CONTINUOUS
 66
     1
 40
0.003000
 41
0.003000
  0
VERTEX
  8
PLAN_1
 62
     5
  6
CONTINUOUS
 10
-0.523441
 20
1.722476
  0
VERTEX
  8
PLAN_1
 62
     5
  6
CONTINUOUS
 10
-0.523441
 20
1.714000
  0
SEQEND
  8
0
  0
POLYLINE
  8
PLAN_1
 62
     5
  6
CONTINUOUS
 66
     1
 40
0.003000
 41
0.003000
  0
VERTEX
  8
PLAN_1
 62
     5
  6
CONTINUOUS
 10
-0.523441
 20
1.705949
  0
VERTEX
  8
PLAN_1
 62
     5
  6
CONTINUOUS
 10
-0.523441
 20
1.697476
  0
SEQEND
  8
0
  0
POLYLINE
  8
PLAN_1
 62
     5
  6
CONTINUOUS
 66
     1
 40
0.003000
 41
0.003000
  0
VERTEX
  8
PLAN_1
 62
     5
  6
CONTINUOUS
 10
-0.523441
 20
1.689000
  0
VERTEX
  8
PLAN_1
 62
     5
  6
CONTINUOUS
 10
-0.523441
 20
1.680949
  0
SEQEND
  8
0
  0
POLYLINE
  8
PLAN_1
 62
     5
  6
CONTINUOUS
 66
     1
 40
0.003000
 41
0.003000
  0
VERTEX
  8
PLAN_1
 62
     5
  6
CONTINUOUS
 10
-0.523441
 20
1.672472
  0
VERTEX
  8
PLAN_1
 62
     5
  6
CONTINUOUS
 10
-0.523441
 20
1.664000
  0
SEQEND
  8
0
  0
POLYLINE
  8
PLAN_1
 62
     5
  6
CONTINUOUS
 66
     1
 40
0.003000
 41
0.003000
  0
VERTEX
  8
PLAN_1
 62
     5
  6
CONTINUOUS
 10
-0.523441
 20
1.655949
  0
VERTEX
  8
PLAN_1
 62
     5
  6
CONTINUOUS
 10
-0.523441
 20
1.647472
  0
SEQEND
  8
0
  0
POLYLINE
  8
PLAN_1
 62
     5
  6
CONTINUOUS
 66
     1
 40
0.003000
 41
0.003000
  0
VERTEX
  8
PLAN_1
 62
     5
  6
CONTINUOUS
 10
-0.523441
 20
1.639000
  0
VERTEX
  8
PLAN_1
 62
     5
  6
CONTINUOUS
 10
-0.523441
 20
1.630949
  0
SEQEND
  8
0
  0
POLYLINE
  8
PLAN_1
 62
     5
  6
CONTINUOUS
 66
     1
 40
0.003000
 41
0.003000
  0
VERTEX
  8
PLAN_1
 62
     5
  6
CONTINUOUS
 10
-0.523441
 20
1.622472
  0
VERTEX
  8
PLAN_1
 62
     5
  6
CONTINUOUS
 10
-0.523441
 20
1.614000
  0
SEQEND
  8
0
  0
POLYLINE
  8
PLAN_1
 62
     5
  6
CONTINUOUS
 66
     1
 40
0.003000
 41
0.003000
  0
VERTEX
  8
PLAN_1
 62
     5
  6
CONTINUOUS
 10
-0.523441
 20
1.605949
  0
VERTEX
  8
PLAN_1
 62
     5
  6
CONTINUOUS
 10
-0.523441
 20
1.597472
  0
SEQEND
  8
0
  0
POLYLINE
  8
PLAN_1
 62
     5
  6
CONTINUOUS
 66
     1
 40
0.003000
 41
0.003000
  0
VERTEX
  8
PLAN_1
 62
     5
  6
CONTINUOUS
 10
-0.523441
 20
1.588996
  0
VERTEX
  8
PLAN_1
 62
     5
  6
CONTINUOUS
 10
-0.523441
 20
1.580945
  0
SEQEND
  8
0
  0
POLYLINE
  8
PLAN_1
 62
     5
  6
CONTINUOUS
 66
     1
 40
0.003000
 41
0.003000
  0
VERTEX
  8
PLAN_1
 62
     5
  6
CONTINUOUS
 10
-0.523441
 20
1.572472
  0
VERTEX
  8
PLAN_1
 62
     5
  6
CONTINUOUS
 10
-0.523441
 20
1.563996
  0
SEQEND
  8
0
  0
POLYLINE
  8
PLAN_1
 62
     5
  6
CONTINUOUS
 66
     1
 40
0.003000
 41
0.003000
  0
VERTEX
  8
PLAN_1
 62
     5
  6
CONTINUOUS
 10
-0.523441
 20
1.555945
  0
VERTEX
  8
PLAN_1
 62
     5
  6
CONTINUOUS
 10
-0.523441
 20
1.547472
  0
SEQEND
  8
0
  0
POLYLINE
  8
PLAN_1
 62
     5
  6
CONTINUOUS
 66
     1
 40
0.003000
 41
0.003000
  0
VERTEX
  8
PLAN_1
 62
     5
  6
CONTINUOUS
 10
-0.523441
 20
1.538996
  0
VERTEX
  8
PLAN_1
 62
     5
  6
CONTINUOUS
 10
-0.523441
 20
1.530945
  0
SEQEND
  8
0
  0
POLYLINE
  8
PLAN_1
 62
     5
  6
CONTINUOUS
 66
     1
 40
0.003000
 41
0.003000
  0
VERTEX
  8
PLAN_1
 62
     5
  6
CONTINUOUS
 10
-0.523441
 20
1.522472
  0
VERTEX
  8
PLAN_1
 62
     5
  6
CONTINUOUS
 10
-0.523441
 20
1.513996
  0
SEQEND
  8
0
  0
POLYLINE
  8
PLAN_1
 62
     5
  6
CONTINUOUS
 66
     1
 40
0.003000
 41
0.003000
  0
VERTEX
  8
PLAN_1
 62
     5
  6
CONTINUOUS
 10
-0.523441
 20
1.505945
  0
VERTEX
  8
PLAN_1
 62
     5
  6
CONTINUOUS
 10
-0.523441
 20
1.497469
  0
SEQEND
  8
0
  0
POLYLINE
  8
PLAN_1
 62
     5
  6
CONTINUOUS
 66
     1
 40
0.003000
 41
0.003000
  0
VERTEX
  8
PLAN_1
 62
     5
  6
CONTINUOUS
 10
-0.523441
 20
1.488996
  0
VERTEX
  8
PLAN_1
 62
     5
  6
CONTINUOUS
 10
-0.523441
 20
1.480945
  0
SEQEND
  8
0
  0
POLYLINE
  8
PLAN_1
 62
     5
  6
CONTINUOUS
 66
     1
 40
0.003000
 41
0.003000
  0
VERTEX
  8
PLAN_1
 62
     5
  6
CONTINUOUS
 10
-0.523441
 20
1.472469
  0
VERTEX
  8
PLAN_1
 62
     5
  6
CONTINUOUS
 10
-0.523441
 20
1.464417
  0
SEQEND
  8
0
  0
POLYLINE
  8
PLAN_1
 62
     5
  6
CONTINUOUS
 66
     1
 40
0.003000
 41
0.003000
  0
VERTEX
  8
PLAN_1
 62
     5
  6
CONTINUOUS
 10
-0.523441
 20
1.455945
  0
VERTEX
  8
PLAN_1
 62
     5
  6
CONTINUOUS
 10
-0.523441
 20
1.447469
  0
SEQEND
  8
0
  0
POLYLINE
  8
PLAN_1
 62
     5
  6
CONTINUOUS
 66
     1
 40
0.003000
 41
0.003000
  0
VERTEX
  8
PLAN_1
 62
     5
  6
CONTINUOUS
 10
-0.523441
 20
1.439417
  0
VERTEX
  8
PLAN_1
 62
     5
  6
CONTINUOUS
 10
-0.523441
 20
1.430945
  0
SEQEND
  8
0
  0
POLYLINE
  8
PLAN_1
 62
     5
  6
CONTINUOUS
 66
     1
 40
0.003000
 41
0.003000
  0
VERTEX
  8
PLAN_1
 62
     5
  6
CONTINUOUS
 10
-0.523441
 20
1.422469
  0
VERTEX
  8
PLAN_1
 62
     5
  6
CONTINUOUS
 10
-0.523441
 20
1.414417
  0
SEQEND
  8
0
  0
POLYLINE
  8
PLAN_1
 62
     5
  6
CONTINUOUS
 66
     1
 40
0.003000
 41
0.003000
  0
VERTEX
  8
PLAN_1
 62
     5
  6
CONTINUOUS
 10
-0.523441
 20
1.405945
  0
VERTEX
  8
PLAN_1
 62
     5
  6
CONTINUOUS
 10
-0.523441
 20
1.397469
  0
SEQEND
  8
0
  0
POLYLINE
  8
PLAN_1
 62
     5
  6
CONTINUOUS
 66
     1
 40
0.003000
 41
0.003000
  0
VERTEX
  8
PLAN_1
 62
     5
  6
CONTINUOUS
 10
-0.523441
 20
1.389417
  0
VERTEX
  8
PLAN_1
 62
     5
  6
CONTINUOUS
 10
-0.523441
 20
1.380941
  0
SEQEND
  8
0
  0
POLYLINE
  8
PLAN_1
 62
     5
  6
CONTINUOUS
 66
     1
 40
0.003000
 41
0.003000
  0
VERTEX
  8
PLAN_1
 62
     5
  6
CONTINUOUS
 10
-0.523441
 20
1.372469
  0
VERTEX
  8
PLAN_1
 62
     5
  6
CONTINUOUS
 10
-0.523441
 20
1.364417
  0
SEQEND
  8
0
  0
POLYLINE
  8
PLAN_1
 62
     5
  6
CONTINUOUS
 66
     1
 40
0.003000
 41
0.003000
  0
VERTEX
  8
PLAN_1
 62
     5
  6
CONTINUOUS
 10
-0.523441
 20
1.355941
  0
VERTEX
  8
PLAN_1
 62
     5
  6
CONTINUOUS
 10
-0.523441
 20
1.347469
  0
SEQEND
  8
0
  0
POLYLINE
  8
PLAN_1
 62
     5
  6
CONTINUOUS
 66
     1
 40
0.003000
 41
0.003000
  0
VERTEX
  8
PLAN_1
 62
     5
  6
CONTINUOUS
 10
-0.523441
 20
1.339417
  0
VERTEX
  8
PLAN_1
 62
     5
  6
CONTINUOUS
 10
-0.523441
 20
1.330941
  0
SEQEND
  8
0
  0
POLYLINE
  8
PLAN_1
 62
     5
  6
CONTINUOUS
 66
     1
 40
0.003000
 41
0.003000
  0
VERTEX
  8
PLAN_1
 62
     5
  6
CONTINUOUS
 10
-0.523441
 20
1.322469
  0
VERTEX
  8
PLAN_1
 62
     5
  6
CONTINUOUS
 10
-0.523441
 20
1.314417
  0
SEQEND
  8
0
  0
POLYLINE
  8
PLAN_1
 62
     5
  6
CONTINUOUS
 66
     1
 40
0.003000
 41
0.003000
  0
VERTEX
  8
PLAN_1
 62
     5
  6
CONTINUOUS
 10
-0.523441
 20
1.305941
  0
VERTEX
  8
PLAN_1
 62
     5
  6
CONTINUOUS
 10
-0.523441
 20
1.297465
  0
SEQEND
  8
0
  0
POLYLINE
  8
PLAN_1
 62
     5
  6
CONTINUOUS
 66
     1
 40
0.003000
 41
0.003000
  0
VERTEX
  8
PLAN_1
 62
     5
  6
CONTINUOUS
 10
-0.523441
 20
1.289417
  0
VERTEX
  8
PLAN_1
 62
     5
  6
CONTINUOUS
 10
-0.523441
 20
1.280941
  0
SEQEND
  8
0
  0
POLYLINE
  8
PLAN_1
 62
     5
  6
CONTINUOUS
 66
     1
 40
0.003000
 41
0.003000
  0
VERTEX
  8
PLAN_1
 62
     5
  6
CONTINUOUS
 10
-0.523441
 20
1.272465
  0
VERTEX
  8
PLAN_1
 62
     5
  6
CONTINUOUS
 10
-0.523441
 20
1.264413
  0
SEQEND
  8
0
  0
POLYLINE
  8
PLAN_1
 62
     5
  6
CONTINUOUS
 66
     1
 40
0.003000
 41
0.003000
  0
VERTEX
  8
PLAN_1
 62
     5
  6
CONTINUOUS
 10
-0.523441
 20
1.255941
  0
VERTEX
  8
PLAN_1
 62
     5
  6
CONTINUOUS
 10
-0.523441
 20
1.247465
  0
SEQEND
  8
0
  0
POLYLINE
  8
PLAN_1
 62
     5
  6
CONTINUOUS
 66
     1
 40
0.003000
 41
0.003000
  0
VERTEX
  8
PLAN_1
 62
     5
  6
CONTINUOUS
 10
-0.523441
 20
1.239413
  0
VERTEX
  8
PLAN_1
 62
     5
  6
CONTINUOUS
 10
-0.523441
 20
1.230941
  0
SEQEND
  8
0
  0
POLYLINE
  8
PLAN_1
 62
     5
  6
CONTINUOUS
 66
     1
 40
0.003000
 41
0.003000
  0
VERTEX
  8
PLAN_1
 62
     5
  6
CONTINUOUS
 10
-0.523441
 20
1.222465
  0
VERTEX
  8
PLAN_1
 62
     5
  6
CONTINUOUS
 10
-0.523441
 20
1.214413
  0
SEQEND
  8
0
  0
POLYLINE
  8
PLAN_1
 62
     5
  6
CONTINUOUS
 66
     1
 40
0.003000
 41
0.003000
  0
VERTEX
  8
PLAN_1
 62
     5
  6
CONTINUOUS
 10
-0.523441
 20
1.205941
  0
VERTEX
  8
PLAN_1
 62
     5
  6
CONTINUOUS
 10
-0.523441
 20
1.197465
  0
SEQEND
  8
0
  0
POLYLINE
  8
PLAN_1
 62
     5
  6
CONTINUOUS
 66
     1
 40
0.003000
 41
0.003000
  0
VERTEX
  8
PLAN_1
 62
     5
  6
CONTINUOUS
 10
-0.523441
 20
1.189413
  0
VERTEX
  8
PLAN_1
 62
     5
  6
CONTINUOUS
 10
-0.523441
 20
1.180937
  0
SEQEND
  8
0
  0
POLYLINE
  8
PLAN_1
 62
     5
  6
CONTINUOUS
 66
     1
 40
0.003000
 41
0.003000
  0
VERTEX
  8
PLAN_1
 62
     5
  6
CONTINUOUS
 10
-0.523441
 20
1.172886
  0
VERTEX
  8
PLAN_1
 62
     5
  6
CONTINUOUS
 10
-0.523441
 20
1.164413
  0
SEQEND
  8
0
  0
POLYLINE
  8
PLAN_1
 62
     5
  6
CONTINUOUS
 66
     1
 40
0.003000
 41
0.003000
  0
VERTEX
  8
PLAN_1
 62
     5
  6
CONTINUOUS
 10
-0.523441
 20
1.155937
  0
VERTEX
  8
PLAN_1
 62
     5
  6
CONTINUOUS
 10
-0.523441
 20
1.147886
  0
SEQEND
  8
0
  0
POLYLINE
  8
PLAN_1
 62
     5
  6
CONTINUOUS
 66
     1
 40
0.003000
 41
0.003000
  0
VERTEX
  8
PLAN_1
 62
     5
  6
CONTINUOUS
 10
-0.841244
 20
1.629252
  0
VERTEX
  8
PLAN_1
 62
     5
  6
CONTINUOUS
 10
-0.832772
 20
1.629252
  0
SEQEND
  8
0
  0
POLYLINE
  8
PLAN_1
 62
     5
  6
CONTINUOUS
 66
     1
 40
0.003000
 41
0.003000
  0
VERTEX
  8
PLAN_1
 62
     5
  6
CONTINUOUS
 10
-0.824295
 20
1.629252
  0
VERTEX
  8
PLAN_1
 62
     5
  6
CONTINUOUS
 10
-0.816244
 20
1.629252
  0
SEQEND
  8
0
  0
POLYLINE
  8
PLAN_1
 62
     5
  6
CONTINUOUS
 66
     1
 40
0.003000
 41
0.003000
  0
VERTEX
  8
PLAN_1
 62
     5
  6
CONTINUOUS
 10
-0.807772
 20
1.629252
  0
VERTEX
  8
PLAN_1
 62
     5
  6
CONTINUOUS
 10
-0.799295
 20
1.629252
  0
SEQEND
  8
0
  0
POLYLINE
  8
PLAN_1
 62
     5
  6
CONTINUOUS
 66
     1
 40
0.003000
 41
0.003000
  0
VERTEX
  8
PLAN_1
 62
     5
  6
CONTINUOUS
 10
-0.791244
 20
1.629252
  0
VERTEX
  8
PLAN_1
 62
     5
  6
CONTINUOUS
 10
-0.782772
 20
1.629252
  0
SEQEND
  8
0
  0
POLYLINE
  8
PLAN_1
 62
     5
  6
CONTINUOUS
 66
     1
 40
0.003000
 41
0.003000
  0
VERTEX
  8
PLAN_1
 62
     5
  6
CONTINUOUS
 10
-0.774295
 20
1.629252
  0
VERTEX
  8
PLAN_1
 62
     5
  6
CONTINUOUS
 10
-0.766244
 20
1.629252
  0
SEQEND
  8
0
  0
POLYLINE
  8
PLAN_1
 62
     5
  6
CONTINUOUS
 66
     1
 40
0.003000
 41
0.003000
  0
VERTEX
  8
PLAN_1
 62
     5
  6
CONTINUOUS
 10
-0.757768
 20
1.629252
  0
VERTEX
  8
PLAN_1
 62
     5
  6
CONTINUOUS
 10
-0.749295
 20
1.629252
  0
SEQEND
  8
0
  0
POLYLINE
  8
PLAN_1
 62
     5
  6
CONTINUOUS
 66
     1
 40
0.003000
 41
0.003000
  0
VERTEX
  8
PLAN_1
 62
     5
  6
CONTINUOUS
 10
-0.741244
 20
1.629252
  0
VERTEX
  8
PLAN_1
 62
     5
  6
CONTINUOUS
 10
-0.732768
 20
1.629252
  0
SEQEND
  8
0
  0
POLYLINE
  8
PLAN_1
 62
     5
  6
CONTINUOUS
 66
     1
 40
0.003000
 41
0.003000
  0
VERTEX
  8
PLAN_1
 62
     5
  6
CONTINUOUS
 10
-0.724295
 20
1.629252
  0
VERTEX
  8
PLAN_1
 62
     5
  6
CONTINUOUS
 10
-0.716244
 20
1.629252
  0
SEQEND
  8
0
  0
POLYLINE
  8
PLAN_1
 62
     5
  6
CONTINUOUS
 66
     1
 40
0.003000
 41
0.003000
  0
VERTEX
  8
PLAN_1
 62
     5
  6
CONTINUOUS
 10
-0.707768
 20
1.629252
  0
VERTEX
  8
PLAN_1
 62
     5
  6
CONTINUOUS
 10
-0.699295
 20
1.629252
  0
SEQEND
  8
0
  0
POLYLINE
  8
PLAN_1
 62
     5
  6
CONTINUOUS
 66
     1
 40
0.003000
 41
0.003000
  0
VERTEX
  8
PLAN_1
 62
     5
  6
CONTINUOUS
 10
-0.691244
 20
1.629252
  0
VERTEX
  8
PLAN_1
 62
     5
  6
CONTINUOUS
 10
-0.682768
 20
1.629252
  0
SEQEND
  8
0
  0
POLYLINE
  8
PLAN_1
 62
     5
  6
CONTINUOUS
 66
     1
 40
0.003000
 41
0.003000
  0
VERTEX
  8
PLAN_1
 62
     5
  6
CONTINUOUS
 10
-0.674291
 20
1.629252
  0
VERTEX
  8
PLAN_1
 62
     5
  6
CONTINUOUS
 10
-0.666240
 20
1.629252
  0
SEQEND
  8
0
  0
POLYLINE
  8
PLAN_1
 62
     5
  6
CONTINUOUS
 66
     1
 40
0.003000
 41
0.003000
  0
VERTEX
  8
PLAN_1
 62
     5
  6
CONTINUOUS
 10
-0.657768
 20
1.629252
  0
VERTEX
  8
PLAN_1
 62
     5
  6
CONTINUOUS
 10
-0.649291
 20
1.629252
  0
SEQEND
  8
0
  0
POLYLINE
  8
PLAN_1
 62
     5
  6
CONTINUOUS
 66
     1
 40
0.003000
 41
0.003000
  0
VERTEX
  8
PLAN_1
 62
     5
  6
CONTINUOUS
 10
-0.641240
 20
1.629252
  0
VERTEX
  8
PLAN_1
 62
     5
  6
CONTINUOUS
 10
-0.632768
 20
1.629252
  0
SEQEND
  8
0
  0
POLYLINE
  8
PLAN_1
 62
     5
  6
CONTINUOUS
 66
     1
 40
0.003000
 41
0.003000
  0
VERTEX
  8
PLAN_1
 62
     5
  6
CONTINUOUS
 10
-0.624291
 20
1.629252
  0
VERTEX
  8
PLAN_1
 62
     5
  6
CONTINUOUS
 10
-0.616240
 20
1.629252
  0
SEQEND
  8
0
  0
POLYLINE
  8
PLAN_1
 62
     5
  6
CONTINUOUS
 66
     1
 40
0.003000
 41
0.003000
  0
VERTEX
  8
PLAN_1
 62
     5
  6
CONTINUOUS
 10
-0.607768
 20
1.629252
  0
VERTEX
  8
PLAN_1
 62
     5
  6
CONTINUOUS
 10
-0.599291
 20
1.629252
  0
SEQEND
  8
0
  0
POLYLINE
  8
PLAN_1
 62
     5
  6
CONTINUOUS
 66
     1
 40
0.003000
 41
0.003000
  0
VERTEX
  8
PLAN_1
 62
     5
  6
CONTINUOUS
 10
-0.591240
 20
1.629252
  0
VERTEX
  8
PLAN_1
 62
     5
  6
CONTINUOUS
 10
-0.582768
 20
1.629252
  0
SEQEND
  8
0
  0
POLYLINE
  8
PLAN_1
 62
     5
  6
CONTINUOUS
 66
     1
 40
0.003000
 41
0.003000
  0
VERTEX
  8
PLAN_1
 62
     5
  6
CONTINUOUS
 10
-0.574717
 20
1.629252
  0
VERTEX
  8
PLAN_1
 62
     5
  6
CONTINUOUS
 10
-0.566240
 20
1.629252
  0
SEQEND
  8
0
  0
POLYLINE
  8
PLAN_1
 62
     5
  6
CONTINUOUS
 66
     1
 40
0.003000
 41
0.003000
  0
VERTEX
  8
PLAN_1
 62
     5
  6
CONTINUOUS
 10
-0.557764
 20
1.629252
  0
VERTEX
  8
PLAN_1
 62
     5
  6
CONTINUOUS
 10
-0.549713
 20
1.629252
  0
SEQEND
  8
0
  0
POLYLINE
  8
PLAN_1
 62
     5
  6
CONTINUOUS
 66
     1
 40
0.003000
 41
0.003000
  0
VERTEX
  8
PLAN_1
 62
     5
  6
CONTINUOUS
 10
-0.541240
 20
1.629252
  0
VERTEX
  8
PLAN_1
 62
     5
  6
CONTINUOUS
 10
-0.532764
 20
1.629252
  0
SEQEND
  8
0
  0
POLYLINE
  8
PLAN_1
 62
     5
  6
CONTINUOUS
 66
     1
 40
0.003000
 41
0.003000
  0
VERTEX
  8
PLAN_1
 62
     5
  6
CONTINUOUS
 10
-0.707346
 20
1.501283
  0
VERTEX
  8
PLAN_1
 62
     5
  6
CONTINUOUS
 10
-0.707346
 20
1.509335
  0
SEQEND
  8
0
  0
POLYLINE
  8
PLAN_1
 62
     5
  6
CONTINUOUS
 66
     1
 40
0.003000
 41
0.003000
  0
VERTEX
  8
PLAN_1
 62
     5
  6
CONTINUOUS
 10
-0.707346
 20
1.517811
  0
VERTEX
  8
PLAN_1
 62
     5
  6
CONTINUOUS
 10
-0.707346
 20
1.526283
  0
SEQEND
  8
0
  0
POLYLINE
  8
PLAN_1
 62
     5
  6
CONTINUOUS
 66
     1
 40
0.003000
 41
0.003000
  0
VERTEX
  8
PLAN_1
 62
     5
  6
CONTINUOUS
 10
-0.707346
 20
1.534335
  0
VERTEX
  8
PLAN_1
 62
     5
  6
CONTINUOUS
 10
-0.707346
 20
1.542811
  0
SEQEND
  8
0
  0
POLYLINE
  8
PLAN_1
 62
     5
  6
CONTINUOUS
 66
     1
 40
0.003000
 41
0.003000
  0
VERTEX
  8
PLAN_1
 62
     5
  6
CONTINUOUS
 10
-0.707346
 20
1.551283
  0
VERTEX
  8
PLAN_1
 62
     5
  6
CONTINUOUS
 10
-0.707346
 20
1.559335
  0
SEQEND
  8
0
  0
POLYLINE
  8
PLAN_1
 62
     5
  6
CONTINUOUS
 66
     1
 40
0.003000
 41
0.003000
  0
VERTEX
  8
PLAN_1
 62
     5
  6
CONTINUOUS
 10
-0.707346
 20
1.567811
  0
VERTEX
  8
PLAN_1
 62
     5
  6
CONTINUOUS
 10
-0.707346
 20
1.576287
  0
SEQEND
  8
0
  0
POLYLINE
  8
PLAN_1
 62
     5
  6
CONTINUOUS
 66
     1
 40
0.003000
 41
0.003000
  0
VERTEX
  8
PLAN_1
 62
     5
  6
CONTINUOUS
 10
-0.707346
 20
1.584335
  0
VERTEX
  8
PLAN_1
 62
     5
  6
CONTINUOUS
 10
-0.707346
 20
1.592811
  0
SEQEND
  8
0
  0
POLYLINE
  8
PLAN_1
 62
     5
  6
CONTINUOUS
 66
     1
 40
0.003000
 41
0.003000
  0
VERTEX
  8
PLAN_1
 62
     5
  6
CONTINUOUS
 10
-0.707346
 20
1.601287
  0
VERTEX
  8
PLAN_1
 62
     5
  6
CONTINUOUS
 10
-0.707346
 20
1.609339
  0
SEQEND
  8
0
  0
POLYLINE
  8
PLAN_1
 62
     5
  6
CONTINUOUS
 66
     1
 40
0.003000
 41
0.003000
  0
VERTEX
  8
PLAN_1
 62
     5
  6
CONTINUOUS
 10
-0.707346
 20
1.617811
  0
VERTEX
  8
PLAN_1
 62
     5
  6
CONTINUOUS
 10
-0.707346
 20
1.626287
  0
SEQEND
  8
0
  0
POLYLINE
  8
PLAN_1
 62
     5
  6
CONTINUOUS
 66
     1
 40
0.003000
 41
0.003000
  0
VERTEX
  8
PLAN_1
 62
     5
  6
CONTINUOUS
 10
-0.707346
 20
1.634339
  0
VERTEX
  8
PLAN_1
 62
     5
  6
CONTINUOUS
 10
-0.707346
 20
1.642811
  0
SEQEND
  8
0
  0
POLYLINE
  8
PLAN_1
 62
     5
  6
CONTINUOUS
 66
     1
 40
0.003000
 41
0.003000
  0
VERTEX
  8
PLAN_1
 62
     5
  6
CONTINUOUS
 10
-0.707346
 20
1.651287
  0
VERTEX
  8
PLAN_1
 62
     5
  6
CONTINUOUS
 10
-0.707346
 20
1.659339
  0
SEQEND
  8
0
  0
POLYLINE
  8
PLAN_1
 62
     5
  6
CONTINUOUS
 66
     1
 40
0.003000
 41
0.003000
  0
VERTEX
  8
PLAN_1
 62
     5
  6
CONTINUOUS
 10
-0.707346
 20
1.667811
  0
VERTEX
  8
PLAN_1
 62
     5
  6
CONTINUOUS
 10
-0.707346
 20
1.676287
  0
SEQEND
  8
0
  0
POLYLINE
  8
PLAN_1
 62
     5
  6
CONTINUOUS
 66
     1
 40
0.003000
 41
0.003000
  0
VERTEX
  8
PLAN_1
 62
     5
  6
CONTINUOUS
 10
-0.707346
 20
1.684339
  0
VERTEX
  8
PLAN_1
 62
     5
  6
CONTINUOUS
 10
-0.707346
 20
1.692815
  0
SEQEND
  8
0
  0
POLYLINE
  8
PLAN_1
 62
     5
  6
CONTINUOUS
 66
     1
 40
0.003000
 41
0.003000
  0
VERTEX
  8
PLAN_1
 62
     5
  6
CONTINUOUS
 10
-0.707346
 20
1.701287
  0
VERTEX
  8
PLAN_1
 62
     5
  6
CONTINUOUS
 10
-0.707346
 20
1.709339
  0
SEQEND
  8
0
  0
POLYLINE
  8
PLAN_1
 62
     5
  6
CONTINUOUS
 66
     1
 40
0.003000
 41
0.003000
  0
VERTEX
  8
PLAN_1
 62
     5
  6
CONTINUOUS
 10
-0.707346
 20
1.717815
  0
VERTEX
  8
PLAN_1
 62
     5
  6
CONTINUOUS
 10
-0.707346
 20
1.725866
  0
SEQEND
  8
0
  0
POLYLINE
  8
PLAN_1
 62
     5
  6
CONTINUOUS
 66
     1
 40
0.003000
 41
0.003000
  0
VERTEX
  8
PLAN_1
 62
     5
  6
CONTINUOUS
 10
-0.707346
 20
1.734339
  0
VERTEX
  8
PLAN_1
 62
     5
  6
CONTINUOUS
 10
-0.707346
 20
1.742815
  0
SEQEND
  8
0
  0
POLYLINE
  8
PLAN_1
 62
     5
  6
CONTINUOUS
 66
     1
 40
0.003000
 41
0.003000
  0
VERTEX
  8
PLAN_1
 62
     5
  6
CONTINUOUS
 10
-0.707346
 20
1.750866
  0
VERTEX
  8
PLAN_1
 62
     5
  6
CONTINUOUS
 10
-0.707346
 20
1.759339
  0
SEQEND
  8
0
  0
POLYLINE
  8
PLAN_1
 62
     5
  6
CONTINUOUS
 66
     1
 40
0.003000
 41
0.003000
  0
VERTEX
  8
PLAN_1
 62
     5
  6
CONTINUOUS
 10
-2.071354
 20
1.628831
  0
VERTEX
  8
PLAN_1
 62
     5
  6
CONTINUOUS
 10
-2.062882
 20
1.628831
  0
SEQEND
  8
0
  0
POLYLINE
  8
PLAN_1
 62
     5
  6
CONTINUOUS
 66
     1
 40
0.003000
 41
0.003000
  0
VERTEX
  8
PLAN_1
 62
     5
  6
CONTINUOUS
 10
-2.054406
 20
1.628831
  0
VERTEX
  8
PLAN_1
 62
     5
  6
CONTINUOUS
 10
-2.046354
 20
1.628831
  0
SEQEND
  8
0
  0
POLYLINE
  8
PLAN_1
 62
     5
  6
CONTINUOUS
 66
     1
 40
0.003000
 41
0.003000
  0
VERTEX
  8
PLAN_1
 62
     5
  6
CONTINUOUS
 10
-2.037878
 20
1.628831
  0
VERTEX
  8
PLAN_1
 62
     5
  6
CONTINUOUS
 10
-2.029406
 20
1.628831
  0
SEQEND
  8
0
  0
POLYLINE
  8
PLAN_1
 62
     5
  6
CONTINUOUS
 66
     1
 40
0.003000
 41
0.003000
  0
VERTEX
  8
PLAN_1
 62
     5
  6
CONTINUOUS
 10
-2.021354
 20
1.628831
  0
VERTEX
  8
PLAN_1
 62
     5
  6
CONTINUOUS
 10
-2.012878
 20
1.628831
  0
SEQEND
  8
0
  0
POLYLINE
  8
PLAN_1
 62
     5
  6
CONTINUOUS
 66
     1
 40
0.003000
 41
0.003000
  0
VERTEX
  8
PLAN_1
 62
     5
  6
CONTINUOUS
 10
-2.004406
 20
1.628831
  0
VERTEX
  8
PLAN_1
 62
     5
  6
CONTINUOUS
 10
-1.996354
 20
1.628831
  0
SEQEND
  8
0
  0
POLYLINE
  8
PLAN_1
 62
     5
  6
CONTINUOUS
 66
     1
 40
0.003000
 41
0.003000
  0
VERTEX
  8
PLAN_1
 62
     5
  6
CONTINUOUS
 10
-1.987878
 20
1.628831
  0
VERTEX
  8
PLAN_1
 62
     5
  6
CONTINUOUS
 10
-1.979406
 20
1.628831
  0
SEQEND
  8
0
  0
POLYLINE
  8
PLAN_1
 62
     5
  6
CONTINUOUS
 66
     1
 40
0.003000
 41
0.003000
  0
VERTEX
  8
PLAN_1
 62
     5
  6
CONTINUOUS
 10
-1.971354
 20
1.628831
  0
VERTEX
  8
PLAN_1
 62
     5
  6
CONTINUOUS
 10
-1.962878
 20
1.628831
  0
SEQEND
  8
0
  0
POLYLINE
  8
PLAN_1
 62
     5
  6
CONTINUOUS
 66
     1
 40
0.003000
 41
0.003000
  0
VERTEX
  8
PLAN_1
 62
     5
  6
CONTINUOUS
 10
-1.954406
 20
1.628831
  0
VERTEX
  8
PLAN_1
 62
     5
  6
CONTINUOUS
 10
-1.946354
 20
1.628831
  0
SEQEND
  8
0
  0
POLYLINE
  8
PLAN_1
 62
     5
  6
CONTINUOUS
 66
     1
 40
0.003000
 41
0.003000
  0
VERTEX
  8
PLAN_1
 62
     5
  6
CONTINUOUS
 10
-1.937878
 20
1.628831
  0
VERTEX
  8
PLAN_1
 62
     5
  6
CONTINUOUS
 10
-1.929402
 20
1.628831
  0
SEQEND
  8
0
  0
POLYLINE
  8
PLAN_1
 62
     5
  6
CONTINUOUS
 66
     1
 40
0.003000
 41
0.003000
  0
VERTEX
  8
PLAN_1
 62
     5
  6
CONTINUOUS
 10
-1.921350
 20
1.628831
  0
VERTEX
  8
PLAN_1
 62
     5
  6
CONTINUOUS
 10
-1.912878
 20
1.628831
  0
SEQEND
  8
0
  0
POLYLINE
  8
PLAN_1
 62
     5
  6
CONTINUOUS
 66
     1
 40
0.003000
 41
0.003000
  0
VERTEX
  8
PLAN_1
 62
     5
  6
CONTINUOUS
 10
-1.904402
 20
1.628831
  0
VERTEX
  8
PLAN_1
 62
     5
  6
CONTINUOUS
 10
-1.896350
 20
1.628831
  0
SEQEND
  8
0
  0
POLYLINE
  8
PLAN_1
 62
     5
  6
CONTINUOUS
 66
     1
 40
0.003000
 41
0.003000
  0
VERTEX
  8
PLAN_1
 62
     5
  6
CONTINUOUS
 10
-1.887878
 20
1.628831
  0
VERTEX
  8
PLAN_1
 62
     5
  6
CONTINUOUS
 10
-1.879827
 20
1.628831
  0
SEQEND
  8
0
  0
POLYLINE
  8
PLAN_1
 62
     5
  6
CONTINUOUS
 66
     1
 40
0.003000
 41
0.003000
  0
VERTEX
  8
PLAN_1
 62
     5
  6
CONTINUOUS
 10
-1.871350
 20
1.628831
  0
VERTEX
  8
PLAN_1
 62
     5
  6
CONTINUOUS
 10
-1.862878
 20
1.628831
  0
SEQEND
  8
0
  0
POLYLINE
  8
PLAN_1
 62
     5
  6
CONTINUOUS
 66
     1
 40
0.003000
 41
0.003000
  0
VERTEX
  8
PLAN_1
 62
     5
  6
CONTINUOUS
 10
-1.854827
 20
1.628831
  0
VERTEX
  8
PLAN_1
 62
     5
  6
CONTINUOUS
 10
-1.846350
 20
1.628831
  0
SEQEND
  8
0
  0
POLYLINE
  8
PLAN_1
 62
     5
  6
CONTINUOUS
 66
     1
 40
0.003000
 41
0.003000
  0
VERTEX
  8
PLAN_1
 62
     5
  6
CONTINUOUS
 10
-1.837874
 20
1.628831
  0
VERTEX
  8
PLAN_1
 62
     5
  6
CONTINUOUS
 10
-1.829823
 20
1.628831
  0
SEQEND
  8
0
  0
POLYLINE
  8
PLAN_1
 62
     5
  6
CONTINUOUS
 66
     1
 40
0.003000
 41
0.003000
  0
VERTEX
  8
PLAN_1
 62
     5
  6
CONTINUOUS
 10
-1.821350
 20
1.628831
  0
VERTEX
  8
PLAN_1
 62
     5
  6
CONTINUOUS
 10
-1.812874
 20
1.628831
  0
SEQEND
  8
0
  0
POLYLINE
  8
PLAN_1
 62
     5
  6
CONTINUOUS
 66
     1
 40
0.003000
 41
0.003000
  0
VERTEX
  8
PLAN_1
 62
     5
  6
CONTINUOUS
 10
-1.804823
 20
1.628831
  0
VERTEX
  8
PLAN_1
 62
     5
  6
CONTINUOUS
 10
-1.798469
 20
1.628831
  0
SEQEND
  8
0
  0
POLYLINE
  8
PLAN_1
 62
     5
  6
CONTINUOUS
 66
     1
 40
0.003000
 41
0.003000
  0
VERTEX
  8
PLAN_1
 62
     5
  6
CONTINUOUS
 10
-1.804823
 20
1.628831
  0
VERTEX
  8
PLAN_1
 62
     5
  6
CONTINUOUS
 10
-1.798469
 20
1.628831
  0
SEQEND
  8
0
  0
POLYLINE
  8
PLAN_1
 62
     5
  6
CONTINUOUS
 66
     1
 40
0.003000
 41
0.003000
  0
VERTEX
  8
PLAN_1
 62
     5
  6
CONTINUOUS
 10
-1.937453
 20
1.486878
  0
VERTEX
  8
PLAN_1
 62
     5
  6
CONTINUOUS
 10
-1.937453
 20
1.494929
  0
SEQEND
  8
0
  0
POLYLINE
  8
PLAN_1
 62
     5
  6
CONTINUOUS
 66
     1
 40
0.003000
 41
0.003000
  0
VERTEX
  8
PLAN_1
 62
     5
  6
CONTINUOUS
 10
-1.937453
 20
1.503402
  0
VERTEX
  8
PLAN_1
 62
     5
  6
CONTINUOUS
 10
-1.937453
 20
1.511878
  0
SEQEND
  8
0
  0
POLYLINE
  8
PLAN_1
 62
     5
  6
CONTINUOUS
 66
     1
 40
0.003000
 41
0.003000
  0
VERTEX
  8
PLAN_1
 62
     5
  6
CONTINUOUS
 10
-1.937453
 20
1.519929
  0
VERTEX
  8
PLAN_1
 62
     5
  6
CONTINUOUS
 10
-1.937453
 20
1.528402
  0
SEQEND
  8
0
  0
POLYLINE
  8
PLAN_1
 62
     5
  6
CONTINUOUS
 66
     1
 40
0.003000
 41
0.003000
  0
VERTEX
  8
PLAN_1
 62
     5
  6
CONTINUOUS
 10
-1.937453
 20
1.536878
  0
VERTEX
  8
PLAN_1
 62
     5
  6
CONTINUOUS
 10
-1.937453
 20
1.544929
  0
SEQEND
  8
0
  0
POLYLINE
  8
PLAN_1
 62
     5
  6
CONTINUOUS
 66
     1
 40
0.003000
 41
0.003000
  0
VERTEX
  8
PLAN_1
 62
     5
  6
CONTINUOUS
 10
-1.937453
 20
1.553406
  0
VERTEX
  8
PLAN_1
 62
     5
  6
CONTINUOUS
 10
-1.937453
 20
1.561457
  0
SEQEND
  8
0
  0
POLYLINE
  8
PLAN_1
 62
     5
  6
CONTINUOUS
 66
     1
 40
0.003000
 41
0.003000
  0
VERTEX
  8
PLAN_1
 62
     5
  6
CONTINUOUS
 10
-1.937453
 20
1.569929
  0
VERTEX
  8
PLAN_1
 62
     5
  6
CONTINUOUS
 10
-1.937453
 20
1.578406
  0
SEQEND
  8
0
  0
POLYLINE
  8
PLAN_1
 62
     5
  6
CONTINUOUS
 66
     1
 40
0.003000
 41
0.003000
  0
VERTEX
  8
PLAN_1
 62
     5
  6
CONTINUOUS
 10
-1.937453
 20
1.586457
  0
VERTEX
  8
PLAN_1
 62
     5
  6
CONTINUOUS
 10
-1.937453
 20
1.594929
  0
SEQEND
  8
0
  0
POLYLINE
  8
PLAN_1
 62
     5
  6
CONTINUOUS
 66
     1
 40
0.003000
 41
0.003000
  0
VERTEX
  8
PLAN_1
 62
     5
  6
CONTINUOUS
 10
-1.937453
 20
1.603406
  0
VERTEX
  8
PLAN_1
 62
     5
  6
CONTINUOUS
 10
-1.937453
 20
1.611457
  0
SEQEND
  8
0
  0
POLYLINE
  8
PLAN_1
 62
     5
  6
CONTINUOUS
 66
     1
 40
0.003000
 41
0.003000
  0
VERTEX
  8
PLAN_1
 62
     5
  6
CONTINUOUS
 10
-1.937453
 20
1.619929
  0
VERTEX
  8
PLAN_1
 62
     5
  6
CONTINUOUS
 10
-1.937453
 20
1.628406
  0
SEQEND
  8
0
  0
POLYLINE
  8
PLAN_1
 62
     5
  6
CONTINUOUS
 66
     1
 40
0.003000
 41
0.003000
  0
VERTEX
  8
PLAN_1
 62
     5
  6
CONTINUOUS
 10
-1.937453
 20
1.636457
  0
VERTEX
  8
PLAN_1
 62
     5
  6
CONTINUOUS
 10
-1.937453
 20
1.644929
  0
SEQEND
  8
0
  0
POLYLINE
  8
PLAN_1
 62
     5
  6
CONTINUOUS
 66
     1
 40
0.003000
 41
0.003000
  0
VERTEX
  8
PLAN_1
 62
     5
  6
CONTINUOUS
 10
-1.937453
 20
1.653406
  0
VERTEX
  8
PLAN_1
 62
     5
  6
CONTINUOUS
 10
-1.937453
 20
1.661457
  0
SEQEND
  8
0
  0
POLYLINE
  8
PLAN_1
 62
     5
  6
CONTINUOUS
 66
     1
 40
0.003000
 41
0.003000
  0
VERTEX
  8
PLAN_1
 62
     5
  6
CONTINUOUS
 10
-1.937453
 20
1.669933
  0
VERTEX
  8
PLAN_1
 62
     5
  6
CONTINUOUS
 10
-1.937453
 20
1.678406
  0
SEQEND
  8
0
  0
POLYLINE
  8
PLAN_1
 62
     5
  6
CONTINUOUS
 66
     1
 40
0.003000
 41
0.003000
  0
VERTEX
  8
PLAN_1
 62
     5
  6
CONTINUOUS
 10
-1.937453
 20
1.686457
  0
VERTEX
  8
PLAN_1
 62
     5
  6
CONTINUOUS
 10
-1.937453
 20
1.694933
  0
SEQEND
  8
0
  0
POLYLINE
  8
PLAN_1
 62
     5
  6
CONTINUOUS
 66
     1
 40
0.003000
 41
0.003000
  0
VERTEX
  8
PLAN_1
 62
     5
  6
CONTINUOUS
 10
-1.937453
 20
1.703406
  0
VERTEX
  8
PLAN_1
 62
     5
  6
CONTINUOUS
 10
-1.937453
 20
1.711457
  0
SEQEND
  8
0
  0
POLYLINE
  8
PLAN_1
 62
     5
  6
CONTINUOUS
 66
     1
 40
0.003000
 41
0.003000
  0
VERTEX
  8
PLAN_1
 62
     5
  6
CONTINUOUS
 10
-1.937453
 20
1.719933
  0
VERTEX
  8
PLAN_1
 62
     5
  6
CONTINUOUS
 10
-1.937453
 20
1.728406
  0
SEQEND
  8
0
  0
POLYLINE
  8
PLAN_1
 62
     5
  6
CONTINUOUS
 66
     1
 40
0.003000
 41
0.003000
  0
VERTEX
  8
PLAN_1
 62
     5
  6
CONTINUOUS
 10
-1.937453
 20
1.736457
  0
VERTEX
  8
PLAN_1
 62
     5
  6
CONTINUOUS
 10
-1.937453
 20
1.744933
  0
SEQEND
  8
0
  0
POLYLINE
  8
PLAN_1
 62
     5
  6
CONTINUOUS
 66
     1
 40
0.003000
 41
0.003000
  0
VERTEX
  8
PLAN_1
 62
     5
  6
CONTINUOUS
 10
-1.937453
 20
1.753409
  0
VERTEX
  8
PLAN_1
 62
     5
  6
CONTINUOUS
 10
-1.937453
 20
1.761461
  0
SEQEND
  8
0
  0
POLYLINE
  8
PLAN_1
 62
     5
  6
CONTINUOUS
 66
     1
 40
0.003000
 41
0.003000
  0
VERTEX
  8
PLAN_1
 62
     5
  6
CONTINUOUS
 10
-1.937453
 20
1.769933
  0
VERTEX
  8
PLAN_1
 62
     5
  6
CONTINUOUS
 10
-1.937453
 20
1.778409
  0
SEQEND
  8
0
  0
POLYLINE
  8
PLAN_1
 62
     5
  6
CONTINUOUS
 66
     1
 40
0.003000
 41
0.003000
  0
VERTEX
  8
PLAN_1
 62
     5
  6
CONTINUOUS
 10
-1.937453
 20
1.786461
  0
VERTEX
  8
PLAN_1
 62
     5
  6
CONTINUOUS
 10
-1.937453
 20
1.794933
  0
SEQEND
  8
0
  0
POLYLINE
  8
PLAN_1
  6
CONTINUOUS
 66
     1
 40
0.008472
 41
0.008472
  0
VERTEX
  8
PLAN_1
  6
CONTINUOUS
 10
-1.979406
 20
2.690717
  0
VERTEX
  8
PLAN_1
  6
CONTINUOUS
 10
-1.979406
 20
1.894087
  0
VERTEX
  8
PLAN_1
  6
CONTINUOUS
 10
-0.665394
 20
1.894087
  0
VERTEX
  8
PLAN_1
  6
CONTINUOUS
 10
-0.665394
 20
2.690717
  0
VERTEX
  8
PLAN_1
  6
CONTINUOUS
 10
-1.979406
 20
2.690717
  0
SEQEND
  8
0
  0
POLYLINE
  8
PLAN_1
  6
CONTINUOUS
 66
     1
 40
0.008472
 41
0.008472
  0
VERTEX
  8
PLAN_1
  6
CONTINUOUS
 10
-1.978980
 20
2.086043
  0
VERTEX
  8
PLAN_1
  6
CONTINUOUS
 10
-1.650583
 20
2.086043
  0
VERTEX
  8
PLAN_1
  6
CONTINUOUS
 10
-1.650583
 20
1.894087
  0
SEQEND
  8
0
  0
POLYLINE
  8
PLAN_1
  6
CONTINUOUS
 66
     1
 40
0.008472
 41
0.008472
  0
VERTEX
  8
PLAN_1
  6
CONTINUOUS
 10
-0.998453
 20
1.894087
  0
VERTEX
  8
PLAN_1
  6
CONTINUOUS
 10
-0.998453
 20
2.085193
  0
VERTEX
  8
PLAN_1
  6
CONTINUOUS
 10
-0.664972
 20
2.085193
  0
SEQEND
  8
0
  0
POLYLINE
  8
PLAN_1
  6
CONTINUOUS
 66
     1
 40
0.008472
 41
0.008472
  0
VERTEX
  8
PLAN_1
  6
CONTINUOUS
 10
-1.740839
 20
2.086043
  0
VERTEX
  8
PLAN_1
  6
CONTINUOUS
 10
-1.740839
 20
1.894087
  0
SEQEND
  8
0
  0
POLYLINE
  8
PLAN_1
  6
CONTINUOUS
 66
     1
 40
0.008472
 41
0.008472
  0
VERTEX
  8
PLAN_1
  6
CONTINUOUS
 10
-0.899720
 20
2.086043
  0
VERTEX
  8
PLAN_1
  6
CONTINUOUS
 10
-0.899720
 20
1.894087
  0
SEQEND
  8
0
  0
POLYLINE
  8
PLAN_1
  6
CONTINUOUS
 66
     1
 40
0.008472
 41
0.008472
  0
VERTEX
  8
PLAN_1
  6
CONTINUOUS
 10
-1.121760
 20
1.477555
  0
VERTEX
  8
PLAN_1
  6
CONTINUOUS
 10
-1.121760
 20
1.524165
  0
VERTEX
  8
PLAN_1
  6
CONTINUOUS
 10
-1.522614
 20
1.524165
  0
VERTEX
  8
PLAN_1
  6
CONTINUOUS
 10
-1.522614
 20
1.477555
  0
VERTEX
  8
PLAN_1
  6
CONTINUOUS
 10
-1.121760
 20
1.477555
  0
SEQEND
  8
0
  0
POLYLINE
  8
PLAN_1
  6
CONTINUOUS
 66
     1
 40
0.008472
 41
0.008472
  0
VERTEX
  8
PLAN_1
  6
CONTINUOUS
 10
-0.783618
 20
1.871209
  0
VERTEX
  8
PLAN_1
  6
CONTINUOUS
 10
-0.783618
 20
1.894087
  0
VERTEX
  8
PLAN_1
  6
CONTINUOUS
 10
-1.860756
 20
1.894087
  0
VERTEX
  8
PLAN_1
  6
CONTINUOUS
 10
-1.860756
 20
1.871209
  0
VERTEX
  8
PLAN_1
  6
CONTINUOUS
 10
-0.783618
 20
1.871209
  0
SEQEND
  8
0
  0
POLYLINE
  8
PLAN_1
  6
CONTINUOUS
 66
     1
 40
0.008472
 41
0.008472
  0
VERTEX
  8
PLAN_1
  6
CONTINUOUS
 10
-0.991673
 20
1.524165
  0
VERTEX
  8
PLAN_1
  6
CONTINUOUS
 10
-0.991673
 20
1.871209
  0
VERTEX
  8
PLAN_1
  6
CONTINUOUS
 10
-1.652701
 20
1.871209
  0
VERTEX
  8
PLAN_1
  6
CONTINUOUS
 10
-1.652701
 20
1.524165
  0
VERTEX
  8
PLAN_1
  6
CONTINUOUS
 10
-0.991673
 20
1.524165
  0
SEQEND
  8
0
  0
POLYLINE
  8
PLAN_1
  6
CONTINUOUS
 66
     1
 40
0.008472
 41
0.008472
  0
VERTEX
  8
PLAN_1
  6
CONTINUOUS
 10
-0.968791
 20
2.689445
  0
VERTEX
  8
PLAN_1
  6
CONTINUOUS
 10
-0.968791
 20
2.711476
  0
VERTEX
  8
PLAN_1
  6
CONTINUOUS
 10
-1.670075
 20
2.711476
  0
VERTEX
  8
PLAN_1
  6
CONTINUOUS
 10
-1.670075
 20
2.689445
  0
VERTEX
  8
PLAN_1
  6
CONTINUOUS
 10
-0.968791
 20
2.689445
  0
SEQEND
  8
0
  0
POLYLINE
  8
PLAN_1
  6
CONTINUOUS
 66
     1
 40
0.008472
 41
0.008472
  0
VERTEX
  8
PLAN_1
  6
CONTINUOUS
 10
-1.123031
 20
3.088181
  0
VERTEX
  8
PLAN_1
  6
CONTINUOUS
 10
-1.144217
 20
3.103858
  0
VERTEX
  8
PLAN_1
  6
CONTINUOUS
 10
-1.164980
 20
3.117843
  0
VERTEX
  8
PLAN_1
  6
CONTINUOUS
 10
-1.185319
 20
3.129283
  0
VERTEX
  8
PLAN_1
  6
CONTINUOUS
 10
-1.205236
 20
3.139453
  0
VERTEX
  8
PLAN_1
  6
CONTINUOUS
 10
-1.224728
 20
3.147929
  0
VERTEX
  8
PLAN_1
  6
CONTINUOUS
 10
-1.243795
 20
3.154283
  0
VERTEX
  8
PLAN_1
  6
CONTINUOUS
 10
-1.262441
 20
3.159791
  0
VERTEX
  8
PLAN_1
  6
CONTINUOUS
 10
-1.280236
 20
3.163606
  0
VERTEX
  8
PLAN_1
  6
CONTINUOUS
 10
-1.298035
 20
3.165724
  0
VERTEX
  8
PLAN_1
  6
CONTINUOUS
 10
-1.314984
 20
3.167417
  0
VERTEX
  8
PLAN_1
  6
CONTINUOUS
 10
-1.331508
 20
3.167417
  0
VERTEX
  8
PLAN_1
  6
CONTINUOUS
 10
-1.347610
 20
3.166571
  0
VERTEX
  8
PLAN_1
  6
CONTINUOUS
 10
-1.362866
 20
3.164878
  0
VERTEX
  8
PLAN_1
  6
CONTINUOUS
 10
-1.377697
 20
3.162335
  0
VERTEX
  8
PLAN_1
  6
CONTINUOUS
 10
-1.392102
 20
3.158945
  0
VERTEX
  8
PLAN_1
  6
CONTINUOUS
 10
-1.405240
 20
3.155130
  0
VERTEX
  8
PLAN_1
  6
CONTINUOUS
 10
-1.418374
 20
3.150469
  0
VERTEX
  8
PLAN_1
  6
CONTINUOUS
 10
-1.430240
 20
3.145807
  0
VERTEX
  8
PLAN_1
  6
CONTINUOUS
 10
-1.441681
 20
3.140724
  0
VERTEX
  8
PLAN_1
  6
CONTINUOUS
 10
-1.452697
 20
3.135217
  0
VERTEX
  8
PLAN_1
  6
CONTINUOUS
 10
-1.462445
 20
3.129705
  0
VERTEX
  8
PLAN_1
  6
CONTINUOUS
 10
-1.471768
 20
3.124197
  0
VERTEX
  8
PLAN_1
  6
CONTINUOUS
 10
-1.480240
 20
3.118689
  0
VERTEX
  8
PLAN_1
  6
CONTINUOUS
 10
-1.487870
 20
3.113181
  0
VERTEX
  8
PLAN_1
  6
CONTINUOUS
 10
-1.500583
 20
3.103433
  0
VERTEX
  8
PLAN_1
  6
CONTINUOUS
 10
-1.509902
 20
3.095386
  0
VERTEX
  8
PLAN_1
  6
CONTINUOUS
 10
-1.515835
 20
3.090299
  0
VERTEX
  8
PLAN_1
  6
CONTINUOUS
 10
-1.517531
 20
3.088181
  0
SEQEND
  8
0
  0
POLYLINE
  8
PLAN_1
  6
CONTINUOUS
 66
     1
 40
0.008472
 41
0.008472
  0
VERTEX
  8
PLAN_1
  6
CONTINUOUS
 10
-1.517531
 20
3.088181
  0
VERTEX
  8
PLAN_1
  6
CONTINUOUS
 10
-1.517531
 20
2.711476
  0
VERTEX
  8
PLAN_1
  6
CONTINUOUS
 10
-1.123453
 20
2.711476
  0
VERTEX
  8
PLAN_1
  6
CONTINUOUS
 10
-1.123031
 20
3.088181
  0
SEQEND
  8
0
  0
POLYLINE
  8
PLAN_1
  6
CONTINUOUS
 66
     1
 40
0.008472
 41
0.008472
  0
VERTEX
  8
PLAN_1
  6
CONTINUOUS
 10
-1.123453
 20
3.086909
  0
VERTEX
  8
PLAN_1
  6
CONTINUOUS
 10
-1.517531
 20
3.086909
  0
SEQEND
  8
0
  0
POLYLINE
  8
PLAN_1
 62
     2
  6
CONTINUOUS
 66
     1
 40
0.004236
 41
0.004236
  0
VERTEX
  8
PLAN_1
 62
     2
  6
CONTINUOUS
 10
-1.484480
 20
3.291575
  0
VERTEX
  8
PLAN_1
 62
     2
  6
CONTINUOUS
 10
-1.152693
 20
3.291575
  0
SEQEND
  8
0
  0
SOLID
  8
PLAN_1
 62
     2
 10
-1.123453
 20
3.291575
 11
-1.182354
 21
3.307252
 12
-1.123453
 22
3.291575
 13
-1.182354
 23
3.275898
  0
POLYLINE
  8
PLAN_1
 62
     2
  6
CONTINUOUS
 66
     1
 40
0.003000
 41
0.003000
  0
VERTEX
  8
PLAN_1
 62
     2
  6
CONTINUOUS
 10
-1.123453
 20
3.291575
  0
VERTEX
  8
PLAN_1
 62
     2
  6
CONTINUOUS
 10
-1.182354
 20
3.307252
  0
VERTEX
  8
PLAN_1
 62
     2
  6
CONTINUOUS
 10
-1.182354
 20
3.275898
  0
VERTEX
  8
PLAN_1
 62
     2
  6
CONTINUOUS
 10
-1.123453
 20
3.291575
  0
SEQEND
  8
0
  0
SOLID
  8
PLAN_1
 62
     2
 10
-1.514142
 20
3.291575
 11
-1.454819
 21
3.307252
 12
-1.514142
 22
3.291575
 13
-1.454819
 23
3.275898
  0
POLYLINE
  8
PLAN_1
 62
     2
  6
CONTINUOUS
 66
     1
 40
0.003000
 41
0.003000
  0
VERTEX
  8
PLAN_1
 62
     2
  6
CONTINUOUS
 10
-1.514142
 20
3.291575
  0
VERTEX
  8
PLAN_1
 62
     2
  6
CONTINUOUS
 10
-1.454819
 20
3.307252
  0
VERTEX
  8
PLAN_1
 62
     2
  6
CONTINUOUS
 10
-1.454819
 20
3.275898
  0
VERTEX
  8
PLAN_1
 62
     2
  6
CONTINUOUS
 10
-1.514142
 20
3.291575
  0
SEQEND
  8
0
  0
POLYLINE
  8
PLAN_1
 62
     2
  6
CONTINUOUS
 66
     1
 40
0.003000
 41
0.003000
  0
VERTEX
  8
PLAN_1
 62
     2
  6
CONTINUOUS
 10
-1.348035
 20
3.379287
  0
VERTEX
  8
PLAN_1
 62
     2
  6
CONTINUOUS
 10
-1.345917
 20
3.376323
  0
VERTEX
  8
PLAN_1
 62
     2
  6
CONTINUOUS
 10
-1.344220
 20
3.372933
  0
VERTEX
  8
PLAN_1
 62
     2
  6
CONTINUOUS
 10
-1.342528
 20
3.369543
  0
VERTEX
  8
PLAN_1
 62
     2
  6
CONTINUOUS
 10
-1.341681
 20
3.366154
  0
VERTEX
  8
PLAN_1
 62
     2
  6
CONTINUOUS
 10
-1.340831
 20
3.362764
  0
VERTEX
  8
PLAN_1
 62
     2
  6
CONTINUOUS
 10
-1.339984
 20
3.359374
  0
VERTEX
  8
PLAN_1
 62
     2
  6
CONTINUOUS
 10
-1.339559
 20
3.355984
  0
VERTEX
  8
PLAN_1
 62
     2
  6
CONTINUOUS
 10
-1.339559
 20
3.352591
  0
VERTEX
  8
PLAN_1
 62
     2
  6
CONTINUOUS
 10
-1.339559
 20
3.349626
  0
VERTEX
  8
PLAN_1
 62
     2
  6
CONTINUOUS
 10
-1.339984
 20
3.346236
  0
VERTEX
  8
PLAN_1
 62
     2
  6
CONTINUOUS
 10
-1.340409
 20
3.342846
  0
VERTEX
  8
PLAN_1
 62
     2
  6
CONTINUOUS
 10
-1.341256
 20
3.339882
  0
VERTEX
  8
PLAN_1
 62
     2
  6
CONTINUOUS
 10
-1.342528
 20
3.336492
  0
VERTEX
  8
PLAN_1
 62
     2
  6
CONTINUOUS
 10
-1.343799
 20
3.333102
  0
VERTEX
  8
PLAN_1
 62
     2
  6
CONTINUOUS
 10
-1.345492
 20
3.330134
  0
VERTEX
  8
PLAN_1
 62
     2
  6
CONTINUOUS
 10
-1.347189
 20
3.327169
  0
VERTEX
  8
PLAN_1
 62
     2
  6
CONTINUOUS
 10
-1.349732
 20
3.324201
  0
VERTEX
  8
PLAN_1
 62
     2
  6
CONTINUOUS
 10
-1.352272
 20
3.321661
  0
VERTEX
  8
PLAN_1
 62
     2
  6
CONTINUOUS
 10
-1.355240
 20
3.319118
  0
VERTEX
  8
PLAN_1
 62
     2
  6
CONTINUOUS
 10
-1.358630
 20
3.317421
  0
VERTEX
  8
PLAN_1
 62
     2
  6
CONTINUOUS
 10
-1.362441
 20
3.315728
  0
VERTEX
  8
PLAN_1
 62
     2
  6
CONTINUOUS
 10
-1.366681
 20
3.314457
  0
VERTEX
  8
PLAN_1
 62
     2
  6
CONTINUOUS
 10
-1.370917
 20
3.313610
  0
VERTEX
  8
PLAN_1
 62
     2
  6
CONTINUOUS
 10
-1.376004
 20
3.313185
  0
VERTEX
  8
PLAN_1
 62
     2
  6
CONTINUOUS
 10
-1.379815
 20
3.313610
  0
VERTEX
  8
PLAN_1
 62
     2
  6
CONTINUOUS
 10
-1.383630
 20
3.314031
  0
VERTEX
  8
PLAN_1
 62
     2
  6
CONTINUOUS
 10
-1.387020
 20
3.314878
  0
VERTEX
  8
PLAN_1
 62
     2
  6
CONTINUOUS
 10
-1.390409
 20
3.315728
  0
VERTEX
  8
PLAN_1
 62
     2
  6
CONTINUOUS
 10
-1.393374
 20
3.317000
  0
VERTEX
  8
PLAN_1
 62
     2
  6
CONTINUOUS
 10
-1.395917
 20
3.318693
  0
VERTEX
  8
PLAN_1
 62
     2
  6
CONTINUOUS
 10
-1.398461
 20
3.320390
  0
VERTEX
  8
PLAN_1
 62
     2
  6
CONTINUOUS
 10
-1.400579
 20
3.322508
  0
VERTEX
  8
PLAN_1
 62
     2
  6
CONTINUOUS
 10
-1.409055
 20
3.313185
  0
VERTEX
  8
PLAN_1
 62
     2
  6
CONTINUOUS
 10
-1.412445
 20
3.316150
  0
VERTEX
  8
PLAN_1
 62
     2
  6
CONTINUOUS
 10
-1.403543
 20
3.325472
  0
VERTEX
  8
PLAN_1
 62
     2
  6
CONTINUOUS
 10
-1.405665
 20
3.328862
  0
VERTEX
  8
PLAN_1
 62
     2
  6
CONTINUOUS
 10
-1.407783
 20
3.331831
  0
VERTEX
  8
PLAN_1
 62
     2
  6
CONTINUOUS
 10
-1.409055
 20
3.335642
  0
VERTEX
  8
PLAN_1
 62
     2
  6
CONTINUOUS
 10
-1.410327
 20
3.339031
  0
VERTEX
  8
PLAN_1
 62
     2
  6
CONTINUOUS
 10
-1.411173
 20
3.342421
  0
VERTEX
  8
PLAN_1
 62
     2
  6
CONTINUOUS
 10
-1.412020
 20
3.345811
  0
VERTEX
  8
PLAN_1
 62
     2
  6
CONTINUOUS
 10
-1.412445
 20
3.349201
  0
VERTEX
  8
PLAN_1
 62
     2
  6
CONTINUOUS
 10
-1.412445
 20
3.352591
  0
VERTEX
  8
PLAN_1
 62
     2
  6
CONTINUOUS
 10
-1.412445
 20
3.355984
  0
VERTEX
  8
PLAN_1
 62
     2
  6
CONTINUOUS
 10
-1.412020
 20
3.358949
  0
VERTEX
  8
PLAN_1
 62
     2
  6
CONTINUOUS
 10
-1.411594
 20
3.362339
  0
VERTEX
  8
PLAN_1
 62
     2
  6
CONTINUOUS
 10
-1.410748
 20
3.365728
  0
VERTEX
  8
PLAN_1
 62
     2
  6
CONTINUOUS
 10
-1.409476
 20
3.369118
  0
VERTEX
  8
PLAN_1
 62
     2
  6
CONTINUOUS
 10
-1.408205
 20
3.372083
  0
VERTEX
  8
PLAN_1
 62
     2
  6
CONTINUOUS
 10
-1.406512
 20
3.375472
  0
VERTEX
  8
PLAN_1
 62
     2
  6
CONTINUOUS
 10
-1.404815
 20
3.378441
  0
VERTEX
  8
PLAN_1
 62
     2
  6
CONTINUOUS
 10
-1.402276
 20
3.381406
  0
VERTEX
  8
PLAN_1
 62
     2
  6
CONTINUOUS
 10
-1.399732
 20
3.383949
  0
VERTEX
  8
PLAN_1
 62
     2
  6
CONTINUOUS
 10
-1.396764
 20
3.386067
  0
VERTEX
  8
PLAN_1
 62
     2
  6
CONTINUOUS
 10
-1.393374
 20
3.388185
  0
VERTEX
  8
PLAN_1
 62
     2
  6
CONTINUOUS
 10
-1.389563
 20
3.389882
  0
VERTEX
  8
PLAN_1
 62
     2
  6
CONTINUOUS
 10
-1.385748
 20
3.391154
  0
VERTEX
  8
PLAN_1
 62
     2
  6
CONTINUOUS
 10
-1.381087
 20
3.391575
  0
VERTEX
  8
PLAN_1
 62
     2
  6
CONTINUOUS
 10
-1.376004
 20
3.392000
  0
VERTEX
  8
PLAN_1
 62
     2
  6
CONTINUOUS
 10
-1.372189
 20
3.392000
  0
VERTEX
  8
PLAN_1
 62
     2
  6
CONTINUOUS
 10
-1.368374
 20
3.391154
  0
VERTEX
  8
PLAN_1
 62
     2
  6
CONTINUOUS
 10
-1.364563
 20
3.390728
  0
VERTEX
  8
PLAN_1
 62
     2
  6
CONTINUOUS
 10
-1.361594
 20
3.389457
  0
VERTEX
  8
PLAN_1
 62
     2
  6
CONTINUOUS
 10
-1.358630
 20
3.388185
  0
VERTEX
  8
PLAN_1
 62
     2
  6
CONTINUOUS
 10
-1.355661
 20
3.386492
  0
VERTEX
  8
PLAN_1
 62
     2
  6
CONTINUOUS
 10
-1.353543
 20
3.384795
  0
VERTEX
  8
PLAN_1
 62
     2
  6
CONTINUOUS
 10
-1.351000
 20
3.382677
  0
VERTEX
  8
PLAN_1
 62
     2
  6
CONTINUOUS
 10
-1.342949
 20
3.392000
  0
VERTEX
  8
PLAN_1
 62
     2
  6
CONTINUOUS
 10
-1.339559
 20
3.389035
  0
VERTEX
  8
PLAN_1
 62
     2
  6
CONTINUOUS
 10
-1.348035
 20
3.379287
  0
SEQEND
  8
0
  0
POLYLINE
  8
PLAN_1
 62
     2
  6
CONTINUOUS
 66
     1
 40
0.003000
 41
0.003000
  0
VERTEX
  8
PLAN_1
 62
     2
  6
CONTINUOUS
 10
-1.393799
 20
3.329709
  0
VERTEX
  8
PLAN_1
 62
     2
  6
CONTINUOUS
 10
-1.392102
 20
3.328016
  0
VERTEX
  8
PLAN_1
 62
     2
  6
CONTINUOUS
 10
-1.390409
 20
3.326744
  0
VERTEX
  8
PLAN_1
 62
     2
  6
CONTINUOUS
 10
-1.388291
 20
3.325472
  0
VERTEX
  8
PLAN_1
 62
     2
  6
CONTINUOUS
 10
-1.386173
 20
3.324201
  0
VERTEX
  8
PLAN_1
 62
     2
  6
CONTINUOUS
 10
-1.384051
 20
3.323354
  0
VERTEX
  8
PLAN_1
 62
     2
  6
CONTINUOUS
 10
-1.381512
 20
3.322929
  0
VERTEX
  8
PLAN_1
 62
     2
  6
CONTINUOUS
 10
-1.378969
 20
3.322508
  0
VERTEX
  8
PLAN_1
 62
     2
  6
CONTINUOUS
 10
-1.376004
 20
3.322508
  0
VERTEX
  8
PLAN_1
 62
     2
  6
CONTINUOUS
 10
-1.373035
 20
3.322508
  0
VERTEX
  8
PLAN_1
 62
     2
  6
CONTINUOUS
 10
-1.370071
 20
3.322929
  0
VERTEX
  8
PLAN_1
 62
     2
  6
CONTINUOUS
 10
-1.367528
 20
3.323780
  0
VERTEX
  8
PLAN_1
 62
     2
  6
CONTINUOUS
 10
-1.364984
 20
3.324626
  0
VERTEX
  8
PLAN_1
 62
     2
  6
CONTINUOUS
 10
-1.362866
 20
3.325898
  0
VERTEX
  8
PLAN_1
 62
     2
  6
CONTINUOUS
 10
-1.360748
 20
3.327169
  0
VERTEX
  8
PLAN_1
 62
     2
  6
CONTINUOUS
 10
-1.358630
 20
3.328862
  0
VERTEX
  8
PLAN_1
 62
     2
  6
CONTINUOUS
 10
-1.356933
 20
3.330980
  0
VERTEX
  8
PLAN_1
 62
     2
  6
CONTINUOUS
 10
-1.355240
 20
3.333102
  0
VERTEX
  8
PLAN_1
 62
     2
  6
CONTINUOUS
 10
-1.353969
 20
3.335220
  0
VERTEX
  8
PLAN_1
 62
     2
  6
CONTINUOUS
 10
-1.352697
 20
3.337760
  0
VERTEX
  8
PLAN_1
 62
     2
  6
CONTINUOUS
 10
-1.351850
 20
3.340303
  0
VERTEX
  8
PLAN_1
 62
     2
  6
CONTINUOUS
 10
-1.351000
 20
3.343272
  0
VERTEX
  8
PLAN_1
 62
     2
  6
CONTINUOUS
 10
-1.350579
 20
3.346236
  0
VERTEX
  8
PLAN_1
 62
     2
  6
CONTINUOUS
 10
-1.350154
 20
3.349626
  0
VERTEX
  8
PLAN_1
 62
     2
  6
CONTINUOUS
 10
-1.350154
 20
3.352591
  0
VERTEX
  8
PLAN_1
 62
     2
  6
CONTINUOUS
 10
-1.350154
 20
3.355559
  0
VERTEX
  8
PLAN_1
 62
     2
  6
CONTINUOUS
 10
-1.350154
 20
3.358102
  0
VERTEX
  8
PLAN_1
 62
     2
  6
CONTINUOUS
 10
-1.350579
 20
3.360642
  0
VERTEX
  8
PLAN_1
 62
     2
  6
CONTINUOUS
 10
-1.351425
 20
3.363185
  0
VERTEX
  8
PLAN_1
 62
     2
  6
CONTINUOUS
 10
-1.351850
 20
3.365728
  0
VERTEX
  8
PLAN_1
 62
     2
  6
CONTINUOUS
 10
-1.353122
 20
3.367846
  0
VERTEX
  8
PLAN_1
 62
     2
  6
CONTINUOUS
 10
-1.353969
 20
3.369965
  0
VERTEX
  8
PLAN_1
 62
     2
  6
CONTINUOUS
 10
-1.355240
 20
3.371661
  0
VERTEX
  8
PLAN_1
 62
     2
  6
CONTINUOUS
 10
-1.393799
 20
3.329709
  0
SEQEND
  8
0
  0
POLYLINE
  8
PLAN_1
 62
     2
  6
CONTINUOUS
 66
     1
 40
0.003000
 41
0.003000
  0
VERTEX
  8
PLAN_1
 62
     2
  6
CONTINUOUS
 10
-1.357780
 20
3.375472
  0
VERTEX
  8
PLAN_1
 62
     2
  6
CONTINUOUS
 10
-1.359476
 20
3.377169
  0
VERTEX
  8
PLAN_1
 62
     2
  6
CONTINUOUS
 10
-1.361594
 20
3.378862
  0
VERTEX
  8
PLAN_1
 62
     2
  6
CONTINUOUS
 10
-1.363713
 20
3.380134
  0
VERTEX
  8
PLAN_1
 62
     2
  6
CONTINUOUS
 10
-1.365831
 20
3.380984
  0
VERTEX
  8
PLAN_1
 62
     2
  6
CONTINUOUS
 10
-1.367953
 20
3.381831
  0
VERTEX
  8
PLAN_1
 62
     2
  6
CONTINUOUS
 10
-1.370492
 20
3.382677
  0
VERTEX
  8
PLAN_1
 62
     2
  6
CONTINUOUS
 10
-1.373461
 20
3.383102
  0
VERTEX
  8
PLAN_1
 62
     2
  6
CONTINUOUS
 10
-1.376004
 20
3.383102
  0
VERTEX
  8
PLAN_1
 62
     2
  6
CONTINUOUS
 10
-1.378969
 20
3.383102
  0
VERTEX
  8
PLAN_1
 62
     2
  6
CONTINUOUS
 10
-1.381933
 20
3.382677
  0
VERTEX
  8
PLAN_1
 62
     2
  6
CONTINUOUS
 10
-1.384476
 20
3.381831
  0
VERTEX
  8
PLAN_1
 62
     2
  6
CONTINUOUS
 10
-1.387020
 20
3.380984
  0
VERTEX
  8
PLAN_1
 62
     2
  6
CONTINUOUS
 10
-1.389138
 20
3.379713
  0
VERTEX
  8
PLAN_1
 62
     2
  6
CONTINUOUS
 10
-1.391256
 20
3.378016
  0
VERTEX
  8
PLAN_1
 62
     2
  6
CONTINUOUS
 10
-1.393374
 20
3.376323
  0
VERTEX
  8
PLAN_1
 62
     2
  6
CONTINUOUS
 10
-1.395071
 20
3.374626
  0
VERTEX
  8
PLAN_1
 62
     2
  6
CONTINUOUS
 10
-1.396764
 20
3.372508
  0
VERTEX
  8
PLAN_1
 62
     2
  6
CONTINUOUS
 10
-1.398035
 20
3.369965
  0
VERTEX
  8
PLAN_1
 62
     2
  6
CONTINUOUS
 10
-1.399307
 20
3.367425
  0
VERTEX
  8
PLAN_1
 62
     2
  6
CONTINUOUS
 10
-1.400154
 20
3.364882
  0
VERTEX
  8
PLAN_1
 62
     2
  6
CONTINUOUS
 10
-1.401004
 20
3.361913
  0
VERTEX
  8
PLAN_1
 62
     2
  6
CONTINUOUS
 10
-1.401425
 20
3.358949
  0
VERTEX
  8
PLAN_1
 62
     2
  6
CONTINUOUS
 10
-1.401850
 20
3.355984
  0
VERTEX
  8
PLAN_1
 62
     2
  6
CONTINUOUS
 10
-1.401850
 20
3.352591
  0
VERTEX
  8
PLAN_1
 62
     2
  6
CONTINUOUS
 10
-1.401850
 20
3.350051
  0
VERTEX
  8
PLAN_1
 62
     2
  6
CONTINUOUS
 10
-1.401850
 20
3.347083
  0
VERTEX
  8
PLAN_1
 62
     2
  6
CONTINUOUS
 10
-1.401425
 20
3.344543
  0
VERTEX
  8
PLAN_1
 62
     2
  6
CONTINUOUS
 10
-1.400579
 20
3.342000
  0
VERTEX
  8
PLAN_1
 62
     2
  6
CONTINUOUS
 10
-1.399732
 20
3.339457
  0
VERTEX
  8
PLAN_1
 62
     2
  6
CONTINUOUS
 10
-1.398886
 20
3.337339
  0
VERTEX
  8
PLAN_1
 62
     2
  6
CONTINUOUS
 10
-1.398035
 20
3.335220
  0
VERTEX
  8
PLAN_1
 62
     2
  6
CONTINUOUS
 10
-1.396764
 20
3.333102
  0
VERTEX
  8
PLAN_1
 62
     2
  6
CONTINUOUS
 10
-1.357780
 20
3.375472
  0
SEQEND
  8
0
  0
POLYLINE
  8
PLAN_1
 62
     2
  6
CONTINUOUS
 66
     1
 40
0.003000
 41
0.003000
  0
VERTEX
  8
PLAN_1
 62
     2
  6
CONTINUOUS
 10
-1.298035
 20
3.315303
  0
VERTEX
  8
PLAN_1
 62
     2
  6
CONTINUOUS
 10
-1.307780
 20
3.315303
  0
VERTEX
  8
PLAN_1
 62
     2
  6
CONTINUOUS
 10
-1.307780
 20
3.367425
  0
VERTEX
  8
PLAN_1
 62
     2
  6
CONTINUOUS
 10
-1.325154
 20
3.367425
  0
VERTEX
  8
PLAN_1
 62
     2
  6
CONTINUOUS
 10
-1.325154
 20
3.374626
  0
VERTEX
  8
PLAN_1
 62
     2
  6
CONTINUOUS
 10
-1.320917
 20
3.375051
  0
VERTEX
  8
PLAN_1
 62
     2
  6
CONTINUOUS
 10
-1.317528
 20
3.375472
  0
VERTEX
  8
PLAN_1
 62
     2
  6
CONTINUOUS
 10
-1.314138
 20
3.376323
  0
VERTEX
  8
PLAN_1
 62
     2
  6
CONTINUOUS
 10
-1.312020
 20
3.377169
  0
VERTEX
  8
PLAN_1
 62
     2
  6
CONTINUOUS
 10
-1.309898
 20
3.378862
  0
VERTEX
  8
PLAN_1
 62
     2
  6
CONTINUOUS
 10
-1.307780
 20
3.381406
  0
VERTEX
  8
PLAN_1
 62
     2
  6
CONTINUOUS
 10
-1.306508
 20
3.384374
  0
VERTEX
  8
PLAN_1
 62
     2
  6
CONTINUOUS
 10
-1.305236
 20
3.388610
  0
VERTEX
  8
PLAN_1
 62
     2
  6
CONTINUOUS
 10
-1.298035
 20
3.388610
  0
VERTEX
  8
PLAN_1
 62
     2
  6
CONTINUOUS
 10
-1.298035
 20
3.315303
  0
SEQEND
  8
0
  0
POLYLINE
  8
PLAN_1
 62
     2
  6
CONTINUOUS
 66
     1
 40
0.003000
 41
0.003000
  0
VERTEX
  8
PLAN_1
 62
     2
  6
CONTINUOUS
 10
-1.248882
 20
3.313185
  0
VERTEX
  8
PLAN_1
 62
     2
  6
CONTINUOUS
 10
-1.252272
 20
3.313610
  0
VERTEX
  8
PLAN_1
 62
     2
  6
CONTINUOUS
 10
-1.255661
 20
3.314457
  0
VERTEX
  8
PLAN_1
 62
     2
  6
CONTINUOUS
 10
-1.258626
 20
3.315303
  0
VERTEX
  8
PLAN_1
 62
     2
  6
CONTINUOUS
 10
-1.261594
 20
3.317000
  0
VERTEX
  8
PLAN_1
 62
     2
  6
CONTINUOUS
 10
-1.263713
 20
3.319118
  0
VERTEX
  8
PLAN_1
 62
     2
  6
CONTINUOUS
 10
-1.265831
 20
3.321236
  0
VERTEX
  8
PLAN_1
 62
     2
  6
CONTINUOUS
 10
-1.267524
 20
3.323780
  0
VERTEX
  8
PLAN_1
 62
     2
  6
CONTINUOUS
 10
-1.269220
 20
3.326319
  0
VERTEX
  8
PLAN_1
 62
     2
  6
CONTINUOUS
 10
-1.270492
 20
3.329287
  0
VERTEX
  8
PLAN_1
 62
     2
  6
CONTINUOUS
 10
-1.271339
 20
3.332252
  0
VERTEX
  8
PLAN_1
 62
     2
  6
CONTINUOUS
 10
-1.272185
 20
3.335642
  0
VERTEX
  8
PLAN_1
 62
     2
  6
CONTINUOUS
 10
-1.272610
 20
3.338610
  0
VERTEX
  8
PLAN_1
 62
     2
  6
CONTINUOUS
 10
-1.273457
 20
3.344965
  0
VERTEX
  8
PLAN_1
 62
     2
  6
CONTINUOUS
 10
-1.273882
 20
3.350898
  0
VERTEX
  8
PLAN_1
 62
     2
  6
CONTINUOUS
 10
-1.273457
 20
3.356831
  0
VERTEX
  8
PLAN_1
 62
     2
  6
CONTINUOUS
 10
-1.272610
 20
3.363185
  0
VERTEX
  8
PLAN_1
 62
     2
  6
CONTINUOUS
 10
-1.272185
 20
3.366154
  0
VERTEX
  8
PLAN_1
 62
     2
  6
CONTINUOUS
 10
-1.271339
 20
3.369543
  0
VERTEX
  8
PLAN_1
 62
     2
  6
CONTINUOUS
 10
-1.270492
 20
3.372508
  0
VERTEX
  8
PLAN_1
 62
     2
  6
CONTINUOUS
 10
-1.269220
 20
3.375472
  0
VERTEX
  8
PLAN_1
 62
     2
  6
CONTINUOUS
 10
-1.267524
 20
3.378016
  0
VERTEX
  8
PLAN_1
 62
     2
  6
CONTINUOUS
 10
-1.265831
 20
3.380559
  0
VERTEX
  8
PLAN_1
 62
     2
  6
CONTINUOUS
 10
-1.263713
 20
3.382677
  0
VERTEX
  8
PLAN_1
 62
     2
  6
CONTINUOUS
 10
-1.261594
 20
3.384795
  0
VERTEX
  8
PLAN_1
 62
     2
  6
CONTINUOUS
 10
-1.258626
 20
3.386492
  0
VERTEX
  8
PLAN_1
 62
     2
  6
CONTINUOUS
 10
-1.255661
 20
3.387339
  0
VERTEX
  8
PLAN_1
 62
     2
  6
CONTINUOUS
 10
-1.252272
 20
3.388185
  0
VERTEX
  8
PLAN_1
 62
     2
  6
CONTINUOUS
 10
-1.248882
 20
3.388610
  0
VERTEX
  8
PLAN_1
 62
     2
  6
CONTINUOUS
 10
-1.245067
 20
3.388185
  0
VERTEX
  8
PLAN_1
 62
     2
  6
CONTINUOUS
 10
-1.241677
 20
3.387339
  0
VERTEX
  8
PLAN_1
 62
     2
  6
CONTINUOUS
 10
-1.238713
 20
3.386492
  0
VERTEX
  8
PLAN_1
 62
     2
  6
CONTINUOUS
 10
-1.235744
 20
3.384795
  0
VERTEX
  8
PLAN_1
 62
     2
  6
CONTINUOUS
 10
-1.233626
 20
3.382677
  0
VERTEX
  8
PLAN_1
 62
     2
  6
CONTINUOUS
 10
-1.231508
 20
3.380559
  0
VERTEX
  8
PLAN_1
 62
     2
  6
CONTINUOUS
 10
-1.229811
 20
3.378016
  0
VERTEX
  8
PLAN_1
 62
     2
  6
CONTINUOUS
 10
-1.228118
 20
3.375472
  0
VERTEX
  8
PLAN_1
 62
     2
  6
CONTINUOUS
 10
-1.226846
 20
3.372508
  0
VERTEX
  8
PLAN_1
 62
     2
  6
CONTINUOUS
 10
-1.226000
 20
3.369543
  0
VERTEX
  8
PLAN_1
 62
     2
  6
CONTINUOUS
 10
-1.225154
 20
3.366154
  0
VERTEX
  8
PLAN_1
 62
     2
  6
CONTINUOUS
 10
-1.224728
 20
3.363185
  0
VERTEX
  8
PLAN_1
 62
     2
  6
CONTINUOUS
 10
-1.223882
 20
3.356831
  0
VERTEX
  8
PLAN_1
 62
     2
  6
CONTINUOUS
 10
-1.223457
 20
3.350898
  0
VERTEX
  8
PLAN_1
 62
     2
  6
CONTINUOUS
 10
-1.223882
 20
3.344965
  0
VERTEX
  8
PLAN_1
 62
     2
  6
CONTINUOUS
 10
-1.224728
 20
3.338610
  0
VERTEX
  8
PLAN_1
 62
     2
  6
CONTINUOUS
 10
-1.225154
 20
3.335642
  0
VERTEX
  8
PLAN_1
 62
     2
  6
CONTINUOUS
 10
-1.226000
 20
3.332252
  0
VERTEX
  8
PLAN_1
 62
     2
  6
CONTINUOUS
 10
-1.226846
 20
3.329287
  0
VERTEX
  8
PLAN_1
 62
     2
  6
CONTINUOUS
 10
-1.228118
 20
3.326319
  0
VERTEX
  8
PLAN_1
 62
     2
  6
CONTINUOUS
 10
-1.229811
 20
3.323780
  0
VERTEX
  8
PLAN_1
 62
     2
  6
CONTINUOUS
 10
-1.231508
 20
3.321236
  0
VERTEX
  8
PLAN_1
 62
     2
  6
CONTINUOUS
 10
-1.233626
 20
3.319118
  0
VERTEX
  8
PLAN_1
 62
     2
  6
CONTINUOUS
 10
-1.235744
 20
3.317000
  0
VERTEX
  8
PLAN_1
 62
     2
  6
CONTINUOUS
 10
-1.238713
 20
3.315303
  0
VERTEX
  8
PLAN_1
 62
     2
  6
CONTINUOUS
 10
-1.241677
 20
3.314457
  0
VERTEX
  8
PLAN_1
 62
     2
  6
CONTINUOUS
 10
-1.245067
 20
3.313610
  0
VERTEX
  8
PLAN_1
 62
     2
  6
CONTINUOUS
 10
-1.248882
 20
3.313185
  0
SEQEND
  8
0
  0
POLYLINE
  8
PLAN_1
 62
     2
  6
CONTINUOUS
 66
     1
 40
0.003000
 41
0.003000
  0
VERTEX
  8
PLAN_1
 62
     2
  6
CONTINUOUS
 10
-1.248882
 20
3.380134
  0
VERTEX
  8
PLAN_1
 62
     2
  6
CONTINUOUS
 10
-1.250575
 20
3.380134
  0
VERTEX
  8
PLAN_1
 62
     2
  6
CONTINUOUS
 10
-1.252272
 20
3.379713
  0
VERTEX
  8
PLAN_1
 62
     2
  6
CONTINUOUS
 10
-1.253965
 20
3.379287
  0
VERTEX
  8
PLAN_1
 62
     2
  6
CONTINUOUS
 10
-1.255661
 20
3.378441
  0
VERTEX
  8
PLAN_1
 62
     2
  6
CONTINUOUS
 10
-1.256933
 20
3.377169
  0
VERTEX
  8
PLAN_1
 62
     2
  6
CONTINUOUS
 10
-1.258205
 20
3.375898
  0
VERTEX
  8
PLAN_1
 62
     2
  6
CONTINUOUS
 10
-1.259472
 20
3.374205
  0
VERTEX
  8
PLAN_1
 62
     2
  6
CONTINUOUS
 10
-1.260323
 20
3.372508
  0
VERTEX
  8
PLAN_1
 62
     2
  6
CONTINUOUS
 10
-1.262016
 20
3.368272
  0
VERTEX
  8
PLAN_1
 62
     2
  6
CONTINUOUS
 10
-1.262866
 20
3.363185
  0
VERTEX
  8
PLAN_1
 62
     2
  6
CONTINUOUS
 10
-1.263713
 20
3.357252
  0
VERTEX
  8
PLAN_1
 62
     2
  6
CONTINUOUS
 10
-1.264134
 20
3.350898
  0
VERTEX
  8
PLAN_1
 62
     2
  6
CONTINUOUS
 10
-1.263713
 20
3.344543
  0
VERTEX
  8
PLAN_1
 62
     2
  6
CONTINUOUS
 10
-1.262866
 20
3.338610
  0
VERTEX
  8
PLAN_1
 62
     2
  6
CONTINUOUS
 10
-1.262016
 20
3.333524
  0
VERTEX
  8
PLAN_1
 62
     2
  6
CONTINUOUS
 10
-1.260323
 20
3.329287
  0
VERTEX
  8
PLAN_1
 62
     2
  6
CONTINUOUS
 10
-1.259472
 20
3.327591
  0
VERTEX
  8
PLAN_1
 62
     2
  6
CONTINUOUS
 10
-1.258205
 20
3.325898
  0
VERTEX
  8
PLAN_1
 62
     2
  6
CONTINUOUS
 10
-1.256933
 20
3.324626
  0
VERTEX
  8
PLAN_1
 62
     2
  6
CONTINUOUS
 10
-1.255661
 20
3.323780
  0
VERTEX
  8
PLAN_1
 62
     2
  6
CONTINUOUS
 10
-1.253965
 20
3.322508
  0
VERTEX
  8
PLAN_1
 62
     2
  6
CONTINUOUS
 10
-1.252272
 20
3.322083
  0
VERTEX
  8
PLAN_1
 62
     2
  6
CONTINUOUS
 10
-1.250575
 20
3.321661
  0
VERTEX
  8
PLAN_1
 62
     2
  6
CONTINUOUS
 10
-1.248882
 20
3.321661
  0
VERTEX
  8
PLAN_1
 62
     2
  6
CONTINUOUS
 10
-1.246764
 20
3.321661
  0
VERTEX
  8
PLAN_1
 62
     2
  6
CONTINUOUS
 10
-1.245067
 20
3.322083
  0
VERTEX
  8
PLAN_1
 62
     2
  6
CONTINUOUS
 10
-1.243374
 20
3.322508
  0
VERTEX
  8
PLAN_1
 62
     2
  6
CONTINUOUS
 10
-1.241677
 20
3.323780
  0
VERTEX
  8
PLAN_1
 62
     2
  6
CONTINUOUS
 10
-1.240406
 20
3.324626
  0
VERTEX
  8
PLAN_1
 62
     2
  6
CONTINUOUS
 10
-1.239134
 20
3.325898
  0
VERTEX
  8
PLAN_1
 62
     2
  6
CONTINUOUS
 10
-1.238287
 20
3.327591
  0
VERTEX
  8
PLAN_1
 62
     2
  6
CONTINUOUS
 10
-1.237016
 20
3.329287
  0
VERTEX
  8
PLAN_1
 62
     2
  6
CONTINUOUS
 10
-1.235323
 20
3.333524
  0
VERTEX
  8
PLAN_1
 62
     2
  6
CONTINUOUS
 10
-1.234472
 20
3.338610
  0
VERTEX
  8
PLAN_1
 62
     2
  6
CONTINUOUS
 10
-1.233626
 20
3.344543
  0
VERTEX
  8
PLAN_1
 62
     2
  6
CONTINUOUS
 10
-1.233201
 20
3.350898
  0
VERTEX
  8
PLAN_1
 62
     2
  6
CONTINUOUS
 10
-1.233626
 20
3.357252
  0
VERTEX
  8
PLAN_1
 62
     2
  6
CONTINUOUS
 10
-1.234472
 20
3.363185
  0
VERTEX
  8
PLAN_1
 62
     2
  6
CONTINUOUS
 10
-1.235323
 20
3.368272
  0
VERTEX
  8
PLAN_1
 62
     2
  6
CONTINUOUS
 10
-1.237016
 20
3.372508
  0
VERTEX
  8
PLAN_1
 62
     2
  6
CONTINUOUS
 10
-1.238287
 20
3.374205
  0
VERTEX
  8
PLAN_1
 62
     2
  6
CONTINUOUS
 10
-1.239134
 20
3.375898
  0
VERTEX
  8
PLAN_1
 62
     2
  6
CONTINUOUS
 10
-1.240406
 20
3.377169
  0
VERTEX
  8
PLAN_1
 62
     2
  6
CONTINUOUS
 10
-1.241677
 20
3.378441
  0
VERTEX
  8
PLAN_1
 62
     2
  6
CONTINUOUS
 10
-1.243374
 20
3.379287
  0
VERTEX
  8
PLAN_1
 62
     2
  6
CONTINUOUS
 10
-1.245067
 20
3.379713
  0
VERTEX
  8
PLAN_1
 62
     2
  6
CONTINUOUS
 10
-1.246764
 20
3.380134
  0
VERTEX
  8
PLAN_1
 62
     2
  6
CONTINUOUS
 10
-1.248882
 20
3.380134
  0
SEQEND
  8
0
  0
POLYLINE
  8
PLAN_1
 62
     2
  6
CONTINUOUS
 66
     1
 40
0.004236
 41
0.004236
  0
VERTEX
  8
PLAN_1
 62
     2
  6
CONTINUOUS
 10
-1.514142
 20
3.315303
  0
VERTEX
  8
PLAN_1
 62
     2
  6
CONTINUOUS
 10
-1.514142
 20
3.110638
  0
SEQEND
  8
0
  0
POLYLINE
  8
PLAN_1
 62
     2
  6
CONTINUOUS
 66
     1
 40
0.004236
 41
0.004236
  0
VERTEX
  8
PLAN_1
 62
     2
  6
CONTINUOUS
 10
-1.123453
 20
3.315303
  0
VERTEX
  8
PLAN_1
 62
     2
  6
CONTINUOUS
 10
-1.123453
 20
3.110638
  0
SEQEND
  8
0
  0
POLYLINE
  8
PLAN_1
 62
     2
  6
CONTINUOUS
 66
     1
 40
0.004236
 41
0.004236
  0
VERTEX
  8
PLAN_1
 62
     2
  6
CONTINUOUS
 10
-0.366236
 20
1.660185
  0
VERTEX
  8
PLAN_1
 62
     2
  6
CONTINUOUS
 10
-0.366236
 20
3.141571
  0
SEQEND
  8
0
  0
SOLID
  8
PLAN_1
 62
     2
 10
-0.366236
 20
3.171232
 11
-0.381913
 21
3.112335
 12
-0.366236
 22
3.171232
 13
-0.350559
 23
3.112335
  0
POLYLINE
  8
PLAN_1
 62
     2
  6
CONTINUOUS
 66
     1
 40
0.003000
 41
0.003000
  0
VERTEX
  8
PLAN_1
 62
     2
  6
CONTINUOUS
 10
-0.366236
 20
3.171232
  0
VERTEX
  8
PLAN_1
 62
     2
  6
CONTINUOUS
 10
-0.381913
 20
3.112335
  0
VERTEX
  8
PLAN_1
 62
     2
  6
CONTINUOUS
 10
-0.350559
 20
3.112335
  0
VERTEX
  8
PLAN_1
 62
     2
  6
CONTINUOUS
 10
-0.366236
 20
3.171232
  0
SEQEND
  8
0
  0
SOLID
  8
PLAN_1
 62
     2
 10
-0.366236
 20
1.630524
 11
-0.381913
 21
1.689846
 12
-0.366236
 22
1.630524
 13
-0.350559
 23
1.689846
  0
POLYLINE
  8
PLAN_1
 62
     2
  6
CONTINUOUS
 66
     1
 40
0.003000
 41
0.003000
  0
VERTEX
  8
PLAN_1
 62
     2
  6
CONTINUOUS
 10
-0.366236
 20
1.630524
  0
VERTEX
  8
PLAN_1
 62
     2
  6
CONTINUOUS
 10
-0.381913
 20
1.689846
  0
VERTEX
  8
PLAN_1
 62
     2
  6
CONTINUOUS
 10
-0.350559
 20
1.689846
  0
VERTEX
  8
PLAN_1
 62
     2
  6
CONTINUOUS
 10
-0.366236
 20
1.630524
  0
SEQEND
  8
0
  0
POLYLINE
  8
PLAN_1
 62
     2
  6
CONTINUOUS
 66
     1
 40
0.003000
 41
0.003000
  0
VERTEX
  8
PLAN_1
 62
     2
  6
CONTINUOUS
 10
-0.431492
 20
2.366555
  0
VERTEX
  8
PLAN_1
 62
     2
  6
CONTINUOUS
 10
-0.431492
 20
2.366980
  0
VERTEX
  8
PLAN_1
 62
     2
  6
CONTINUOUS
 10
-0.431492
 20
2.367402
  0
VERTEX
  8
PLAN_1
 62
     2
  6
CONTINUOUS
 10
-0.431492
 20
2.368252
  0
VERTEX
  8
PLAN_1
 62
     2
  6
CONTINUOUS
 10
-0.431492
 20
2.368673
  0
VERTEX
  8
PLAN_1
 62
     2
  6
CONTINUOUS
 10
-0.431492
 20
2.369524
  0
VERTEX
  8
PLAN_1
 62
     2
  6
CONTINUOUS
 10
-0.431492
 20
2.369945
  0
VERTEX
  8
PLAN_1
 62
     2
  6
CONTINUOUS
 10
-0.431492
 20
2.370370
  0
VERTEX
  8
PLAN_1
 62
     2
  6
CONTINUOUS
 10
-0.431492
 20
2.371217
  0
VERTEX
  8
PLAN_1
 62
     2
  6
CONTINUOUS
 10
-0.431492
 20
2.373760
  0
VERTEX
  8
PLAN_1
 62
     2
  6
CONTINUOUS
 10
-0.431913
 20
2.376303
  0
VERTEX
  8
PLAN_1
 62
     2
  6
CONTINUOUS
 10
-0.432764
 20
2.378843
  0
VERTEX
  8
PLAN_1
 62
     2
  6
CONTINUOUS
 10
-0.434035
 20
2.380965
  0
VERTEX
  8
PLAN_1
 62
     2
  6
CONTINUOUS
 10
-0.435728
 20
2.382657
  0
VERTEX
  8
PLAN_1
 62
     2
  6
CONTINUOUS
 10
-0.437425
 20
2.383929
  0
VERTEX
  8
PLAN_1
 62
     2
  6
CONTINUOUS
 10
-0.440390
 20
2.384776
  0
VERTEX
  8
PLAN_1
 62
     2
  6
CONTINUOUS
 10
-0.443354
 20
2.385201
  0
VERTEX
  8
PLAN_1
 62
     2
  6
CONTINUOUS
 10
-0.445051
 20
2.384776
  0
VERTEX
  8
PLAN_1
 62
     2
  6
CONTINUOUS
 10
-0.447169
 20
2.384354
  0
VERTEX
  8
PLAN_1
 62
     2
  6
CONTINUOUS
 10
-0.448866
 20
2.383504
  0
VERTEX
  8
PLAN_1
 62
     2
  6
CONTINUOUS
 10
-0.450559
 20
2.382232
  0
VERTEX
  8
PLAN_1
 62
     2
  6
CONTINUOUS
 10
-0.452256
 20
2.380539
  0
VERTEX
  8
PLAN_1
 62
     2
  6
CONTINUOUS
 10
-0.453528
 20
2.378421
  0
VERTEX
  8
PLAN_1
 62
     2
  6
CONTINUOUS
 10
-0.454374
 20
2.375453
  0
VERTEX
  8
PLAN_1
 62
     2
  6
CONTINUOUS
 10
-0.454795
 20
2.371642
  0
VERTEX
  8
PLAN_1
 62
     2
  6
CONTINUOUS
 10
-0.454795
 20
2.369098
  0
VERTEX
  8
PLAN_1
 62
     2
  6
CONTINUOUS
 10
-0.454374
 20
2.367402
  0
VERTEX
  8
PLAN_1
 62
     2
  6
CONTINUOUS
 10
-0.453949
 20
2.365283
  0
VERTEX
  8
PLAN_1
 62
     2
  6
CONTINUOUS
 10
-0.453102
 20
2.364012
  0
VERTEX
  8
PLAN_1
 62
     2
  6
CONTINUOUS
 10
-0.451406
 20
2.361472
  0
VERTEX
  8
PLAN_1
 62
     2
  6
CONTINUOUS
 10
-0.448866
 20
2.359776
  0
VERTEX
  8
PLAN_1
 62
     2
  6
CONTINUOUS
 10
-0.446323
 20
2.358504
  0
VERTEX
  8
PLAN_1
 62
     2
  6
CONTINUOUS
 10
-0.443780
 20
2.358083
  0
VERTEX
  8
PLAN_1
 62
     2
  6
CONTINUOUS
 10
-0.441236
 20
2.357657
  0
VERTEX
  8
PLAN_1
 62
     2
  6
CONTINUOUS
 10
-0.439118
 20
2.357232
  0
VERTEX
  8
PLAN_1
 62
     2
  6
CONTINUOUS
 10
-0.439118
 20
2.348335
  0
VERTEX
  8
PLAN_1
 62
     2
  6
CONTINUOUS
 10
-0.443354
 20
2.348760
  0
VERTEX
  8
PLAN_1
 62
     2
  6
CONTINUOUS
 10
-0.447594
 20
2.349181
  0
VERTEX
  8
PLAN_1
 62
     2
  6
CONTINUOUS
 10
-0.451406
 20
2.350878
  0
VERTEX
  8
PLAN_1
 62
     2
  6
CONTINUOUS
 10
-0.455220
 20
2.352996
  0
VERTEX
  8
PLAN_1
 62
     2
  6
CONTINUOUS
 10
-0.456917
 20
2.354268
  0
VERTEX
  8
PLAN_1
 62
     2
  6
CONTINUOUS
 10
-0.458189
 20
2.355961
  0
VERTEX
  8
PLAN_1
 62
     2
  6
CONTINUOUS
 10
-0.459882
 20
2.358083
  0
VERTEX
  8
PLAN_1
 62
     2
  6
CONTINUOUS
 10
-0.460728
 20
2.360201
  0
VERTEX
  8
PLAN_1
 62
     2
  6
CONTINUOUS
 10
-0.462000
 20
2.362740
  0
VERTEX
  8
PLAN_1
 62
     2
  6
CONTINUOUS
 10
-0.462425
 20
2.365283
  0
VERTEX
  8
PLAN_1
 62
     2
  6
CONTINUOUS
 10
-0.462846
 20
2.368673
  0
VERTEX
  8
PLAN_1
 62
     2
  6
CONTINUOUS
 10
-0.463272
 20
2.372063
  0
VERTEX
  8
PLAN_1
 62
     2
  6
CONTINUOUS
 10
-0.462846
 20
2.377150
  0
VERTEX
  8
PLAN_1
 62
     2
  6
CONTINUOUS
 10
-0.461579
 20
2.381386
  0
VERTEX
  8
PLAN_1
 62
     2
  6
CONTINUOUS
 10
-0.459882
 20
2.385201
  0
VERTEX
  8
PLAN_1
 62
     2
  6
CONTINUOUS
 10
-0.457764
 20
2.388591
  0
VERTEX
  8
PLAN_1
 62
     2
  6
CONTINUOUS
 10
-0.454795
 20
2.391134
  0
VERTEX
  8
PLAN_1
 62
     2
  6
CONTINUOUS
 10
-0.451406
 20
2.392827
  0
VERTEX
  8
PLAN_1
 62
     2
  6
CONTINUOUS
 10
-0.448016
 20
2.394098
  0
VERTEX
  8
PLAN_1
 62
     2
  6
CONTINUOUS
 10
-0.443780
 20
2.394524
  0
VERTEX
  8
PLAN_1
 62
     2
  6
CONTINUOUS
 10
-0.440390
 20
2.394524
  0
VERTEX
  8
PLAN_1
 62
     2
  6
CONTINUOUS
 10
-0.437846
 20
2.393673
  0
VERTEX
  8
PLAN_1
 62
     2
  6
CONTINUOUS
 10
-0.435307
 20
2.392827
  0
VERTEX
  8
PLAN_1
 62
     2
  6
CONTINUOUS
 10
-0.433185
 20
2.391555
  0
VERTEX
  8
PLAN_1
 62
     2
  6
CONTINUOUS
 10
-0.431492
 20
2.389862
  0
VERTEX
  8
PLAN_1
 62
     2
  6
CONTINUOUS
 10
-0.430220
 20
2.388165
  0
VERTEX
  8
PLAN_1
 62
     2
  6
CONTINUOUS
 10
-0.429374
 20
2.386894
  0
VERTEX
  8
PLAN_1
 62
     2
  6
CONTINUOUS
 10
-0.428949
 20
2.385201
  0
VERTEX
  8
PLAN_1
 62
     2
  6
CONTINUOUS
 10
-0.428524
 20
2.385201
  0
VERTEX
  8
PLAN_1
 62
     2
  6
CONTINUOUS
 10
-0.427677
 20
2.387744
  0
VERTEX
  8
PLAN_1
 62
     2
  6
CONTINUOUS
 10
-0.426406
 20
2.389862
  0
VERTEX
  8
PLAN_1
 62
     2
  6
CONTINUOUS
 10
-0.424713
 20
2.391980
  0
VERTEX
  8
PLAN_1
 62
     2
  6
CONTINUOUS
 10
-0.423016
 20
2.394098
  0
VERTEX
  8
PLAN_1
 62
     2
  6
CONTINUOUS
 10
-0.420476
 20
2.395370
  0
VERTEX
  8
PLAN_1
 62
     2
  6
CONTINUOUS
 10
-0.417933
 20
2.396642
  0
VERTEX
  8
PLAN_1
 62
     2
  6
CONTINUOUS
 10
-0.414965
 20
2.397063
  0
VERTEX
  8
PLAN_1
 62
     2
  6
CONTINUOUS
 10
-0.411575
 20
2.397488
  0
VERTEX
  8
PLAN_1
 62
     2
  6
CONTINUOUS
 10
-0.406913
 20
2.397063
  0
VERTEX
  8
PLAN_1
 62
     2
  6
CONTINUOUS
 10
-0.402677
 20
2.395795
  0
VERTEX
  8
PLAN_1
 62
     2
  6
CONTINUOUS
 10
-0.400559
 20
2.394945
  0
VERTEX
  8
PLAN_1
 62
     2
  6
CONTINUOUS
 10
-0.398862
 20
2.394098
  0
VERTEX
  8
PLAN_1
 62
     2
  6
CONTINUOUS
 10
-0.397169
 20
2.392827
  0
VERTEX
  8
PLAN_1
 62
     2
  6
CONTINUOUS
 10
-0.395051
 20
2.391134
  0
VERTEX
  8
PLAN_1
 62
     2
  6
CONTINUOUS
 10
-0.393780
 20
2.389437
  0
VERTEX
  8
PLAN_1
 62
     2
  6
CONTINUOUS
 10
-0.392083
 20
2.387744
  0
VERTEX
  8
PLAN_1
 62
     2
  6
CONTINUOUS
 10
-0.391236
 20
2.385201
  0
VERTEX
  8
PLAN_1
 62
     2
  6
CONTINUOUS
 10
-0.389965
 20
2.383083
  0
VERTEX
  8
PLAN_1
 62
     2
  6
CONTINUOUS
 10
-0.389118
 20
2.380539
  0
VERTEX
  8
PLAN_1
 62
     2
  6
CONTINUOUS
 10
-0.388693
 20
2.377575
  0
VERTEX
  8
PLAN_1
 62
     2
  6
CONTINUOUS
 10
-0.388272
 20
2.374606
  0
VERTEX
  8
PLAN_1
 62
     2
  6
CONTINUOUS
 10
-0.387846
 20
2.371217
  0
VERTEX
  8
PLAN_1
 62
     2
  6
CONTINUOUS
 10
-0.387846
 20
2.369098
  0
VERTEX
  8
PLAN_1
 62
     2
  6
CONTINUOUS
 10
-0.388272
 20
2.366980
  0
VERTEX
  8
PLAN_1
 62
     2
  6
CONTINUOUS
 10
-0.388693
 20
2.365283
  0
VERTEX
  8
PLAN_1
 62
     2
  6
CONTINUOUS
 10
-0.388693
 20
2.363591
  0
VERTEX
  8
PLAN_1
 62
     2
  6
CONTINUOUS
 10
-0.389543
 20
2.361894
  0
VERTEX
  8
PLAN_1
 62
     2
  6
CONTINUOUS
 10
-0.389965
 20
2.360201
  0
VERTEX
  8
PLAN_1
 62
     2
  6
CONTINUOUS
 10
-0.390390
 20
2.358929
  0
VERTEX
  8
PLAN_1
 62
     2
  6
CONTINUOUS
 10
-0.391236
 20
2.357657
  0
VERTEX
  8
PLAN_1
 62
     2
  6
CONTINUOUS
 10
-0.392933
 20
2.354693
  0
VERTEX
  8
PLAN_1
 62
     2
  6
CONTINUOUS
 10
-0.395051
 20
2.352571
  0
VERTEX
  8
PLAN_1
 62
     2
  6
CONTINUOUS
 10
-0.397594
 20
2.350453
  0
VERTEX
  8
PLAN_1
 62
     2
  6
CONTINUOUS
 10
-0.400134
 20
2.349181
  0
VERTEX
  8
PLAN_1
 62
     2
  6
CONTINUOUS
 10
-0.403102
 20
2.348335
  0
VERTEX
  8
PLAN_1
 62
     2
  6
CONTINUOUS
 10
-0.406067
 20
2.347488
  0
VERTEX
  8
PLAN_1
 62
     2
  6
CONTINUOUS
 10
-0.409035
 20
2.347063
  0
VERTEX
  8
PLAN_1
 62
     2
  6
CONTINUOUS
 10
-0.412425
 20
2.346642
  0
VERTEX
  8
PLAN_1
 62
     2
  6
CONTINUOUS
 10
-0.412425
 20
2.355961
  0
VERTEX
  8
PLAN_1
 62
     2
  6
CONTINUOUS
 10
-0.409457
 20
2.356386
  0
VERTEX
  8
PLAN_1
 62
     2
  6
CONTINUOUS
 10
-0.406913
 20
2.356811
  0
VERTEX
  8
PLAN_1
 62
     2
  6
CONTINUOUS
 10
-0.404374
 20
2.357657
  0
VERTEX
  8
PLAN_1
 62
     2
  6
CONTINUOUS
 10
-0.401831
 20
2.358929
  0
VERTEX
  8
PLAN_1
 62
     2
  6
CONTINUOUS
 10
-0.399713
 20
2.360622
  0
VERTEX
  8
PLAN_1
 62
     2
  6
CONTINUOUS
 10
-0.397594
 20
2.363591
  0
VERTEX
  8
PLAN_1
 62
     2
  6
CONTINUOUS
 10
-0.397169
 20
2.365283
  0
VERTEX
  8
PLAN_1
 62
     2
  6
CONTINUOUS
 10
-0.396744
 20
2.366980
  0
VERTEX
  8
PLAN_1
 62
     2
  6
CONTINUOUS
 10
-0.396323
 20
2.369098
  0
VERTEX
  8
PLAN_1
 62
     2
  6
CONTINUOUS
 10
-0.396323
 20
2.371642
  0
VERTEX
  8
PLAN_1
 62
     2
  6
CONTINUOUS
 10
-0.396323
 20
2.375031
  0
VERTEX
  8
PLAN_1
 62
     2
  6
CONTINUOUS
 10
-0.397169
 20
2.377996
  0
VERTEX
  8
PLAN_1
 62
     2
  6
CONTINUOUS
 10
-0.398441
 20
2.380965
  0
VERTEX
  8
PLAN_1
 62
     2
  6
CONTINUOUS
 10
-0.400134
 20
2.383083
  0
VERTEX
  8
PLAN_1
 62
     2
  6
CONTINUOUS
 10
-0.402252
 20
2.385201
  0
VERTEX
  8
PLAN_1
 62
     2
  6
CONTINUOUS
 10
-0.404795
 20
2.386472
  0
VERTEX
  8
PLAN_1
 62
     2
  6
CONTINUOUS
 10
-0.407339
 20
2.387319
  0
VERTEX
  8
PLAN_1
 62
     2
  6
CONTINUOUS
 10
-0.410303
 20
2.387744
  0
VERTEX
  8
PLAN_1
 62
     2
  6
CONTINUOUS
 10
-0.412425
 20
2.387319
  0
VERTEX
  8
PLAN_1
 62
     2
  6
CONTINUOUS
 10
-0.414543
 20
2.386894
  0
VERTEX
  8
PLAN_1
 62
     2
  6
CONTINUOUS
 10
-0.416236
 20
2.386472
  0
VERTEX
  8
PLAN_1
 62
     2
  6
CONTINUOUS
 10
-0.417508
 20
2.385622
  0
VERTEX
  8
PLAN_1
 62
     2
  6
CONTINUOUS
 10
-0.420051
 20
2.383929
  0
VERTEX
  8
PLAN_1
 62
     2
  6
CONTINUOUS
 10
-0.421744
 20
2.381386
  0
VERTEX
  8
PLAN_1
 62
     2
  6
CONTINUOUS
 10
-0.422594
 20
2.378843
  0
VERTEX
  8
PLAN_1
 62
     2
  6
CONTINUOUS
 10
-0.423441
 20
2.375878
  0
VERTEX
  8
PLAN_1
 62
     2
  6
CONTINUOUS
 10
-0.423866
 20
2.372913
  0
VERTEX
  8
PLAN_1
 62
     2
  6
CONTINUOUS
 10
-0.423866
 20
2.370370
  0
VERTEX
  8
PLAN_1
 62
     2
  6
CONTINUOUS
 10
-0.423866
 20
2.369945
  0
VERTEX
  8
PLAN_1
 62
     2
  6
CONTINUOUS
 10
-0.423866
 20
2.369524
  0
VERTEX
  8
PLAN_1
 62
     2
  6
CONTINUOUS
 10
-0.423866
 20
2.369098
  0
VERTEX
  8
PLAN_1
 62
     2
  6
CONTINUOUS
 10
-0.423866
 20
2.368252
  0
VERTEX
  8
PLAN_1
 62
     2
  6
CONTINUOUS
 10
-0.423866
 20
2.367827
  0
VERTEX
  8
PLAN_1
 62
     2
  6
CONTINUOUS
 10
-0.423866
 20
2.367402
  0
VERTEX
  8
PLAN_1
 62
     2
  6
CONTINUOUS
 10
-0.423866
 20
2.366980
  0
VERTEX
  8
PLAN_1
 62
     2
  6
CONTINUOUS
 10
-0.423866
 20
2.366555
  0
VERTEX
  8
PLAN_1
 62
     2
  6
CONTINUOUS
 10
-0.431492
 20
2.366555
  0
SEQEND
  8
0
  0
POLYLINE
  8
PLAN_1
 62
     2
  6
CONTINUOUS
 66
     1
 40
0.003000
 41
0.003000
  0
VERTEX
  8
PLAN_1
 62
     2
  6
CONTINUOUS
 10
-0.461579
 20
2.404693
  0
VERTEX
  8
PLAN_1
 62
     2
  6
CONTINUOUS
 10
-0.461579
 20
2.455539
  0
VERTEX
  8
PLAN_1
 62
     2
  6
CONTINUOUS
 10
-0.453528
 20
2.455539
  0
VERTEX
  8
PLAN_1
 62
     2
  6
CONTINUOUS
 10
-0.450138
 20
2.452150
  0
VERTEX
  8
PLAN_1
 62
     2
  6
CONTINUOUS
 10
-0.445051
 20
2.448339
  0
VERTEX
  8
PLAN_1
 62
     2
  6
CONTINUOUS
 10
-0.438697
 20
2.444098
  0
VERTEX
  8
PLAN_1
 62
     2
  6
CONTINUOUS
 10
-0.431067
 20
2.439437
  0
VERTEX
  8
PLAN_1
 62
     2
  6
CONTINUOUS
 10
-0.422594
 20
2.435201
  0
VERTEX
  8
PLAN_1
 62
     2
  6
CONTINUOUS
 10
-0.412425
 20
2.431386
  0
VERTEX
  8
PLAN_1
 62
     2
  6
CONTINUOUS
 10
-0.407339
 20
2.429268
  0
VERTEX
  8
PLAN_1
 62
     2
  6
CONTINUOUS
 10
-0.401831
 20
2.427996
  0
VERTEX
  8
PLAN_1
 62
     2
  6
CONTINUOUS
 10
-0.395898
 20
2.426303
  0
VERTEX
  8
PLAN_1
 62
     2
  6
CONTINUOUS
 10
-0.389965
 20
2.425457
  0
VERTEX
  8
PLAN_1
 62
     2
  6
CONTINUOUS
 10
-0.389965
 20
2.415287
  0
VERTEX
  8
PLAN_1
 62
     2
  6
CONTINUOUS
 10
-0.397594
 20
2.416555
  0
VERTEX
  8
PLAN_1
 62
     2
  6
CONTINUOUS
 10
-0.406067
 20
2.419098
  0
VERTEX
  8
PLAN_1
 62
     2
  6
CONTINUOUS
 10
-0.414118
 20
2.422067
  0
VERTEX
  8
PLAN_1
 62
     2
  6
CONTINUOUS
 10
-0.422594
 20
2.425878
  0
VERTEX
  8
PLAN_1
 62
     2
  6
CONTINUOUS
 10
-0.431067
 20
2.430118
  0
VERTEX
  8
PLAN_1
 62
     2
  6
CONTINUOUS
 10
-0.438697
 20
2.434776
  0
VERTEX
  8
PLAN_1
 62
     2
  6
CONTINUOUS
 10
-0.445898
 20
2.439862
  0
VERTEX
  8
PLAN_1
 62
     2
  6
CONTINUOUS
 10
-0.452677
 20
2.444949
  0
VERTEX
  8
PLAN_1
 62
     2
  6
CONTINUOUS
 10
-0.452677
 20
2.404693
  0
VERTEX
  8
PLAN_1
 62
     2
  6
CONTINUOUS
 10
-0.461579
 20
2.404693
  0
SEQEND
  8
0
  0
POLYLINE
  8
PLAN_1
 62
     2
  6
CONTINUOUS
 66
     1
 40
0.004236
 41
0.004236
  0
VERTEX
  8
PLAN_1
 62
     2
  6
CONTINUOUS
 10
-1.245492
 20
3.171232
  0
VERTEX
  8
PLAN_1
 62
     2
  6
CONTINUOUS
 10
-0.341236
 20
3.171232
  0
SEQEND
  8
0
  0
POLYLINE
  8
PLAN_1
 62
     2
  6
CONTINUOUS
 66
     1
 40
0.004236
 41
0.004236
  0
VERTEX
  8
PLAN_1
 62
     2
  6
CONTINUOUS
 10
-0.498866
 20
1.630524
  0
VERTEX
  8
PLAN_1
 62
     2
  6
CONTINUOUS
 10
-0.342929
 20
1.630524
  0
SEQEND
  8
0
  0
ENDSEC
  0
EOF
