  0
SECTION
  2
HEADER
  9
$ACADVER
  1
AC1006
  9
$EXTMIN
 10
-2.074421
 20
-3.326000
  9
$EXTMAX
 10
2.071689
 20
3.330000
  9
$LTSCALE
 40
0.000394
  9
$PDMODE
 70
    35
  9
$PDSIZE
 40
0.000315
  0
ENDSEC
  0
SECTION
  2
TABLES
  0
TABLE
  2
LTYPE
 70
     9
  0
LTYPE
  2
CONTINUOUS
 70
    64
  3
Solid line
 72
    65
 73
     0
 40
0.000000
  0
LTYPE
  2
DASHED
 70
    64
  3
__ __ __ __ __ __ __ __ __ __ __ __ __ __ __
 72
    65
 73
     2
 40
0.000003
 49
0.000002
 49
-0.000001
  0
LTYPE
  2
HIDDEN
 70
    64
  3
 _ _ _ _ _ _ _ _ _ _ _ _ _ _ _ _ _ _ _ _ _ _
 72
    65
 73
     2
 40
0.000001
 49
0.000001
 49
-0.000000
  0
LTYPE
  2
CENTER
 70
    64
  3
____ _ ____ _ ____ _ ____ _ ____ _ ____ _ ____
 72
    65
 73
     4
 40
0.000008
 49
0.000005
 49
-0.000001
 49
0.000001
 49
-0.000001
  0
LTYPE
  2
PHANTOM
 70
    64
  3
_____ _ _ _____ _ _ _____ _ _ _____ _ _ ____
 72
    65
 73
     6
 40
0.000010
 49
0.000005
 49
-0.000001
 49
0.000001
 49
-0.000001
 49
0.000001
 49
-0.000001
  0
LTYPE
  2
DOT
 70
    64
  3
...............................................
 72
    65
 73
     2
 40
0.000001
 49
0.000000
 49
-0.000001
  0
LTYPE
  2
DASHDOT
 70
    64
  3
__ . __ . __ . __ . __ . __ . __ . __ . __ . __
 72
    65
 73
     4
 40
0.000004
 49
0.000002
 49
-0.000001
 49
0.000000
 49
-0.000001
  0
LTYPE
  2
BORDER
 70
    64
  3
__ __ . __ __ . __ __ . __ __ . __ __ . __ __
 72
    65
 73
     6
 40
0.000007
 49
0.000002
 49
-0.000001
 49
0.000002
 49
-0.000001
 49
0.000000
 49
-0.000001
  0
LTYPE
  2
DIVIDE
 70
    64
  3
__ . . __ . . __ . . __ . . __ . . __ . . __
 72
    65
 73
     6
 40
0.000005
 49
0.000002
 49
-0.000001
 49
0.000000
 49
-0.000001
 49
0.000000
 49
-0.000001
  0
LTYPE
  2
DOTDOT
 70
    64
  3
 . .  . .  . .  . .  . .  . . 
 72
    65
 73
     5
 40
0.000002
 49
-0.000001
 49
0.000000
 49
-0.000001
 49
0.000000
 49
-0.000001
  0
ENDTAB
  0
TABLE
  2
STYLE
 70
     0
  0
ENDTAB
  0
TABLE
  2
LAYER
 70
     3
  0
LAYER
  2
FOREGROUND
 70
    64
 62
     7
  6
CONTINUOUS
  0
LAYER
  2
BACKGROUND
 70
    65
 62
    -7
  6
CONTINUOUS
  0
LAYER
  2
PLAN_1
 70
    64
 62
     7
  6
CONTINUOUS
  0
ENDTAB
  0
ENDSEC
  0
SECTION
  2
ENTITIES
  0
POLYLINE
  8
PLAN_1
  6
CONTINUOUS
 66
     1
 40
0.003000
 41
0.003000
  0
VERTEX
  8
PLAN_1
  6
CONTINUOUS
 10
0.268327
 20
-3.291472
  0
VERTEX
  8
PLAN_1
  6
CONTINUOUS
 10
0.111496
 20
-3.291472
  0
VERTEX
  8
PLAN_1
  6
CONTINUOUS
 10
0.111496
 20
-3.269008
  0
VERTEX
  8
PLAN_1
  6
CONTINUOUS
 10
0.233386
 20
-3.115921
  0
VERTEX
  8
PLAN_1
  6
CONTINUOUS
 10
0.120650
 20
-3.115921
  0
VERTEX
  8
PLAN_1
  6
CONTINUOUS
 10
0.120650
 20
-3.092209
  0
VERTEX
  8
PLAN_1
  6
CONTINUOUS
 10
0.268327
 20
-3.092209
  0
VERTEX
  8
PLAN_1
  6
CONTINUOUS
 10
0.268327
 20
-3.115504
  0
VERTEX
  8
PLAN_1
  6
CONTINUOUS
 10
0.145606
 20
-3.267343
  0
VERTEX
  8
PLAN_1
  6
CONTINUOUS
 10
0.268327
 20
-3.267343
  0
VERTEX
  8
PLAN_1
  6
CONTINUOUS
 10
0.268327
 20
-3.291472
  0
SEQEND
  8
0
  0
POLYLINE
  8
PLAN_1
  6
CONTINUOUS
 66
     1
 40
0.003000
 41
0.003000
  0
VERTEX
  8
PLAN_1
  6
CONTINUOUS
 10
0.435559
 20
-3.152110
  0
VERTEX
  8
PLAN_1
  6
CONTINUOUS
 10
0.433898
 20
-3.145874
  0
VERTEX
  8
PLAN_1
  6
CONTINUOUS
 10
0.431815
 20
-3.140047
  0
VERTEX
  8
PLAN_1
  6
CONTINUOUS
 10
0.429319
 20
-3.135055
  0
VERTEX
  8
PLAN_1
  6
CONTINUOUS
 10
0.426409
 20
-3.130898
  0
VERTEX
  8
PLAN_1
  6
CONTINUOUS
 10
0.423079
 20
-3.126736
  0
VERTEX
  8
PLAN_1
  6
CONTINUOUS
 10
0.419752
 20
-3.123409
  0
VERTEX
  8
PLAN_1
  6
CONTINUOUS
 10
0.416008
 20
-3.120496
  0
VERTEX
  8
PLAN_1
  6
CONTINUOUS
 10
0.411846
 20
-3.118000
  0
VERTEX
  8
PLAN_1
  6
CONTINUOUS
 10
0.408102
 20
-3.116335
  0
VERTEX
  8
PLAN_1
  6
CONTINUOUS
 10
0.403945
 20
-3.114673
  0
VERTEX
  8
PLAN_1
  6
CONTINUOUS
 10
0.399783
 20
-3.113008
  0
VERTEX
  8
PLAN_1
  6
CONTINUOUS
 10
0.395626
 20
-3.112177
  0
VERTEX
  8
PLAN_1
  6
CONTINUOUS
 10
0.387303
 20
-3.110929
  0
VERTEX
  8
PLAN_1
  6
CONTINUOUS
 10
0.379815
 20
-3.110512
  0
VERTEX
  8
PLAN_1
  6
CONTINUOUS
 10
0.373161
 20
-3.110929
  0
VERTEX
  8
PLAN_1
  6
CONTINUOUS
 10
0.366504
 20
-3.111760
  0
VERTEX
  8
PLAN_1
  6
CONTINUOUS
 10
0.360264
 20
-3.113425
  0
VERTEX
  8
PLAN_1
  6
CONTINUOUS
 10
0.354441
 20
-3.115504
  0
VERTEX
  8
PLAN_1
  6
CONTINUOUS
 10
0.348614
 20
-3.118417
  0
VERTEX
  8
PLAN_1
  6
CONTINUOUS
 10
0.343209
 20
-3.121744
  0
VERTEX
  8
PLAN_1
  6
CONTINUOUS
 10
0.338217
 20
-3.125906
  0
VERTEX
  8
PLAN_1
  6
CONTINUOUS
 10
0.333642
 20
-3.130480
  0
VERTEX
  8
PLAN_1
  6
CONTINUOUS
 10
0.329480
 20
-3.135890
  0
VERTEX
  8
PLAN_1
  6
CONTINUOUS
 10
0.325736
 20
-3.141713
  0
VERTEX
  8
PLAN_1
  6
CONTINUOUS
 10
0.322409
 20
-3.147953
  0
VERTEX
  8
PLAN_1
  6
CONTINUOUS
 10
0.319496
 20
-3.155024
  0
VERTEX
  8
PLAN_1
  6
CONTINUOUS
 10
0.317417
 20
-3.162929
  0
VERTEX
  8
PLAN_1
  6
CONTINUOUS
 10
0.315752
 20
-3.171248
  0
VERTEX
  8
PLAN_1
  6
CONTINUOUS
 10
0.314921
 20
-3.179984
  0
VERTEX
  8
PLAN_1
  6
CONTINUOUS
 10
0.314504
 20
-3.189551
  0
VERTEX
  8
PLAN_1
  6
CONTINUOUS
 10
0.314921
 20
-3.198287
  0
VERTEX
  8
PLAN_1
  6
CONTINUOUS
 10
0.315335
 20
-3.206606
  0
VERTEX
  8
PLAN_1
  6
CONTINUOUS
 10
0.316583
 20
-3.214929
  0
VERTEX
  8
PLAN_1
  6
CONTINUOUS
 10
0.317831
 20
-3.222417
  0
VERTEX
  8
PLAN_1
  6
CONTINUOUS
 10
0.319913
 20
-3.229906
  0
VERTEX
  8
PLAN_1
  6
CONTINUOUS
 10
0.322409
 20
-3.236559
  0
VERTEX
  8
PLAN_1
  6
CONTINUOUS
 10
0.325319
 20
-3.242799
  0
VERTEX
  8
PLAN_1
  6
CONTINUOUS
 10
0.329063
 20
-3.248626
  0
VERTEX
  8
PLAN_1
  6
CONTINUOUS
 10
0.331146
 20
-3.251535
  0
VERTEX
  8
PLAN_1
  6
CONTINUOUS
 10
0.333224
 20
-3.254031
  0
VERTEX
  8
PLAN_1
  6
CONTINUOUS
 10
0.335720
 20
-3.256528
  0
VERTEX
  8
PLAN_1
  6
CONTINUOUS
 10
0.337799
 20
-3.259024
  0
VERTEX
  8
PLAN_1
  6
CONTINUOUS
 10
0.340713
 20
-3.261102
  0
VERTEX
  8
PLAN_1
  6
CONTINUOUS
 10
0.343209
 20
-3.262768
  0
VERTEX
  8
PLAN_1
  6
CONTINUOUS
 10
0.346535
 20
-3.264846
  0
VERTEX
  8
PLAN_1
  6
CONTINUOUS
 10
0.349449
 20
-3.266512
  0
VERTEX
  8
PLAN_1
  6
CONTINUOUS
 10
0.352776
 20
-3.267760
  0
VERTEX
  8
PLAN_1
  6
CONTINUOUS
 10
0.356102
 20
-3.269008
  0
VERTEX
  8
PLAN_1
  6
CONTINUOUS
 10
0.359846
 20
-3.270256
  0
VERTEX
  8
PLAN_1
  6
CONTINUOUS
 10
0.363591
 20
-3.271087
  0
VERTEX
  8
PLAN_1
  6
CONTINUOUS
 10
0.367752
 20
-3.271921
  0
VERTEX
  8
PLAN_1
  6
CONTINUOUS
 10
0.371913
 20
-3.272335
  0
VERTEX
  8
PLAN_1
  6
CONTINUOUS
 10
0.376071
 20
-3.272752
  0
VERTEX
  8
PLAN_1
  6
CONTINUOUS
 10
0.380650
 20
-3.272752
  0
VERTEX
  8
PLAN_1
  6
CONTINUOUS
 10
0.383976
 20
-3.272752
  0
VERTEX
  8
PLAN_1
  6
CONTINUOUS
 10
0.387720
 20
-3.272335
  0
VERTEX
  8
PLAN_1
  6
CONTINUOUS
 10
0.391465
 20
-3.271504
  0
VERTEX
  8
PLAN_1
  6
CONTINUOUS
 10
0.395626
 20
-3.270673
  0
VERTEX
  8
PLAN_1
  6
CONTINUOUS
 10
0.399783
 20
-3.269425
  0
VERTEX
  8
PLAN_1
  6
CONTINUOUS
 10
0.403945
 20
-3.267760
  0
VERTEX
  8
PLAN_1
  6
CONTINUOUS
 10
0.408102
 20
-3.265264
  0
VERTEX
  8
PLAN_1
  6
CONTINUOUS
 10
0.412264
 20
-3.262768
  0
VERTEX
  8
PLAN_1
  6
CONTINUOUS
 10
0.416425
 20
-3.259441
  0
VERTEX
  8
PLAN_1
  6
CONTINUOUS
 10
0.420169
 20
-3.255697
  0
VERTEX
  8
PLAN_1
  6
CONTINUOUS
 10
0.423913
 20
-3.251122
  0
VERTEX
  8
PLAN_1
  6
CONTINUOUS
 10
0.427240
 20
-3.246130
  0
VERTEX
  8
PLAN_1
  6
CONTINUOUS
 10
0.430567
 20
-3.240303
  0
VERTEX
  8
PLAN_1
  6
CONTINUOUS
 10
0.433063
 20
-3.233650
  0
VERTEX
  8
PLAN_1
  6
CONTINUOUS
 10
0.435559
 20
-3.226161
  0
VERTEX
  8
PLAN_1
  6
CONTINUOUS
 10
0.437642
 20
-3.217839
  0
VERTEX
  8
PLAN_1
  6
CONTINUOUS
 10
0.463433
 20
-3.217839
  0
VERTEX
  8
PLAN_1
  6
CONTINUOUS
 10
0.462598
 20
-3.224913
  0
VERTEX
  8
PLAN_1
  6
CONTINUOUS
 10
0.460937
 20
-3.231154
  0
VERTEX
  8
PLAN_1
  6
CONTINUOUS
 10
0.459272
 20
-3.237394
  0
VERTEX
  8
PLAN_1
  6
CONTINUOUS
 10
0.457193
 20
-3.242799
  0
VERTEX
  8
PLAN_1
  6
CONTINUOUS
 10
0.455110
 20
-3.248209
  0
VERTEX
  8
PLAN_1
  6
CONTINUOUS
 10
0.452614
 20
-3.253201
  0
VERTEX
  8
PLAN_1
  6
CONTINUOUS
 10
0.450118
 20
-3.257776
  0
VERTEX
  8
PLAN_1
  6
CONTINUOUS
 10
0.447626
 20
-3.261937
  0
VERTEX
  8
PLAN_1
  6
CONTINUOUS
 10
0.444713
 20
-3.266094
  0
VERTEX
  8
PLAN_1
  6
CONTINUOUS
 10
0.441386
 20
-3.269425
  0
VERTEX
  8
PLAN_1
  6
CONTINUOUS
 10
0.438472
 20
-3.272752
  0
VERTEX
  8
PLAN_1
  6
CONTINUOUS
 10
0.435146
 20
-3.276079
  0
VERTEX
  8
PLAN_1
  6
CONTINUOUS
 10
0.431815
 20
-3.278575
  0
VERTEX
  8
PLAN_1
  6
CONTINUOUS
 10
0.428488
 20
-3.281071
  0
VERTEX
  8
PLAN_1
  6
CONTINUOUS
 10
0.425161
 20
-3.283567
  0
VERTEX
  8
PLAN_1
  6
CONTINUOUS
 10
0.421417
 20
-3.285650
  0
VERTEX
  8
PLAN_1
  6
CONTINUOUS
 10
0.414343
 20
-3.288976
  0
VERTEX
  8
PLAN_1
  6
CONTINUOUS
 10
0.407689
 20
-3.291472
  0
VERTEX
  8
PLAN_1
  6
CONTINUOUS
 10
0.401031
 20
-3.293551
  0
VERTEX
  8
PLAN_1
  6
CONTINUOUS
 10
0.394791
 20
-3.294799
  0
VERTEX
  8
PLAN_1
  6
CONTINUOUS
 10
0.383976
 20
-3.296465
  0
VERTEX
  8
PLAN_1
  6
CONTINUOUS
 10
0.376488
 20
-3.296465
  0
VERTEX
  8
PLAN_1
  6
CONTINUOUS
 10
0.368169
 20
-3.296047
  0
VERTEX
  8
PLAN_1
  6
CONTINUOUS
 10
0.359433
 20
-3.295217
  0
VERTEX
  8
PLAN_1
  6
CONTINUOUS
 10
0.351528
 20
-3.293551
  0
VERTEX
  8
PLAN_1
  6
CONTINUOUS
 10
0.343209
 20
-3.290642
  0
VERTEX
  8
PLAN_1
  6
CONTINUOUS
 10
0.339465
 20
-3.289394
  0
VERTEX
  8
PLAN_1
  6
CONTINUOUS
 10
0.335720
 20
-3.287311
  0
VERTEX
  8
PLAN_1
  6
CONTINUOUS
 10
0.331976
 20
-3.285650
  0
VERTEX
  8
PLAN_1
  6
CONTINUOUS
 10
0.328232
 20
-3.283154
  0
VERTEX
  8
PLAN_1
  6
CONTINUOUS
 10
0.324488
 20
-3.280657
  0
VERTEX
  8
PLAN_1
  6
CONTINUOUS
 10
0.321161
 20
-3.278161
  0
VERTEX
  8
PLAN_1
  6
CONTINUOUS
 10
0.317831
 20
-3.275248
  0
VERTEX
  8
PLAN_1
  6
CONTINUOUS
 10
0.314504
 20
-3.272335
  0
VERTEX
  8
PLAN_1
  6
CONTINUOUS
 10
0.311591
 20
-3.269008
  0
VERTEX
  8
PLAN_1
  6
CONTINUOUS
 10
0.308681
 20
-3.265681
  0
VERTEX
  8
PLAN_1
  6
CONTINUOUS
 10
0.305768
 20
-3.261937
  0
VERTEX
  8
PLAN_1
  6
CONTINUOUS
 10
0.303272
 20
-3.257776
  0
VERTEX
  8
PLAN_1
  6
CONTINUOUS
 10
0.300776
 20
-3.253614
  0
VERTEX
  8
PLAN_1
  6
CONTINUOUS
 10
0.298280
 20
-3.249039
  0
VERTEX
  8
PLAN_1
  6
CONTINUOUS
 10
0.296201
 20
-3.244465
  0
VERTEX
  8
PLAN_1
  6
CONTINUOUS
 10
0.294535
 20
-3.239472
  0
VERTEX
  8
PLAN_1
  6
CONTINUOUS
 10
0.292870
 20
-3.234063
  0
VERTEX
  8
PLAN_1
  6
CONTINUOUS
 10
0.291209
 20
-3.228657
  0
VERTEX
  8
PLAN_1
  6
CONTINUOUS
 10
0.289961
 20
-3.223248
  0
VERTEX
  8
PLAN_1
  6
CONTINUOUS
 10
0.288713
 20
-3.217008
  0
VERTEX
  8
PLAN_1
  6
CONTINUOUS
 10
0.287882
 20
-3.210768
  0
VERTEX
  8
PLAN_1
  6
CONTINUOUS
 10
0.287465
 20
-3.204528
  0
VERTEX
  8
PLAN_1
  6
CONTINUOUS
 10
0.287047
 20
-3.197457
  0
VERTEX
  8
PLAN_1
  6
CONTINUOUS
 10
0.286634
 20
-3.190386
  0
VERTEX
  8
PLAN_1
  6
CONTINUOUS
 10
0.287047
 20
-3.184976
  0
VERTEX
  8
PLAN_1
  6
CONTINUOUS
 10
0.287047
 20
-3.179154
  0
VERTEX
  8
PLAN_1
  6
CONTINUOUS
 10
0.287882
 20
-3.173744
  0
VERTEX
  8
PLAN_1
  6
CONTINUOUS
 10
0.288295
 20
-3.168335
  0
VERTEX
  8
PLAN_1
  6
CONTINUOUS
 10
0.289130
 20
-3.163343
  0
VERTEX
  8
PLAN_1
  6
CONTINUOUS
 10
0.290378
 20
-3.158350
  0
VERTEX
  8
PLAN_1
  6
CONTINUOUS
 10
0.291626
 20
-3.153358
  0
VERTEX
  8
PLAN_1
  6
CONTINUOUS
 10
0.293287
 20
-3.148366
  0
VERTEX
  8
PLAN_1
  6
CONTINUOUS
 10
0.294953
 20
-3.143791
  0
VERTEX
  8
PLAN_1
  6
CONTINUOUS
 10
0.296614
 20
-3.139217
  0
VERTEX
  8
PLAN_1
  6
CONTINUOUS
 10
0.298697
 20
-3.135055
  0
VERTEX
  8
PLAN_1
  6
CONTINUOUS
 10
0.300776
 20
-3.130898
  0
VERTEX
  8
PLAN_1
  6
CONTINUOUS
 10
0.303272
 20
-3.126736
  0
VERTEX
  8
PLAN_1
  6
CONTINUOUS
 10
0.305768
 20
-3.122992
  0
VERTEX
  8
PLAN_1
  6
CONTINUOUS
 10
0.308681
 20
-3.119248
  0
VERTEX
  8
PLAN_1
  6
CONTINUOUS
 10
0.311591
 20
-3.115504
  0
VERTEX
  8
PLAN_1
  6
CONTINUOUS
 10
0.314504
 20
-3.112177
  0
VERTEX
  8
PLAN_1
  6
CONTINUOUS
 10
0.317831
 20
-3.109264
  0
VERTEX
  8
PLAN_1
  6
CONTINUOUS
 10
0.321161
 20
-3.106350
  0
VERTEX
  8
PLAN_1
  6
CONTINUOUS
 10
0.324906
 20
-3.103441
  0
VERTEX
  8
PLAN_1
  6
CONTINUOUS
 10
0.328650
 20
-3.100945
  0
VERTEX
  8
PLAN_1
  6
CONTINUOUS
 10
0.332394
 20
-3.098449
  0
VERTEX
  8
PLAN_1
  6
CONTINUOUS
 10
0.336551
 20
-3.096366
  0
VERTEX
  8
PLAN_1
  6
CONTINUOUS
 10
0.340713
 20
-3.094287
  0
VERTEX
  8
PLAN_1
  6
CONTINUOUS
 10
0.345287
 20
-3.092626
  0
VERTEX
  8
PLAN_1
  6
CONTINUOUS
 10
0.349862
 20
-3.090961
  0
VERTEX
  8
PLAN_1
  6
CONTINUOUS
 10
0.354441
 20
-3.089713
  0
VERTEX
  8
PLAN_1
  6
CONTINUOUS
 10
0.359016
 20
-3.088882
  0
VERTEX
  8
PLAN_1
  6
CONTINUOUS
 10
0.364008
 20
-3.088047
  0
VERTEX
  8
PLAN_1
  6
CONTINUOUS
 10
0.369000
 20
-3.087217
  0
VERTEX
  8
PLAN_1
  6
CONTINUOUS
 10
0.374409
 20
-3.086799
  0
VERTEX
  8
PLAN_1
  6
CONTINUOUS
 10
0.379815
 20
-3.086799
  0
VERTEX
  8
PLAN_1
  6
CONTINUOUS
 10
0.388969
 20
-3.087217
  0
VERTEX
  8
PLAN_1
  6
CONTINUOUS
 10
0.397705
 20
-3.088047
  0
VERTEX
  8
PLAN_1
  6
CONTINUOUS
 10
0.406024
 20
-3.089713
  0
VERTEX
  8
PLAN_1
  6
CONTINUOUS
 10
0.413512
 20
-3.092209
  0
VERTEX
  8
PLAN_1
  6
CONTINUOUS
 10
0.420583
 20
-3.095122
  0
VERTEX
  8
PLAN_1
  6
CONTINUOUS
 10
0.427240
 20
-3.098449
  0
VERTEX
  8
PLAN_1
  6
CONTINUOUS
 10
0.433063
 20
-3.102606
  0
VERTEX
  8
PLAN_1
  6
CONTINUOUS
 10
0.438472
 20
-3.106768
  0
VERTEX
  8
PLAN_1
  6
CONTINUOUS
 10
0.443465
 20
-3.111760
  0
VERTEX
  8
PLAN_1
  6
CONTINUOUS
 10
0.447626
 20
-3.116752
  0
VERTEX
  8
PLAN_1
  6
CONTINUOUS
 10
0.451366
 20
-3.122161
  0
VERTEX
  8
PLAN_1
  6
CONTINUOUS
 10
0.454280
 20
-3.127567
  0
VERTEX
  8
PLAN_1
  6
CONTINUOUS
 10
0.457193
 20
-3.133394
  0
VERTEX
  8
PLAN_1
  6
CONTINUOUS
 10
0.459272
 20
-3.139634
  0
VERTEX
  8
PLAN_1
  6
CONTINUOUS
 10
0.460520
 20
-3.145874
  0
VERTEX
  8
PLAN_1
  6
CONTINUOUS
 10
0.461768
 20
-3.152110
  0
VERTEX
  8
PLAN_1
  6
CONTINUOUS
 10
0.435559
 20
-3.152110
  0
SEQEND
  8
0
  0
POLYLINE
  8
PLAN_1
  6
CONTINUOUS
 66
     1
 40
0.003000
 41
0.003000
  0
VERTEX
  8
PLAN_1
  6
CONTINUOUS
 10
0.522921
 20
-3.291472
  0
VERTEX
  8
PLAN_1
  6
CONTINUOUS
 10
0.496295
 20
-3.291472
  0
VERTEX
  8
PLAN_1
  6
CONTINUOUS
 10
0.496295
 20
-3.092209
  0
VERTEX
  8
PLAN_1
  6
CONTINUOUS
 10
0.522921
 20
-3.092209
  0
VERTEX
  8
PLAN_1
  6
CONTINUOUS
 10
0.522921
 20
-3.188720
  0
VERTEX
  8
PLAN_1
  6
CONTINUOUS
 10
0.619846
 20
-3.092209
  0
VERTEX
  8
PLAN_1
  6
CONTINUOUS
 10
0.656870
 20
-3.092209
  0
VERTEX
  8
PLAN_1
  6
CONTINUOUS
 10
0.574087
 20
-3.172496
  0
VERTEX
  8
PLAN_1
  6
CONTINUOUS
 10
0.658953
 20
-3.291472
  0
VERTEX
  8
PLAN_1
  6
CONTINUOUS
 10
0.624008
 20
-3.291472
  0
VERTEX
  8
PLAN_1
  6
CONTINUOUS
 10
0.554535
 20
-3.191217
  0
VERTEX
  8
PLAN_1
  6
CONTINUOUS
 10
0.522921
 20
-3.221169
  0
VERTEX
  8
PLAN_1
  6
CONTINUOUS
 10
0.522921
 20
-3.291472
  0
SEQEND
  8
0
  0
POLYLINE
  8
PLAN_1
  6
CONTINUOUS
 66
     1
 40
0.003000
 41
0.003000
  0
VERTEX
  8
PLAN_1
  6
CONTINUOUS
 10
0.682665
 20
-3.092209
  0
VERTEX
  8
PLAN_1
  6
CONTINUOUS
 10
0.763783
 20
-3.092209
  0
VERTEX
  8
PLAN_1
  6
CONTINUOUS
 10
0.768358
 20
-3.092209
  0
VERTEX
  8
PLAN_1
  6
CONTINUOUS
 10
0.772937
 20
-3.092626
  0
VERTEX
  8
PLAN_1
  6
CONTINUOUS
 10
0.777512
 20
-3.093039
  0
VERTEX
  8
PLAN_1
  6
CONTINUOUS
 10
0.782087
 20
-3.093874
  0
VERTEX
  8
PLAN_1
  6
CONTINUOUS
 10
0.786248
 20
-3.094705
  0
VERTEX
  8
PLAN_1
  6
CONTINUOUS
 10
0.790409
 20
-3.095953
  0
VERTEX
  8
PLAN_1
  6
CONTINUOUS
 10
0.794567
 20
-3.097614
  0
VERTEX
  8
PLAN_1
  6
CONTINUOUS
 10
0.798728
 20
-3.098862
  0
VERTEX
  8
PLAN_1
  6
CONTINUOUS
 10
0.802472
 20
-3.100945
  0
VERTEX
  8
PLAN_1
  6
CONTINUOUS
 10
0.805799
 20
-3.103024
  0
VERTEX
  8
PLAN_1
  6
CONTINUOUS
 10
0.809543
 20
-3.105102
  0
VERTEX
  8
PLAN_1
  6
CONTINUOUS
 10
0.812870
 20
-3.107598
  0
VERTEX
  8
PLAN_1
  6
CONTINUOUS
 10
0.816201
 20
-3.110094
  0
VERTEX
  8
PLAN_1
  6
CONTINUOUS
 10
0.819110
 20
-3.113008
  0
VERTEX
  8
PLAN_1
  6
CONTINUOUS
 10
0.822024
 20
-3.115921
  0
VERTEX
  8
PLAN_1
  6
CONTINUOUS
 10
0.824937
 20
-3.118831
  0
VERTEX
  8
PLAN_1
  6
CONTINUOUS
 10
0.827433
 20
-3.122161
  0
VERTEX
  8
PLAN_1
  6
CONTINUOUS
 10
0.829929
 20
-3.125488
  0
VERTEX
  8
PLAN_1
  6
CONTINUOUS
 10
0.832425
 20
-3.129232
  0
VERTEX
  8
PLAN_1
  6
CONTINUOUS
 10
0.834504
 20
-3.132976
  0
VERTEX
  8
PLAN_1
  6
CONTINUOUS
 10
0.838248
 20
-3.140882
  0
VERTEX
  8
PLAN_1
  6
CONTINUOUS
 10
0.841575
 20
-3.149614
  0
VERTEX
  8
PLAN_1
  6
CONTINUOUS
 10
0.844071
 20
-3.158768
  0
VERTEX
  8
PLAN_1
  6
CONTINUOUS
 10
0.845736
 20
-3.168335
  0
VERTEX
  8
PLAN_1
  6
CONTINUOUS
 10
0.846984
 20
-3.178319
  0
VERTEX
  8
PLAN_1
  6
CONTINUOUS
 10
0.847402
 20
-3.188720
  0
VERTEX
  8
PLAN_1
  6
CONTINUOUS
 10
0.846984
 20
-3.197457
  0
VERTEX
  8
PLAN_1
  6
CONTINUOUS
 10
0.846567
 20
-3.206193
  0
VERTEX
  8
PLAN_1
  6
CONTINUOUS
 10
0.845319
 20
-3.214929
  0
VERTEX
  8
PLAN_1
  6
CONTINUOUS
 10
0.843240
 20
-3.223665
  0
VERTEX
  8
PLAN_1
  6
CONTINUOUS
 10
0.840744
 20
-3.232402
  0
VERTEX
  8
PLAN_1
  6
CONTINUOUS
 10
0.837831
 20
-3.241138
  0
VERTEX
  8
PLAN_1
  6
CONTINUOUS
 10
0.836169
 20
-3.244882
  0
VERTEX
  8
PLAN_1
  6
CONTINUOUS
 10
0.834087
 20
-3.249039
  0
VERTEX
  8
PLAN_1
  6
CONTINUOUS
 10
0.832008
 20
-3.253201
  0
VERTEX
  8
PLAN_1
  6
CONTINUOUS
 10
0.829512
 20
-3.256945
  0
VERTEX
  8
PLAN_1
  6
CONTINUOUS
 10
0.827016
 20
-3.260689
  0
VERTEX
  8
PLAN_1
  6
CONTINUOUS
 10
0.824102
 20
-3.264016
  0
VERTEX
  8
PLAN_1
  6
CONTINUOUS
 10
0.821193
 20
-3.267343
  0
VERTEX
  8
PLAN_1
  6
CONTINUOUS
 10
0.818280
 20
-3.270673
  0
VERTEX
  8
PLAN_1
  6
CONTINUOUS
 10
0.814953
 20
-3.273583
  0
VERTEX
  8
PLAN_1
  6
CONTINUOUS
 10
0.811209
 20
-3.276496
  0
VERTEX
  8
PLAN_1
  6
CONTINUOUS
 10
0.807465
 20
-3.278992
  0
VERTEX
  8
PLAN_1
  6
CONTINUOUS
 10
0.803303
 20
-3.281488
  0
VERTEX
  8
PLAN_1
  6
CONTINUOUS
 10
0.799146
 20
-3.283567
  0
VERTEX
  8
PLAN_1
  6
CONTINUOUS
 10
0.794567
 20
-3.285650
  0
VERTEX
  8
PLAN_1
  6
CONTINUOUS
 10
0.789992
 20
-3.287311
  0
VERTEX
  8
PLAN_1
  6
CONTINUOUS
 10
0.785000
 20
-3.288559
  0
VERTEX
  8
PLAN_1
  6
CONTINUOUS
 10
0.779591
 20
-3.289807
  0
VERTEX
  8
PLAN_1
  6
CONTINUOUS
 10
0.774185
 20
-3.290642
  0
VERTEX
  8
PLAN_1
  6
CONTINUOUS
 10
0.768358
 20
-3.291055
  0
VERTEX
  8
PLAN_1
  6
CONTINUOUS
 10
0.762535
 20
-3.291472
  0
VERTEX
  8
PLAN_1
  6
CONTINUOUS
 10
0.682665
 20
-3.291472
  0
VERTEX
  8
PLAN_1
  6
CONTINUOUS
 10
0.682665
 20
-3.092209
  0
SEQEND
  8
0
  0
POLYLINE
  8
PLAN_1
  6
CONTINUOUS
 66
     1
 40
0.003000
 41
0.003000
  0
VERTEX
  8
PLAN_1
  6
CONTINUOUS
 10
0.709705
 20
-3.268177
  0
VERTEX
  8
PLAN_1
  6
CONTINUOUS
 10
0.761705
 20
-3.268177
  0
VERTEX
  8
PLAN_1
  6
CONTINUOUS
 10
0.768358
 20
-3.267760
  0
VERTEX
  8
PLAN_1
  6
CONTINUOUS
 10
0.774598
 20
-3.266929
  0
VERTEX
  8
PLAN_1
  6
CONTINUOUS
 10
0.780008
 20
-3.265264
  0
VERTEX
  8
PLAN_1
  6
CONTINUOUS
 10
0.785831
 20
-3.263185
  0
VERTEX
  8
PLAN_1
  6
CONTINUOUS
 10
0.790823
 20
-3.260272
  0
VERTEX
  8
PLAN_1
  6
CONTINUOUS
 10
0.795402
 20
-3.256945
  0
VERTEX
  8
PLAN_1
  6
CONTINUOUS
 10
0.799976
 20
-3.252783
  0
VERTEX
  8
PLAN_1
  6
CONTINUOUS
 10
0.803720
 20
-3.248209
  0
VERTEX
  8
PLAN_1
  6
CONTINUOUS
 10
0.807465
 20
-3.243217
  0
VERTEX
  8
PLAN_1
  6
CONTINUOUS
 10
0.810791
 20
-3.237394
  0
VERTEX
  8
PLAN_1
  6
CONTINUOUS
 10
0.813287
 20
-3.230736
  0
VERTEX
  8
PLAN_1
  6
CONTINUOUS
 10
0.815366
 20
-3.224079
  0
VERTEX
  8
PLAN_1
  6
CONTINUOUS
 10
0.817449
 20
-3.216591
  0
VERTEX
  8
PLAN_1
  6
CONTINUOUS
 10
0.818697
 20
-3.208272
  0
VERTEX
  8
PLAN_1
  6
CONTINUOUS
 10
0.819528
 20
-3.199535
  0
VERTEX
  8
PLAN_1
  6
CONTINUOUS
 10
0.819528
 20
-3.190386
  0
VERTEX
  8
PLAN_1
  6
CONTINUOUS
 10
0.819528
 20
-3.181232
  0
VERTEX
  8
PLAN_1
  6
CONTINUOUS
 10
0.818697
 20
-3.172913
  0
VERTEX
  8
PLAN_1
  6
CONTINUOUS
 10
0.817449
 20
-3.165008
  0
VERTEX
  8
PLAN_1
  6
CONTINUOUS
 10
0.815366
 20
-3.157520
  0
VERTEX
  8
PLAN_1
  6
CONTINUOUS
 10
0.813287
 20
-3.150862
  0
VERTEX
  8
PLAN_1
  6
CONTINUOUS
 10
0.810378
 20
-3.144626
  0
VERTEX
  8
PLAN_1
  6
CONTINUOUS
 10
0.807047
 20
-3.138799
  0
VERTEX
  8
PLAN_1
  6
CONTINUOUS
 10
0.803720
 20
-3.133807
  0
VERTEX
  8
PLAN_1
  6
CONTINUOUS
 10
0.799559
 20
-3.129650
  0
VERTEX
  8
PLAN_1
  6
CONTINUOUS
 10
0.794984
 20
-3.125906
  0
VERTEX
  8
PLAN_1
  6
CONTINUOUS
 10
0.789992
 20
-3.122575
  0
VERTEX
  8
PLAN_1
  6
CONTINUOUS
 10
0.784583
 20
-3.119665
  0
VERTEX
  8
PLAN_1
  6
CONTINUOUS
 10
0.779177
 20
-3.117583
  0
VERTEX
  8
PLAN_1
  6
CONTINUOUS
 10
0.772937
 20
-3.116335
  0
VERTEX
  8
PLAN_1
  6
CONTINUOUS
 10
0.766697
 20
-3.115504
  0
VERTEX
  8
PLAN_1
  6
CONTINUOUS
 10
0.760039
 20
-3.115087
  0
VERTEX
  8
PLAN_1
  6
CONTINUOUS
 10
0.709705
 20
-3.115087
  0
VERTEX
  8
PLAN_1
  6
CONTINUOUS
 10
0.709705
 20
-3.268177
  0
SEQEND
  8
0
  0
POLYLINE
  8
PLAN_1
  6
CONTINUOUS
 66
     1
 40
0.003000
 41
0.003000
  0
VERTEX
  8
PLAN_1
  6
CONTINUOUS
 10
0.938087
 20
-3.296465
  0
VERTEX
  8
PLAN_1
  6
CONTINUOUS
 10
0.932681
 20
-3.296465
  0
VERTEX
  8
PLAN_1
  6
CONTINUOUS
 10
0.928102
 20
-3.296047
  0
VERTEX
  8
PLAN_1
  6
CONTINUOUS
 10
0.923528
 20
-3.295217
  0
VERTEX
  8
PLAN_1
  6
CONTINUOUS
 10
0.918953
 20
-3.293969
  0
VERTEX
  8
PLAN_1
  6
CONTINUOUS
 10
0.914791
 20
-3.292720
  0
VERTEX
  8
PLAN_1
  6
CONTINUOUS
 10
0.911047
 20
-3.290642
  0
VERTEX
  8
PLAN_1
  6
CONTINUOUS
 10
0.907303
 20
-3.288976
  0
VERTEX
  8
PLAN_1
  6
CONTINUOUS
 10
0.903976
 20
-3.286480
  0
VERTEX
  8
PLAN_1
  6
CONTINUOUS
 10
0.900650
 20
-3.283984
  0
VERTEX
  8
PLAN_1
  6
CONTINUOUS
 10
0.897736
 20
-3.281488
  0
VERTEX
  8
PLAN_1
  6
CONTINUOUS
 10
0.894823
 20
-3.278575
  0
VERTEX
  8
PLAN_1
  6
CONTINUOUS
 10
0.892327
 20
-3.275665
  0
VERTEX
  8
PLAN_1
  6
CONTINUOUS
 10
0.889831
 20
-3.272335
  0
VERTEX
  8
PLAN_1
  6
CONTINUOUS
 10
0.887335
 20
-3.269008
  0
VERTEX
  8
PLAN_1
  6
CONTINUOUS
 10
0.885256
 20
-3.265264
  0
VERTEX
  8
PLAN_1
  6
CONTINUOUS
 10
0.883591
 20
-3.261520
  0
VERTEX
  8
PLAN_1
  6
CONTINUOUS
 10
0.880264
 20
-3.254031
  0
VERTEX
  8
PLAN_1
  6
CONTINUOUS
 10
0.877350
 20
-3.245713
  0
VERTEX
  8
PLAN_1
  6
CONTINUOUS
 10
0.875272
 20
-3.237394
  0
VERTEX
  8
PLAN_1
  6
CONTINUOUS
 10
0.873606
 20
-3.229071
  0
VERTEX
  8
PLAN_1
  6
CONTINUOUS
 10
0.872358
 20
-3.220752
  0
VERTEX
  8
PLAN_1
  6
CONTINUOUS
 10
0.871528
 20
-3.212433
  0
VERTEX
  8
PLAN_1
  6
CONTINUOUS
 10
0.871110
 20
-3.204110
  0
VERTEX
  8
PLAN_1
  6
CONTINUOUS
 10
0.871110
 20
-3.196209
  0
VERTEX
  8
PLAN_1
  6
CONTINUOUS
 10
0.871110
 20
-3.188720
  0
VERTEX
  8
PLAN_1
  6
CONTINUOUS
 10
0.871528
 20
-3.180402
  0
VERTEX
  8
PLAN_1
  6
CONTINUOUS
 10
0.872358
 20
-3.172079
  0
VERTEX
  8
PLAN_1
  6
CONTINUOUS
 10
0.873606
 20
-3.163760
  0
VERTEX
  8
PLAN_1
  6
CONTINUOUS
 10
0.875272
 20
-3.155024
  0
VERTEX
  8
PLAN_1
  6
CONTINUOUS
 10
0.877350
 20
-3.146705
  0
VERTEX
  8
PLAN_1
  6
CONTINUOUS
 10
0.880264
 20
-3.138799
  0
VERTEX
  8
PLAN_1
  6
CONTINUOUS
 10
0.883591
 20
-3.130898
  0
VERTEX
  8
PLAN_1
  6
CONTINUOUS
 10
0.885256
 20
-3.127567
  0
VERTEX
  8
PLAN_1
  6
CONTINUOUS
 10
0.887335
 20
-3.123823
  0
VERTEX
  8
PLAN_1
  6
CONTINUOUS
 10
0.889831
 20
-3.120496
  0
VERTEX
  8
PLAN_1
  6
CONTINUOUS
 10
0.892327
 20
-3.117169
  0
VERTEX
  8
PLAN_1
  6
CONTINUOUS
 10
0.894823
 20
-3.114256
  0
VERTEX
  8
PLAN_1
  6
CONTINUOUS
 10
0.897736
 20
-3.111343
  0
VERTEX
  8
PLAN_1
  6
CONTINUOUS
 10
0.900650
 20
-3.108433
  0
VERTEX
  8
PLAN_1
  6
CONTINUOUS
 10
0.903976
 20
-3.105937
  0
VERTEX
  8
PLAN_1
  6
CONTINUOUS
 10
0.907303
 20
-3.103854
  0
VERTEX
  8
PLAN_1
  6
CONTINUOUS
 10
0.911047
 20
-3.101776
  0
VERTEX
  8
PLAN_1
  6
CONTINUOUS
 10
0.914791
 20
-3.100110
  0
VERTEX
  8
PLAN_1
  6
CONTINUOUS
 10
0.918953
 20
-3.098862
  0
VERTEX
  8
PLAN_1
  6
CONTINUOUS
 10
0.923528
 20
-3.097614
  0
VERTEX
  8
PLAN_1
  6
CONTINUOUS
 10
0.928102
 20
-3.096783
  0
VERTEX
  8
PLAN_1
  6
CONTINUOUS
 10
0.932681
 20
-3.096366
  0
VERTEX
  8
PLAN_1
  6
CONTINUOUS
 10
0.938087
 20
-3.096366
  0
VERTEX
  8
PLAN_1
  6
CONTINUOUS
 10
0.943079
 20
-3.096366
  0
VERTEX
  8
PLAN_1
  6
CONTINUOUS
 10
0.948071
 20
-3.096783
  0
VERTEX
  8
PLAN_1
  6
CONTINUOUS
 10
0.952650
 20
-3.097614
  0
VERTEX
  8
PLAN_1
  6
CONTINUOUS
 10
0.956807
 20
-3.098862
  0
VERTEX
  8
PLAN_1
  6
CONTINUOUS
 10
0.960969
 20
-3.100110
  0
VERTEX
  8
PLAN_1
  6
CONTINUOUS
 10
0.965130
 20
-3.101776
  0
VERTEX
  8
PLAN_1
  6
CONTINUOUS
 10
0.968457
 20
-3.103854
  0
VERTEX
  8
PLAN_1
  6
CONTINUOUS
 10
0.972201
 20
-3.105937
  0
VERTEX
  8
PLAN_1
  6
CONTINUOUS
 10
0.975110
 20
-3.108433
  0
VERTEX
  8
PLAN_1
  6
CONTINUOUS
 10
0.978441
 20
-3.111343
  0
VERTEX
  8
PLAN_1
  6
CONTINUOUS
 10
0.980937
 20
-3.114256
  0
VERTEX
  8
PLAN_1
  6
CONTINUOUS
 10
0.983846
 20
-3.117169
  0
VERTEX
  8
PLAN_1
  6
CONTINUOUS
 10
0.986343
 20
-3.120496
  0
VERTEX
  8
PLAN_1
  6
CONTINUOUS
 10
0.988425
 20
-3.123823
  0
VERTEX
  8
PLAN_1
  6
CONTINUOUS
 10
0.990504
 20
-3.127567
  0
VERTEX
  8
PLAN_1
  6
CONTINUOUS
 10
0.992583
 20
-3.130898
  0
VERTEX
  8
PLAN_1
  6
CONTINUOUS
 10
0.995913
 20
-3.138799
  0
VERTEX
  8
PLAN_1
  6
CONTINUOUS
 10
0.998409
 20
-3.146705
  0
VERTEX
  8
PLAN_1
  6
CONTINUOUS
 10
1.000488
 20
-3.155024
  0
VERTEX
  8
PLAN_1
  6
CONTINUOUS
 10
1.002154
 20
-3.163760
  0
VERTEX
  8
PLAN_1
  6
CONTINUOUS
 10
1.003402
 20
-3.172079
  0
VERTEX
  8
PLAN_1
  6
CONTINUOUS
 10
1.004232
 20
-3.180402
  0
VERTEX
  8
PLAN_1
  6
CONTINUOUS
 10
1.004650
 20
-3.188720
  0
VERTEX
  8
PLAN_1
  6
CONTINUOUS
 10
1.005063
 20
-3.196209
  0
VERTEX
  8
PLAN_1
  6
CONTINUOUS
 10
1.004650
 20
-3.204110
  0
VERTEX
  8
PLAN_1
  6
CONTINUOUS
 10
1.004232
 20
-3.212433
  0
VERTEX
  8
PLAN_1
  6
CONTINUOUS
 10
1.003402
 20
-3.220752
  0
VERTEX
  8
PLAN_1
  6
CONTINUOUS
 10
1.002154
 20
-3.229071
  0
VERTEX
  8
PLAN_1
  6
CONTINUOUS
 10
1.000488
 20
-3.237394
  0
VERTEX
  8
PLAN_1
  6
CONTINUOUS
 10
0.998409
 20
-3.245713
  0
VERTEX
  8
PLAN_1
  6
CONTINUOUS
 10
0.995913
 20
-3.254031
  0
VERTEX
  8
PLAN_1
  6
CONTINUOUS
 10
0.992583
 20
-3.261520
  0
VERTEX
  8
PLAN_1
  6
CONTINUOUS
 10
0.990504
 20
-3.265264
  0
VERTEX
  8
PLAN_1
  6
CONTINUOUS
 10
0.988425
 20
-3.269008
  0
VERTEX
  8
PLAN_1
  6
CONTINUOUS
 10
0.986343
 20
-3.272335
  0
VERTEX
  8
PLAN_1
  6
CONTINUOUS
 10
0.983846
 20
-3.275665
  0
VERTEX
  8
PLAN_1
  6
CONTINUOUS
 10
0.980937
 20
-3.278575
  0
VERTEX
  8
PLAN_1
  6
CONTINUOUS
 10
0.978441
 20
-3.281488
  0
VERTEX
  8
PLAN_1
  6
CONTINUOUS
 10
0.975110
 20
-3.283984
  0
VERTEX
  8
PLAN_1
  6
CONTINUOUS
 10
0.972201
 20
-3.286480
  0
VERTEX
  8
PLAN_1
  6
CONTINUOUS
 10
0.968457
 20
-3.288976
  0
VERTEX
  8
PLAN_1
  6
CONTINUOUS
 10
0.965130
 20
-3.290642
  0
VERTEX
  8
PLAN_1
  6
CONTINUOUS
 10
0.960969
 20
-3.292720
  0
VERTEX
  8
PLAN_1
  6
CONTINUOUS
 10
0.956807
 20
-3.293969
  0
VERTEX
  8
PLAN_1
  6
CONTINUOUS
 10
0.952650
 20
-3.295217
  0
VERTEX
  8
PLAN_1
  6
CONTINUOUS
 10
0.948071
 20
-3.296047
  0
VERTEX
  8
PLAN_1
  6
CONTINUOUS
 10
0.943079
 20
-3.296465
  0
VERTEX
  8
PLAN_1
  6
CONTINUOUS
 10
0.938087
 20
-3.296465
  0
SEQEND
  8
0
  0
POLYLINE
  8
PLAN_1
  6
CONTINUOUS
 66
     1
 40
0.003000
 41
0.003000
  0
VERTEX
  8
PLAN_1
  6
CONTINUOUS
 10
0.938087
 20
-3.118000
  0
VERTEX
  8
PLAN_1
  6
CONTINUOUS
 10
0.933094
 20
-3.118417
  0
VERTEX
  8
PLAN_1
  6
CONTINUOUS
 10
0.928102
 20
-3.119665
  0
VERTEX
  8
PLAN_1
  6
CONTINUOUS
 10
0.923945
 20
-3.121327
  0
VERTEX
  8
PLAN_1
  6
CONTINUOUS
 10
0.919783
 20
-3.123409
  0
VERTEX
  8
PLAN_1
  6
CONTINUOUS
 10
0.916039
 20
-3.126319
  0
VERTEX
  8
PLAN_1
  6
CONTINUOUS
 10
0.912713
 20
-3.130063
  0
VERTEX
  8
PLAN_1
  6
CONTINUOUS
 10
0.909799
 20
-3.134224
  0
VERTEX
  8
PLAN_1
  6
CONTINUOUS
 10
0.906890
 20
-3.138799
  0
VERTEX
  8
PLAN_1
  6
CONTINUOUS
 10
0.904807
 20
-3.144209
  0
VERTEX
  8
PLAN_1
  6
CONTINUOUS
 10
0.902728
 20
-3.150031
  0
VERTEX
  8
PLAN_1
  6
CONTINUOUS
 10
0.901063
 20
-3.156689
  0
VERTEX
  8
PLAN_1
  6
CONTINUOUS
 10
0.899402
 20
-3.163343
  0
VERTEX
  8
PLAN_1
  6
CONTINUOUS
 10
0.898567
 20
-3.170831
  0
VERTEX
  8
PLAN_1
  6
CONTINUOUS
 10
0.897736
 20
-3.179154
  0
VERTEX
  8
PLAN_1
  6
CONTINUOUS
 10
0.897319
 20
-3.187472
  0
VERTEX
  8
PLAN_1
  6
CONTINUOUS
 10
0.897319
 20
-3.196209
  0
VERTEX
  8
PLAN_1
  6
CONTINUOUS
 10
0.897319
 20
-3.205358
  0
VERTEX
  8
PLAN_1
  6
CONTINUOUS
 10
0.897736
 20
-3.213681
  0
VERTEX
  8
PLAN_1
  6
CONTINUOUS
 10
0.898567
 20
-3.221583
  0
VERTEX
  8
PLAN_1
  6
CONTINUOUS
 10
0.899402
 20
-3.229071
  0
VERTEX
  8
PLAN_1
  6
CONTINUOUS
 10
0.901063
 20
-3.236146
  0
VERTEX
  8
PLAN_1
  6
CONTINUOUS
 10
0.902728
 20
-3.242799
  0
VERTEX
  8
PLAN_1
  6
CONTINUOUS
 10
0.904807
 20
-3.248626
  0
VERTEX
  8
PLAN_1
  6
CONTINUOUS
 10
0.906890
 20
-3.254031
  0
VERTEX
  8
PLAN_1
  6
CONTINUOUS
 10
0.909799
 20
-3.258606
  0
VERTEX
  8
PLAN_1
  6
CONTINUOUS
 10
0.912713
 20
-3.262768
  0
VERTEX
  8
PLAN_1
  6
CONTINUOUS
 10
0.916039
 20
-3.266512
  0
VERTEX
  8
PLAN_1
  6
CONTINUOUS
 10
0.919783
 20
-3.269425
  0
VERTEX
  8
PLAN_1
  6
CONTINUOUS
 10
0.923945
 20
-3.271504
  0
VERTEX
  8
PLAN_1
  6
CONTINUOUS
 10
0.928102
 20
-3.273169
  0
VERTEX
  8
PLAN_1
  6
CONTINUOUS
 10
0.933094
 20
-3.274417
  0
VERTEX
  8
PLAN_1
  6
CONTINUOUS
 10
0.938087
 20
-3.274831
  0
VERTEX
  8
PLAN_1
  6
CONTINUOUS
 10
0.943079
 20
-3.274417
  0
VERTEX
  8
PLAN_1
  6
CONTINUOUS
 10
0.947657
 20
-3.273169
  0
VERTEX
  8
PLAN_1
  6
CONTINUOUS
 10
0.952232
 20
-3.271504
  0
VERTEX
  8
PLAN_1
  6
CONTINUOUS
 10
0.955976
 20
-3.269425
  0
VERTEX
  8
PLAN_1
  6
CONTINUOUS
 10
0.959720
 20
-3.266512
  0
VERTEX
  8
PLAN_1
  6
CONTINUOUS
 10
0.963047
 20
-3.262768
  0
VERTEX
  8
PLAN_1
  6
CONTINUOUS
 10
0.966378
 20
-3.258606
  0
VERTEX
  8
PLAN_1
  6
CONTINUOUS
 10
0.968870
 20
-3.254031
  0
VERTEX
  8
PLAN_1
  6
CONTINUOUS
 10
0.971366
 20
-3.248626
  0
VERTEX
  8
PLAN_1
  6
CONTINUOUS
 10
0.973449
 20
-3.242799
  0
VERTEX
  8
PLAN_1
  6
CONTINUOUS
 10
0.975110
 20
-3.236146
  0
VERTEX
  8
PLAN_1
  6
CONTINUOUS
 10
0.976358
 20
-3.229071
  0
VERTEX
  8
PLAN_1
  6
CONTINUOUS
 10
0.977606
 20
-3.221583
  0
VERTEX
  8
PLAN_1
  6
CONTINUOUS
 10
0.978024
 20
-3.213681
  0
VERTEX
  8
PLAN_1
  6
CONTINUOUS
 10
0.978441
 20
-3.205358
  0
VERTEX
  8
PLAN_1
  6
CONTINUOUS
 10
0.978854
 20
-3.196209
  0
VERTEX
  8
PLAN_1
  6
CONTINUOUS
 10
0.978441
 20
-3.187472
  0
VERTEX
  8
PLAN_1
  6
CONTINUOUS
 10
0.978024
 20
-3.179154
  0
VERTEX
  8
PLAN_1
  6
CONTINUOUS
 10
0.977606
 20
-3.170831
  0
VERTEX
  8
PLAN_1
  6
CONTINUOUS
 10
0.976358
 20
-3.163343
  0
VERTEX
  8
PLAN_1
  6
CONTINUOUS
 10
0.975110
 20
-3.156689
  0
VERTEX
  8
PLAN_1
  6
CONTINUOUS
 10
0.973449
 20
-3.150031
  0
VERTEX
  8
PLAN_1
  6
CONTINUOUS
 10
0.971366
 20
-3.144209
  0
VERTEX
  8
PLAN_1
  6
CONTINUOUS
 10
0.968870
 20
-3.138799
  0
VERTEX
  8
PLAN_1
  6
CONTINUOUS
 10
0.966378
 20
-3.134224
  0
VERTEX
  8
PLAN_1
  6
CONTINUOUS
 10
0.963047
 20
-3.130063
  0
VERTEX
  8
PLAN_1
  6
CONTINUOUS
 10
0.959720
 20
-3.126319
  0
VERTEX
  8
PLAN_1
  6
CONTINUOUS
 10
0.955976
 20
-3.123409
  0
VERTEX
  8
PLAN_1
  6
CONTINUOUS
 10
0.952232
 20
-3.121327
  0
VERTEX
  8
PLAN_1
  6
CONTINUOUS
 10
0.947657
 20
-3.119665
  0
VERTEX
  8
PLAN_1
  6
CONTINUOUS
 10
0.943079
 20
-3.118417
  0
VERTEX
  8
PLAN_1
  6
CONTINUOUS
 10
0.938087
 20
-3.118000
  0
SEQEND
  8
0
  0
POLYLINE
  8
PLAN_1
  6
CONTINUOUS
 66
     1
 40
0.003000
 41
0.003000
  0
VERTEX
  8
PLAN_1
  6
CONTINUOUS
 10
1.114890
 20
-3.291472
  0
VERTEX
  8
PLAN_1
  6
CONTINUOUS
 10
1.088681
 20
-3.291472
  0
VERTEX
  8
PLAN_1
  6
CONTINUOUS
 10
1.088681
 20
-3.152945
  0
VERTEX
  8
PLAN_1
  6
CONTINUOUS
 10
1.043335
 20
-3.152945
  0
VERTEX
  8
PLAN_1
  6
CONTINUOUS
 10
1.043335
 20
-3.133394
  0
VERTEX
  8
PLAN_1
  6
CONTINUOUS
 10
1.054154
 20
-3.132559
  0
VERTEX
  8
PLAN_1
  6
CONTINUOUS
 10
1.063720
 20
-3.131311
  0
VERTEX
  8
PLAN_1
  6
CONTINUOUS
 10
1.067882
 20
-3.130063
  0
VERTEX
  8
PLAN_1
  6
CONTINUOUS
 10
1.071626
 20
-3.129232
  0
VERTEX
  8
PLAN_1
  6
CONTINUOUS
 10
1.075366
 20
-3.127567
  0
VERTEX
  8
PLAN_1
  6
CONTINUOUS
 10
1.078280
 20
-3.125906
  0
VERTEX
  8
PLAN_1
  6
CONTINUOUS
 10
1.081193
 20
-3.123823
  0
VERTEX
  8
PLAN_1
  6
CONTINUOUS
 10
1.084102
 20
-3.121327
  0
VERTEX
  8
PLAN_1
  6
CONTINUOUS
 10
1.086598
 20
-3.118417
  0
VERTEX
  8
PLAN_1
  6
CONTINUOUS
 10
1.088681
 20
-3.115087
  0
VERTEX
  8
PLAN_1
  6
CONTINUOUS
 10
1.090760
 20
-3.111343
  0
VERTEX
  8
PLAN_1
  6
CONTINUOUS
 10
1.092425
 20
-3.106768
  0
VERTEX
  8
PLAN_1
  6
CONTINUOUS
 10
1.094087
 20
-3.101776
  0
VERTEX
  8
PLAN_1
  6
CONTINUOUS
 10
1.095752
 20
-3.096366
  0
VERTEX
  8
PLAN_1
  6
CONTINUOUS
 10
1.114890
 20
-3.096366
  0
VERTEX
  8
PLAN_1
  6
CONTINUOUS
 10
1.114890
 20
-3.291472
  0
SEQEND
  8
0
  0
SOLID
  8
PLAN_1
 10
1.169386
 20
-3.326000
 11
1.169386
 21
-3.312272
 12
1.323720
 22
-3.326000
 13
1.323720
 23
-3.312272
  0
POLYLINE
  8
PLAN_1
  6
CONTINUOUS
 66
     1
 40
0.003000
 41
0.003000
  0
VERTEX
  8
PLAN_1
  6
CONTINUOUS
 10
1.169386
 20
-3.326000
  0
VERTEX
  8
PLAN_1
  6
CONTINUOUS
 10
1.169386
 20
-3.312272
  0
VERTEX
  8
PLAN_1
  6
CONTINUOUS
 10
1.323720
 20
-3.312272
  0
VERTEX
  8
PLAN_1
  6
CONTINUOUS
 10
1.323720
 20
-3.326000
  0
VERTEX
  8
PLAN_1
  6
CONTINUOUS
 10
1.169386
 20
-3.326000
  0
SEQEND
  8
0
  0
POLYLINE
  8
PLAN_1
  6
CONTINUOUS
 66
     1
 40
0.003000
 41
0.003000
  0
VERTEX
  8
PLAN_1
  6
CONTINUOUS
 10
1.374890
 20
-3.291472
  0
VERTEX
  8
PLAN_1
  6
CONTINUOUS
 10
1.347846
 20
-3.291472
  0
VERTEX
  8
PLAN_1
  6
CONTINUOUS
 10
1.347846
 20
-3.092209
  0
VERTEX
  8
PLAN_1
  6
CONTINUOUS
 10
1.485961
 20
-3.092209
  0
VERTEX
  8
PLAN_1
  6
CONTINUOUS
 10
1.485961
 20
-3.115921
  0
VERTEX
  8
PLAN_1
  6
CONTINUOUS
 10
1.374890
 20
-3.115921
  0
VERTEX
  8
PLAN_1
  6
CONTINUOUS
 10
1.374890
 20
-3.177071
  0
VERTEX
  8
PLAN_1
  6
CONTINUOUS
 10
1.472650
 20
-3.177071
  0
VERTEX
  8
PLAN_1
  6
CONTINUOUS
 10
1.472650
 20
-3.200783
  0
VERTEX
  8
PLAN_1
  6
CONTINUOUS
 10
1.374890
 20
-3.200783
  0
VERTEX
  8
PLAN_1
  6
CONTINUOUS
 10
1.374890
 20
-3.291472
  0
SEQEND
  8
0
  0
SOLID
  8
PLAN_1
 10
1.505094
 20
-3.291472
 11
1.475976
 21
-3.291472
 12
1.505094
 22
-3.261937
 13
1.475976
 23
-3.261937
  0
POLYLINE
  8
PLAN_1
  6
CONTINUOUS
 66
     1
 40
0.003000
 41
0.003000
  0
VERTEX
  8
PLAN_1
  6
CONTINUOUS
 10
1.505094
 20
-3.291472
  0
VERTEX
  8
PLAN_1
  6
CONTINUOUS
 10
1.475976
 20
-3.291472
  0
VERTEX
  8
PLAN_1
  6
CONTINUOUS
 10
1.475976
 20
-3.261937
  0
VERTEX
  8
PLAN_1
  6
CONTINUOUS
 10
1.505094
 20
-3.261937
  0
VERTEX
  8
PLAN_1
  6
CONTINUOUS
 10
1.505094
 20
-3.291472
  0
SEQEND
  8
0
  0
POLYLINE
  8
PLAN_1
  6
CONTINUOUS
 66
     1
 40
0.003000
 41
0.003000
  0
VERTEX
  8
PLAN_1
  6
CONTINUOUS
 10
1.700201
 20
-3.291472
  0
VERTEX
  8
PLAN_1
  6
CONTINUOUS
 10
1.552937
 20
-3.291472
  0
VERTEX
  8
PLAN_1
  6
CONTINUOUS
 10
1.552937
 20
-3.092209
  0
VERTEX
  8
PLAN_1
  6
CONTINUOUS
 10
1.698118
 20
-3.092209
  0
VERTEX
  8
PLAN_1
  6
CONTINUOUS
 10
1.698118
 20
-3.115921
  0
VERTEX
  8
PLAN_1
  6
CONTINUOUS
 10
1.579976
 20
-3.115921
  0
VERTEX
  8
PLAN_1
  6
CONTINUOUS
 10
1.579976
 20
-3.177071
  0
VERTEX
  8
PLAN_1
  6
CONTINUOUS
 10
1.688969
 20
-3.177071
  0
VERTEX
  8
PLAN_1
  6
CONTINUOUS
 10
1.688969
 20
-3.200783
  0
VERTEX
  8
PLAN_1
  6
CONTINUOUS
 10
1.579976
 20
-3.200783
  0
VERTEX
  8
PLAN_1
  6
CONTINUOUS
 10
1.579976
 20
-3.267343
  0
VERTEX
  8
PLAN_1
  6
CONTINUOUS
 10
1.700201
 20
-3.267343
  0
VERTEX
  8
PLAN_1
  6
CONTINUOUS
 10
1.700201
 20
-3.291472
  0
SEQEND
  8
0
  0
POLYLINE
  8
PLAN_1
  6
CONTINUOUS
 66
     1
 40
0.003000
 41
0.003000
  0
VERTEX
  8
PLAN_1
  6
CONTINUOUS
 10
1.765094
 20
-3.291472
  0
VERTEX
  8
PLAN_1
  6
CONTINUOUS
 10
1.738055
 20
-3.291472
  0
VERTEX
  8
PLAN_1
  6
CONTINUOUS
 10
1.738055
 20
-3.092209
  0
VERTEX
  8
PLAN_1
  6
CONTINUOUS
 10
1.827913
 20
-3.092209
  0
VERTEX
  8
PLAN_1
  6
CONTINUOUS
 10
1.834567
 20
-3.092209
  0
VERTEX
  8
PLAN_1
  6
CONTINUOUS
 10
1.841224
 20
-3.093039
  0
VERTEX
  8
PLAN_1
  6
CONTINUOUS
 10
1.847047
 20
-3.094287
  0
VERTEX
  8
PLAN_1
  6
CONTINUOUS
 10
1.852874
 20
-3.096366
  0
VERTEX
  8
PLAN_1
  6
CONTINUOUS
 10
1.857862
 20
-3.098449
  0
VERTEX
  8
PLAN_1
  6
CONTINUOUS
 10
1.862854
 20
-3.101358
  0
VERTEX
  8
PLAN_1
  6
CONTINUOUS
 10
1.867433
 20
-3.104272
  0
VERTEX
  8
PLAN_1
  6
CONTINUOUS
 10
1.871177
 20
-3.108016
  0
VERTEX
  8
PLAN_1
  6
CONTINUOUS
 10
1.874921
 20
-3.111760
  0
VERTEX
  8
PLAN_1
  6
CONTINUOUS
 10
1.877831
 20
-3.116335
  0
VERTEX
  8
PLAN_1
  6
CONTINUOUS
 10
1.880744
 20
-3.120913
  0
VERTEX
  8
PLAN_1
  6
CONTINUOUS
 10
1.882823
 20
-3.125906
  0
VERTEX
  8
PLAN_1
  6
CONTINUOUS
 10
1.884906
 20
-3.130898
  0
VERTEX
  8
PLAN_1
  6
CONTINUOUS
 10
1.886154
 20
-3.136303
  0
VERTEX
  8
PLAN_1
  6
CONTINUOUS
 10
1.886567
 20
-3.142130
  0
VERTEX
  8
PLAN_1
  6
CONTINUOUS
 10
1.886984
 20
-3.147953
  0
VERTEX
  8
PLAN_1
  6
CONTINUOUS
 10
1.886984
 20
-3.153358
  0
VERTEX
  8
PLAN_1
  6
CONTINUOUS
 10
1.886154
 20
-3.158768
  0
VERTEX
  8
PLAN_1
  6
CONTINUOUS
 10
1.885319
 20
-3.163760
  0
VERTEX
  8
PLAN_1
  6
CONTINUOUS
 10
1.883657
 20
-3.169169
  0
VERTEX
  8
PLAN_1
  6
CONTINUOUS
 10
1.881992
 20
-3.174161
  0
VERTEX
  8
PLAN_1
  6
CONTINUOUS
 10
1.879913
 20
-3.179154
  0
VERTEX
  8
PLAN_1
  6
CONTINUOUS
 10
1.877000
 20
-3.183728
  0
VERTEX
  8
PLAN_1
  6
CONTINUOUS
 10
1.873673
 20
-3.187890
  0
VERTEX
  8
PLAN_1
  6
CONTINUOUS
 10
1.869929
 20
-3.192047
  0
VERTEX
  8
PLAN_1
  6
CONTINUOUS
 10
1.865768
 20
-3.195791
  0
VERTEX
  8
PLAN_1
  6
CONTINUOUS
 10
1.860776
 20
-3.199122
  0
VERTEX
  8
PLAN_1
  6
CONTINUOUS
 10
1.855366
 20
-3.202031
  0
VERTEX
  8
PLAN_1
  6
CONTINUOUS
 10
1.849543
 20
-3.204110
  0
VERTEX
  8
PLAN_1
  6
CONTINUOUS
 10
1.842890
 20
-3.205776
  0
VERTEX
  8
PLAN_1
  6
CONTINUOUS
 10
1.835815
 20
-3.207024
  0
VERTEX
  8
PLAN_1
  6
CONTINUOUS
 10
1.827913
 20
-3.207024
  0
VERTEX
  8
PLAN_1
  6
CONTINUOUS
 10
1.765094
 20
-3.207024
  0
VERTEX
  8
PLAN_1
  6
CONTINUOUS
 10
1.765094
 20
-3.291472
  0
SEQEND
  8
0
  0
POLYLINE
  8
PLAN_1
  6
CONTINUOUS
 66
     1
 40
0.003000
 41
0.003000
  0
VERTEX
  8
PLAN_1
  6
CONTINUOUS
 10
1.765094
 20
-3.184146
  0
VERTEX
  8
PLAN_1
  6
CONTINUOUS
 10
1.818760
 20
-3.184146
  0
VERTEX
  8
PLAN_1
  6
CONTINUOUS
 10
1.823335
 20
-3.184146
  0
VERTEX
  8
PLAN_1
  6
CONTINUOUS
 10
1.827496
 20
-3.183728
  0
VERTEX
  8
PLAN_1
  6
CONTINUOUS
 10
1.831240
 20
-3.183311
  0
VERTEX
  8
PLAN_1
  6
CONTINUOUS
 10
1.835402
 20
-3.182480
  0
VERTEX
  8
PLAN_1
  6
CONTINUOUS
 10
1.838728
 20
-3.181232
  0
VERTEX
  8
PLAN_1
  6
CONTINUOUS
 10
1.842055
 20
-3.179984
  0
VERTEX
  8
PLAN_1
  6
CONTINUOUS
 10
1.845386
 20
-3.178319
  0
VERTEX
  8
PLAN_1
  6
CONTINUOUS
 10
1.847882
 20
-3.176240
  0
VERTEX
  8
PLAN_1
  6
CONTINUOUS
 10
1.850378
 20
-3.174161
  0
VERTEX
  8
PLAN_1
  6
CONTINUOUS
 10
1.852874
 20
-3.171665
  0
VERTEX
  8
PLAN_1
  6
CONTINUOUS
 10
1.854535
 20
-3.168752
  0
VERTEX
  8
PLAN_1
  6
CONTINUOUS
 10
1.856201
 20
-3.165425
  0
VERTEX
  8
PLAN_1
  6
CONTINUOUS
 10
1.857449
 20
-3.161681
  0
VERTEX
  8
PLAN_1
  6
CONTINUOUS
 10
1.858697
 20
-3.157520
  0
VERTEX
  8
PLAN_1
  6
CONTINUOUS
 10
1.859110
 20
-3.153358
  0
VERTEX
  8
PLAN_1
  6
CONTINUOUS
 10
1.859110
 20
-3.148366
  0
VERTEX
  8
PLAN_1
  6
CONTINUOUS
 10
1.859110
 20
-3.143791
  0
VERTEX
  8
PLAN_1
  6
CONTINUOUS
 10
1.858280
 20
-3.139634
  0
VERTEX
  8
PLAN_1
  6
CONTINUOUS
 10
1.857449
 20
-3.135890
  0
VERTEX
  8
PLAN_1
  6
CONTINUOUS
 10
1.856201
 20
-3.132559
  0
VERTEX
  8
PLAN_1
  6
CONTINUOUS
 10
1.854535
 20
-3.129650
  0
VERTEX
  8
PLAN_1
  6
CONTINUOUS
 10
1.852457
 20
-3.126736
  0
VERTEX
  8
PLAN_1
  6
CONTINUOUS
 10
1.850378
 20
-3.124240
  0
VERTEX
  8
PLAN_1
  6
CONTINUOUS
 10
1.847882
 20
-3.122161
  0
VERTEX
  8
PLAN_1
  6
CONTINUOUS
 10
1.844969
 20
-3.120496
  0
VERTEX
  8
PLAN_1
  6
CONTINUOUS
 10
1.842055
 20
-3.118831
  0
VERTEX
  8
PLAN_1
  6
CONTINUOUS
 10
1.838728
 20
-3.117583
  0
VERTEX
  8
PLAN_1
  6
CONTINUOUS
 10
1.835402
 20
-3.116752
  0
VERTEX
  8
PLAN_1
  6
CONTINUOUS
 10
1.831657
 20
-3.115921
  0
VERTEX
  8
PLAN_1
  6
CONTINUOUS
 10
1.827913
 20
-3.115504
  0
VERTEX
  8
PLAN_1
  6
CONTINUOUS
 10
1.823752
 20
-3.115087
  0
VERTEX
  8
PLAN_1
  6
CONTINUOUS
 10
1.820008
 20
-3.115087
  0
VERTEX
  8
PLAN_1
  6
CONTINUOUS
 10
1.765094
 20
-3.115087
  0
VERTEX
  8
PLAN_1
  6
CONTINUOUS
 10
1.765094
 20
-3.184146
  0
SEQEND
  8
0
  0
POLYLINE
  8
PLAN_1
  6
CONTINUOUS
 66
     1
 40
0.003000
 41
0.003000
  0
VERTEX
  8
PLAN_1
  6
CONTINUOUS
 10
2.040906
 20
-3.150449
  0
VERTEX
  8
PLAN_1
  6
CONTINUOUS
 10
2.040488
 20
-3.144626
  0
VERTEX
  8
PLAN_1
  6
CONTINUOUS
 10
2.039240
 20
-3.139634
  0
VERTEX
  8
PLAN_1
  6
CONTINUOUS
 10
2.037575
 20
-3.135055
  0
VERTEX
  8
PLAN_1
  6
CONTINUOUS
 10
2.035913
 20
-3.130898
  0
VERTEX
  8
PLAN_1
  6
CONTINUOUS
 10
2.033417
 20
-3.127154
  0
VERTEX
  8
PLAN_1
  6
CONTINUOUS
 10
2.030504
 20
-3.123823
  0
VERTEX
  8
PLAN_1
  6
CONTINUOUS
 10
2.027591
 20
-3.120913
  0
VERTEX
  8
PLAN_1
  6
CONTINUOUS
 10
2.024264
 20
-3.118417
  0
VERTEX
  8
PLAN_1
  6
CONTINUOUS
 10
2.020520
 20
-3.116335
  0
VERTEX
  8
PLAN_1
  6
CONTINUOUS
 10
2.016776
 20
-3.114673
  0
VERTEX
  8
PLAN_1
  6
CONTINUOUS
 10
2.012614
 20
-3.113008
  0
VERTEX
  8
PLAN_1
  6
CONTINUOUS
 10
2.008457
 20
-3.111760
  0
VERTEX
  8
PLAN_1
  6
CONTINUOUS
 10
2.004295
 20
-3.110929
  0
VERTEX
  8
PLAN_1
  6
CONTINUOUS
 10
2.000138
 20
-3.110094
  0
VERTEX
  8
PLAN_1
  6
CONTINUOUS
 10
1.995559
 20
-3.110094
  0
VERTEX
  8
PLAN_1
  6
CONTINUOUS
 10
1.991402
 20
-3.109681
  0
VERTEX
  8
PLAN_1
  6
CONTINUOUS
 10
1.984744
 20
-3.110094
  0
VERTEX
  8
PLAN_1
  6
CONTINUOUS
 10
1.977256
 20
-3.110929
  0
VERTEX
  8
PLAN_1
  6
CONTINUOUS
 10
1.973512
 20
-3.111760
  0
VERTEX
  8
PLAN_1
  6
CONTINUOUS
 10
1.969768
 20
-3.113008
  0
VERTEX
  8
PLAN_1
  6
CONTINUOUS
 10
1.966024
 20
-3.114256
  0
VERTEX
  8
PLAN_1
  6
CONTINUOUS
 10
1.962280
 20
-3.115921
  0
VERTEX
  8
PLAN_1
  6
CONTINUOUS
 10
1.958953
 20
-3.118000
  0
VERTEX
  8
PLAN_1
  6
CONTINUOUS
 10
1.956039
 20
-3.120496
  0
VERTEX
  8
PLAN_1
  6
CONTINUOUS
 10
1.953130
 20
-3.123409
  0
VERTEX
  8
PLAN_1
  6
CONTINUOUS
 10
1.950634
 20
-3.126319
  0
VERTEX
  8
PLAN_1
  6
CONTINUOUS
 10
1.948551
 20
-3.130480
  0
VERTEX
  8
PLAN_1
  6
CONTINUOUS
 10
1.947303
 20
-3.134642
  0
VERTEX
  8
PLAN_1
  6
CONTINUOUS
 10
1.946472
 20
-3.139217
  0
VERTEX
  8
PLAN_1
  6
CONTINUOUS
 10
1.946055
 20
-3.144626
  0
VERTEX
  8
PLAN_1
  6
CONTINUOUS
 10
1.946055
 20
-3.147953
  0
VERTEX
  8
PLAN_1
  6
CONTINUOUS
 10
1.946472
 20
-3.150449
  0
VERTEX
  8
PLAN_1
  6
CONTINUOUS
 10
1.947303
 20
-3.152945
  0
VERTEX
  8
PLAN_1
  6
CONTINUOUS
 10
1.948138
 20
-3.155441
  0
VERTEX
  8
PLAN_1
  6
CONTINUOUS
 10
1.948969
 20
-3.157520
  0
VERTEX
  8
PLAN_1
  6
CONTINUOUS
 10
1.950217
 20
-3.159598
  0
VERTEX
  8
PLAN_1
  6
CONTINUOUS
 10
1.951882
 20
-3.161264
  0
VERTEX
  8
PLAN_1
  6
CONTINUOUS
 10
1.953543
 20
-3.162512
  0
VERTEX
  8
PLAN_1
  6
CONTINUOUS
 10
1.956874
 20
-3.165425
  0
VERTEX
  8
PLAN_1
  6
CONTINUOUS
 10
1.961031
 20
-3.167087
  0
VERTEX
  8
PLAN_1
  6
CONTINUOUS
 10
1.965193
 20
-3.168752
  0
VERTEX
  8
PLAN_1
  6
CONTINUOUS
 10
1.969350
 20
-3.170000
  0
VERTEX
  8
PLAN_1
  6
CONTINUOUS
 10
2.026343
 20
-3.182898
  0
VERTEX
  8
PLAN_1
  6
CONTINUOUS
 10
2.031335
 20
-3.184146
  0
VERTEX
  8
PLAN_1
  6
CONTINUOUS
 10
2.035913
 20
-3.185807
  0
VERTEX
  8
PLAN_1
  6
CONTINUOUS
 10
2.040071
 20
-3.187472
  0
VERTEX
  8
PLAN_1
  6
CONTINUOUS
 10
2.044232
 20
-3.189551
  0
VERTEX
  8
PLAN_1
  6
CONTINUOUS
 10
2.048394
 20
-3.191634
  0
VERTEX
  8
PLAN_1
  6
CONTINUOUS
 10
2.052138
 20
-3.194130
  0
VERTEX
  8
PLAN_1
  6
CONTINUOUS
 10
2.055465
 20
-3.197039
  0
VERTEX
  8
PLAN_1
  6
CONTINUOUS
 10
2.058791
 20
-3.199953
  0
VERTEX
  8
PLAN_1
  6
CONTINUOUS
 10
2.061705
 20
-3.203697
  0
VERTEX
  8
PLAN_1
  6
CONTINUOUS
 10
2.064201
 20
-3.207024
  0
VERTEX
  8
PLAN_1
  6
CONTINUOUS
 10
2.066280
 20
-3.211185
  0
VERTEX
  8
PLAN_1
  6
CONTINUOUS
 10
2.068358
 20
-3.215343
  0
VERTEX
  8
PLAN_1
  6
CONTINUOUS
 10
2.069606
 20
-3.220335
  0
VERTEX
  8
PLAN_1
  6
CONTINUOUS
 10
2.070854
 20
-3.225327
  0
VERTEX
  8
PLAN_1
  6
CONTINUOUS
 10
2.071272
 20
-3.230736
  0
VERTEX
  8
PLAN_1
  6
CONTINUOUS
 10
2.071689
 20
-3.236146
  0
VERTEX
  8
PLAN_1
  6
CONTINUOUS
 10
2.071689
 20
-3.240720
  0
VERTEX
  8
PLAN_1
  6
CONTINUOUS
 10
2.071272
 20
-3.244882
  0
VERTEX
  8
PLAN_1
  6
CONTINUOUS
 10
2.070441
 20
-3.248626
  0
VERTEX
  8
PLAN_1
  6
CONTINUOUS
 10
2.069606
 20
-3.252366
  0
VERTEX
  8
PLAN_1
  6
CONTINUOUS
 10
2.068776
 20
-3.256110
  0
VERTEX
  8
PLAN_1
  6
CONTINUOUS
 10
2.067528
 20
-3.259441
  0
VERTEX
  8
PLAN_1
  6
CONTINUOUS
 10
2.065862
 20
-3.262768
  0
VERTEX
  8
PLAN_1
  6
CONTINUOUS
 10
2.064201
 20
-3.265681
  0
VERTEX
  8
PLAN_1
  6
CONTINUOUS
 10
2.062535
 20
-3.268591
  0
VERTEX
  8
PLAN_1
  6
CONTINUOUS
 10
2.060457
 20
-3.271087
  0
VERTEX
  8
PLAN_1
  6
CONTINUOUS
 10
2.058378
 20
-3.273583
  0
VERTEX
  8
PLAN_1
  6
CONTINUOUS
 10
2.055882
 20
-3.276079
  0
VERTEX
  8
PLAN_1
  6
CONTINUOUS
 10
2.050890
 20
-3.280657
  0
VERTEX
  8
PLAN_1
  6
CONTINUOUS
 10
2.045480
 20
-3.283984
  0
VERTEX
  8
PLAN_1
  6
CONTINUOUS
 10
2.039657
 20
-3.287311
  0
VERTEX
  8
PLAN_1
  6
CONTINUOUS
 10
2.033417
 20
-3.289807
  0
VERTEX
  8
PLAN_1
  6
CONTINUOUS
 10
2.026760
 20
-3.292303
  0
VERTEX
  8
PLAN_1
  6
CONTINUOUS
 10
2.020102
 20
-3.293969
  0
VERTEX
  8
PLAN_1
  6
CONTINUOUS
 10
2.013449
 20
-3.295217
  0
VERTEX
  8
PLAN_1
  6
CONTINUOUS
 10
2.006791
 20
-3.296047
  0
VERTEX
  8
PLAN_1
  6
CONTINUOUS
 10
2.000138
 20
-3.296465
  0
VERTEX
  8
PLAN_1
  6
CONTINUOUS
 10
1.993898
 20
-3.296465
  0
VERTEX
  8
PLAN_1
  6
CONTINUOUS
 10
1.986823
 20
-3.296465
  0
VERTEX
  8
PLAN_1
  6
CONTINUOUS
 10
1.981000
 20
-3.296047
  0
VERTEX
  8
PLAN_1
  6
CONTINUOUS
 10
1.975177
 20
-3.295634
  0
VERTEX
  8
PLAN_1
  6
CONTINUOUS
 10
1.969768
 20
-3.294799
  0
VERTEX
  8
PLAN_1
  6
CONTINUOUS
 10
1.965193
 20
-3.293969
  0
VERTEX
  8
PLAN_1
  6
CONTINUOUS
 10
1.960614
 20
-3.292720
  0
VERTEX
  8
PLAN_1
  6
CONTINUOUS
 10
1.956874
 20
-3.291472
  0
VERTEX
  8
PLAN_1
  6
CONTINUOUS
 10
1.953130
 20
-3.290224
  0
VERTEX
  8
PLAN_1
  6
CONTINUOUS
 10
1.946890
 20
-3.286898
  0
VERTEX
  8
PLAN_1
  6
CONTINUOUS
 10
1.941480
 20
-3.283984
  0
VERTEX
  8
PLAN_1
  6
CONTINUOUS
 10
1.936906
 20
-3.280657
  0
VERTEX
  8
PLAN_1
  6
CONTINUOUS
 10
1.933575
 20
-3.277327
  0
VERTEX
  8
PLAN_1
  6
CONTINUOUS
 10
1.930248
 20
-3.274417
  0
VERTEX
  8
PLAN_1
  6
CONTINUOUS
 10
1.927752
 20
-3.271504
  0
VERTEX
  8
PLAN_1
  6
CONTINUOUS
 10
1.925256
 20
-3.268591
  0
VERTEX
  8
PLAN_1
  6
CONTINUOUS
 10
1.923177
 20
-3.265681
  0
VERTEX
  8
PLAN_1
  6
CONTINUOUS
 10
1.921094
 20
-3.262768
  0
VERTEX
  8
PLAN_1
  6
CONTINUOUS
 10
1.919433
 20
-3.259441
  0
VERTEX
  8
PLAN_1
  6
CONTINUOUS
 10
1.918185
 20
-3.256528
  0
VERTEX
  8
PLAN_1
  6
CONTINUOUS
 10
1.916937
 20
-3.253614
  0
VERTEX
  8
PLAN_1
  6
CONTINUOUS
 10
1.915272
 20
-3.246961
  0
VERTEX
  8
PLAN_1
  6
CONTINUOUS
 10
1.914024
 20
-3.240303
  0
VERTEX
  8
PLAN_1
  6
CONTINUOUS
 10
1.913193
 20
-3.233650
  0
VERTEX
  8
PLAN_1
  6
CONTINUOUS
 10
1.913193
 20
-3.226992
  0
VERTEX
  8
PLAN_1
  6
CONTINUOUS
 10
1.938567
 20
-3.226992
  0
VERTEX
  8
PLAN_1
  6
CONTINUOUS
 10
1.938984
 20
-3.233232
  0
VERTEX
  8
PLAN_1
  6
CONTINUOUS
 10
1.939815
 20
-3.239472
  0
VERTEX
  8
PLAN_1
  6
CONTINUOUS
 10
1.941480
 20
-3.244465
  0
VERTEX
  8
PLAN_1
  6
CONTINUOUS
 10
1.943559
 20
-3.249457
  0
VERTEX
  8
PLAN_1
  6
CONTINUOUS
 10
1.946055
 20
-3.253614
  0
VERTEX
  8
PLAN_1
  6
CONTINUOUS
 10
1.948969
 20
-3.257358
  0
VERTEX
  8
PLAN_1
  6
CONTINUOUS
 10
1.952713
 20
-3.260689
  0
VERTEX
  8
PLAN_1
  6
CONTINUOUS
 10
1.956457
 20
-3.263598
  0
VERTEX
  8
PLAN_1
  6
CONTINUOUS
 10
1.960614
 20
-3.266094
  0
VERTEX
  8
PLAN_1
  6
CONTINUOUS
 10
1.964776
 20
-3.268177
  0
VERTEX
  8
PLAN_1
  6
CONTINUOUS
 10
1.969350
 20
-3.269839
  0
VERTEX
  8
PLAN_1
  6
CONTINUOUS
 10
1.973929
 20
-3.271504
  0
VERTEX
  8
PLAN_1
  6
CONTINUOUS
 10
1.978921
 20
-3.272335
  0
VERTEX
  8
PLAN_1
  6
CONTINUOUS
 10
1.983913
 20
-3.273169
  0
VERTEX
  8
PLAN_1
  6
CONTINUOUS
 10
1.988488
 20
-3.273583
  0
VERTEX
  8
PLAN_1
  6
CONTINUOUS
 10
1.993480
 20
-3.273583
  0
VERTEX
  8
PLAN_1
  6
CONTINUOUS
 10
2.001386
 20
-3.273169
  0
VERTEX
  8
PLAN_1
  6
CONTINUOUS
 10
2.009705
 20
-3.272335
  0
VERTEX
  8
PLAN_1
  6
CONTINUOUS
 10
2.014280
 20
-3.271504
  0
VERTEX
  8
PLAN_1
  6
CONTINUOUS
 10
2.018441
 20
-3.270256
  0
VERTEX
  8
PLAN_1
  6
CONTINUOUS
 10
2.022598
 20
-3.269008
  0
VERTEX
  8
PLAN_1
  6
CONTINUOUS
 10
2.026760
 20
-3.267343
  0
VERTEX
  8
PLAN_1
  6
CONTINUOUS
 10
2.030504
 20
-3.265681
  0
VERTEX
  8
PLAN_1
  6
CONTINUOUS
 10
2.034248
 20
-3.263185
  0
VERTEX
  8
PLAN_1
  6
CONTINUOUS
 10
2.037575
 20
-3.260272
  0
VERTEX
  8
PLAN_1
  6
CONTINUOUS
 10
2.040071
 20
-3.257358
  0
VERTEX
  8
PLAN_1
  6
CONTINUOUS
 10
2.042567
 20
-3.253614
  0
VERTEX
  8
PLAN_1
  6
CONTINUOUS
 10
2.044232
 20
-3.249457
  0
VERTEX
  8
PLAN_1
  6
CONTINUOUS
 10
2.045063
 20
-3.244882
  0
VERTEX
  8
PLAN_1
  6
CONTINUOUS
 10
2.045480
 20
-3.239890
  0
VERTEX
  8
PLAN_1
  6
CONTINUOUS
 10
2.045480
 20
-3.236146
  0
VERTEX
  8
PLAN_1
  6
CONTINUOUS
 10
2.045063
 20
-3.232815
  0
VERTEX
  8
PLAN_1
  6
CONTINUOUS
 10
2.044650
 20
-3.229488
  0
VERTEX
  8
PLAN_1
  6
CONTINUOUS
 10
2.043402
 20
-3.226575
  0
VERTEX
  8
PLAN_1
  6
CONTINUOUS
 10
2.042154
 20
-3.224079
  0
VERTEX
  8
PLAN_1
  6
CONTINUOUS
 10
2.040906
 20
-3.221583
  0
VERTEX
  8
PLAN_1
  6
CONTINUOUS
 10
2.038823
 20
-3.219504
  0
VERTEX
  8
PLAN_1
  6
CONTINUOUS
 10
2.036744
 20
-3.217425
  0
VERTEX
  8
PLAN_1
  6
CONTINUOUS
 10
2.033831
 20
-3.215760
  0
VERTEX
  8
PLAN_1
  6
CONTINUOUS
 10
2.030921
 20
-3.213681
  0
VERTEX
  8
PLAN_1
  6
CONTINUOUS
 10
2.027591
 20
-3.212016
  0
VERTEX
  8
PLAN_1
  6
CONTINUOUS
 10
2.023433
 20
-3.210768
  0
VERTEX
  8
PLAN_1
  6
CONTINUOUS
 10
2.014280
 20
-3.207441
  0
VERTEX
  8
PLAN_1
  6
CONTINUOUS
 10
2.003047
 20
-3.204528
  0
VERTEX
  8
PLAN_1
  6
CONTINUOUS
 10
1.962280
 20
-3.195378
  0
VERTEX
  8
PLAN_1
  6
CONTINUOUS
 10
1.956874
 20
-3.193713
  0
VERTEX
  8
PLAN_1
  6
CONTINUOUS
 10
1.950217
 20
-3.191634
  0
VERTEX
  8
PLAN_1
  6
CONTINUOUS
 10
1.946890
 20
-3.189969
  0
VERTEX
  8
PLAN_1
  6
CONTINUOUS
 10
1.943146
 20
-3.188303
  0
VERTEX
  8
PLAN_1
  6
CONTINUOUS
 10
1.939815
 20
-3.186224
  0
VERTEX
  8
PLAN_1
  6
CONTINUOUS
 10
1.936071
 20
-3.183728
  0
VERTEX
  8
PLAN_1
  6
CONTINUOUS
 10
1.932744
 20
-3.180815
  0
VERTEX
  8
PLAN_1
  6
CONTINUOUS
 10
1.929831
 20
-3.177488
  0
VERTEX
  8
PLAN_1
  6
CONTINUOUS
 10
1.926921
 20
-3.174161
  0
VERTEX
  8
PLAN_1
  6
CONTINUOUS
 10
1.924839
 20
-3.170000
  0
VERTEX
  8
PLAN_1
  6
CONTINUOUS
 10
1.922760
 20
-3.165425
  0
VERTEX
  8
PLAN_1
  6
CONTINUOUS
 10
1.921094
 20
-3.160016
  0
VERTEX
  8
PLAN_1
  6
CONTINUOUS
 10
1.920264
 20
-3.154606
  0
VERTEX
  8
PLAN_1
  6
CONTINUOUS
 10
1.919846
 20
-3.148366
  0
VERTEX
  8
PLAN_1
  6
CONTINUOUS
 10
1.920264
 20
-3.142543
  0
VERTEX
  8
PLAN_1
  6
CONTINUOUS
 10
1.920681
 20
-3.136720
  0
VERTEX
  8
PLAN_1
  6
CONTINUOUS
 10
1.921929
 20
-3.131311
  0
VERTEX
  8
PLAN_1
  6
CONTINUOUS
 10
1.923591
 20
-3.125488
  0
VERTEX
  8
PLAN_1
  6
CONTINUOUS
 10
1.926087
 20
-3.120496
  0
VERTEX
  8
PLAN_1
  6
CONTINUOUS
 10
1.929000
 20
-3.115087
  0
VERTEX
  8
PLAN_1
  6
CONTINUOUS
 10
1.932327
 20
-3.110512
  0
VERTEX
  8
PLAN_1
  6
CONTINUOUS
 10
1.936071
 20
-3.105937
  0
VERTEX
  8
PLAN_1
  6
CONTINUOUS
 10
1.940650
 20
-3.101776
  0
VERTEX
  8
PLAN_1
  6
CONTINUOUS
 10
1.945642
 20
-3.098031
  0
VERTEX
  8
PLAN_1
  6
CONTINUOUS
 10
1.951047
 20
-3.094705
  0
VERTEX
  8
PLAN_1
  6
CONTINUOUS
 10
1.957287
 20
-3.091791
  0
VERTEX
  8
PLAN_1
  6
CONTINUOUS
 10
1.964358
 20
-3.089713
  0
VERTEX
  8
PLAN_1
  6
CONTINUOUS
 10
1.971433
 20
-3.088047
  0
VERTEX
  8
PLAN_1
  6
CONTINUOUS
 10
1.979752
 20
-3.087217
  0
VERTEX
  8
PLAN_1
  6
CONTINUOUS
 10
1.988488
 20
-3.086799
  0
VERTEX
  8
PLAN_1
  6
CONTINUOUS
 10
1.994728
 20
-3.086799
  0
VERTEX
  8
PLAN_1
  6
CONTINUOUS
 10
2.000551
 20
-3.087217
  0
VERTEX
  8
PLAN_1
  6
CONTINUOUS
 10
2.006378
 20
-3.087634
  0
VERTEX
  8
PLAN_1
  6
CONTINUOUS
 10
2.011783
 20
-3.088465
  0
VERTEX
  8
PLAN_1
  6
CONTINUOUS
 10
2.016776
 20
-3.089713
  0
VERTEX
  8
PLAN_1
  6
CONTINUOUS
 10
2.021350
 20
-3.090543
  0
VERTEX
  8
PLAN_1
  6
CONTINUOUS
 10
2.025929
 20
-3.092209
  0
VERTEX
  8
PLAN_1
  6
CONTINUOUS
 10
2.029673
 20
-3.093457
  0
VERTEX
  8
PLAN_1
  6
CONTINUOUS
 10
2.033417
 20
-3.095122
  0
VERTEX
  8
PLAN_1
  6
CONTINUOUS
 10
2.037161
 20
-3.097201
  0
VERTEX
  8
PLAN_1
  6
CONTINUOUS
 10
2.040488
 20
-3.098862
  0
VERTEX
  8
PLAN_1
  6
CONTINUOUS
 10
2.043402
 20
-3.100945
  0
VERTEX
  8
PLAN_1
  6
CONTINUOUS
 10
2.045898
 20
-3.103441
  0
VERTEX
  8
PLAN_1
  6
CONTINUOUS
 10
2.048394
 20
-3.105520
  0
VERTEX
  8
PLAN_1
  6
CONTINUOUS
 10
2.050890
 20
-3.108016
  0
VERTEX
  8
PLAN_1
  6
CONTINUOUS
 10
2.052969
 20
-3.110094
  0
VERTEX
  8
PLAN_1
  6
CONTINUOUS
 10
2.056713
 20
-3.115504
  0
VERTEX
  8
PLAN_1
  6
CONTINUOUS
 10
2.059626
 20
-3.120496
  0
VERTEX
  8
PLAN_1
  6
CONTINUOUS
 10
2.061705
 20
-3.125906
  0
VERTEX
  8
PLAN_1
  6
CONTINUOUS
 10
2.063366
 20
-3.131311
  0
VERTEX
  8
PLAN_1
  6
CONTINUOUS
 10
2.064614
 20
-3.136303
  0
VERTEX
  8
PLAN_1
  6
CONTINUOUS
 10
2.065449
 20
-3.141295
  0
VERTEX
  8
PLAN_1
  6
CONTINUOUS
 10
2.065862
 20
-3.145874
  0
VERTEX
  8
PLAN_1
  6
CONTINUOUS
 10
2.066280
 20
-3.150449
  0
VERTEX
  8
PLAN_1
  6
CONTINUOUS
 10
2.040906
 20
-3.150449
  0
SEQEND
  8
0
  0
POLYLINE
  8
PLAN_1
 62
     5
  6
CONTINUOUS
 66
     1
 40
0.003000
 41
0.003000
  0
VERTEX
  8
PLAN_1
 62
     5
  6
CONTINUOUS
 10
-2.072921
 20
1.170543
  0
VERTEX
  8
PLAN_1
 62
     5
  6
CONTINUOUS
 10
-2.072921
 20
1.178862
  0
SEQEND
  8
0
  0
POLYLINE
  8
PLAN_1
 62
     5
  6
CONTINUOUS
 66
     1
 40
0.003000
 41
0.003000
  0
VERTEX
  8
PLAN_1
 62
     5
  6
CONTINUOUS
 10
-2.072921
 20
1.187185
  0
VERTEX
  8
PLAN_1
 62
     5
  6
CONTINUOUS
 10
-2.072921
 20
1.195504
  0
SEQEND
  8
0
  0
POLYLINE
  8
PLAN_1
 62
     5
  6
CONTINUOUS
 66
     1
 40
0.003000
 41
0.003000
  0
VERTEX
  8
PLAN_1
 62
     5
  6
CONTINUOUS
 10
-2.072921
 20
1.203823
  0
VERTEX
  8
PLAN_1
 62
     5
  6
CONTINUOUS
 10
-2.072921
 20
1.212146
  0
SEQEND
  8
0
  0
POLYLINE
  8
PLAN_1
 62
     5
  6
CONTINUOUS
 66
     1
 40
0.003000
 41
0.003000
  0
VERTEX
  8
PLAN_1
 62
     5
  6
CONTINUOUS
 10
-2.072921
 20
1.220465
  0
VERTEX
  8
PLAN_1
 62
     5
  6
CONTINUOUS
 10
-2.072921
 20
1.228783
  0
SEQEND
  8
0
  0
POLYLINE
  8
PLAN_1
 62
     5
  6
CONTINUOUS
 66
     1
 40
0.003000
 41
0.003000
  0
VERTEX
  8
PLAN_1
 62
     5
  6
CONTINUOUS
 10
-2.072921
 20
1.237102
  0
VERTEX
  8
PLAN_1
 62
     5
  6
CONTINUOUS
 10
-2.072921
 20
1.245425
  0
SEQEND
  8
0
  0
POLYLINE
  8
PLAN_1
 62
     5
  6
CONTINUOUS
 66
     1
 40
0.003000
 41
0.003000
  0
VERTEX
  8
PLAN_1
 62
     5
  6
CONTINUOUS
 10
-2.072921
 20
1.253744
  0
VERTEX
  8
PLAN_1
 62
     5
  6
CONTINUOUS
 10
-2.072921
 20
1.262063
  0
SEQEND
  8
0
  0
POLYLINE
  8
PLAN_1
 62
     5
  6
CONTINUOUS
 66
     1
 40
0.003000
 41
0.003000
  0
VERTEX
  8
PLAN_1
 62
     5
  6
CONTINUOUS
 10
-2.072921
 20
1.270386
  0
VERTEX
  8
PLAN_1
 62
     5
  6
CONTINUOUS
 10
-2.072921
 20
1.278705
  0
SEQEND
  8
0
  0
POLYLINE
  8
PLAN_1
 62
     5
  6
CONTINUOUS
 66
     1
 40
0.003000
 41
0.003000
  0
VERTEX
  8
PLAN_1
 62
     5
  6
CONTINUOUS
 10
-2.072921
 20
1.287024
  0
VERTEX
  8
PLAN_1
 62
     5
  6
CONTINUOUS
 10
-2.072921
 20
1.295343
  0
SEQEND
  8
0
  0
POLYLINE
  8
PLAN_1
 62
     5
  6
CONTINUOUS
 66
     1
 40
0.003000
 41
0.003000
  0
VERTEX
  8
PLAN_1
 62
     5
  6
CONTINUOUS
 10
-2.072921
 20
1.303665
  0
VERTEX
  8
PLAN_1
 62
     5
  6
CONTINUOUS
 10
-2.072921
 20
1.311984
  0
SEQEND
  8
0
  0
POLYLINE
  8
PLAN_1
 62
     5
  6
CONTINUOUS
 66
     1
 40
0.003000
 41
0.003000
  0
VERTEX
  8
PLAN_1
 62
     5
  6
CONTINUOUS
 10
-2.072921
 20
1.320303
  0
VERTEX
  8
PLAN_1
 62
     5
  6
CONTINUOUS
 10
-2.072921
 20
1.328622
  0
SEQEND
  8
0
  0
POLYLINE
  8
PLAN_1
 62
     5
  6
CONTINUOUS
 66
     1
 40
0.003000
 41
0.003000
  0
VERTEX
  8
PLAN_1
 62
     5
  6
CONTINUOUS
 10
-2.072921
 20
1.336945
  0
VERTEX
  8
PLAN_1
 62
     5
  6
CONTINUOUS
 10
-2.072921
 20
1.345264
  0
SEQEND
  8
0
  0
POLYLINE
  8
PLAN_1
 62
     5
  6
CONTINUOUS
 66
     1
 40
0.003000
 41
0.003000
  0
VERTEX
  8
PLAN_1
 62
     5
  6
CONTINUOUS
 10
-2.072921
 20
1.353583
  0
VERTEX
  8
PLAN_1
 62
     5
  6
CONTINUOUS
 10
-2.072921
 20
1.361906
  0
SEQEND
  8
0
  0
POLYLINE
  8
PLAN_1
 62
     5
  6
CONTINUOUS
 66
     1
 40
0.003000
 41
0.003000
  0
VERTEX
  8
PLAN_1
 62
     5
  6
CONTINUOUS
 10
-2.072921
 20
1.370224
  0
VERTEX
  8
PLAN_1
 62
     5
  6
CONTINUOUS
 10
-2.072921
 20
1.378543
  0
SEQEND
  8
0
  0
POLYLINE
  8
PLAN_1
 62
     5
  6
CONTINUOUS
 66
     1
 40
0.003000
 41
0.003000
  0
VERTEX
  8
PLAN_1
 62
     5
  6
CONTINUOUS
 10
-2.072921
 20
1.386862
  0
VERTEX
  8
PLAN_1
 62
     5
  6
CONTINUOUS
 10
-2.072921
 20
1.395185
  0
SEQEND
  8
0
  0
POLYLINE
  8
PLAN_1
 62
     5
  6
CONTINUOUS
 66
     1
 40
0.003000
 41
0.003000
  0
VERTEX
  8
PLAN_1
 62
     5
  6
CONTINUOUS
 10
-2.072921
 20
1.403504
  0
VERTEX
  8
PLAN_1
 62
     5
  6
CONTINUOUS
 10
-2.072921
 20
1.411823
  0
SEQEND
  8
0
  0
POLYLINE
  8
PLAN_1
 62
     5
  6
CONTINUOUS
 66
     1
 40
0.003000
 41
0.003000
  0
VERTEX
  8
PLAN_1
 62
     5
  6
CONTINUOUS
 10
-2.072921
 20
1.420146
  0
VERTEX
  8
PLAN_1
 62
     5
  6
CONTINUOUS
 10
-2.072921
 20
1.428465
  0
SEQEND
  8
0
  0
POLYLINE
  8
PLAN_1
 62
     5
  6
CONTINUOUS
 66
     1
 40
0.003000
 41
0.003000
  0
VERTEX
  8
PLAN_1
 62
     5
  6
CONTINUOUS
 10
-2.072921
 20
1.436783
  0
VERTEX
  8
PLAN_1
 62
     5
  6
CONTINUOUS
 10
-2.072921
 20
1.445102
  0
SEQEND
  8
0
  0
POLYLINE
  8
PLAN_1
 62
     5
  6
CONTINUOUS
 66
     1
 40
0.003000
 41
0.003000
  0
VERTEX
  8
PLAN_1
 62
     5
  6
CONTINUOUS
 10
-2.072921
 20
1.453839
  0
VERTEX
  8
PLAN_1
 62
     5
  6
CONTINUOUS
 10
-2.072921
 20
1.462161
  0
SEQEND
  8
0
  0
POLYLINE
  8
PLAN_1
 62
     5
  6
CONTINUOUS
 66
     1
 40
0.003000
 41
0.003000
  0
VERTEX
  8
PLAN_1
 62
     5
  6
CONTINUOUS
 10
-2.072921
 20
1.470480
  0
VERTEX
  8
PLAN_1
 62
     5
  6
CONTINUOUS
 10
-2.072921
 20
1.478799
  0
SEQEND
  8
0
  0
POLYLINE
  8
PLAN_1
 62
     5
  6
CONTINUOUS
 66
     1
 40
0.003000
 41
0.003000
  0
VERTEX
  8
PLAN_1
 62
     5
  6
CONTINUOUS
 10
-2.072921
 20
1.487118
  0
VERTEX
  8
PLAN_1
 62
     5
  6
CONTINUOUS
 10
-2.072921
 20
1.495441
  0
SEQEND
  8
0
  0
POLYLINE
  8
PLAN_1
 62
     5
  6
CONTINUOUS
 66
     1
 40
0.003000
 41
0.003000
  0
VERTEX
  8
PLAN_1
 62
     5
  6
CONTINUOUS
 10
-2.072921
 20
1.503760
  0
VERTEX
  8
PLAN_1
 62
     5
  6
CONTINUOUS
 10
-2.072921
 20
1.512079
  0
SEQEND
  8
0
  0
POLYLINE
  8
PLAN_1
 62
     5
  6
CONTINUOUS
 66
     1
 40
0.003000
 41
0.003000
  0
VERTEX
  8
PLAN_1
 62
     5
  6
CONTINUOUS
 10
-2.072921
 20
1.520402
  0
VERTEX
  8
PLAN_1
 62
     5
  6
CONTINUOUS
 10
-2.072921
 20
1.528720
  0
SEQEND
  8
0
  0
POLYLINE
  8
PLAN_1
 62
     5
  6
CONTINUOUS
 66
     1
 40
0.003000
 41
0.003000
  0
VERTEX
  8
PLAN_1
 62
     5
  6
CONTINUOUS
 10
-2.072921
 20
1.537039
  0
VERTEX
  8
PLAN_1
 62
     5
  6
CONTINUOUS
 10
-2.072921
 20
1.545358
  0
SEQEND
  8
0
  0
POLYLINE
  8
PLAN_1
 62
     5
  6
CONTINUOUS
 66
     1
 40
0.003000
 41
0.003000
  0
VERTEX
  8
PLAN_1
 62
     5
  6
CONTINUOUS
 10
-2.072921
 20
1.553681
  0
VERTEX
  8
PLAN_1
 62
     5
  6
CONTINUOUS
 10
-2.072921
 20
1.562000
  0
SEQEND
  8
0
  0
POLYLINE
  8
PLAN_1
 62
     5
  6
CONTINUOUS
 66
     1
 40
0.003000
 41
0.003000
  0
VERTEX
  8
PLAN_1
 62
     5
  6
CONTINUOUS
 10
-2.072921
 20
1.570319
  0
VERTEX
  8
PLAN_1
 62
     5
  6
CONTINUOUS
 10
-2.072921
 20
1.578642
  0
SEQEND
  8
0
  0
POLYLINE
  8
PLAN_1
 62
     5
  6
CONTINUOUS
 66
     1
 40
0.003000
 41
0.003000
  0
VERTEX
  8
PLAN_1
 62
     5
  6
CONTINUOUS
 10
-2.072921
 20
1.586961
  0
VERTEX
  8
PLAN_1
 62
     5
  6
CONTINUOUS
 10
-2.072921
 20
1.595280
  0
SEQEND
  8
0
  0
POLYLINE
  8
PLAN_1
 62
     5
  6
CONTINUOUS
 66
     1
 40
0.003000
 41
0.003000
  0
VERTEX
  8
PLAN_1
 62
     5
  6
CONTINUOUS
 10
-2.072921
 20
1.603598
  0
VERTEX
  8
PLAN_1
 62
     5
  6
CONTINUOUS
 10
-2.072921
 20
1.611921
  0
SEQEND
  8
0
  0
POLYLINE
  8
PLAN_1
 62
     5
  6
CONTINUOUS
 66
     1
 40
0.003000
 41
0.003000
  0
VERTEX
  8
PLAN_1
 62
     5
  6
CONTINUOUS
 10
-2.072921
 20
1.620240
  0
VERTEX
  8
PLAN_1
 62
     5
  6
CONTINUOUS
 10
-2.072921
 20
1.628559
  0
SEQEND
  8
0
  0
POLYLINE
  8
PLAN_1
 62
     5
  6
CONTINUOUS
 66
     1
 40
0.003000
 41
0.003000
  0
VERTEX
  8
PLAN_1
 62
     5
  6
CONTINUOUS
 10
-2.072921
 20
1.636882
  0
VERTEX
  8
PLAN_1
 62
     5
  6
CONTINUOUS
 10
-2.072921
 20
1.645201
  0
SEQEND
  8
0
  0
POLYLINE
  8
PLAN_1
 62
     5
  6
CONTINUOUS
 66
     1
 40
0.003000
 41
0.003000
  0
VERTEX
  8
PLAN_1
 62
     5
  6
CONTINUOUS
 10
-2.072921
 20
1.653520
  0
VERTEX
  8
PLAN_1
 62
     5
  6
CONTINUOUS
 10
-2.072921
 20
1.661839
  0
SEQEND
  8
0
  0
POLYLINE
  8
PLAN_1
 62
     5
  6
CONTINUOUS
 66
     1
 40
0.003000
 41
0.003000
  0
VERTEX
  8
PLAN_1
 62
     5
  6
CONTINUOUS
 10
-2.072921
 20
1.670161
  0
VERTEX
  8
PLAN_1
 62
     5
  6
CONTINUOUS
 10
-2.072921
 20
1.678480
  0
SEQEND
  8
0
  0
POLYLINE
  8
PLAN_1
 62
     5
  6
CONTINUOUS
 66
     1
 40
0.003000
 41
0.003000
  0
VERTEX
  8
PLAN_1
 62
     5
  6
CONTINUOUS
 10
-2.072921
 20
1.679728
  0
VERTEX
  8
PLAN_1
 62
     5
  6
CONTINUOUS
 10
-2.072504
 20
1.685969
  0
VERTEX
  8
PLAN_1
 62
     5
  6
CONTINUOUS
 10
-2.072087
 20
1.688047
  0
SEQEND
  8
0
  0
POLYLINE
  8
PLAN_1
 62
     5
  6
CONTINUOUS
 66
     1
 40
0.003000
 41
0.003000
  0
VERTEX
  8
PLAN_1
 62
     5
  6
CONTINUOUS
 10
-2.070839
 20
1.695953
  0
VERTEX
  8
PLAN_1
 62
     5
  6
CONTINUOUS
 10
-2.069591
 20
1.702606
  0
VERTEX
  8
PLAN_1
 62
     5
  6
CONTINUOUS
 10
-2.069177
 20
1.704272
  0
SEQEND
  8
0
  0
POLYLINE
  8
PLAN_1
 62
     5
  6
CONTINUOUS
 66
     1
 40
0.003000
 41
0.003000
  0
VERTEX
  8
PLAN_1
 62
     5
  6
CONTINUOUS
 10
-2.067094
 20
1.712591
  0
VERTEX
  8
PLAN_1
 62
     5
  6
CONTINUOUS
 10
-2.067094
 20
1.713425
  0
VERTEX
  8
PLAN_1
 62
     5
  6
CONTINUOUS
 10
-2.065016
 20
1.719665
  0
VERTEX
  8
PLAN_1
 62
     5
  6
CONTINUOUS
 10
-2.064598
 20
1.720496
  0
SEQEND
  8
0
  0
POLYLINE
  8
PLAN_1
 62
     5
  6
CONTINUOUS
 66
     1
 40
0.003000
 41
0.003000
  0
VERTEX
  8
PLAN_1
 62
     5
  6
CONTINUOUS
 10
-2.062102
 20
1.728402
  0
VERTEX
  8
PLAN_1
 62
     5
  6
CONTINUOUS
 10
-2.060024
 20
1.732559
  0
VERTEX
  8
PLAN_1
 62
     5
  6
CONTINUOUS
 10
-2.058776
 20
1.735890
  0
SEQEND
  8
0
  0
POLYLINE
  8
PLAN_1
 62
     5
  6
CONTINUOUS
 66
     1
 40
0.003000
 41
0.003000
  0
VERTEX
  8
PLAN_1
 62
     5
  6
CONTINUOUS
 10
-2.055031
 20
1.743374
  0
VERTEX
  8
PLAN_1
 62
     5
  6
CONTINUOUS
 10
-2.053783
 20
1.745870
  0
VERTEX
  8
PLAN_1
 62
     5
  6
CONTINUOUS
 10
-2.050870
 20
1.750862
  0
SEQEND
  8
0
  0
POLYLINE
  8
PLAN_1
 62
     5
  6
CONTINUOUS
 66
     1
 40
0.003000
 41
0.003000
  0
VERTEX
  8
PLAN_1
 62
     5
  6
CONTINUOUS
 10
-2.046713
 20
1.757937
  0
VERTEX
  8
PLAN_1
 62
     5
  6
CONTINUOUS
 10
-2.045465
 20
1.759598
  0
VERTEX
  8
PLAN_1
 62
     5
  6
CONTINUOUS
 10
-2.041720
 20
1.764591
  0
SEQEND
  8
0
  0
POLYLINE
  8
PLAN_1
 62
     5
  6
CONTINUOUS
 66
     1
 40
0.003000
 41
0.003000
  0
VERTEX
  8
PLAN_1
 62
     5
  6
CONTINUOUS
 10
-2.036728
 20
1.771248
  0
VERTEX
  8
PLAN_1
 62
     5
  6
CONTINUOUS
 10
-2.035063
 20
1.773327
  0
VERTEX
  8
PLAN_1
 62
     5
  6
CONTINUOUS
 10
-2.031319
 20
1.777488
  0
SEQEND
  8
0
  0
POLYLINE
  8
PLAN_1
 62
     5
  6
CONTINUOUS
 66
     1
 40
0.003000
 41
0.003000
  0
VERTEX
  8
PLAN_1
 62
     5
  6
CONTINUOUS
 10
-2.025079
 20
1.783311
  0
VERTEX
  8
PLAN_1
 62
     5
  6
CONTINUOUS
 10
-2.022169
 20
1.786224
  0
VERTEX
  8
PLAN_1
 62
     5
  6
CONTINUOUS
 10
-2.018839
 20
1.788720
  0
SEQEND
  8
0
  0
POLYLINE
  8
PLAN_1
 62
     5
  6
CONTINUOUS
 66
     1
 40
0.003000
 41
0.003000
  0
VERTEX
  8
PLAN_1
 62
     5
  6
CONTINUOUS
 10
-2.012598
 20
1.793713
  0
VERTEX
  8
PLAN_1
 62
     5
  6
CONTINUOUS
 10
-2.006776
 20
1.797870
  0
VERTEX
  8
PLAN_1
 62
     5
  6
CONTINUOUS
 10
-2.005528
 20
1.798705
  0
SEQEND
  8
0
  0
POLYLINE
  8
PLAN_1
 62
     5
  6
CONTINUOUS
 66
     1
 40
0.003000
 41
0.003000
  0
VERTEX
  8
PLAN_1
 62
     5
  6
CONTINUOUS
 10
-1.998457
 20
1.802862
  0
VERTEX
  8
PLAN_1
 62
     5
  6
CONTINUOUS
 10
-1.998039
 20
1.803280
  0
VERTEX
  8
PLAN_1
 62
     5
  6
CONTINUOUS
 10
-1.990969
 20
1.806606
  0
SEQEND
  8
0
  0
POLYLINE
  8
PLAN_1
 62
     5
  6
CONTINUOUS
 66
     1
 40
0.003000
 41
0.003000
  0
VERTEX
  8
PLAN_1
 62
     5
  6
CONTINUOUS
 10
-1.983480
 20
1.810350
  0
VERTEX
  8
PLAN_1
 62
     5
  6
CONTINUOUS
 10
-1.978071
 20
1.812433
  0
VERTEX
  8
PLAN_1
 62
     5
  6
CONTINUOUS
 10
-1.975992
 20
1.813264
  0
SEQEND
  8
0
  0
POLYLINE
  8
PLAN_1
 62
     5
  6
CONTINUOUS
 66
     1
 40
0.003000
 41
0.003000
  0
VERTEX
  8
PLAN_1
 62
     5
  6
CONTINUOUS
 10
-1.968087
 20
1.816177
  0
VERTEX
  8
PLAN_1
 62
     5
  6
CONTINUOUS
 10
-1.966839
 20
1.816591
  0
VERTEX
  8
PLAN_1
 62
     5
  6
CONTINUOUS
 10
-1.960185
 20
1.818256
  0
SEQEND
  8
0
  0
POLYLINE
  8
PLAN_1
 62
     5
  6
CONTINUOUS
 66
     1
 40
0.003000
 41
0.003000
  0
VERTEX
  8
PLAN_1
 62
     5
  6
CONTINUOUS
 10
-1.951862
 20
1.820335
  0
VERTEX
  8
PLAN_1
 62
     5
  6
CONTINUOUS
 10
-1.948953
 20
1.821169
  0
VERTEX
  8
PLAN_1
 62
     5
  6
CONTINUOUS
 10
-1.943961
 20
1.822417
  0
SEQEND
  8
0
  0
POLYLINE
  8
PLAN_1
 62
     5
  6
CONTINUOUS
 66
     1
 40
0.003000
 41
0.003000
  0
VERTEX
  8
PLAN_1
 62
     5
  6
CONTINUOUS
 10
-1.935642
 20
1.823665
  0
VERTEX
  8
PLAN_1
 62
     5
  6
CONTINUOUS
 10
-1.928567
 20
1.824496
  0
VERTEX
  8
PLAN_1
 62
     5
  6
CONTINUOUS
 10
-1.927319
 20
1.824496
  0
SEQEND
  8
0
  0
POLYLINE
  8
PLAN_1
 62
     5
  6
CONTINUOUS
 66
     1
 40
0.003000
 41
0.003000
  0
VERTEX
  8
PLAN_1
 62
     5
  6
CONTINUOUS
 10
-1.919000
 20
1.825327
  0
VERTEX
  8
PLAN_1
 62
     5
  6
CONTINUOUS
 10
-1.914008
 20
1.825744
  0
VERTEX
  8
PLAN_1
 62
     5
  6
CONTINUOUS
 10
-1.910681
 20
1.825744
  0
SEQEND
  8
0
  0
POLYLINE
  8
PLAN_1
 62
     5
  6
CONTINUOUS
 66
     1
 40
0.003000
 41
0.003000
  0
VERTEX
  8
PLAN_1
 62
     5
  6
CONTINUOUS
 10
-1.902358
 20
1.826161
  0
VERTEX
  8
PLAN_1
 62
     5
  6
CONTINUOUS
 10
-1.898614
 20
1.826161
  0
VERTEX
  8
PLAN_1
 62
     5
  6
CONTINUOUS
 10
-1.894039
 20
1.826161
  0
SEQEND
  8
0
  0
POLYLINE
  8
PLAN_1
 62
     5
  6
CONTINUOUS
 66
     1
 40
0.003000
 41
0.003000
  0
VERTEX
  8
PLAN_1
 62
     5
  6
CONTINUOUS
 10
-1.885720
 20
1.826161
  0
VERTEX
  8
PLAN_1
 62
     5
  6
CONTINUOUS
 10
-1.877402
 20
1.826161
  0
SEQEND
  8
0
  0
POLYLINE
  8
PLAN_1
 62
     5
  6
CONTINUOUS
 66
     1
 40
0.003000
 41
0.003000
  0
VERTEX
  8
PLAN_1
 62
     5
  6
CONTINUOUS
 10
-1.869079
 20
1.826161
  0
VERTEX
  8
PLAN_1
 62
     5
  6
CONTINUOUS
 10
-1.860760
 20
1.826161
  0
SEQEND
  8
0
  0
POLYLINE
  8
PLAN_1
 62
     5
  6
CONTINUOUS
 66
     1
 40
0.003000
 41
0.003000
  0
VERTEX
  8
PLAN_1
 62
     5
  6
CONTINUOUS
 10
-1.852441
 20
1.826161
  0
VERTEX
  8
PLAN_1
 62
     5
  6
CONTINUOUS
 10
-1.844118
 20
1.826161
  0
SEQEND
  8
0
  0
POLYLINE
  8
PLAN_1
 62
     5
  6
CONTINUOUS
 66
     1
 40
0.003000
 41
0.003000
  0
VERTEX
  8
PLAN_1
 62
     5
  6
CONTINUOUS
 10
-1.835799
 20
1.826161
  0
VERTEX
  8
PLAN_1
 62
     5
  6
CONTINUOUS
 10
-1.827480
 20
1.826161
  0
SEQEND
  8
0
  0
POLYLINE
  8
PLAN_1
 62
     5
  6
CONTINUOUS
 66
     1
 40
0.003000
 41
0.003000
  0
VERTEX
  8
PLAN_1
 62
     5
  6
CONTINUOUS
 10
-1.819161
 20
1.826161
  0
VERTEX
  8
PLAN_1
 62
     5
  6
CONTINUOUS
 10
-1.810839
 20
1.826161
  0
SEQEND
  8
0
  0
POLYLINE
  8
PLAN_1
 62
     5
  6
CONTINUOUS
 66
     1
 40
0.003000
 41
0.003000
  0
VERTEX
  8
PLAN_1
 62
     5
  6
CONTINUOUS
 10
-1.802520
 20
1.826161
  0
VERTEX
  8
PLAN_1
 62
     5
  6
CONTINUOUS
 10
-1.795449
 20
1.826161
  0
VERTEX
  8
PLAN_1
 62
     5
  6
CONTINUOUS
 10
-1.794201
 20
1.826161
  0
SEQEND
  8
0
  0
POLYLINE
  8
PLAN_1
 62
     5
  6
CONTINUOUS
 66
     1
 40
0.003000
 41
0.003000
  0
VERTEX
  8
PLAN_1
 62
     5
  6
CONTINUOUS
 10
-1.785882
 20
1.826161
  0
VERTEX
  8
PLAN_1
 62
     5
  6
CONTINUOUS
 10
-1.777559
 20
1.826161
  0
SEQEND
  8
0
  0
POLYLINE
  8
PLAN_1
 62
     5
  6
CONTINUOUS
 66
     1
 40
0.003000
 41
0.003000
  0
VERTEX
  8
PLAN_1
 62
     5
  6
CONTINUOUS
 10
-1.769240
 20
1.826161
  0
VERTEX
  8
PLAN_1
 62
     5
  6
CONTINUOUS
 10
-1.760921
 20
1.826161
  0
SEQEND
  8
0
  0
POLYLINE
  8
PLAN_1
 62
     5
  6
CONTINUOUS
 66
     1
 40
0.003000
 41
0.003000
  0
VERTEX
  8
PLAN_1
 62
     5
  6
CONTINUOUS
 10
-1.752598
 20
1.826161
  0
VERTEX
  8
PLAN_1
 62
     5
  6
CONTINUOUS
 10
-1.744280
 20
1.826161
  0
SEQEND
  8
0
  0
POLYLINE
  8
PLAN_1
 62
     5
  6
CONTINUOUS
 66
     1
 40
0.003000
 41
0.003000
  0
VERTEX
  8
PLAN_1
 62
     5
  6
CONTINUOUS
 10
-1.735543
 20
1.826161
  0
VERTEX
  8
PLAN_1
 62
     5
  6
CONTINUOUS
 10
-1.727224
 20
1.826161
  0
SEQEND
  8
0
  0
POLYLINE
  8
PLAN_1
 62
     5
  6
CONTINUOUS
 66
     1
 40
0.003000
 41
0.003000
  0
VERTEX
  8
PLAN_1
 62
     5
  6
CONTINUOUS
 10
-1.718906
 20
1.826161
  0
VERTEX
  8
PLAN_1
 62
     5
  6
CONTINUOUS
 10
-1.710583
 20
1.826161
  0
SEQEND
  8
0
  0
POLYLINE
  8
PLAN_1
 62
     5
  6
CONTINUOUS
 66
     1
 40
0.003000
 41
0.003000
  0
VERTEX
  8
PLAN_1
 62
     5
  6
CONTINUOUS
 10
-1.702264
 20
1.826161
  0
VERTEX
  8
PLAN_1
 62
     5
  6
CONTINUOUS
 10
-1.693945
 20
1.826161
  0
SEQEND
  8
0
  0
POLYLINE
  8
PLAN_1
 62
     5
  6
CONTINUOUS
 66
     1
 40
0.003000
 41
0.003000
  0
VERTEX
  8
PLAN_1
 62
     5
  6
CONTINUOUS
 10
-1.685622
 20
1.826161
  0
VERTEX
  8
PLAN_1
 62
     5
  6
CONTINUOUS
 10
-1.677303
 20
1.826161
  0
SEQEND
  8
0
  0
POLYLINE
  8
PLAN_1
 62
     5
  6
CONTINUOUS
 66
     1
 40
0.003000
 41
0.003000
  0
VERTEX
  8
PLAN_1
 62
     5
  6
CONTINUOUS
 10
-1.668984
 20
1.826161
  0
VERTEX
  8
PLAN_1
 62
     5
  6
CONTINUOUS
 10
-1.660665
 20
1.826161
  0
SEQEND
  8
0
  0
POLYLINE
  8
PLAN_1
 62
     5
  6
CONTINUOUS
 66
     1
 40
0.003000
 41
0.003000
  0
VERTEX
  8
PLAN_1
 62
     5
  6
CONTINUOUS
 10
-1.652343
 20
1.826161
  0
VERTEX
  8
PLAN_1
 62
     5
  6
CONTINUOUS
 10
-1.644024
 20
1.826161
  0
SEQEND
  8
0
  0
POLYLINE
  8
PLAN_1
 62
     5
  6
CONTINUOUS
 66
     1
 40
0.003000
 41
0.003000
  0
VERTEX
  8
PLAN_1
 62
     5
  6
CONTINUOUS
 10
-1.635705
 20
1.826161
  0
VERTEX
  8
PLAN_1
 62
     5
  6
CONTINUOUS
 10
-1.630295
 20
1.826161
  0
VERTEX
  8
PLAN_1
 62
     5
  6
CONTINUOUS
 10
-1.627386
 20
1.826161
  0
SEQEND
  8
0
  0
POLYLINE
  8
PLAN_1
 62
     5
  6
CONTINUOUS
 66
     1
 40
0.003000
 41
0.003000
  0
VERTEX
  8
PLAN_1
 62
     5
  6
CONTINUOUS
 10
-1.619063
 20
1.826161
  0
VERTEX
  8
PLAN_1
 62
     5
  6
CONTINUOUS
 10
-1.610744
 20
1.826161
  0
SEQEND
  8
0
  0
POLYLINE
  8
PLAN_1
 62
     5
  6
CONTINUOUS
 66
     1
 40
0.003000
 41
0.003000
  0
VERTEX
  8
PLAN_1
 62
     5
  6
CONTINUOUS
 10
-1.602425
 20
1.826161
  0
VERTEX
  8
PLAN_1
 62
     5
  6
CONTINUOUS
 10
-1.594102
 20
1.826161
  0
SEQEND
  8
0
  0
POLYLINE
  8
PLAN_1
 62
     5
  6
CONTINUOUS
 66
     1
 40
0.003000
 41
0.003000
  0
VERTEX
  8
PLAN_1
 62
     5
  6
CONTINUOUS
 10
-1.585783
 20
1.826161
  0
VERTEX
  8
PLAN_1
 62
     5
  6
CONTINUOUS
 10
-1.577465
 20
1.826161
  0
SEQEND
  8
0
  0
POLYLINE
  8
PLAN_1
 62
     5
  6
CONTINUOUS
 66
     1
 40
0.003000
 41
0.003000
  0
VERTEX
  8
PLAN_1
 62
     5
  6
CONTINUOUS
 10
-1.569146
 20
1.826161
  0
VERTEX
  8
PLAN_1
 62
     5
  6
CONTINUOUS
 10
-1.560823
 20
1.826161
  0
SEQEND
  8
0
  0
POLYLINE
  8
PLAN_1
 62
     5
  6
CONTINUOUS
 66
     1
 40
0.003000
 41
0.003000
  0
VERTEX
  8
PLAN_1
 62
     5
  6
CONTINUOUS
 10
-1.552504
 20
1.826161
  0
VERTEX
  8
PLAN_1
 62
     5
  6
CONTINUOUS
 10
-1.544185
 20
1.826161
  0
SEQEND
  8
0
  0
POLYLINE
  8
PLAN_1
 62
     5
  6
CONTINUOUS
 66
     1
 40
0.003000
 41
0.003000
  0
VERTEX
  8
PLAN_1
 62
     5
  6
CONTINUOUS
 10
-1.535862
 20
1.826161
  0
VERTEX
  8
PLAN_1
 62
     5
  6
CONTINUOUS
 10
-1.527543
 20
1.826161
  0
SEQEND
  8
0
  0
POLYLINE
  8
PLAN_1
 62
     5
  6
CONTINUOUS
 66
     1
 40
0.003000
 41
0.003000
  0
VERTEX
  8
PLAN_1
 62
     5
  6
CONTINUOUS
 10
-1.519224
 20
1.826161
  0
VERTEX
  8
PLAN_1
 62
     5
  6
CONTINUOUS
 10
-1.510906
 20
1.826161
  0
SEQEND
  8
0
  0
POLYLINE
  8
PLAN_1
 62
     5
  6
CONTINUOUS
 66
     1
 40
0.003000
 41
0.003000
  0
VERTEX
  8
PLAN_1
 62
     5
  6
CONTINUOUS
 10
-1.502583
 20
1.826161
  0
VERTEX
  8
PLAN_1
 62
     5
  6
CONTINUOUS
 10
-1.494264
 20
1.826161
  0
SEQEND
  8
0
  0
POLYLINE
  8
PLAN_1
 62
     5
  6
CONTINUOUS
 66
     1
 40
0.003000
 41
0.003000
  0
VERTEX
  8
PLAN_1
 62
     5
  6
CONTINUOUS
 10
-1.485945
 20
1.826161
  0
VERTEX
  8
PLAN_1
 62
     5
  6
CONTINUOUS
 10
-1.477622
 20
1.826161
  0
SEQEND
  8
0
  0
POLYLINE
  8
PLAN_1
 62
     5
  6
CONTINUOUS
 66
     1
 40
0.003000
 41
0.003000
  0
VERTEX
  8
PLAN_1
 62
     5
  6
CONTINUOUS
 10
-1.469303
 20
1.826161
  0
VERTEX
  8
PLAN_1
 62
     5
  6
CONTINUOUS
 10
-1.460984
 20
1.826161
  0
SEQEND
  8
0
  0
POLYLINE
  8
PLAN_1
 62
     5
  6
CONTINUOUS
 66
     1
 40
0.003000
 41
0.003000
  0
VERTEX
  8
PLAN_1
 62
     5
  6
CONTINUOUS
 10
-1.452665
 20
1.826161
  0
VERTEX
  8
PLAN_1
 62
     5
  6
CONTINUOUS
 10
-1.444343
 20
1.826161
  0
SEQEND
  8
0
  0
POLYLINE
  8
PLAN_1
 62
     5
  6
CONTINUOUS
 66
     1
 40
0.003000
 41
0.003000
  0
VERTEX
  8
PLAN_1
 62
     5
  6
CONTINUOUS
 10
-1.436024
 20
1.826161
  0
VERTEX
  8
PLAN_1
 62
     5
  6
CONTINUOUS
 10
-1.427705
 20
1.826161
  0
SEQEND
  8
0
  0
POLYLINE
  8
PLAN_1
 62
     5
  6
CONTINUOUS
 66
     1
 40
0.003000
 41
0.003000
  0
VERTEX
  8
PLAN_1
 62
     5
  6
CONTINUOUS
 10
-1.419386
 20
1.826161
  0
VERTEX
  8
PLAN_1
 62
     5
  6
CONTINUOUS
 10
-1.411063
 20
1.826161
  0
SEQEND
  8
0
  0
POLYLINE
  8
PLAN_1
 62
     5
  6
CONTINUOUS
 66
     1
 40
0.003000
 41
0.003000
  0
VERTEX
  8
PLAN_1
 62
     5
  6
CONTINUOUS
 10
-1.402744
 20
1.826161
  0
VERTEX
  8
PLAN_1
 62
     5
  6
CONTINUOUS
 10
-1.394425
 20
1.826161
  0
SEQEND
  8
0
  0
POLYLINE
  8
PLAN_1
 62
     5
  6
CONTINUOUS
 66
     1
 40
0.003000
 41
0.003000
  0
VERTEX
  8
PLAN_1
 62
     5
  6
CONTINUOUS
 10
-1.386102
 20
1.826161
  0
VERTEX
  8
PLAN_1
 62
     5
  6
CONTINUOUS
 10
-1.377783
 20
1.826161
  0
SEQEND
  8
0
  0
POLYLINE
  8
PLAN_1
 62
     5
  6
CONTINUOUS
 66
     1
 40
0.003000
 41
0.003000
  0
VERTEX
  8
PLAN_1
 62
     5
  6
CONTINUOUS
 10
-1.369465
 20
1.826161
  0
VERTEX
  8
PLAN_1
 62
     5
  6
CONTINUOUS
 10
-1.361146
 20
1.826161
  0
SEQEND
  8
0
  0
POLYLINE
  8
PLAN_1
 62
     5
  6
CONTINUOUS
 66
     1
 40
0.003000
 41
0.003000
  0
VERTEX
  8
PLAN_1
 62
     5
  6
CONTINUOUS
 10
-1.352823
 20
1.826161
  0
VERTEX
  8
PLAN_1
 62
     5
  6
CONTINUOUS
 10
-1.344087
 20
1.826161
  0
SEQEND
  8
0
  0
POLYLINE
  8
PLAN_1
 62
     5
  6
CONTINUOUS
 66
     1
 40
0.003000
 41
0.003000
  0
VERTEX
  8
PLAN_1
 62
     5
  6
CONTINUOUS
 10
-1.335768
 20
1.826161
  0
VERTEX
  8
PLAN_1
 62
     5
  6
CONTINUOUS
 10
-1.327449
 20
1.826161
  0
SEQEND
  8
0
  0
POLYLINE
  8
PLAN_1
 62
     5
  6
CONTINUOUS
 66
     1
 40
0.003000
 41
0.003000
  0
VERTEX
  8
PLAN_1
 62
     5
  6
CONTINUOUS
 10
-1.319130
 20
1.826161
  0
VERTEX
  8
PLAN_1
 62
     5
  6
CONTINUOUS
 10
-1.310807
 20
1.826161
  0
SEQEND
  8
0
  0
POLYLINE
  8
PLAN_1
 62
     5
  6
CONTINUOUS
 66
     1
 40
0.003000
 41
0.003000
  0
VERTEX
  8
PLAN_1
 62
     5
  6
CONTINUOUS
 10
-1.302488
 20
1.826161
  0
VERTEX
  8
PLAN_1
 62
     5
  6
CONTINUOUS
 10
-1.294169
 20
1.826161
  0
SEQEND
  8
0
  0
POLYLINE
  8
PLAN_1
 62
     5
  6
CONTINUOUS
 66
     1
 40
0.003000
 41
0.003000
  0
VERTEX
  8
PLAN_1
 62
     5
  6
CONTINUOUS
 10
-1.285846
 20
1.826161
  0
VERTEX
  8
PLAN_1
 62
     5
  6
CONTINUOUS
 10
-1.277528
 20
1.826161
  0
SEQEND
  8
0
  0
POLYLINE
  8
PLAN_1
 62
     5
  6
CONTINUOUS
 66
     1
 40
0.003000
 41
0.003000
  0
VERTEX
  8
PLAN_1
 62
     5
  6
CONTINUOUS
 10
-1.269209
 20
1.826161
  0
VERTEX
  8
PLAN_1
 62
     5
  6
CONTINUOUS
 10
-1.260890
 20
1.826161
  0
SEQEND
  8
0
  0
POLYLINE
  8
PLAN_1
 62
     5
  6
CONTINUOUS
 66
     1
 40
0.003000
 41
0.003000
  0
VERTEX
  8
PLAN_1
 62
     5
  6
CONTINUOUS
 10
-1.252567
 20
1.826161
  0
VERTEX
  8
PLAN_1
 62
     5
  6
CONTINUOUS
 10
-1.244248
 20
1.826161
  0
SEQEND
  8
0
  0
POLYLINE
  8
PLAN_1
 62
     5
  6
CONTINUOUS
 66
     1
 40
0.003000
 41
0.003000
  0
VERTEX
  8
PLAN_1
 62
     5
  6
CONTINUOUS
 10
-1.235929
 20
1.826161
  0
VERTEX
  8
PLAN_1
 62
     5
  6
CONTINUOUS
 10
-1.227606
 20
1.826161
  0
SEQEND
  8
0
  0
POLYLINE
  8
PLAN_1
 62
     5
  6
CONTINUOUS
 66
     1
 40
0.003000
 41
0.003000
  0
VERTEX
  8
PLAN_1
 62
     5
  6
CONTINUOUS
 10
-1.219287
 20
1.826161
  0
VERTEX
  8
PLAN_1
 62
     5
  6
CONTINUOUS
 10
-1.210969
 20
1.826161
  0
SEQEND
  8
0
  0
POLYLINE
  8
PLAN_1
 62
     5
  6
CONTINUOUS
 66
     1
 40
0.003000
 41
0.003000
  0
VERTEX
  8
PLAN_1
 62
     5
  6
CONTINUOUS
 10
-1.202650
 20
1.826161
  0
VERTEX
  8
PLAN_1
 62
     5
  6
CONTINUOUS
 10
-1.194327
 20
1.826161
  0
SEQEND
  8
0
  0
POLYLINE
  8
PLAN_1
 62
     5
  6
CONTINUOUS
 66
     1
 40
0.003000
 41
0.003000
  0
VERTEX
  8
PLAN_1
 62
     5
  6
CONTINUOUS
 10
-1.186008
 20
1.826161
  0
VERTEX
  8
PLAN_1
 62
     5
  6
CONTINUOUS
 10
-1.177689
 20
1.826161
  0
SEQEND
  8
0
  0
POLYLINE
  8
PLAN_1
 62
     5
  6
CONTINUOUS
 66
     1
 40
0.003000
 41
0.003000
  0
VERTEX
  8
PLAN_1
 62
     5
  6
CONTINUOUS
 10
-1.169366
 20
1.826161
  0
VERTEX
  8
PLAN_1
 62
     5
  6
CONTINUOUS
 10
-1.161047
 20
1.826161
  0
SEQEND
  8
0
  0
POLYLINE
  8
PLAN_1
 62
     5
  6
CONTINUOUS
 66
     1
 40
0.003000
 41
0.003000
  0
VERTEX
  8
PLAN_1
 62
     5
  6
CONTINUOUS
 10
-1.152728
 20
1.826161
  0
VERTEX
  8
PLAN_1
 62
     5
  6
CONTINUOUS
 10
-1.144409
 20
1.826161
  0
SEQEND
  8
0
  0
POLYLINE
  8
PLAN_1
 62
     5
  6
CONTINUOUS
 66
     1
 40
0.003000
 41
0.003000
  0
VERTEX
  8
PLAN_1
 62
     5
  6
CONTINUOUS
 10
-1.136087
 20
1.826161
  0
VERTEX
  8
PLAN_1
 62
     5
  6
CONTINUOUS
 10
-1.127768
 20
1.826161
  0
SEQEND
  8
0
  0
POLYLINE
  8
PLAN_1
 62
     5
  6
CONTINUOUS
 66
     1
 40
0.003000
 41
0.003000
  0
VERTEX
  8
PLAN_1
 62
     5
  6
CONTINUOUS
 10
-1.119449
 20
1.826161
  0
VERTEX
  8
PLAN_1
 62
     5
  6
CONTINUOUS
 10
-1.111130
 20
1.826161
  0
SEQEND
  8
0
  0
POLYLINE
  8
PLAN_1
 62
     5
  6
CONTINUOUS
 66
     1
 40
0.003000
 41
0.003000
  0
VERTEX
  8
PLAN_1
 62
     5
  6
CONTINUOUS
 10
-1.102807
 20
1.826161
  0
VERTEX
  8
PLAN_1
 62
     5
  6
CONTINUOUS
 10
-1.094488
 20
1.826161
  0
SEQEND
  8
0
  0
POLYLINE
  8
PLAN_1
 62
     5
  6
CONTINUOUS
 66
     1
 40
0.003000
 41
0.003000
  0
VERTEX
  8
PLAN_1
 62
     5
  6
CONTINUOUS
 10
-1.086169
 20
1.826161
  0
VERTEX
  8
PLAN_1
 62
     5
  6
CONTINUOUS
 10
-1.077846
 20
1.826161
  0
SEQEND
  8
0
  0
POLYLINE
  8
PLAN_1
 62
     5
  6
CONTINUOUS
 66
     1
 40
0.003000
 41
0.003000
  0
VERTEX
  8
PLAN_1
 62
     5
  6
CONTINUOUS
 10
-1.069528
 20
1.826161
  0
VERTEX
  8
PLAN_1
 62
     5
  6
CONTINUOUS
 10
-1.061209
 20
1.826161
  0
SEQEND
  8
0
  0
POLYLINE
  8
PLAN_1
 62
     5
  6
CONTINUOUS
 66
     1
 40
0.003000
 41
0.003000
  0
VERTEX
  8
PLAN_1
 62
     5
  6
CONTINUOUS
 10
-1.052890
 20
1.826161
  0
VERTEX
  8
PLAN_1
 62
     5
  6
CONTINUOUS
 10
-1.044567
 20
1.826161
  0
SEQEND
  8
0
  0
POLYLINE
  8
PLAN_1
 62
     5
  6
CONTINUOUS
 66
     1
 40
0.003000
 41
0.003000
  0
VERTEX
  8
PLAN_1
 62
     5
  6
CONTINUOUS
 10
-1.036248
 20
1.826161
  0
VERTEX
  8
PLAN_1
 62
     5
  6
CONTINUOUS
 10
-1.027929
 20
1.826161
  0
SEQEND
  8
0
  0
POLYLINE
  8
PLAN_1
 62
     5
  6
CONTINUOUS
 66
     1
 40
0.003000
 41
0.003000
  0
VERTEX
  8
PLAN_1
 62
     5
  6
CONTINUOUS
 10
-1.019606
 20
1.826161
  0
VERTEX
  8
PLAN_1
 62
     5
  6
CONTINUOUS
 10
-1.011287
 20
1.826161
  0
SEQEND
  8
0
  0
POLYLINE
  8
PLAN_1
 62
     5
  6
CONTINUOUS
 66
     1
 40
0.003000
 41
0.003000
  0
VERTEX
  8
PLAN_1
 62
     5
  6
CONTINUOUS
 10
-1.002969
 20
1.826161
  0
VERTEX
  8
PLAN_1
 62
     5
  6
CONTINUOUS
 10
-0.995063
 20
1.826161
  0
VERTEX
  8
PLAN_1
 62
     5
  6
CONTINUOUS
 10
-0.994650
 20
1.826161
  0
SEQEND
  8
0
  0
POLYLINE
  8
PLAN_1
 62
     5
  6
CONTINUOUS
 66
     1
 40
0.003000
 41
0.003000
  0
VERTEX
  8
PLAN_1
 62
     5
  6
CONTINUOUS
 10
-0.986327
 20
1.826161
  0
VERTEX
  8
PLAN_1
 62
     5
  6
CONTINUOUS
 10
-0.978008
 20
1.826161
  0
SEQEND
  8
0
  0
POLYLINE
  8
PLAN_1
 62
     5
  6
CONTINUOUS
 66
     1
 40
0.003000
 41
0.003000
  0
VERTEX
  8
PLAN_1
 62
     5
  6
CONTINUOUS
 10
-0.969689
 20
1.826161
  0
VERTEX
  8
PLAN_1
 62
     5
  6
CONTINUOUS
 10
-0.961366
 20
1.826161
  0
SEQEND
  8
0
  0
POLYLINE
  8
PLAN_1
 62
     5
  6
CONTINUOUS
 66
     1
 40
0.003000
 41
0.003000
  0
VERTEX
  8
PLAN_1
 62
     5
  6
CONTINUOUS
 10
-0.952634
 20
1.826161
  0
VERTEX
  8
PLAN_1
 62
     5
  6
CONTINUOUS
 10
-0.944311
 20
1.826161
  0
SEQEND
  8
0
  0
POLYLINE
  8
PLAN_1
 62
     5
  6
CONTINUOUS
 66
     1
 40
0.003000
 41
0.003000
  0
VERTEX
  8
PLAN_1
 62
     5
  6
CONTINUOUS
 10
-0.935992
 20
1.826161
  0
VERTEX
  8
PLAN_1
 62
     5
  6
CONTINUOUS
 10
-0.927673
 20
1.826161
  0
SEQEND
  8
0
  0
POLYLINE
  8
PLAN_1
 62
     5
  6
CONTINUOUS
 66
     1
 40
0.003000
 41
0.003000
  0
VERTEX
  8
PLAN_1
 62
     5
  6
CONTINUOUS
 10
-0.919350
 20
1.826161
  0
VERTEX
  8
PLAN_1
 62
     5
  6
CONTINUOUS
 10
-0.911031
 20
1.826161
  0
SEQEND
  8
0
  0
POLYLINE
  8
PLAN_1
 62
     5
  6
CONTINUOUS
 66
     1
 40
0.003000
 41
0.003000
  0
VERTEX
  8
PLAN_1
 62
     5
  6
CONTINUOUS
 10
-0.902713
 20
1.826161
  0
VERTEX
  8
PLAN_1
 62
     5
  6
CONTINUOUS
 10
-0.894394
 20
1.826161
  0
SEQEND
  8
0
  0
POLYLINE
  8
PLAN_1
 62
     5
  6
CONTINUOUS
 66
     1
 40
0.003000
 41
0.003000
  0
VERTEX
  8
PLAN_1
 62
     5
  6
CONTINUOUS
 10
-0.886071
 20
1.826161
  0
VERTEX
  8
PLAN_1
 62
     5
  6
CONTINUOUS
 10
-0.877752
 20
1.826161
  0
SEQEND
  8
0
  0
POLYLINE
  8
PLAN_1
 62
     5
  6
CONTINUOUS
 66
     1
 40
0.003000
 41
0.003000
  0
VERTEX
  8
PLAN_1
 62
     5
  6
CONTINUOUS
 10
-0.869433
 20
1.826161
  0
VERTEX
  8
PLAN_1
 62
     5
  6
CONTINUOUS
 10
-0.861110
 20
1.826161
  0
SEQEND
  8
0
  0
POLYLINE
  8
PLAN_1
 62
     5
  6
CONTINUOUS
 66
     1
 40
0.003000
 41
0.003000
  0
VERTEX
  8
PLAN_1
 62
     5
  6
CONTINUOUS
 10
-0.852791
 20
1.826161
  0
VERTEX
  8
PLAN_1
 62
     5
  6
CONTINUOUS
 10
-0.844472
 20
1.826161
  0
SEQEND
  8
0
  0
POLYLINE
  8
PLAN_1
 62
     5
  6
CONTINUOUS
 66
     1
 40
0.003000
 41
0.003000
  0
VERTEX
  8
PLAN_1
 62
     5
  6
CONTINUOUS
 10
-0.836154
 20
1.826161
  0
VERTEX
  8
PLAN_1
 62
     5
  6
CONTINUOUS
 10
-0.827831
 20
1.826161
  0
SEQEND
  8
0
  0
POLYLINE
  8
PLAN_1
 62
     5
  6
CONTINUOUS
 66
     1
 40
0.003000
 41
0.003000
  0
VERTEX
  8
PLAN_1
 62
     5
  6
CONTINUOUS
 10
-0.819512
 20
1.826161
  0
VERTEX
  8
PLAN_1
 62
     5
  6
CONTINUOUS
 10
-0.815350
 20
1.826161
  0
VERTEX
  8
PLAN_1
 62
     5
  6
CONTINUOUS
 10
-0.811193
 20
1.826161
  0
SEQEND
  8
0
  0
POLYLINE
  8
PLAN_1
 62
     5
  6
CONTINUOUS
 66
     1
 40
0.003000
 41
0.003000
  0
VERTEX
  8
PLAN_1
 62
     5
  6
CONTINUOUS
 10
-0.802870
 20
1.826161
  0
VERTEX
  8
PLAN_1
 62
     5
  6
CONTINUOUS
 10
-0.794551
 20
1.826161
  0
SEQEND
  8
0
  0
POLYLINE
  8
PLAN_1
 62
     5
  6
CONTINUOUS
 66
     1
 40
0.003000
 41
0.003000
  0
VERTEX
  8
PLAN_1
 62
     5
  6
CONTINUOUS
 10
-0.786232
 20
1.826161
  0
VERTEX
  8
PLAN_1
 62
     5
  6
CONTINUOUS
 10
-0.777913
 20
1.826161
  0
SEQEND
  8
0
  0
POLYLINE
  8
PLAN_1
 62
     5
  6
CONTINUOUS
 66
     1
 40
0.003000
 41
0.003000
  0
VERTEX
  8
PLAN_1
 62
     5
  6
CONTINUOUS
 10
-0.769591
 20
1.826161
  0
VERTEX
  8
PLAN_1
 62
     5
  6
CONTINUOUS
 10
-0.761272
 20
1.826161
  0
SEQEND
  8
0
  0
POLYLINE
  8
PLAN_1
 62
     5
  6
CONTINUOUS
 66
     1
 40
0.003000
 41
0.003000
  0
VERTEX
  8
PLAN_1
 62
     5
  6
CONTINUOUS
 10
-0.752953
 20
1.826161
  0
VERTEX
  8
PLAN_1
 62
     5
  6
CONTINUOUS
 10
-0.744634
 20
1.826161
  0
SEQEND
  8
0
  0
POLYLINE
  8
PLAN_1
 62
     5
  6
CONTINUOUS
 66
     1
 40
0.003000
 41
0.003000
  0
VERTEX
  8
PLAN_1
 62
     5
  6
CONTINUOUS
 10
-0.736311
 20
1.826161
  0
VERTEX
  8
PLAN_1
 62
     5
  6
CONTINUOUS
 10
-0.727992
 20
1.826161
  0
SEQEND
  8
0
  0
POLYLINE
  8
PLAN_1
 62
     5
  6
CONTINUOUS
 66
     1
 40
0.003000
 41
0.003000
  0
VERTEX
  8
PLAN_1
 62
     5
  6
CONTINUOUS
 10
-0.719673
 20
1.826161
  0
VERTEX
  8
PLAN_1
 62
     5
  6
CONTINUOUS
 10
-0.711350
 20
1.826161
  0
SEQEND
  8
0
  0
POLYLINE
  8
PLAN_1
 62
     5
  6
CONTINUOUS
 66
     1
 40
0.003000
 41
0.003000
  0
VERTEX
  8
PLAN_1
 62
     5
  6
CONTINUOUS
 10
-0.703031
 20
1.826161
  0
VERTEX
  8
PLAN_1
 62
     5
  6
CONTINUOUS
 10
-0.694713
 20
1.826161
  0
SEQEND
  8
0
  0
POLYLINE
  8
PLAN_1
 62
     5
  6
CONTINUOUS
 66
     1
 40
0.003000
 41
0.003000
  0
VERTEX
  8
PLAN_1
 62
     5
  6
CONTINUOUS
 10
-0.686394
 20
1.826161
  0
VERTEX
  8
PLAN_1
 62
     5
  6
CONTINUOUS
 10
-0.678071
 20
1.826161
  0
SEQEND
  8
0
  0
POLYLINE
  8
PLAN_1
 62
     5
  6
CONTINUOUS
 66
     1
 40
0.003000
 41
0.003000
  0
VERTEX
  8
PLAN_1
 62
     5
  6
CONTINUOUS
 10
-0.669752
 20
1.826161
  0
VERTEX
  8
PLAN_1
 62
     5
  6
CONTINUOUS
 10
-0.661433
 20
1.826161
  0
SEQEND
  8
0
  0
POLYLINE
  8
PLAN_1
 62
     5
  6
CONTINUOUS
 66
     1
 40
0.003000
 41
0.003000
  0
VERTEX
  8
PLAN_1
 62
     5
  6
CONTINUOUS
 10
-0.653110
 20
1.826161
  0
VERTEX
  8
PLAN_1
 62
     5
  6
CONTINUOUS
 10
-0.644791
 20
1.826161
  0
SEQEND
  8
0
  0
POLYLINE
  8
PLAN_1
 62
     5
  6
CONTINUOUS
 66
     1
 40
0.003000
 41
0.003000
  0
VERTEX
  8
PLAN_1
 62
     5
  6
CONTINUOUS
 10
-0.636472
 20
1.826161
  0
VERTEX
  8
PLAN_1
 62
     5
  6
CONTINUOUS
 10
-0.628984
 20
1.825744
  0
VERTEX
  8
PLAN_1
 62
     5
  6
CONTINUOUS
 10
-0.628154
 20
1.825744
  0
SEQEND
  8
0
  0
POLYLINE
  8
PLAN_1
 62
     5
  6
CONTINUOUS
 66
     1
 40
0.003000
 41
0.003000
  0
VERTEX
  8
PLAN_1
 62
     5
  6
CONTINUOUS
 10
-0.619831
 20
1.824496
  0
VERTEX
  8
PLAN_1
 62
     5
  6
CONTINUOUS
 10
-0.619000
 20
1.824496
  0
VERTEX
  8
PLAN_1
 62
     5
  6
CONTINUOUS
 10
-0.613591
 20
1.823665
  0
VERTEX
  8
PLAN_1
 62
     5
  6
CONTINUOUS
 10
-0.611512
 20
1.823248
  0
SEQEND
  8
0
  0
POLYLINE
  8
PLAN_1
 62
     5
  6
CONTINUOUS
 66
     1
 40
0.003000
 41
0.003000
  0
VERTEX
  8
PLAN_1
 62
     5
  6
CONTINUOUS
 10
-0.603606
 20
1.821169
  0
VERTEX
  8
PLAN_1
 62
     5
  6
CONTINUOUS
 10
-0.601110
 20
1.820752
  0
VERTEX
  8
PLAN_1
 62
     5
  6
CONTINUOUS
 10
-0.595287
 20
1.819087
  0
SEQEND
  8
0
  0
POLYLINE
  8
PLAN_1
 62
     5
  6
CONTINUOUS
 66
     1
 40
0.003000
 41
0.003000
  0
VERTEX
  8
PLAN_1
 62
     5
  6
CONTINUOUS
 10
-0.587386
 20
1.816177
  0
VERTEX
  8
PLAN_1
 62
     5
  6
CONTINUOUS
 10
-0.580728
 20
1.813264
  0
VERTEX
  8
PLAN_1
 62
     5
  6
CONTINUOUS
 10
-0.579898
 20
1.813264
  0
SEQEND
  8
0
  0
POLYLINE
  8
PLAN_1
 62
     5
  6
CONTINUOUS
 66
     1
 40
0.003000
 41
0.003000
  0
VERTEX
  8
PLAN_1
 62
     5
  6
CONTINUOUS
 10
-0.572409
 20
1.809520
  0
VERTEX
  8
PLAN_1
 62
     5
  6
CONTINUOUS
 10
-0.566169
 20
1.806193
  0
VERTEX
  8
PLAN_1
 62
     5
  6
CONTINUOUS
 10
-0.565335
 20
1.805358
  0
SEQEND
  8
0
  0
POLYLINE
  8
PLAN_1
 62
     5
  6
CONTINUOUS
 66
     1
 40
0.003000
 41
0.003000
  0
VERTEX
  8
PLAN_1
 62
     5
  6
CONTINUOUS
 10
-0.558264
 20
1.800783
  0
VERTEX
  8
PLAN_1
 62
     5
  6
CONTINUOUS
 10
-0.552024
 20
1.796209
  0
VERTEX
  8
PLAN_1
 62
     5
  6
CONTINUOUS
 10
-0.551606
 20
1.795791
  0
SEQEND
  8
0
  0
POLYLINE
  8
PLAN_1
 62
     5
  6
CONTINUOUS
 66
     1
 40
0.003000
 41
0.003000
  0
VERTEX
  8
PLAN_1
 62
     5
  6
CONTINUOUS
 10
-0.544953
 20
1.790386
  0
VERTEX
  8
PLAN_1
 62
     5
  6
CONTINUOUS
 10
-0.539130
 20
1.784559
  0
SEQEND
  8
0
  0
POLYLINE
  8
PLAN_1
 62
     5
  6
CONTINUOUS
 66
     1
 40
0.003000
 41
0.003000
  0
VERTEX
  8
PLAN_1
 62
     5
  6
CONTINUOUS
 10
-0.533303
 20
1.778736
  0
VERTEX
  8
PLAN_1
 62
     5
  6
CONTINUOUS
 10
-0.531642
 20
1.776657
  0
VERTEX
  8
PLAN_1
 62
     5
  6
CONTINUOUS
 10
-0.528311
 20
1.772079
  0
SEQEND
  8
0
  0
POLYLINE
  8
PLAN_1
 62
     5
  6
CONTINUOUS
 66
     1
 40
0.003000
 41
0.003000
  0
VERTEX
  8
PLAN_1
 62
     5
  6
CONTINUOUS
 10
-0.523319
 20
1.765425
  0
VERTEX
  8
PLAN_1
 62
     5
  6
CONTINUOUS
 10
-0.519161
 20
1.759598
  0
VERTEX
  8
PLAN_1
 62
     5
  6
CONTINUOUS
 10
-0.518744
 20
1.758350
  0
SEQEND
  8
0
  0
POLYLINE
  8
PLAN_1
 62
     5
  6
CONTINUOUS
 66
     1
 40
0.003000
 41
0.003000
  0
VERTEX
  8
PLAN_1
 62
     5
  6
CONTINUOUS
 10
-0.514583
 20
1.751280
  0
VERTEX
  8
PLAN_1
 62
     5
  6
CONTINUOUS
 10
-0.513752
 20
1.749614
  0
VERTEX
  8
PLAN_1
 62
     5
  6
CONTINUOUS
 10
-0.510839
 20
1.744209
  0
VERTEX
  8
PLAN_1
 62
     5
  6
CONTINUOUS
 10
-0.510839
 20
1.743791
  0
SEQEND
  8
0
  0
POLYLINE
  8
PLAN_1
 62
     5
  6
CONTINUOUS
 66
     1
 40
0.003000
 41
0.003000
  0
VERTEX
  8
PLAN_1
 62
     5
  6
CONTINUOUS
 10
-0.507512
 20
1.736303
  0
VERTEX
  8
PLAN_1
 62
     5
  6
CONTINUOUS
 10
-0.505846
 20
1.732976
  0
VERTEX
  8
PLAN_1
 62
     5
  6
CONTINUOUS
 10
-0.504185
 20
1.728402
  0
SEQEND
  8
0
  0
POLYLINE
  8
PLAN_1
 62
     5
  6
CONTINUOUS
 66
     1
 40
0.003000
 41
0.003000
  0
VERTEX
  8
PLAN_1
 62
     5
  6
CONTINUOUS
 10
-0.501689
 20
1.720496
  0
VERTEX
  8
PLAN_1
 62
     5
  6
CONTINUOUS
 10
-0.499606
 20
1.714256
  0
VERTEX
  8
PLAN_1
 62
     5
  6
CONTINUOUS
 10
-0.499193
 20
1.712591
  0
SEQEND
  8
0
  0
POLYLINE
  8
PLAN_1
 62
     5
  6
CONTINUOUS
 66
     1
 40
0.003000
 41
0.003000
  0
VERTEX
  8
PLAN_1
 62
     5
  6
CONTINUOUS
 10
-0.497110
 20
1.704689
  0
VERTEX
  8
PLAN_1
 62
     5
  6
CONTINUOUS
 10
-0.496280
 20
1.700528
  0
VERTEX
  8
PLAN_1
 62
     5
  6
CONTINUOUS
 10
-0.495449
 20
1.696366
  0
SEQEND
  8
0
  0
POLYLINE
  8
PLAN_1
 62
     5
  6
CONTINUOUS
 66
     1
 40
0.003000
 41
0.003000
  0
VERTEX
  8
PLAN_1
 62
     5
  6
CONTINUOUS
 10
-0.493783
 20
1.688047
  0
VERTEX
  8
PLAN_1
 62
     5
  6
CONTINUOUS
 10
-0.493366
 20
1.685551
  0
VERTEX
  8
PLAN_1
 62
     5
  6
CONTINUOUS
 10
-0.492535
 20
1.680146
  0
SEQEND
  8
0
  0
POLYLINE
  8
PLAN_1
 62
     5
  6
CONTINUOUS
 66
     1
 40
0.003000
 41
0.003000
  0
VERTEX
  8
PLAN_1
 62
     5
  6
CONTINUOUS
 10
-0.491705
 20
1.671823
  0
VERTEX
  8
PLAN_1
 62
     5
  6
CONTINUOUS
 10
-0.491287
 20
1.669744
  0
VERTEX
  8
PLAN_1
 62
     5
  6
CONTINUOUS
 10
-0.490870
 20
1.663504
  0
SEQEND
  8
0
  0
POLYLINE
  8
PLAN_1
 62
     5
  6
CONTINUOUS
 66
     1
 40
0.003000
 41
0.003000
  0
VERTEX
  8
PLAN_1
 62
     5
  6
CONTINUOUS
 10
-0.490039
 20
1.655185
  0
VERTEX
  8
PLAN_1
 62
     5
  6
CONTINUOUS
 10
-0.490039
 20
1.652689
  0
VERTEX
  8
PLAN_1
 62
     5
  6
CONTINUOUS
 10
-0.490039
 20
1.646862
  0
SEQEND
  8
0
  0
POLYLINE
  8
PLAN_1
 62
     5
  6
CONTINUOUS
 66
     1
 40
0.003000
 41
0.003000
  0
VERTEX
  8
PLAN_1
 62
     5
  6
CONTINUOUS
 10
-0.489622
 20
1.638543
  0
VERTEX
  8
PLAN_1
 62
     5
  6
CONTINUOUS
 10
-0.489622
 20
1.634386
  0
VERTEX
  8
PLAN_1
 62
     5
  6
CONTINUOUS
 10
-0.489622
 20
1.630224
  0
SEQEND
  8
0
  0
POLYLINE
  8
PLAN_1
 62
     5
  6
CONTINUOUS
 66
     1
 40
0.003000
 41
0.003000
  0
VERTEX
  8
PLAN_1
 62
     5
  6
CONTINUOUS
 10
-0.489622
 20
1.621906
  0
VERTEX
  8
PLAN_1
 62
     5
  6
CONTINUOUS
 10
-0.489622
 20
1.613583
  0
SEQEND
  8
0
  0
POLYLINE
  8
PLAN_1
 62
     5
  6
CONTINUOUS
 66
     1
 40
0.003000
 41
0.003000
  0
VERTEX
  8
PLAN_1
 62
     5
  6
CONTINUOUS
 10
-0.489622
 20
1.605264
  0
VERTEX
  8
PLAN_1
 62
     5
  6
CONTINUOUS
 10
-0.489622
 20
1.596945
  0
SEQEND
  8
0
  0
POLYLINE
  8
PLAN_1
 62
     5
  6
CONTINUOUS
 66
     1
 40
0.003000
 41
0.003000
  0
VERTEX
  8
PLAN_1
 62
     5
  6
CONTINUOUS
 10
-0.489622
 20
1.588622
  0
VERTEX
  8
PLAN_1
 62
     5
  6
CONTINUOUS
 10
-0.489622
 20
1.580303
  0
SEQEND
  8
0
  0
POLYLINE
  8
PLAN_1
 62
     5
  6
CONTINUOUS
 66
     1
 40
0.003000
 41
0.003000
  0
VERTEX
  8
PLAN_1
 62
     5
  6
CONTINUOUS
 10
-0.489622
 20
1.571984
  0
VERTEX
  8
PLAN_1
 62
     5
  6
CONTINUOUS
 10
-0.489622
 20
1.563665
  0
SEQEND
  8
0
  0
POLYLINE
  8
PLAN_1
 62
     5
  6
CONTINUOUS
 66
     1
 40
0.003000
 41
0.003000
  0
VERTEX
  8
PLAN_1
 62
     5
  6
CONTINUOUS
 10
-0.489622
 20
1.555343
  0
VERTEX
  8
PLAN_1
 62
     5
  6
CONTINUOUS
 10
-0.489622
 20
1.547024
  0
SEQEND
  8
0
  0
POLYLINE
  8
PLAN_1
 62
     5
  6
CONTINUOUS
 66
     1
 40
0.003000
 41
0.003000
  0
VERTEX
  8
PLAN_1
 62
     5
  6
CONTINUOUS
 10
-0.489622
 20
1.538705
  0
VERTEX
  8
PLAN_1
 62
     5
  6
CONTINUOUS
 10
-0.489622
 20
1.529969
  0
SEQEND
  8
0
  0
POLYLINE
  8
PLAN_1
 62
     5
  6
CONTINUOUS
 66
     1
 40
0.003000
 41
0.003000
  0
VERTEX
  8
PLAN_1
 62
     5
  6
CONTINUOUS
 10
-0.489622
 20
1.521650
  0
VERTEX
  8
PLAN_1
 62
     5
  6
CONTINUOUS
 10
-0.489622
 20
1.513327
  0
SEQEND
  8
0
  0
POLYLINE
  8
PLAN_1
 62
     5
  6
CONTINUOUS
 66
     1
 40
0.003000
 41
0.003000
  0
VERTEX
  8
PLAN_1
 62
     5
  6
CONTINUOUS
 10
-0.489622
 20
1.505008
  0
VERTEX
  8
PLAN_1
 62
     5
  6
CONTINUOUS
 10
-0.489622
 20
1.496689
  0
SEQEND
  8
0
  0
POLYLINE
  8
PLAN_1
 62
     5
  6
CONTINUOUS
 66
     1
 40
0.003000
 41
0.003000
  0
VERTEX
  8
PLAN_1
 62
     5
  6
CONTINUOUS
 10
-0.489622
 20
1.488366
  0
VERTEX
  8
PLAN_1
 62
     5
  6
CONTINUOUS
 10
-0.489622
 20
1.480047
  0
SEQEND
  8
0
  0
POLYLINE
  8
PLAN_1
 62
     5
  6
CONTINUOUS
 66
     1
 40
0.003000
 41
0.003000
  0
VERTEX
  8
PLAN_1
 62
     5
  6
CONTINUOUS
 10
-0.489622
 20
1.471728
  0
VERTEX
  8
PLAN_1
 62
     5
  6
CONTINUOUS
 10
-0.489622
 20
1.463409
  0
SEQEND
  8
0
  0
POLYLINE
  8
PLAN_1
 62
     5
  6
CONTINUOUS
 66
     1
 40
0.003000
 41
0.003000
  0
VERTEX
  8
PLAN_1
 62
     5
  6
CONTINUOUS
 10
-0.489622
 20
1.455087
  0
VERTEX
  8
PLAN_1
 62
     5
  6
CONTINUOUS
 10
-0.489622
 20
1.446768
  0
SEQEND
  8
0
  0
POLYLINE
  8
PLAN_1
 62
     5
  6
CONTINUOUS
 66
     1
 40
0.003000
 41
0.003000
  0
VERTEX
  8
PLAN_1
 62
     5
  6
CONTINUOUS
 10
-0.489622
 20
1.438449
  0
VERTEX
  8
PLAN_1
 62
     5
  6
CONTINUOUS
 10
-0.489622
 20
1.430130
  0
SEQEND
  8
0
  0
POLYLINE
  8
PLAN_1
 62
     5
  6
CONTINUOUS
 66
     1
 40
0.003000
 41
0.003000
  0
VERTEX
  8
PLAN_1
 62
     5
  6
CONTINUOUS
 10
-0.489622
 20
1.421807
  0
VERTEX
  8
PLAN_1
 62
     5
  6
CONTINUOUS
 10
-0.489622
 20
1.413488
  0
SEQEND
  8
0
  0
POLYLINE
  8
PLAN_1
 62
     5
  6
CONTINUOUS
 66
     1
 40
0.003000
 41
0.003000
  0
VERTEX
  8
PLAN_1
 62
     5
  6
CONTINUOUS
 10
-0.489622
 20
1.405169
  0
VERTEX
  8
PLAN_1
 62
     5
  6
CONTINUOUS
 10
-0.489622
 20
1.396846
  0
SEQEND
  8
0
  0
POLYLINE
  8
PLAN_1
 62
     5
  6
CONTINUOUS
 66
     1
 40
0.003000
 41
0.003000
  0
VERTEX
  8
PLAN_1
 62
     5
  6
CONTINUOUS
 10
-0.489622
 20
1.388528
  0
VERTEX
  8
PLAN_1
 62
     5
  6
CONTINUOUS
 10
-0.489622
 20
1.380209
  0
SEQEND
  8
0
  0
POLYLINE
  8
PLAN_1
 62
     5
  6
CONTINUOUS
 66
     1
 40
0.003000
 41
0.003000
  0
VERTEX
  8
PLAN_1
 62
     5
  6
CONTINUOUS
 10
-0.489622
 20
1.371890
  0
VERTEX
  8
PLAN_1
 62
     5
  6
CONTINUOUS
 10
-0.489622
 20
1.363567
  0
SEQEND
  8
0
  0
POLYLINE
  8
PLAN_1
 62
     5
  6
CONTINUOUS
 66
     1
 40
0.003000
 41
0.003000
  0
VERTEX
  8
PLAN_1
 62
     5
  6
CONTINUOUS
 10
-0.489622
 20
1.355248
  0
VERTEX
  8
PLAN_1
 62
     5
  6
CONTINUOUS
 10
-0.489622
 20
1.346929
  0
SEQEND
  8
0
  0
POLYLINE
  8
PLAN_1
 62
     5
  6
CONTINUOUS
 66
     1
 40
0.003000
 41
0.003000
  0
VERTEX
  8
PLAN_1
 62
     5
  6
CONTINUOUS
 10
-0.489622
 20
1.338606
  0
VERTEX
  8
PLAN_1
 62
     5
  6
CONTINUOUS
 10
-0.489622
 20
1.330287
  0
SEQEND
  8
0
  0
POLYLINE
  8
PLAN_1
 62
     5
  6
CONTINUOUS
 66
     1
 40
0.003000
 41
0.003000
  0
VERTEX
  8
PLAN_1
 62
     5
  6
CONTINUOUS
 10
-0.489622
 20
1.321969
  0
VERTEX
  8
PLAN_1
 62
     5
  6
CONTINUOUS
 10
-0.489622
 20
1.321138
  0
VERTEX
  8
PLAN_1
 62
     5
  6
CONTINUOUS
 10
-0.489622
 20
1.313650
  0
SEQEND
  8
0
  0
POLYLINE
  8
PLAN_1
 62
     5
  6
CONTINUOUS
 66
     1
 40
0.003000
 41
0.003000
  0
VERTEX
  8
PLAN_1
 62
     5
  6
CONTINUOUS
 10
-0.489622
 20
1.305327
  0
VERTEX
  8
PLAN_1
 62
     5
  6
CONTINUOUS
 10
-0.489622
 20
1.297008
  0
SEQEND
  8
0
  0
POLYLINE
  8
PLAN_1
 62
     5
  6
CONTINUOUS
 66
     1
 40
0.003000
 41
0.003000
  0
VERTEX
  8
PLAN_1
 62
     5
  6
CONTINUOUS
 10
-0.489622
 20
1.288689
  0
VERTEX
  8
PLAN_1
 62
     5
  6
CONTINUOUS
 10
-0.489622
 20
1.280366
  0
SEQEND
  8
0
  0
POLYLINE
  8
PLAN_1
 62
     5
  6
CONTINUOUS
 66
     1
 40
0.003000
 41
0.003000
  0
VERTEX
  8
PLAN_1
 62
     5
  6
CONTINUOUS
 10
-0.489622
 20
1.272047
  0
VERTEX
  8
PLAN_1
 62
     5
  6
CONTINUOUS
 10
-0.489622
 20
1.263728
  0
SEQEND
  8
0
  0
POLYLINE
  8
PLAN_1
 62
     5
  6
CONTINUOUS
 66
     1
 40
0.003000
 41
0.003000
  0
VERTEX
  8
PLAN_1
 62
     5
  6
CONTINUOUS
 10
-0.489622
 20
1.255409
  0
VERTEX
  8
PLAN_1
 62
     5
  6
CONTINUOUS
 10
-0.489622
 20
1.247087
  0
SEQEND
  8
0
  0
POLYLINE
  8
PLAN_1
 62
     5
  6
CONTINUOUS
 66
     1
 40
0.003000
 41
0.003000
  0
VERTEX
  8
PLAN_1
 62
     5
  6
CONTINUOUS
 10
-0.489622
 20
1.238768
  0
VERTEX
  8
PLAN_1
 62
     5
  6
CONTINUOUS
 10
-0.489622
 20
1.230449
  0
SEQEND
  8
0
  0
POLYLINE
  8
PLAN_1
 62
     5
  6
CONTINUOUS
 66
     1
 40
0.003000
 41
0.003000
  0
VERTEX
  8
PLAN_1
 62
     5
  6
CONTINUOUS
 10
-0.489622
 20
1.222130
  0
VERTEX
  8
PLAN_1
 62
     5
  6
CONTINUOUS
 10
-0.489622
 20
1.213807
  0
SEQEND
  8
0
  0
POLYLINE
  8
PLAN_1
 62
     5
  6
CONTINUOUS
 66
     1
 40
0.003000
 41
0.003000
  0
VERTEX
  8
PLAN_1
 62
     5
  6
CONTINUOUS
 10
-0.489622
 20
1.205488
  0
VERTEX
  8
PLAN_1
 62
     5
  6
CONTINUOUS
 10
-0.489622
 20
1.197169
  0
SEQEND
  8
0
  0
POLYLINE
  8
PLAN_1
 62
     5
  6
CONTINUOUS
 66
     1
 40
0.003000
 41
0.003000
  0
VERTEX
  8
PLAN_1
 62
     5
  6
CONTINUOUS
 10
-0.489622
 20
1.188846
  0
VERTEX
  8
PLAN_1
 62
     5
  6
CONTINUOUS
 10
-0.489622
 20
1.180528
  0
SEQEND
  8
0
  0
POLYLINE
  8
PLAN_1
 62
     5
  6
CONTINUOUS
 66
     1
 40
0.003000
 41
0.003000
  0
VERTEX
  8
PLAN_1
 62
     5
  6
CONTINUOUS
 10
-0.489622
 20
1.172209
  0
VERTEX
  8
PLAN_1
 62
     5
  6
CONTINUOUS
 10
-0.489622
 20
1.163890
  0
SEQEND
  8
0
  0
POLYLINE
  8
PLAN_1
 62
     2
  6
CONTINUOUS
 66
     1
 40
0.004157
 41
0.004157
  0
VERTEX
  8
PLAN_1
 62
     2
  6
CONTINUOUS
 10
-1.153146
 20
3.064177
  0
VERTEX
  8
PLAN_1
 62
     2
  6
CONTINUOUS
 10
-1.114870
 20
3.064177
  0
SEQEND
  8
0
  0
POLYLINE
  8
PLAN_1
 62
     2
  6
CONTINUOUS
 66
     1
 40
0.004157
 41
0.004157
  0
VERTEX
  8
PLAN_1
 62
     2
  6
CONTINUOUS
 10
-1.067449
 20
3.064177
  0
VERTEX
  8
PLAN_1
 62
     2
  6
CONTINUOUS
 10
-0.287031
 20
3.064177
  0
SEQEND
  8
0
  0
POLYLINE
  8
PLAN_1
 62
     2
  6
CONTINUOUS
 66
     1
 40
0.004157
 41
0.004157
  0
VERTEX
  8
PLAN_1
 62
     2
  6
CONTINUOUS
 10
-0.465496
 20
1.632720
  0
VERTEX
  8
PLAN_1
 62
     2
  6
CONTINUOUS
 10
-0.287031
 20
1.632720
  0
SEQEND
  8
0
  0
POLYLINE
  8
PLAN_1
  6
CONTINUOUS
 66
     1
 40
0.003000
 41
0.003000
  0
VERTEX
  8
PLAN_1
  6
CONTINUOUS
 10
-0.689720
 20
1.577394
  0
VERTEX
  8
PLAN_1
  6
CONTINUOUS
 10
-0.683898
 20
1.577807
  0
VERTEX
  8
PLAN_1
  6
CONTINUOUS
 10
-0.678488
 20
1.578642
  0
VERTEX
  8
PLAN_1
  6
CONTINUOUS
 10
-0.673079
 20
1.579890
  0
VERTEX
  8
PLAN_1
  6
CONTINUOUS
 10
-0.667673
 20
1.581969
  0
VERTEX
  8
PLAN_1
  6
CONTINUOUS
 10
-0.662681
 20
1.584047
  0
VERTEX
  8
PLAN_1
  6
CONTINUOUS
 10
-0.658102
 20
1.586961
  0
VERTEX
  8
PLAN_1
  6
CONTINUOUS
 10
-0.653528
 20
1.590287
  0
VERTEX
  8
PLAN_1
  6
CONTINUOUS
 10
-0.649783
 20
1.594031
  0
VERTEX
  8
PLAN_1
  6
CONTINUOUS
 10
-0.646039
 20
1.598193
  0
VERTEX
  8
PLAN_1
  6
CONTINUOUS
 10
-0.642713
 20
1.602350
  0
VERTEX
  8
PLAN_1
  6
CONTINUOUS
 10
-0.639799
 20
1.607343
  0
VERTEX
  8
PLAN_1
  6
CONTINUOUS
 10
-0.637303
 20
1.612335
  0
VERTEX
  8
PLAN_1
  6
CONTINUOUS
 10
-0.635642
 20
1.617327
  0
VERTEX
  8
PLAN_1
  6
CONTINUOUS
 10
-0.633976
 20
1.622736
  0
VERTEX
  8
PLAN_1
  6
CONTINUOUS
 10
-0.633146
 20
1.628559
  0
VERTEX
  8
PLAN_1
  6
CONTINUOUS
 10
-0.632728
 20
1.634386
  0
VERTEX
  8
PLAN_1
  6
CONTINUOUS
 10
-0.633146
 20
1.640209
  0
VERTEX
  8
PLAN_1
  6
CONTINUOUS
 10
-0.633976
 20
1.646031
  0
VERTEX
  8
PLAN_1
  6
CONTINUOUS
 10
-0.635642
 20
1.651441
  0
VERTEX
  8
PLAN_1
  6
CONTINUOUS
 10
-0.637303
 20
1.656433
  0
VERTEX
  8
PLAN_1
  6
CONTINUOUS
 10
-0.639799
 20
1.661425
  0
VERTEX
  8
PLAN_1
  6
CONTINUOUS
 10
-0.642713
 20
1.666417
  0
VERTEX
  8
PLAN_1
  6
CONTINUOUS
 10
-0.646039
 20
1.670575
  0
VERTEX
  8
PLAN_1
  6
CONTINUOUS
 10
-0.649783
 20
1.674736
  0
VERTEX
  8
PLAN_1
  6
CONTINUOUS
 10
-0.653528
 20
1.678480
  0
VERTEX
  8
PLAN_1
  6
CONTINUOUS
 10
-0.658102
 20
1.681807
  0
VERTEX
  8
PLAN_1
  6
CONTINUOUS
 10
-0.662681
 20
1.684303
  0
VERTEX
  8
PLAN_1
  6
CONTINUOUS
 10
-0.667673
 20
1.686799
  0
VERTEX
  8
PLAN_1
  6
CONTINUOUS
 10
-0.673079
 20
1.688882
  0
VERTEX
  8
PLAN_1
  6
CONTINUOUS
 10
-0.678488
 20
1.690130
  0
VERTEX
  8
PLAN_1
  6
CONTINUOUS
 10
-0.683898
 20
1.690961
  0
VERTEX
  8
PLAN_1
  6
CONTINUOUS
 10
-0.689720
 20
1.691374
  0
VERTEX
  8
PLAN_1
  6
CONTINUOUS
 10
-0.695543
 20
1.690961
  0
VERTEX
  8
PLAN_1
  6
CONTINUOUS
 10
-0.701366
 20
1.690130
  0
VERTEX
  8
PLAN_1
  6
CONTINUOUS
 10
-0.706776
 20
1.688882
  0
VERTEX
  8
PLAN_1
  6
CONTINUOUS
 10
-0.712185
 20
1.686799
  0
VERTEX
  8
PLAN_1
  6
CONTINUOUS
 10
-0.717177
 20
1.684303
  0
VERTEX
  8
PLAN_1
  6
CONTINUOUS
 10
-0.721752
 20
1.681807
  0
VERTEX
  8
PLAN_1
  6
CONTINUOUS
 10
-0.726327
 20
1.678480
  0
VERTEX
  8
PLAN_1
  6
CONTINUOUS
 10
-0.730071
 20
1.674736
  0
VERTEX
  8
PLAN_1
  6
CONTINUOUS
 10
-0.733815
 20
1.670575
  0
VERTEX
  8
PLAN_1
  6
CONTINUOUS
 10
-0.737146
 20
1.666417
  0
VERTEX
  8
PLAN_1
  6
CONTINUOUS
 10
-0.740055
 20
1.661425
  0
VERTEX
  8
PLAN_1
  6
CONTINUOUS
 10
-0.742551
 20
1.656433
  0
VERTEX
  8
PLAN_1
  6
CONTINUOUS
 10
-0.744217
 20
1.651441
  0
VERTEX
  8
PLAN_1
  6
CONTINUOUS
 10
-0.745882
 20
1.646031
  0
VERTEX
  8
PLAN_1
  6
CONTINUOUS
 10
-0.746713
 20
1.640209
  0
VERTEX
  8
PLAN_1
  6
CONTINUOUS
 10
-0.746713
 20
1.634386
  0
VERTEX
  8
PLAN_1
  6
CONTINUOUS
 10
-0.746713
 20
1.628559
  0
VERTEX
  8
PLAN_1
  6
CONTINUOUS
 10
-0.745882
 20
1.622736
  0
VERTEX
  8
PLAN_1
  6
CONTINUOUS
 10
-0.744217
 20
1.617327
  0
VERTEX
  8
PLAN_1
  6
CONTINUOUS
 10
-0.742551
 20
1.612335
  0
VERTEX
  8
PLAN_1
  6
CONTINUOUS
 10
-0.740055
 20
1.607343
  0
VERTEX
  8
PLAN_1
  6
CONTINUOUS
 10
-0.737146
 20
1.602350
  0
VERTEX
  8
PLAN_1
  6
CONTINUOUS
 10
-0.733815
 20
1.598193
  0
VERTEX
  8
PLAN_1
  6
CONTINUOUS
 10
-0.730071
 20
1.594031
  0
VERTEX
  8
PLAN_1
  6
CONTINUOUS
 10
-0.726327
 20
1.590287
  0
VERTEX
  8
PLAN_1
  6
CONTINUOUS
 10
-0.721752
 20
1.586961
  0
VERTEX
  8
PLAN_1
  6
CONTINUOUS
 10
-0.717177
 20
1.584047
  0
VERTEX
  8
PLAN_1
  6
CONTINUOUS
 10
-0.712185
 20
1.581969
  0
VERTEX
  8
PLAN_1
  6
CONTINUOUS
 10
-0.706776
 20
1.579890
  0
VERTEX
  8
PLAN_1
  6
CONTINUOUS
 10
-0.701366
 20
1.578642
  0
VERTEX
  8
PLAN_1
  6
CONTINUOUS
 10
-0.695543
 20
1.577807
  0
VERTEX
  8
PLAN_1
  6
CONTINUOUS
 10
-0.689720
 20
1.577394
  0
SEQEND
  8
0
  0
POLYLINE
  8
PLAN_1
  6
CONTINUOUS
 66
     1
 40
0.004157
 41
0.004157
  0
VERTEX
  8
PLAN_1
  6
CONTINUOUS
 10
-0.690551
 20
1.760846
  0
VERTEX
  8
PLAN_1
  6
CONTINUOUS
 10
-0.690551
 20
1.492528
  0
SEQEND
  8
0
  0
POLYLINE
  8
PLAN_1
  6
CONTINUOUS
 66
     1
 40
0.004157
 41
0.004157
  0
VERTEX
  8
PLAN_1
  6
CONTINUOUS
 10
-0.824087
 20
1.636047
  0
VERTEX
  8
PLAN_1
  6
CONTINUOUS
 10
-0.555768
 20
1.636047
  0
SEQEND
  8
0
  0
POLYLINE
  8
PLAN_1
  6
CONTINUOUS
 66
     1
 40
0.003000
 41
0.003000
  0
VERTEX
  8
PLAN_1
  6
CONTINUOUS
 10
-1.876567
 20
1.577394
  0
VERTEX
  8
PLAN_1
  6
CONTINUOUS
 10
-1.870744
 20
1.577807
  0
VERTEX
  8
PLAN_1
  6
CONTINUOUS
 10
-1.864921
 20
1.578642
  0
VERTEX
  8
PLAN_1
  6
CONTINUOUS
 10
-1.859512
 20
1.579890
  0
VERTEX
  8
PLAN_1
  6
CONTINUOUS
 10
-1.854520
 20
1.581969
  0
VERTEX
  8
PLAN_1
  6
CONTINUOUS
 10
-1.849528
 20
1.584047
  0
VERTEX
  8
PLAN_1
  6
CONTINUOUS
 10
-1.844535
 20
1.586961
  0
VERTEX
  8
PLAN_1
  6
CONTINUOUS
 10
-1.840378
 20
1.590287
  0
VERTEX
  8
PLAN_1
  6
CONTINUOUS
 10
-1.836217
 20
1.594031
  0
VERTEX
  8
PLAN_1
  6
CONTINUOUS
 10
-1.832472
 20
1.598193
  0
VERTEX
  8
PLAN_1
  6
CONTINUOUS
 10
-1.829146
 20
1.602350
  0
VERTEX
  8
PLAN_1
  6
CONTINUOUS
 10
-1.826232
 20
1.607343
  0
VERTEX
  8
PLAN_1
  6
CONTINUOUS
 10
-1.824154
 20
1.612335
  0
VERTEX
  8
PLAN_1
  6
CONTINUOUS
 10
-1.822071
 20
1.617327
  0
VERTEX
  8
PLAN_1
  6
CONTINUOUS
 10
-1.820823
 20
1.622736
  0
VERTEX
  8
PLAN_1
  6
CONTINUOUS
 10
-1.819992
 20
1.628559
  0
VERTEX
  8
PLAN_1
  6
CONTINUOUS
 10
-1.819575
 20
1.634386
  0
VERTEX
  8
PLAN_1
  6
CONTINUOUS
 10
-1.819992
 20
1.640209
  0
VERTEX
  8
PLAN_1
  6
CONTINUOUS
 10
-1.820823
 20
1.646031
  0
VERTEX
  8
PLAN_1
  6
CONTINUOUS
 10
-1.822071
 20
1.651441
  0
VERTEX
  8
PLAN_1
  6
CONTINUOUS
 10
-1.824154
 20
1.656433
  0
VERTEX
  8
PLAN_1
  6
CONTINUOUS
 10
-1.826232
 20
1.661425
  0
VERTEX
  8
PLAN_1
  6
CONTINUOUS
 10
-1.829146
 20
1.666417
  0
VERTEX
  8
PLAN_1
  6
CONTINUOUS
 10
-1.832472
 20
1.670575
  0
VERTEX
  8
PLAN_1
  6
CONTINUOUS
 10
-1.836217
 20
1.674736
  0
VERTEX
  8
PLAN_1
  6
CONTINUOUS
 10
-1.840378
 20
1.678480
  0
VERTEX
  8
PLAN_1
  6
CONTINUOUS
 10
-1.844535
 20
1.681807
  0
VERTEX
  8
PLAN_1
  6
CONTINUOUS
 10
-1.849528
 20
1.684303
  0
VERTEX
  8
PLAN_1
  6
CONTINUOUS
 10
-1.854520
 20
1.686799
  0
VERTEX
  8
PLAN_1
  6
CONTINUOUS
 10
-1.859512
 20
1.688882
  0
VERTEX
  8
PLAN_1
  6
CONTINUOUS
 10
-1.864921
 20
1.690130
  0
VERTEX
  8
PLAN_1
  6
CONTINUOUS
 10
-1.870744
 20
1.690961
  0
VERTEX
  8
PLAN_1
  6
CONTINUOUS
 10
-1.876567
 20
1.691374
  0
VERTEX
  8
PLAN_1
  6
CONTINUOUS
 10
-1.882394
 20
1.690961
  0
VERTEX
  8
PLAN_1
  6
CONTINUOUS
 10
-1.887799
 20
1.690130
  0
VERTEX
  8
PLAN_1
  6
CONTINUOUS
 10
-1.893622
 20
1.688882
  0
VERTEX
  8
PLAN_1
  6
CONTINUOUS
 10
-1.898614
 20
1.686799
  0
VERTEX
  8
PLAN_1
  6
CONTINUOUS
 10
-1.903606
 20
1.684303
  0
VERTEX
  8
PLAN_1
  6
CONTINUOUS
 10
-1.908185
 20
1.681807
  0
VERTEX
  8
PLAN_1
  6
CONTINUOUS
 10
-1.912760
 20
1.678480
  0
VERTEX
  8
PLAN_1
  6
CONTINUOUS
 10
-1.916921
 20
1.674736
  0
VERTEX
  8
PLAN_1
  6
CONTINUOUS
 10
-1.920665
 20
1.670575
  0
VERTEX
  8
PLAN_1
  6
CONTINUOUS
 10
-1.923992
 20
1.666417
  0
VERTEX
  8
PLAN_1
  6
CONTINUOUS
 10
-1.926488
 20
1.661425
  0
VERTEX
  8
PLAN_1
  6
CONTINUOUS
 10
-1.928984
 20
1.656433
  0
VERTEX
  8
PLAN_1
  6
CONTINUOUS
 10
-1.931063
 20
1.651441
  0
VERTEX
  8
PLAN_1
  6
CONTINUOUS
 10
-1.932311
 20
1.646031
  0
VERTEX
  8
PLAN_1
  6
CONTINUOUS
 10
-1.933146
 20
1.640209
  0
VERTEX
  8
PLAN_1
  6
CONTINUOUS
 10
-1.933559
 20
1.634386
  0
VERTEX
  8
PLAN_1
  6
CONTINUOUS
 10
-1.933146
 20
1.628559
  0
VERTEX
  8
PLAN_1
  6
CONTINUOUS
 10
-1.932311
 20
1.622736
  0
VERTEX
  8
PLAN_1
  6
CONTINUOUS
 10
-1.931063
 20
1.617327
  0
VERTEX
  8
PLAN_1
  6
CONTINUOUS
 10
-1.928984
 20
1.612335
  0
VERTEX
  8
PLAN_1
  6
CONTINUOUS
 10
-1.926488
 20
1.607343
  0
VERTEX
  8
PLAN_1
  6
CONTINUOUS
 10
-1.923992
 20
1.602350
  0
VERTEX
  8
PLAN_1
  6
CONTINUOUS
 10
-1.920665
 20
1.598193
  0
VERTEX
  8
PLAN_1
  6
CONTINUOUS
 10
-1.916921
 20
1.594031
  0
VERTEX
  8
PLAN_1
  6
CONTINUOUS
 10
-1.912760
 20
1.590287
  0
VERTEX
  8
PLAN_1
  6
CONTINUOUS
 10
-1.908185
 20
1.586961
  0
VERTEX
  8
PLAN_1
  6
CONTINUOUS
 10
-1.903606
 20
1.584047
  0
VERTEX
  8
PLAN_1
  6
CONTINUOUS
 10
-1.898614
 20
1.581969
  0
VERTEX
  8
PLAN_1
  6
CONTINUOUS
 10
-1.893622
 20
1.579890
  0
VERTEX
  8
PLAN_1
  6
CONTINUOUS
 10
-1.887799
 20
1.578642
  0
VERTEX
  8
PLAN_1
  6
CONTINUOUS
 10
-1.882394
 20
1.577807
  0
VERTEX
  8
PLAN_1
  6
CONTINUOUS
 10
-1.876567
 20
1.577394
  0
SEQEND
  8
0
  0
POLYLINE
  8
PLAN_1
  6
CONTINUOUS
 66
     1
 40
0.004157
 41
0.004157
  0
VERTEX
  8
PLAN_1
  6
CONTINUOUS
 10
-1.877402
 20
1.760846
  0
VERTEX
  8
PLAN_1
  6
CONTINUOUS
 10
-1.877402
 20
1.492528
  0
SEQEND
  8
0
  0
POLYLINE
  8
PLAN_1
  6
CONTINUOUS
 66
     1
 40
0.004157
 41
0.004157
  0
VERTEX
  8
PLAN_1
  6
CONTINUOUS
 10
-2.010520
 20
1.636047
  0
VERTEX
  8
PLAN_1
  6
CONTINUOUS
 10
-1.742614
 20
1.636047
  0
SEQEND
  8
0
  0
POLYLINE
  8
PLAN_1
  6
CONTINUOUS
 66
     1
 40
0.008319
 41
0.008319
  0
VERTEX
  8
PLAN_1
  6
CONTINUOUS
 10
-0.817433
 20
1.779984
  0
VERTEX
  8
PLAN_1
  6
CONTINUOUS
 10
-0.817433
 20
1.826992
  0
VERTEX
  8
PLAN_1
  6
CONTINUOUS
 10
-1.748441
 20
1.826992
  0
VERTEX
  8
PLAN_1
  6
CONTINUOUS
 10
-1.748441
 20
1.779984
  0
VERTEX
  8
PLAN_1
  6
CONTINUOUS
 10
-0.817433
 20
1.779984
  0
SEQEND
  8
0
  0
POLYLINE
  8
PLAN_1
  6
CONTINUOUS
 66
     1
 40
0.008319
 41
0.008319
  0
VERTEX
  8
PLAN_1
  6
CONTINUOUS
 10
-1.692697
 20
1.522063
  0
VERTEX
  8
PLAN_1
  6
CONTINUOUS
 10
-1.655256
 20
1.484622
  0
VERTEX
  8
PLAN_1
  6
CONTINUOUS
 10
-0.907287
 20
1.484622
  0
VERTEX
  8
PLAN_1
  6
CONTINUOUS
 10
-0.869846
 20
1.522063
  0
VERTEX
  8
PLAN_1
  6
CONTINUOUS
 10
-0.869846
 20
1.779984
  0
VERTEX
  8
PLAN_1
  6
CONTINUOUS
 10
-1.692697
 20
1.779984
  0
VERTEX
  8
PLAN_1
  6
CONTINUOUS
 10
-1.692697
 20
1.522063
  0
SEQEND
  8
0
  0
POLYLINE
  8
PLAN_1
  6
CONTINUOUS
 66
     1
 40
0.008319
 41
0.008319
  0
VERTEX
  8
PLAN_1
  6
CONTINUOUS
 10
-1.605752
 20
1.484622
  0
VERTEX
  8
PLAN_1
  6
CONTINUOUS
 10
-1.556665
 20
1.298673
  0
VERTEX
  8
PLAN_1
  6
CONTINUOUS
 10
-1.012953
 20
1.298673
  0
VERTEX
  8
PLAN_1
  6
CONTINUOUS
 10
-0.951799
 20
1.484622
  0
VERTEX
  8
PLAN_1
  6
CONTINUOUS
 10
-1.605752
 20
1.484622
  0
SEQEND
  8
0
  0
POLYLINE
  8
PLAN_1
  6
CONTINUOUS
 66
     1
 40
0.005406
 41
0.005406
  0
VERTEX
  8
PLAN_1
  6
CONTINUOUS
 10
-1.562071
 20
1.482130
  0
VERTEX
  8
PLAN_1
  6
CONTINUOUS
 10
-1.515063
 20
1.298673
  0
SEQEND
  8
0
  0
POLYLINE
  8
PLAN_1
  6
CONTINUOUS
 66
     1
 40
0.005406
 41
0.005406
  0
VERTEX
  8
PLAN_1
  6
CONTINUOUS
 10
-1.530457
 20
1.482130
  0
VERTEX
  8
PLAN_1
  6
CONTINUOUS
 10
-1.483449
 20
1.298673
  0
SEQEND
  8
0
  0
POLYLINE
  8
PLAN_1
  6
CONTINUOUS
 66
     1
 40
0.005406
 41
0.005406
  0
VERTEX
  8
PLAN_1
  6
CONTINUOUS
 10
-1.012953
 20
1.483791
  0
VERTEX
  8
PLAN_1
  6
CONTINUOUS
 10
-1.059961
 20
1.300752
  0
SEQEND
  8
0
  0
POLYLINE
  8
PLAN_1
  6
CONTINUOUS
 66
     1
 40
0.005406
 41
0.005406
  0
VERTEX
  8
PLAN_1
  6
CONTINUOUS
 10
-1.044154
 20
1.483791
  0
VERTEX
  8
PLAN_1
  6
CONTINUOUS
 10
-1.091161
 20
1.300752
  0
SEQEND
  8
0
  0
POLYLINE
  8
PLAN_1
  6
CONTINUOUS
 66
     1
 40
0.008319
 41
0.008319
  0
VERTEX
  8
PLAN_1
  6
CONTINUOUS
 10
-1.646102
 20
2.187248
  0
VERTEX
  8
PLAN_1
  6
CONTINUOUS
 10
-0.915193
 20
2.187248
  0
SEQEND
  8
0
  0
POLYLINE
  8
PLAN_1
  6
CONTINUOUS
 66
     1
 40
0.008319
 41
0.008319
  0
VERTEX
  8
PLAN_1
  6
CONTINUOUS
 10
-0.915193
 20
2.246319
  0
VERTEX
  8
PLAN_1
  6
CONTINUOUS
 10
-0.915193
 20
2.323697
  0
SEQEND
  8
0
  0
POLYLINE
  8
PLAN_1
  6
CONTINUOUS
 66
     1
 40
0.008319
 41
0.008319
  0
VERTEX
  8
PLAN_1
  6
CONTINUOUS
 10
-0.915193
 20
2.323697
  0
VERTEX
  8
PLAN_1
  6
CONTINUOUS
 10
-0.920185
 20
2.330768
  0
VERTEX
  8
PLAN_1
  6
CONTINUOUS
 10
-0.924760
 20
2.338256
  0
VERTEX
  8
PLAN_1
  6
CONTINUOUS
 10
-0.929335
 20
2.344913
  0
VERTEX
  8
PLAN_1
  6
CONTINUOUS
 10
-0.933079
 20
2.351984
  0
VERTEX
  8
PLAN_1
  6
CONTINUOUS
 10
-0.940154
 20
2.364465
  0
VERTEX
  8
PLAN_1
  6
CONTINUOUS
 10
-0.945976
 20
2.376110
  0
VERTEX
  8
PLAN_1
  6
CONTINUOUS
 10
-0.950551
 20
2.385681
  0
VERTEX
  8
PLAN_1
  6
CONTINUOUS
 10
-0.953465
 20
2.393169
  0
VERTEX
  8
PLAN_1
  6
CONTINUOUS
 10
-0.955543
 20
2.398161
  0
VERTEX
  8
PLAN_1
  6
CONTINUOUS
 10
-0.955961
 20
2.399823
  0
SEQEND
  8
0
  0
POLYLINE
  8
PLAN_1
  6
CONTINUOUS
 66
     1
 40
0.008319
 41
0.008319
  0
VERTEX
  8
PLAN_1
  6
CONTINUOUS
 10
-0.955961
 20
2.399823
  0
VERTEX
  8
PLAN_1
  6
CONTINUOUS
 10
-1.004634
 20
2.790862
  0
VERTEX
  8
PLAN_1
  6
CONTINUOUS
 10
-1.555417
 20
2.790862
  0
VERTEX
  8
PLAN_1
  6
CONTINUOUS
 10
-1.606169
 20
2.401488
  0
SEQEND
  8
0
  0
POLYLINE
  8
PLAN_1
  6
CONTINUOUS
 66
     1
 40
0.008319
 41
0.008319
  0
VERTEX
  8
PLAN_1
  6
CONTINUOUS
 10
-1.606169
 20
2.401488
  0
VERTEX
  8
PLAN_1
  6
CONTINUOUS
 10
-1.606583
 20
2.399823
  0
VERTEX
  8
PLAN_1
  6
CONTINUOUS
 10
-1.608248
 20
2.395248
  0
VERTEX
  8
PLAN_1
  6
CONTINUOUS
 10
-1.611161
 20
2.387760
  0
VERTEX
  8
PLAN_1
  6
CONTINUOUS
 10
-1.615736
 20
2.377776
  0
VERTEX
  8
PLAN_1
  6
CONTINUOUS
 10
-1.621146
 20
2.366543
  0
VERTEX
  8
PLAN_1
  6
CONTINUOUS
 10
-1.627799
 20
2.353650
  0
VERTEX
  8
PLAN_1
  6
CONTINUOUS
 10
-1.631961
 20
2.346575
  0
VERTEX
  8
PLAN_1
  6
CONTINUOUS
 10
-1.636118
 20
2.339921
  0
VERTEX
  8
PLAN_1
  6
CONTINUOUS
 10
-1.640697
 20
2.332846
  0
VERTEX
  8
PLAN_1
  6
CONTINUOUS
 10
-1.646102
 20
2.325776
  0
SEQEND
  8
0
  0
POLYLINE
  8
PLAN_1
  6
CONTINUOUS
 66
     1
 40
0.008319
 41
0.008319
  0
VERTEX
  8
PLAN_1
  6
CONTINUOUS
 10
-1.646102
 20
2.325776
  0
VERTEX
  8
PLAN_1
  6
CONTINUOUS
 10
-1.646102
 20
2.246319
  0
SEQEND
  8
0
  0
POLYLINE
  8
PLAN_1
  6
CONTINUOUS
 66
     1
 40
0.008319
 41
0.008319
  0
VERTEX
  8
PLAN_1
  6
CONTINUOUS
 10
-0.745882
 20
1.826992
  0
VERTEX
  8
PLAN_1
  6
CONTINUOUS
 10
-0.745882
 20
2.108622
  0
VERTEX
  8
PLAN_1
  6
CONTINUOUS
 10
-1.813752
 20
2.108622
  0
VERTEX
  8
PLAN_1
  6
CONTINUOUS
 10
-1.813752
 20
1.826992
  0
VERTEX
  8
PLAN_1
  6
CONTINUOUS
 10
-0.745882
 20
1.826992
  0
SEQEND
  8
0
  0
POLYLINE
  8
PLAN_1
  6
CONTINUOUS
 66
     1
 40
0.007071
 41
0.007071
  0
VERTEX
  8
PLAN_1
  6
CONTINUOUS
 10
-1.652760
 20
2.216366
  0
VERTEX
  8
PLAN_1
  6
CONTINUOUS
 10
-1.711417
 20
2.216366
  0
VERTEX
  8
PLAN_1
  6
CONTINUOUS
 10
-1.711417
 20
2.246736
  0
VERTEX
  8
PLAN_1
  6
CONTINUOUS
 10
-1.813752
 20
2.246736
  0
VERTEX
  8
PLAN_1
  6
CONTINUOUS
 10
-1.813752
 20
2.187248
  0
VERTEX
  8
PLAN_1
  6
CONTINUOUS
 10
-1.545433
 20
2.187248
  0
VERTEX
  8
PLAN_1
  6
CONTINUOUS
 10
-1.545433
 20
2.246736
  0
VERTEX
  8
PLAN_1
  6
CONTINUOUS
 10
-1.652760
 20
2.246736
  0
VERTEX
  8
PLAN_1
  6
CONTINUOUS
 10
-1.652760
 20
2.216366
  0
SEQEND
  8
0
  0
POLYLINE
  8
PLAN_1
  6
CONTINUOUS
 66
     1
 40
0.007071
 41
0.007071
  0
VERTEX
  8
PLAN_1
  6
CONTINUOUS
 10
-0.848217
 20
2.216366
  0
VERTEX
  8
PLAN_1
  6
CONTINUOUS
 10
-0.910614
 20
2.216366
  0
VERTEX
  8
PLAN_1
  6
CONTINUOUS
 10
-0.910614
 20
2.246736
  0
VERTEX
  8
PLAN_1
  6
CONTINUOUS
 10
-1.012953
 20
2.246736
  0
VERTEX
  8
PLAN_1
  6
CONTINUOUS
 10
-1.012953
 20
2.187248
  0
VERTEX
  8
PLAN_1
  6
CONTINUOUS
 10
-0.745882
 20
2.187248
  0
VERTEX
  8
PLAN_1
  6
CONTINUOUS
 10
-0.745882
 20
2.246736
  0
VERTEX
  8
PLAN_1
  6
CONTINUOUS
 10
-0.848217
 20
2.246736
  0
VERTEX
  8
PLAN_1
  6
CONTINUOUS
 10
-0.848217
 20
2.216366
  0
SEQEND
  8
0
  0
POLYLINE
  8
PLAN_1
  6
CONTINUOUS
 66
     1
 40
0.008319
 41
0.008319
  0
VERTEX
  8
PLAN_1
  6
CONTINUOUS
 10
-1.507992
 20
2.187248
  0
VERTEX
  8
PLAN_1
  6
CONTINUOUS
 10
-1.813752
 20
2.187248
  0
VERTEX
  8
PLAN_1
  6
CONTINUOUS
 10
-1.813752
 20
2.108622
  0
VERTEX
  8
PLAN_1
  6
CONTINUOUS
 10
-0.745882
 20
2.108622
  0
VERTEX
  8
PLAN_1
  6
CONTINUOUS
 10
-0.745882
 20
2.187248
  0
VERTEX
  8
PLAN_1
  6
CONTINUOUS
 10
-1.049146
 20
2.187248
  0
VERTEX
  8
PLAN_1
  6
CONTINUOUS
 10
-1.049146
 20
2.246736
  0
VERTEX
  8
PLAN_1
  6
CONTINUOUS
 10
-1.507992
 20
2.246736
  0
VERTEX
  8
PLAN_1
  6
CONTINUOUS
 10
-1.507992
 20
2.187248
  0
SEQEND
  8
0
  0
POLYLINE
  8
PLAN_1
  6
CONTINUOUS
 66
     1
 40
0.008319
 41
0.008319
  0
VERTEX
  8
PLAN_1
  6
CONTINUOUS
 10
-1.086169
 20
3.027984
  0
VERTEX
  8
PLAN_1
  6
CONTINUOUS
 10
-1.086169
 20
2.790862
  0
VERTEX
  8
PLAN_1
  6
CONTINUOUS
 10
-1.481366
 20
2.790862
  0
VERTEX
  8
PLAN_1
  6
CONTINUOUS
 10
-1.481366
 20
3.027984
  0
SEQEND
  8
0
  0
POLYLINE
  8
PLAN_1
  6
CONTINUOUS
 66
     1
 40
0.008319
 41
0.008319
  0
VERTEX
  8
PLAN_1
  6
CONTINUOUS
 10
-1.481366
 20
3.027984
  0
VERTEX
  8
PLAN_1
  6
CONTINUOUS
 10
-1.473047
 20
3.032146
  0
VERTEX
  8
PLAN_1
  6
CONTINUOUS
 10
-1.450169
 20
3.041713
  0
VERTEX
  8
PLAN_1
  6
CONTINUOUS
 10
-1.441846
 20
3.044622
  0
VERTEX
  8
PLAN_1
  6
CONTINUOUS
 10
-1.433110
 20
3.047953
  0
VERTEX
  8
PLAN_1
  6
CONTINUOUS
 10
-1.423543
 20
3.050862
  0
VERTEX
  8
PLAN_1
  6
CONTINUOUS
 10
-1.413146
 20
3.053776
  0
VERTEX
  8
PLAN_1
  6
CONTINUOUS
 10
-1.402327
 20
3.056689
  0
VERTEX
  8
PLAN_1
  6
CONTINUOUS
 10
-1.390264
 20
3.059598
  0
VERTEX
  8
PLAN_1
  6
CONTINUOUS
 10
-1.377783
 20
3.062512
  0
VERTEX
  8
PLAN_1
  6
CONTINUOUS
 10
-1.364890
 20
3.064591
  0
VERTEX
  8
PLAN_1
  6
CONTINUOUS
 10
-1.351161
 20
3.066673
  0
VERTEX
  8
PLAN_1
  6
CONTINUOUS
 10
-1.336598
 20
3.068752
  0
VERTEX
  8
PLAN_1
  6
CONTINUOUS
 10
-1.321622
 20
3.070000
  0
VERTEX
  8
PLAN_1
  6
CONTINUOUS
 10
-1.306232
 20
3.070831
  0
VERTEX
  8
PLAN_1
  6
CONTINUOUS
 10
-1.290008
 20
3.071665
  0
VERTEX
  8
PLAN_1
  6
CONTINUOUS
 10
-1.273366
 20
3.071248
  0
VERTEX
  8
PLAN_1
  6
CONTINUOUS
 10
-1.256311
 20
3.070831
  0
VERTEX
  8
PLAN_1
  6
CONTINUOUS
 10
-1.238839
 20
3.069169
  0
VERTEX
  8
PLAN_1
  6
CONTINUOUS
 10
-1.220953
 20
3.067087
  0
VERTEX
  8
PLAN_1
  6
CONTINUOUS
 10
-1.202650
 20
3.064591
  0
VERTEX
  8
PLAN_1
  6
CONTINUOUS
 10
-1.184343
 20
3.060846
  0
VERTEX
  8
PLAN_1
  6
CONTINUOUS
 10
-1.165209
 20
3.056272
  0
VERTEX
  8
PLAN_1
  6
CONTINUOUS
 10
-1.145657
 20
3.050862
  0
VERTEX
  8
PLAN_1
  6
CONTINUOUS
 10
-1.126102
 20
3.044209
  0
VERTEX
  8
PLAN_1
  6
CONTINUOUS
 10
-1.106138
 20
3.036720
  0
VERTEX
  8
PLAN_1
  6
CONTINUOUS
 10
-1.086169
 20
3.027984
  0
SEQEND
  8
0
  0
POLYLINE
  8
PLAN_1
  6
CONTINUOUS
 66
     1
 40
0.005406
 41
0.005406
  0
VERTEX
  8
PLAN_1
  6
CONTINUOUS
 10
-1.478870
 20
3.024657
  0
VERTEX
  8
PLAN_1
  6
CONTINUOUS
 10
-1.091575
 20
3.024657
  0
SEQEND
  8
0
  0
POLYLINE
  8
PLAN_1
  6
CONTINUOUS
 66
     1
 40
0.005406
 41
0.005406
  0
VERTEX
  8
PLAN_1
  6
CONTINUOUS
 10
-1.692697
 20
1.522063
  0
VERTEX
  8
PLAN_1
  6
CONTINUOUS
 10
-0.869846
 20
1.522063
  0
SEQEND
  8
0
  0
POLYLINE
  8
PLAN_1
 62
     2
  6
CONTINUOUS
 66
     1
 40
0.004157
 41
0.004157
  0
VERTEX
  8
PLAN_1
 62
     2
  6
CONTINUOUS
 10
-1.450583
 20
3.229744
  0
VERTEX
  8
PLAN_1
 62
     2
  6
CONTINUOUS
 10
-1.119031
 20
3.229744
  0
SEQEND
  8
0
  0
SOLID
  8
PLAN_1
 62
     2
 10
-1.089496
 20
3.229744
 11
-1.148567
 21
3.245551
 12
-1.089496
 22
3.229744
 13
-1.148567
 23
3.213937
  0
POLYLINE
  8
PLAN_1
 62
     2
  6
CONTINUOUS
 66
     1
 40
0.003000
 41
0.003000
  0
VERTEX
  8
PLAN_1
 62
     2
  6
CONTINUOUS
 10
-1.089496
 20
3.229744
  0
VERTEX
  8
PLAN_1
 62
     2
  6
CONTINUOUS
 10
-1.148567
 20
3.245551
  0
VERTEX
  8
PLAN_1
 62
     2
  6
CONTINUOUS
 10
-1.148567
 20
3.213937
  0
VERTEX
  8
PLAN_1
 62
     2
  6
CONTINUOUS
 10
-1.089496
 20
3.229744
  0
SEQEND
  8
0
  0
SOLID
  8
PLAN_1
 62
     2
 10
-1.480118
 20
3.229744
 11
-1.421047
 21
3.245551
 12
-1.480118
 22
3.229744
 13
-1.421047
 23
3.213937
  0
POLYLINE
  8
PLAN_1
 62
     2
  6
CONTINUOUS
 66
     1
 40
0.003000
 41
0.003000
  0
VERTEX
  8
PLAN_1
 62
     2
  6
CONTINUOUS
 10
-1.480118
 20
3.229744
  0
VERTEX
  8
PLAN_1
 62
     2
  6
CONTINUOUS
 10
-1.421047
 20
3.245551
  0
VERTEX
  8
PLAN_1
 62
     2
  6
CONTINUOUS
 10
-1.421047
 20
3.213937
  0
VERTEX
  8
PLAN_1
 62
     2
  6
CONTINUOUS
 10
-1.480118
 20
3.229744
  0
SEQEND
  8
0
  0
POLYLINE
  8
PLAN_1
 62
     2
  6
CONTINUOUS
 66
     1
 40
0.003000
 41
0.003000
  0
VERTEX
  8
PLAN_1
 62
     2
  6
CONTINUOUS
 10
-1.314551
 20
3.317520
  0
VERTEX
  8
PLAN_1
 62
     2
  6
CONTINUOUS
 10
-1.312055
 20
3.314193
  0
VERTEX
  8
PLAN_1
 62
     2
  6
CONTINUOUS
 10
-1.310394
 20
3.310862
  0
VERTEX
  8
PLAN_1
 62
     2
  6
CONTINUOUS
 10
-1.308728
 20
3.307535
  0
VERTEX
  8
PLAN_1
 62
     2
  6
CONTINUOUS
 10
-1.307898
 20
3.304209
  0
VERTEX
  8
PLAN_1
 62
     2
  6
CONTINUOUS
 10
-1.307063
 20
3.300882
  0
VERTEX
  8
PLAN_1
 62
     2
  6
CONTINUOUS
 10
-1.306232
 20
3.297138
  0
VERTEX
  8
PLAN_1
 62
     2
  6
CONTINUOUS
 10
-1.305815
 20
3.293807
  0
VERTEX
  8
PLAN_1
 62
     2
  6
CONTINUOUS
 10
-1.305815
 20
3.290480
  0
VERTEX
  8
PLAN_1
 62
     2
  6
CONTINUOUS
 10
-1.305815
 20
3.287567
  0
VERTEX
  8
PLAN_1
 62
     2
  6
CONTINUOUS
 10
-1.306232
 20
3.284240
  0
VERTEX
  8
PLAN_1
 62
     2
  6
CONTINUOUS
 10
-1.306650
 20
3.280913
  0
VERTEX
  8
PLAN_1
 62
     2
  6
CONTINUOUS
 10
-1.307480
 20
3.277583
  0
VERTEX
  8
PLAN_1
 62
     2
  6
CONTINUOUS
 10
-1.308728
 20
3.274256
  0
VERTEX
  8
PLAN_1
 62
     2
  6
CONTINUOUS
 10
-1.309976
 20
3.271343
  0
VERTEX
  8
PLAN_1
 62
     2
  6
CONTINUOUS
 10
-1.311642
 20
3.268016
  0
VERTEX
  8
PLAN_1
 62
     2
  6
CONTINUOUS
 10
-1.313720
 20
3.265102
  0
VERTEX
  8
PLAN_1
 62
     2
  6
CONTINUOUS
 10
-1.315799
 20
3.262193
  0
VERTEX
  8
PLAN_1
 62
     2
  6
CONTINUOUS
 10
-1.318295
 20
3.259697
  0
VERTEX
  8
PLAN_1
 62
     2
  6
CONTINUOUS
 10
-1.321622
 20
3.257201
  0
VERTEX
  8
PLAN_1
 62
     2
  6
CONTINUOUS
 10
-1.324953
 20
3.255118
  0
VERTEX
  8
PLAN_1
 62
     2
  6
CONTINUOUS
 10
-1.328697
 20
3.253457
  0
VERTEX
  8
PLAN_1
 62
     2
  6
CONTINUOUS
 10
-1.332854
 20
3.252209
  0
VERTEX
  8
PLAN_1
 62
     2
  6
CONTINUOUS
 10
-1.337433
 20
3.251791
  0
VERTEX
  8
PLAN_1
 62
     2
  6
CONTINUOUS
 10
-1.342425
 20
3.251378
  0
VERTEX
  8
PLAN_1
 62
     2
  6
CONTINUOUS
 10
-1.346169
 20
3.251378
  0
VERTEX
  8
PLAN_1
 62
     2
  6
CONTINUOUS
 10
-1.349913
 20
3.252209
  0
VERTEX
  8
PLAN_1
 62
     2
  6
CONTINUOUS
 10
-1.353240
 20
3.252622
  0
VERTEX
  8
PLAN_1
 62
     2
  6
CONTINUOUS
 10
-1.356567
 20
3.253870
  0
VERTEX
  8
PLAN_1
 62
     2
  6
CONTINUOUS
 10
-1.359480
 20
3.255118
  0
VERTEX
  8
PLAN_1
 62
     2
  6
CONTINUOUS
 10
-1.361976
 20
3.256783
  0
VERTEX
  8
PLAN_1
 62
     2
  6
CONTINUOUS
 10
-1.364472
 20
3.258449
  0
VERTEX
  8
PLAN_1
 62
     2
  6
CONTINUOUS
 10
-1.366969
 20
3.260528
  0
VERTEX
  8
PLAN_1
 62
     2
  6
CONTINUOUS
 10
-1.375287
 20
3.251378
  0
VERTEX
  8
PLAN_1
 62
     2
  6
CONTINUOUS
 10
-1.378614
 20
3.254287
  0
VERTEX
  8
PLAN_1
 62
     2
  6
CONTINUOUS
 10
-1.369882
 20
3.263441
  0
VERTEX
  8
PLAN_1
 62
     2
  6
CONTINUOUS
 10
-1.371961
 20
3.266768
  0
VERTEX
  8
PLAN_1
 62
     2
  6
CONTINUOUS
 10
-1.374039
 20
3.270094
  0
VERTEX
  8
PLAN_1
 62
     2
  6
CONTINUOUS
 10
-1.375287
 20
3.273425
  0
VERTEX
  8
PLAN_1
 62
     2
  6
CONTINUOUS
 10
-1.376535
 20
3.276752
  0
VERTEX
  8
PLAN_1
 62
     2
  6
CONTINUOUS
 10
-1.377366
 20
3.280496
  0
VERTEX
  8
PLAN_1
 62
     2
  6
CONTINUOUS
 10
-1.378201
 20
3.283823
  0
VERTEX
  8
PLAN_1
 62
     2
  6
CONTINUOUS
 10
-1.378614
 20
3.287567
  0
VERTEX
  8
PLAN_1
 62
     2
  6
CONTINUOUS
 10
-1.378614
 20
3.290480
  0
VERTEX
  8
PLAN_1
 62
     2
  6
CONTINUOUS
 10
-1.378614
 20
3.293807
  0
VERTEX
  8
PLAN_1
 62
     2
  6
CONTINUOUS
 10
-1.378201
 20
3.297138
  0
VERTEX
  8
PLAN_1
 62
     2
  6
CONTINUOUS
 10
-1.377783
 20
3.300465
  0
VERTEX
  8
PLAN_1
 62
     2
  6
CONTINUOUS
 10
-1.376953
 20
3.303791
  0
VERTEX
  8
PLAN_1
 62
     2
  6
CONTINUOUS
 10
-1.375705
 20
3.307118
  0
VERTEX
  8
PLAN_1
 62
     2
  6
CONTINUOUS
 10
-1.374457
 20
3.310031
  0
VERTEX
  8
PLAN_1
 62
     2
  6
CONTINUOUS
 10
-1.372791
 20
3.313358
  0
VERTEX
  8
PLAN_1
 62
     2
  6
CONTINUOUS
 10
-1.370713
 20
3.316272
  0
VERTEX
  8
PLAN_1
 62
     2
  6
CONTINUOUS
 10
-1.368634
 20
3.319185
  0
VERTEX
  8
PLAN_1
 62
     2
  6
CONTINUOUS
 10
-1.366138
 20
3.321681
  0
VERTEX
  8
PLAN_1
 62
     2
  6
CONTINUOUS
 10
-1.363224
 20
3.324177
  0
VERTEX
  8
PLAN_1
 62
     2
  6
CONTINUOUS
 10
-1.359898
 20
3.326256
  0
VERTEX
  8
PLAN_1
 62
     2
  6
CONTINUOUS
 10
-1.356154
 20
3.327921
  0
VERTEX
  8
PLAN_1
 62
     2
  6
CONTINUOUS
 10
-1.351992
 20
3.329169
  0
VERTEX
  8
PLAN_1
 62
     2
  6
CONTINUOUS
 10
-1.347417
 20
3.329583
  0
VERTEX
  8
PLAN_1
 62
     2
  6
CONTINUOUS
 10
-1.342425
 20
3.330000
  0
VERTEX
  8
PLAN_1
 62
     2
  6
CONTINUOUS
 10
-1.338264
 20
3.330000
  0
VERTEX
  8
PLAN_1
 62
     2
  6
CONTINUOUS
 10
-1.334520
 20
3.329169
  0
VERTEX
  8
PLAN_1
 62
     2
  6
CONTINUOUS
 10
-1.330776
 20
3.328335
  0
VERTEX
  8
PLAN_1
 62
     2
  6
CONTINUOUS
 10
-1.327862
 20
3.327504
  0
VERTEX
  8
PLAN_1
 62
     2
  6
CONTINUOUS
 10
-1.324535
 20
3.326256
  0
VERTEX
  8
PLAN_1
 62
     2
  6
CONTINUOUS
 10
-1.322039
 20
3.324591
  0
VERTEX
  8
PLAN_1
 62
     2
  6
CONTINUOUS
 10
-1.319543
 20
3.322929
  0
VERTEX
  8
PLAN_1
 62
     2
  6
CONTINUOUS
 10
-1.317465
 20
3.320846
  0
VERTEX
  8
PLAN_1
 62
     2
  6
CONTINUOUS
 10
-1.309146
 20
3.330000
  0
VERTEX
  8
PLAN_1
 62
     2
  6
CONTINUOUS
 10
-1.305815
 20
3.327087
  0
VERTEX
  8
PLAN_1
 62
     2
  6
CONTINUOUS
 10
-1.314551
 20
3.317520
  0
SEQEND
  8
0
  0
POLYLINE
  8
PLAN_1
 62
     2
  6
CONTINUOUS
 66
     1
 40
0.003000
 41
0.003000
  0
VERTEX
  8
PLAN_1
 62
     2
  6
CONTINUOUS
 10
-1.360311
 20
3.267598
  0
VERTEX
  8
PLAN_1
 62
     2
  6
CONTINUOUS
 10
-1.358232
 20
3.265937
  0
VERTEX
  8
PLAN_1
 62
     2
  6
CONTINUOUS
 10
-1.356567
 20
3.264689
  0
VERTEX
  8
PLAN_1
 62
     2
  6
CONTINUOUS
 10
-1.354488
 20
3.263441
  0
VERTEX
  8
PLAN_1
 62
     2
  6
CONTINUOUS
 10
-1.352409
 20
3.262193
  0
VERTEX
  8
PLAN_1
 62
     2
  6
CONTINUOUS
 10
-1.349913
 20
3.261358
  0
VERTEX
  8
PLAN_1
 62
     2
  6
CONTINUOUS
 10
-1.347417
 20
3.260945
  0
VERTEX
  8
PLAN_1
 62
     2
  6
CONTINUOUS
 10
-1.344921
 20
3.260528
  0
VERTEX
  8
PLAN_1
 62
     2
  6
CONTINUOUS
 10
-1.342425
 20
3.260110
  0
VERTEX
  8
PLAN_1
 62
     2
  6
CONTINUOUS
 10
-1.339094
 20
3.260528
  0
VERTEX
  8
PLAN_1
 62
     2
  6
CONTINUOUS
 10
-1.336598
 20
3.260945
  0
VERTEX
  8
PLAN_1
 62
     2
  6
CONTINUOUS
 10
-1.333689
 20
3.261776
  0
VERTEX
  8
PLAN_1
 62
     2
  6
CONTINUOUS
 10
-1.331193
 20
3.262606
  0
VERTEX
  8
PLAN_1
 62
     2
  6
CONTINUOUS
 10
-1.329110
 20
3.263854
  0
VERTEX
  8
PLAN_1
 62
     2
  6
CONTINUOUS
 10
-1.327031
 20
3.265102
  0
VERTEX
  8
PLAN_1
 62
     2
  6
CONTINUOUS
 10
-1.324953
 20
3.266768
  0
VERTEX
  8
PLAN_1
 62
     2
  6
CONTINUOUS
 10
-1.323287
 20
3.268846
  0
VERTEX
  8
PLAN_1
 62
     2
  6
CONTINUOUS
 10
-1.321622
 20
3.270929
  0
VERTEX
  8
PLAN_1
 62
     2
  6
CONTINUOUS
 10
-1.320378
 20
3.273425
  0
VERTEX
  8
PLAN_1
 62
     2
  6
CONTINUOUS
 10
-1.319130
 20
3.275921
  0
VERTEX
  8
PLAN_1
 62
     2
  6
CONTINUOUS
 10
-1.317882
 20
3.278417
  0
VERTEX
  8
PLAN_1
 62
     2
  6
CONTINUOUS
 10
-1.317047
 20
3.281327
  0
VERTEX
  8
PLAN_1
 62
     2
  6
CONTINUOUS
 10
-1.316634
 20
3.284240
  0
VERTEX
  8
PLAN_1
 62
     2
  6
CONTINUOUS
 10
-1.316217
 20
3.287567
  0
VERTEX
  8
PLAN_1
 62
     2
  6
CONTINUOUS
 10
-1.316217
 20
3.290480
  0
VERTEX
  8
PLAN_1
 62
     2
  6
CONTINUOUS
 10
-1.316217
 20
3.293394
  0
VERTEX
  8
PLAN_1
 62
     2
  6
CONTINUOUS
 10
-1.316634
 20
3.296303
  0
VERTEX
  8
PLAN_1
 62
     2
  6
CONTINUOUS
 10
-1.317047
 20
3.298799
  0
VERTEX
  8
PLAN_1
 62
     2
  6
CONTINUOUS
 10
-1.317465
 20
3.301295
  0
VERTEX
  8
PLAN_1
 62
     2
  6
CONTINUOUS
 10
-1.318295
 20
3.303378
  0
VERTEX
  8
PLAN_1
 62
     2
  6
CONTINUOUS
 10
-1.319130
 20
3.305870
  0
VERTEX
  8
PLAN_1
 62
     2
  6
CONTINUOUS
 10
-1.319961
 20
3.307953
  0
VERTEX
  8
PLAN_1
 62
     2
  6
CONTINUOUS
 10
-1.321209
 20
3.309614
  0
VERTEX
  8
PLAN_1
 62
     2
  6
CONTINUOUS
 10
-1.360311
 20
3.267598
  0
SEQEND
  8
0
  0
POLYLINE
  8
PLAN_1
 62
     2
  6
CONTINUOUS
 66
     1
 40
0.003000
 41
0.003000
  0
VERTEX
  8
PLAN_1
 62
     2
  6
CONTINUOUS
 10
-1.324118
 20
3.313358
  0
VERTEX
  8
PLAN_1
 62
     2
  6
CONTINUOUS
 10
-1.325783
 20
3.315024
  0
VERTEX
  8
PLAN_1
 62
     2
  6
CONTINUOUS
 10
-1.327862
 20
3.316689
  0
VERTEX
  8
PLAN_1
 62
     2
  6
CONTINUOUS
 10
-1.329528
 20
3.317937
  0
VERTEX
  8
PLAN_1
 62
     2
  6
CONTINUOUS
 10
-1.332024
 20
3.319185
  0
VERTEX
  8
PLAN_1
 62
     2
  6
CONTINUOUS
 10
-1.334102
 20
3.320016
  0
VERTEX
  8
PLAN_1
 62
     2
  6
CONTINUOUS
 10
-1.337016
 20
3.320433
  0
VERTEX
  8
PLAN_1
 62
     2
  6
CONTINUOUS
 10
-1.339512
 20
3.320846
  0
VERTEX
  8
PLAN_1
 62
     2
  6
CONTINUOUS
 10
-1.342425
 20
3.321264
  0
VERTEX
  8
PLAN_1
 62
     2
  6
CONTINUOUS
 10
-1.345335
 20
3.320846
  0
VERTEX
  8
PLAN_1
 62
     2
  6
CONTINUOUS
 10
-1.347831
 20
3.320433
  0
VERTEX
  8
PLAN_1
 62
     2
  6
CONTINUOUS
 10
-1.350744
 20
3.319598
  0
VERTEX
  8
PLAN_1
 62
     2
  6
CONTINUOUS
 10
-1.353240
 20
3.318768
  0
VERTEX
  8
PLAN_1
 62
     2
  6
CONTINUOUS
 10
-1.355319
 20
3.317520
  0
VERTEX
  8
PLAN_1
 62
     2
  6
CONTINUOUS
 10
-1.357402
 20
3.316272
  0
VERTEX
  8
PLAN_1
 62
     2
  6
CONTINUOUS
 10
-1.359480
 20
3.314193
  0
VERTEX
  8
PLAN_1
 62
     2
  6
CONTINUOUS
 10
-1.361146
 20
3.312528
  0
VERTEX
  8
PLAN_1
 62
     2
  6
CONTINUOUS
 10
-1.362807
 20
3.310449
  0
VERTEX
  8
PLAN_1
 62
     2
  6
CONTINUOUS
 10
-1.364472
 20
3.307953
  0
VERTEX
  8
PLAN_1
 62
     2
  6
CONTINUOUS
 10
-1.365303
 20
3.305457
  0
VERTEX
  8
PLAN_1
 62
     2
  6
CONTINUOUS
 10
-1.366551
 20
3.302961
  0
VERTEX
  8
PLAN_1
 62
     2
  6
CONTINUOUS
 10
-1.367386
 20
3.300047
  0
VERTEX
  8
PLAN_1
 62
     2
  6
CONTINUOUS
 10
-1.367799
 20
3.297138
  0
VERTEX
  8
PLAN_1
 62
     2
  6
CONTINUOUS
 10
-1.368217
 20
3.293807
  0
VERTEX
  8
PLAN_1
 62
     2
  6
CONTINUOUS
 10
-1.368217
 20
3.290480
  0
VERTEX
  8
PLAN_1
 62
     2
  6
CONTINUOUS
 10
-1.368217
 20
3.287984
  0
VERTEX
  8
PLAN_1
 62
     2
  6
CONTINUOUS
 10
-1.367799
 20
3.285071
  0
VERTEX
  8
PLAN_1
 62
     2
  6
CONTINUOUS
 10
-1.367386
 20
3.282575
  0
VERTEX
  8
PLAN_1
 62
     2
  6
CONTINUOUS
 10
-1.366969
 20
3.280079
  0
VERTEX
  8
PLAN_1
 62
     2
  6
CONTINUOUS
 10
-1.366138
 20
3.277583
  0
VERTEX
  8
PLAN_1
 62
     2
  6
CONTINUOUS
 10
-1.365303
 20
3.275504
  0
VERTEX
  8
PLAN_1
 62
     2
  6
CONTINUOUS
 10
-1.364055
 20
3.273008
  0
VERTEX
  8
PLAN_1
 62
     2
  6
CONTINUOUS
 10
-1.362807
 20
3.270929
  0
VERTEX
  8
PLAN_1
 62
     2
  6
CONTINUOUS
 10
-1.324118
 20
3.313358
  0
SEQEND
  8
0
  0
POLYLINE
  8
PLAN_1
 62
     2
  6
CONTINUOUS
 66
     1
 40
0.003000
 41
0.003000
  0
VERTEX
  8
PLAN_1
 62
     2
  6
CONTINUOUS
 10
-1.264217
 20
3.253457
  0
VERTEX
  8
PLAN_1
 62
     2
  6
CONTINUOUS
 10
-1.274201
 20
3.253457
  0
VERTEX
  8
PLAN_1
 62
     2
  6
CONTINUOUS
 10
-1.274201
 20
3.305039
  0
VERTEX
  8
PLAN_1
 62
     2
  6
CONTINUOUS
 10
-1.291256
 20
3.305039
  0
VERTEX
  8
PLAN_1
 62
     2
  6
CONTINUOUS
 10
-1.291256
 20
3.312528
  0
VERTEX
  8
PLAN_1
 62
     2
  6
CONTINUOUS
 10
-1.287094
 20
3.312945
  0
VERTEX
  8
PLAN_1
 62
     2
  6
CONTINUOUS
 10
-1.283350
 20
3.313358
  0
VERTEX
  8
PLAN_1
 62
     2
  6
CONTINUOUS
 10
-1.280441
 20
3.314193
  0
VERTEX
  8
PLAN_1
 62
     2
  6
CONTINUOUS
 10
-1.277945
 20
3.315441
  0
VERTEX
  8
PLAN_1
 62
     2
  6
CONTINUOUS
 10
-1.275862
 20
3.317102
  0
VERTEX
  8
PLAN_1
 62
     2
  6
CONTINUOUS
 10
-1.274201
 20
3.319185
  0
VERTEX
  8
PLAN_1
 62
     2
  6
CONTINUOUS
 10
-1.272535
 20
3.322512
  0
VERTEX
  8
PLAN_1
 62
     2
  6
CONTINUOUS
 10
-1.271705
 20
3.326673
  0
VERTEX
  8
PLAN_1
 62
     2
  6
CONTINUOUS
 10
-1.264217
 20
3.326673
  0
VERTEX
  8
PLAN_1
 62
     2
  6
CONTINUOUS
 10
-1.264217
 20
3.253457
  0
SEQEND
  8
0
  0
POLYLINE
  8
PLAN_1
 62
     2
  6
CONTINUOUS
 66
     1
 40
0.003000
 41
0.003000
  0
VERTEX
  8
PLAN_1
 62
     2
  6
CONTINUOUS
 10
-1.214713
 20
3.251378
  0
VERTEX
  8
PLAN_1
 62
     2
  6
CONTINUOUS
 10
-1.218457
 20
3.251791
  0
VERTEX
  8
PLAN_1
 62
     2
  6
CONTINUOUS
 10
-1.222201
 20
3.252209
  0
VERTEX
  8
PLAN_1
 62
     2
  6
CONTINUOUS
 10
-1.225110
 20
3.253457
  0
VERTEX
  8
PLAN_1
 62
     2
  6
CONTINUOUS
 10
-1.227606
 20
3.255118
  0
VERTEX
  8
PLAN_1
 62
     2
  6
CONTINUOUS
 10
-1.230102
 20
3.257201
  0
VERTEX
  8
PLAN_1
 62
     2
  6
CONTINUOUS
 10
-1.232185
 20
3.259280
  0
VERTEX
  8
PLAN_1
 62
     2
  6
CONTINUOUS
 10
-1.233846
 20
3.261776
  0
VERTEX
  8
PLAN_1
 62
     2
  6
CONTINUOUS
 10
-1.235512
 20
3.264272
  0
VERTEX
  8
PLAN_1
 62
     2
  6
CONTINUOUS
 10
-1.236760
 20
3.267185
  0
VERTEX
  8
PLAN_1
 62
     2
  6
CONTINUOUS
 10
-1.237591
 20
3.270512
  0
VERTEX
  8
PLAN_1
 62
     2
  6
CONTINUOUS
 10
-1.238425
 20
3.273425
  0
VERTEX
  8
PLAN_1
 62
     2
  6
CONTINUOUS
 10
-1.238839
 20
3.276752
  0
VERTEX
  8
PLAN_1
 62
     2
  6
CONTINUOUS
 10
-1.239673
 20
3.282992
  0
VERTEX
  8
PLAN_1
 62
     2
  6
CONTINUOUS
 10
-1.240087
 20
3.288815
  0
VERTEX
  8
PLAN_1
 62
     2
  6
CONTINUOUS
 10
-1.239673
 20
3.295055
  0
VERTEX
  8
PLAN_1
 62
     2
  6
CONTINUOUS
 10
-1.238839
 20
3.301295
  0
VERTEX
  8
PLAN_1
 62
     2
  6
CONTINUOUS
 10
-1.238425
 20
3.304209
  0
VERTEX
  8
PLAN_1
 62
     2
  6
CONTINUOUS
 10
-1.237591
 20
3.307535
  0
VERTEX
  8
PLAN_1
 62
     2
  6
CONTINUOUS
 10
-1.236760
 20
3.310449
  0
VERTEX
  8
PLAN_1
 62
     2
  6
CONTINUOUS
 10
-1.235512
 20
3.313358
  0
VERTEX
  8
PLAN_1
 62
     2
  6
CONTINUOUS
 10
-1.233846
 20
3.316272
  0
VERTEX
  8
PLAN_1
 62
     2
  6
CONTINUOUS
 10
-1.232185
 20
3.318768
  0
VERTEX
  8
PLAN_1
 62
     2
  6
CONTINUOUS
 10
-1.230102
 20
3.320846
  0
VERTEX
  8
PLAN_1
 62
     2
  6
CONTINUOUS
 10
-1.227606
 20
3.322929
  0
VERTEX
  8
PLAN_1
 62
     2
  6
CONTINUOUS
 10
-1.225110
 20
3.324177
  0
VERTEX
  8
PLAN_1
 62
     2
  6
CONTINUOUS
 10
-1.222201
 20
3.325425
  0
VERTEX
  8
PLAN_1
 62
     2
  6
CONTINUOUS
 10
-1.218457
 20
3.326256
  0
VERTEX
  8
PLAN_1
 62
     2
  6
CONTINUOUS
 10
-1.214713
 20
3.326673
  0
VERTEX
  8
PLAN_1
 62
     2
  6
CONTINUOUS
 10
-1.210969
 20
3.326256
  0
VERTEX
  8
PLAN_1
 62
     2
  6
CONTINUOUS
 10
-1.207642
 20
3.325425
  0
VERTEX
  8
PLAN_1
 62
     2
  6
CONTINUOUS
 10
-1.204728
 20
3.324177
  0
VERTEX
  8
PLAN_1
 62
     2
  6
CONTINUOUS
 10
-1.202232
 20
3.322929
  0
VERTEX
  8
PLAN_1
 62
     2
  6
CONTINUOUS
 10
-1.199736
 20
3.320846
  0
VERTEX
  8
PLAN_1
 62
     2
  6
CONTINUOUS
 10
-1.197657
 20
3.318768
  0
VERTEX
  8
PLAN_1
 62
     2
  6
CONTINUOUS
 10
-1.195992
 20
3.316272
  0
VERTEX
  8
PLAN_1
 62
     2
  6
CONTINUOUS
 10
-1.194327
 20
3.313358
  0
VERTEX
  8
PLAN_1
 62
     2
  6
CONTINUOUS
 10
-1.193079
 20
3.310449
  0
VERTEX
  8
PLAN_1
 62
     2
  6
CONTINUOUS
 10
-1.192248
 20
3.307535
  0
VERTEX
  8
PLAN_1
 62
     2
  6
CONTINUOUS
 10
-1.191417
 20
3.304209
  0
VERTEX
  8
PLAN_1
 62
     2
  6
CONTINUOUS
 10
-1.190583
 20
3.301295
  0
VERTEX
  8
PLAN_1
 62
     2
  6
CONTINUOUS
 10
-1.190169
 20
3.295055
  0
VERTEX
  8
PLAN_1
 62
     2
  6
CONTINUOUS
 10
-1.189752
 20
3.288815
  0
VERTEX
  8
PLAN_1
 62
     2
  6
CONTINUOUS
 10
-1.190169
 20
3.282992
  0
VERTEX
  8
PLAN_1
 62
     2
  6
CONTINUOUS
 10
-1.190583
 20
3.276752
  0
VERTEX
  8
PLAN_1
 62
     2
  6
CONTINUOUS
 10
-1.191417
 20
3.273425
  0
VERTEX
  8
PLAN_1
 62
     2
  6
CONTINUOUS
 10
-1.192248
 20
3.270512
  0
VERTEX
  8
PLAN_1
 62
     2
  6
CONTINUOUS
 10
-1.193079
 20
3.267185
  0
VERTEX
  8
PLAN_1
 62
     2
  6
CONTINUOUS
 10
-1.194327
 20
3.264272
  0
VERTEX
  8
PLAN_1
 62
     2
  6
CONTINUOUS
 10
-1.195992
 20
3.261776
  0
VERTEX
  8
PLAN_1
 62
     2
  6
CONTINUOUS
 10
-1.197657
 20
3.259280
  0
VERTEX
  8
PLAN_1
 62
     2
  6
CONTINUOUS
 10
-1.199736
 20
3.257201
  0
VERTEX
  8
PLAN_1
 62
     2
  6
CONTINUOUS
 10
-1.202232
 20
3.255118
  0
VERTEX
  8
PLAN_1
 62
     2
  6
CONTINUOUS
 10
-1.204728
 20
3.253457
  0
VERTEX
  8
PLAN_1
 62
     2
  6
CONTINUOUS
 10
-1.207642
 20
3.252209
  0
VERTEX
  8
PLAN_1
 62
     2
  6
CONTINUOUS
 10
-1.210969
 20
3.251791
  0
VERTEX
  8
PLAN_1
 62
     2
  6
CONTINUOUS
 10
-1.214713
 20
3.251378
  0
SEQEND
  8
0
  0
POLYLINE
  8
PLAN_1
 62
     2
  6
CONTINUOUS
 66
     1
 40
0.003000
 41
0.003000
  0
VERTEX
  8
PLAN_1
 62
     2
  6
CONTINUOUS
 10
-1.214713
 20
3.318350
  0
VERTEX
  8
PLAN_1
 62
     2
  6
CONTINUOUS
 10
-1.216791
 20
3.317937
  0
VERTEX
  8
PLAN_1
 62
     2
  6
CONTINUOUS
 10
-1.218457
 20
3.317937
  0
VERTEX
  8
PLAN_1
 62
     2
  6
CONTINUOUS
 10
-1.220118
 20
3.317102
  0
VERTEX
  8
PLAN_1
 62
     2
  6
CONTINUOUS
 10
-1.221783
 20
3.316272
  0
VERTEX
  8
PLAN_1
 62
     2
  6
CONTINUOUS
 10
-1.223031
 20
3.315024
  0
VERTEX
  8
PLAN_1
 62
     2
  6
CONTINUOUS
 10
-1.224280
 20
3.313776
  0
VERTEX
  8
PLAN_1
 62
     2
  6
CONTINUOUS
 10
-1.225528
 20
3.312110
  0
VERTEX
  8
PLAN_1
 62
     2
  6
CONTINUOUS
 10
-1.226358
 20
3.310449
  0
VERTEX
  8
PLAN_1
 62
     2
  6
CONTINUOUS
 10
-1.228024
 20
3.306287
  0
VERTEX
  8
PLAN_1
 62
     2
  6
CONTINUOUS
 10
-1.229272
 20
3.301295
  0
VERTEX
  8
PLAN_1
 62
     2
  6
CONTINUOUS
 10
-1.230102
 20
3.295472
  0
VERTEX
  8
PLAN_1
 62
     2
  6
CONTINUOUS
 10
-1.230102
 20
3.288815
  0
VERTEX
  8
PLAN_1
 62
     2
  6
CONTINUOUS
 10
-1.230102
 20
3.282575
  0
VERTEX
  8
PLAN_1
 62
     2
  6
CONTINUOUS
 10
-1.229272
 20
3.276752
  0
VERTEX
  8
PLAN_1
 62
     2
  6
CONTINUOUS
 10
-1.228024
 20
3.271760
  0
VERTEX
  8
PLAN_1
 62
     2
  6
CONTINUOUS
 10
-1.226358
 20
3.267185
  0
VERTEX
  8
PLAN_1
 62
     2
  6
CONTINUOUS
 10
-1.225528
 20
3.265520
  0
VERTEX
  8
PLAN_1
 62
     2
  6
CONTINUOUS
 10
-1.224280
 20
3.263854
  0
VERTEX
  8
PLAN_1
 62
     2
  6
CONTINUOUS
 10
-1.223031
 20
3.262606
  0
VERTEX
  8
PLAN_1
 62
     2
  6
CONTINUOUS
 10
-1.221783
 20
3.261776
  0
VERTEX
  8
PLAN_1
 62
     2
  6
CONTINUOUS
 10
-1.220118
 20
3.260528
  0
VERTEX
  8
PLAN_1
 62
     2
  6
CONTINUOUS
 10
-1.218457
 20
3.260110
  0
VERTEX
  8
PLAN_1
 62
     2
  6
CONTINUOUS
 10
-1.216791
 20
3.259697
  0
VERTEX
  8
PLAN_1
 62
     2
  6
CONTINUOUS
 10
-1.214713
 20
3.259697
  0
VERTEX
  8
PLAN_1
 62
     2
  6
CONTINUOUS
 10
-1.213047
 20
3.259697
  0
VERTEX
  8
PLAN_1
 62
     2
  6
CONTINUOUS
 10
-1.211386
 20
3.260110
  0
VERTEX
  8
PLAN_1
 62
     2
  6
CONTINUOUS
 10
-1.209720
 20
3.260528
  0
VERTEX
  8
PLAN_1
 62
     2
  6
CONTINUOUS
 10
-1.208055
 20
3.261776
  0
VERTEX
  8
PLAN_1
 62
     2
  6
CONTINUOUS
 10
-1.206807
 20
3.262606
  0
VERTEX
  8
PLAN_1
 62
     2
  6
CONTINUOUS
 10
-1.205559
 20
3.263854
  0
VERTEX
  8
PLAN_1
 62
     2
  6
CONTINUOUS
 10
-1.204311
 20
3.265520
  0
VERTEX
  8
PLAN_1
 62
     2
  6
CONTINUOUS
 10
-1.203480
 20
3.267185
  0
VERTEX
  8
PLAN_1
 62
     2
  6
CONTINUOUS
 10
-1.201815
 20
3.271760
  0
VERTEX
  8
PLAN_1
 62
     2
  6
CONTINUOUS
 10
-1.200567
 20
3.276752
  0
VERTEX
  8
PLAN_1
 62
     2
  6
CONTINUOUS
 10
-1.199736
 20
3.282575
  0
VERTEX
  8
PLAN_1
 62
     2
  6
CONTINUOUS
 10
-1.199736
 20
3.288815
  0
VERTEX
  8
PLAN_1
 62
     2
  6
CONTINUOUS
 10
-1.199736
 20
3.295472
  0
VERTEX
  8
PLAN_1
 62
     2
  6
CONTINUOUS
 10
-1.200567
 20
3.301295
  0
VERTEX
  8
PLAN_1
 62
     2
  6
CONTINUOUS
 10
-1.201815
 20
3.306287
  0
VERTEX
  8
PLAN_1
 62
     2
  6
CONTINUOUS
 10
-1.203480
 20
3.310449
  0
VERTEX
  8
PLAN_1
 62
     2
  6
CONTINUOUS
 10
-1.204311
 20
3.312110
  0
VERTEX
  8
PLAN_1
 62
     2
  6
CONTINUOUS
 10
-1.205559
 20
3.313776
  0
VERTEX
  8
PLAN_1
 62
     2
  6
CONTINUOUS
 10
-1.206807
 20
3.315024
  0
VERTEX
  8
PLAN_1
 62
     2
  6
CONTINUOUS
 10
-1.208055
 20
3.316272
  0
VERTEX
  8
PLAN_1
 62
     2
  6
CONTINUOUS
 10
-1.209720
 20
3.317102
  0
VERTEX
  8
PLAN_1
 62
     2
  6
CONTINUOUS
 10
-1.211386
 20
3.317937
  0
VERTEX
  8
PLAN_1
 62
     2
  6
CONTINUOUS
 10
-1.213047
 20
3.317937
  0
VERTEX
  8
PLAN_1
 62
     2
  6
CONTINUOUS
 10
-1.214713
 20
3.318350
  0
SEQEND
  8
0
  0
POLYLINE
  8
PLAN_1
 62
     2
  6
CONTINUOUS
 66
     1
 40
0.004157
 41
0.004157
  0
VERTEX
  8
PLAN_1
 62
     2
  6
CONTINUOUS
 10
-1.480118
 20
3.253457
  0
VERTEX
  8
PLAN_1
 62
     2
  6
CONTINUOUS
 10
-1.480118
 20
3.051697
  0
SEQEND
  8
0
  0
POLYLINE
  8
PLAN_1
 62
     2
  6
CONTINUOUS
 66
     1
 40
0.004157
 41
0.004157
  0
VERTEX
  8
PLAN_1
 62
     2
  6
CONTINUOUS
 10
-1.089496
 20
3.253457
  0
VERTEX
  8
PLAN_1
 62
     2
  6
CONTINUOUS
 10
-1.089496
 20
3.051697
  0
SEQEND
  8
0
  0
POLYLINE
  8
PLAN_1
 62
     2
  6
CONTINUOUS
 66
     1
 40
0.004157
 41
0.004157
  0
VERTEX
  8
PLAN_1
 62
     2
  6
CONTINUOUS
 10
-0.310327
 20
1.662256
  0
VERTEX
  8
PLAN_1
 62
     2
  6
CONTINUOUS
 10
-0.310327
 20
3.034642
  0
SEQEND
  8
0
  0
SOLID
  8
PLAN_1
 62
     2
 10
-0.310327
 20
3.064177
 11
-0.326138
 21
3.005102
 12
-0.310327
 22
3.064177
 13
-0.294937
 23
3.005102
  0
POLYLINE
  8
PLAN_1
 62
     2
  6
CONTINUOUS
 66
     1
 40
0.003000
 41
0.003000
  0
VERTEX
  8
PLAN_1
 62
     2
  6
CONTINUOUS
 10
-0.310327
 20
3.064177
  0
VERTEX
  8
PLAN_1
 62
     2
  6
CONTINUOUS
 10
-0.326138
 20
3.005102
  0
VERTEX
  8
PLAN_1
 62
     2
  6
CONTINUOUS
 10
-0.294937
 20
3.005102
  0
VERTEX
  8
PLAN_1
 62
     2
  6
CONTINUOUS
 10
-0.310327
 20
3.064177
  0
SEQEND
  8
0
  0
SOLID
  8
PLAN_1
 62
     2
 10
-0.310327
 20
1.632720
 11
-0.326138
 21
1.691791
 12
-0.310327
 22
1.632720
 13
-0.294937
 23
1.691791
  0
POLYLINE
  8
PLAN_1
 62
     2
  6
CONTINUOUS
 66
     1
 40
0.003000
 41
0.003000
  0
VERTEX
  8
PLAN_1
 62
     2
  6
CONTINUOUS
 10
-0.310327
 20
1.632720
  0
VERTEX
  8
PLAN_1
 62
     2
  6
CONTINUOUS
 10
-0.326138
 20
1.691791
  0
VERTEX
  8
PLAN_1
 62
     2
  6
CONTINUOUS
 10
-0.294937
 20
1.691791
  0
VERTEX
  8
PLAN_1
 62
     2
  6
CONTINUOUS
 10
-0.310327
 20
1.632720
  0
SEQEND
  8
0
  0
POLYLINE
  8
PLAN_1
 62
     2
  6
CONTINUOUS
 66
     1
 40
0.003000
 41
0.003000
  0
VERTEX
  8
PLAN_1
 62
     2
  6
CONTINUOUS
 10
-0.375642
 20
2.277102
  0
VERTEX
  8
PLAN_1
 62
     2
  6
CONTINUOUS
 10
-0.375642
 20
2.277937
  0
VERTEX
  8
PLAN_1
 62
     2
  6
CONTINUOUS
 10
-0.375642
 20
2.278350
  0
VERTEX
  8
PLAN_1
 62
     2
  6
CONTINUOUS
 10
-0.375642
 20
2.279185
  0
VERTEX
  8
PLAN_1
 62
     2
  6
CONTINUOUS
 10
-0.375642
 20
2.279598
  0
VERTEX
  8
PLAN_1
 62
     2
  6
CONTINUOUS
 10
-0.375642
 20
2.280016
  0
VERTEX
  8
PLAN_1
 62
     2
  6
CONTINUOUS
 10
-0.375642
 20
2.280846
  0
VERTEX
  8
PLAN_1
 62
     2
  6
CONTINUOUS
 10
-0.375642
 20
2.281264
  0
VERTEX
  8
PLAN_1
 62
     2
  6
CONTINUOUS
 10
-0.375642
 20
2.282094
  0
VERTEX
  8
PLAN_1
 62
     2
  6
CONTINUOUS
 10
-0.375642
 20
2.284591
  0
VERTEX
  8
PLAN_1
 62
     2
  6
CONTINUOUS
 10
-0.376055
 20
2.287087
  0
VERTEX
  8
PLAN_1
 62
     2
  6
CONTINUOUS
 10
-0.376890
 20
2.289583
  0
VERTEX
  8
PLAN_1
 62
     2
  6
CONTINUOUS
 10
-0.378138
 20
2.291665
  0
VERTEX
  8
PLAN_1
 62
     2
  6
CONTINUOUS
 10
-0.379799
 20
2.293327
  0
VERTEX
  8
PLAN_1
 62
     2
  6
CONTINUOUS
 10
-0.381882
 20
2.294575
  0
VERTEX
  8
PLAN_1
 62
     2
  6
CONTINUOUS
 10
-0.384374
 20
2.295823
  0
VERTEX
  8
PLAN_1
 62
     2
  6
CONTINUOUS
 10
-0.387287
 20
2.295823
  0
VERTEX
  8
PLAN_1
 62
     2
  6
CONTINUOUS
 10
-0.389366
 20
2.295823
  0
VERTEX
  8
PLAN_1
 62
     2
  6
CONTINUOUS
 10
-0.391031
 20
2.295409
  0
VERTEX
  8
PLAN_1
 62
     2
  6
CONTINUOUS
 10
-0.393110
 20
2.294575
  0
VERTEX
  8
PLAN_1
 62
     2
  6
CONTINUOUS
 10
-0.394776
 20
2.293327
  0
VERTEX
  8
PLAN_1
 62
     2
  6
CONTINUOUS
 10
-0.396441
 20
2.291665
  0
VERTEX
  8
PLAN_1
 62
     2
  6
CONTINUOUS
 10
-0.397689
 20
2.289169
  0
VERTEX
  8
PLAN_1
 62
     2
  6
CONTINUOUS
 10
-0.398520
 20
2.286256
  0
VERTEX
  8
PLAN_1
 62
     2
  6
CONTINUOUS
 10
-0.398937
 20
2.282512
  0
VERTEX
  8
PLAN_1
 62
     2
  6
CONTINUOUS
 10
-0.398937
 20
2.280016
  0
VERTEX
  8
PLAN_1
 62
     2
  6
CONTINUOUS
 10
-0.398520
 20
2.277937
  0
VERTEX
  8
PLAN_1
 62
     2
  6
CONTINUOUS
 10
-0.398102
 20
2.276272
  0
VERTEX
  8
PLAN_1
 62
     2
  6
CONTINUOUS
 10
-0.397272
 20
2.274606
  0
VERTEX
  8
PLAN_1
 62
     2
  6
CONTINUOUS
 10
-0.395193
 20
2.272110
  0
VERTEX
  8
PLAN_1
 62
     2
  6
CONTINUOUS
 10
-0.393110
 20
2.270449
  0
VERTEX
  8
PLAN_1
 62
     2
  6
CONTINUOUS
 10
-0.390614
 20
2.269614
  0
VERTEX
  8
PLAN_1
 62
     2
  6
CONTINUOUS
 10
-0.388118
 20
2.268783
  0
VERTEX
  8
PLAN_1
 62
     2
  6
CONTINUOUS
 10
-0.385622
 20
2.268366
  0
VERTEX
  8
PLAN_1
 62
     2
  6
CONTINUOUS
 10
-0.383130
 20
2.267953
  0
VERTEX
  8
PLAN_1
 62
     2
  6
CONTINUOUS
 10
-0.383130
 20
2.259217
  0
VERTEX
  8
PLAN_1
 62
     2
  6
CONTINUOUS
 10
-0.387287
 20
2.259634
  0
VERTEX
  8
PLAN_1
 62
     2
  6
CONTINUOUS
 10
-0.391449
 20
2.260047
  0
VERTEX
  8
PLAN_1
 62
     2
  6
CONTINUOUS
 10
-0.393528
 20
2.260882
  0
VERTEX
  8
PLAN_1
 62
     2
  6
CONTINUOUS
 10
-0.395606
 20
2.261713
  0
VERTEX
  8
PLAN_1
 62
     2
  6
CONTINUOUS
 10
-0.397689
 20
2.262543
  0
VERTEX
  8
PLAN_1
 62
     2
  6
CONTINUOUS
 10
-0.399350
 20
2.263791
  0
VERTEX
  8
PLAN_1
 62
     2
  6
CONTINUOUS
 10
-0.401016
 20
2.265039
  0
VERTEX
  8
PLAN_1
 62
     2
  6
CONTINUOUS
 10
-0.402681
 20
2.266705
  0
VERTEX
  8
PLAN_1
 62
     2
  6
CONTINUOUS
 10
-0.403929
 20
2.268783
  0
VERTEX
  8
PLAN_1
 62
     2
  6
CONTINUOUS
 10
-0.405177
 20
2.270862
  0
VERTEX
  8
PLAN_1
 62
     2
  6
CONTINUOUS
 10
-0.406008
 20
2.273358
  0
VERTEX
  8
PLAN_1
 62
     2
  6
CONTINUOUS
 10
-0.406839
 20
2.276272
  0
VERTEX
  8
PLAN_1
 62
     2
  6
CONTINUOUS
 10
-0.407256
 20
2.279185
  0
VERTEX
  8
PLAN_1
 62
     2
  6
CONTINUOUS
 10
-0.407256
 20
2.282929
  0
VERTEX
  8
PLAN_1
 62
     2
  6
CONTINUOUS
 10
-0.406839
 20
2.287921
  0
VERTEX
  8
PLAN_1
 62
     2
  6
CONTINUOUS
 10
-0.406008
 20
2.292496
  0
VERTEX
  8
PLAN_1
 62
     2
  6
CONTINUOUS
 10
-0.403929
 20
2.296240
  0
VERTEX
  8
PLAN_1
 62
     2
  6
CONTINUOUS
 10
-0.401846
 20
2.299567
  0
VERTEX
  8
PLAN_1
 62
     2
  6
CONTINUOUS
 10
-0.400598
 20
2.300815
  0
VERTEX
  8
PLAN_1
 62
     2
  6
CONTINUOUS
 10
-0.398937
 20
2.302063
  0
VERTEX
  8
PLAN_1
 62
     2
  6
CONTINUOUS
 10
-0.397272
 20
2.302898
  0
VERTEX
  8
PLAN_1
 62
     2
  6
CONTINUOUS
 10
-0.395606
 20
2.303728
  0
VERTEX
  8
PLAN_1
 62
     2
  6
CONTINUOUS
 10
-0.391862
 20
2.304976
  0
VERTEX
  8
PLAN_1
 62
     2
  6
CONTINUOUS
 10
-0.388118
 20
2.305394
  0
VERTEX
  8
PLAN_1
 62
     2
  6
CONTINUOUS
 10
-0.384791
 20
2.304976
  0
VERTEX
  8
PLAN_1
 62
     2
  6
CONTINUOUS
 10
-0.381882
 20
2.304559
  0
VERTEX
  8
PLAN_1
 62
     2
  6
CONTINUOUS
 10
-0.379386
 20
2.303311
  0
VERTEX
  8
PLAN_1
 62
     2
  6
CONTINUOUS
 10
-0.377303
 20
2.302063
  0
VERTEX
  8
PLAN_1
 62
     2
  6
CONTINUOUS
 10
-0.375642
 20
2.300815
  0
VERTEX
  8
PLAN_1
 62
     2
  6
CONTINUOUS
 10
-0.374394
 20
2.299154
  0
VERTEX
  8
PLAN_1
 62
     2
  6
CONTINUOUS
 10
-0.373559
 20
2.297488
  0
VERTEX
  8
PLAN_1
 62
     2
  6
CONTINUOUS
 10
-0.372728
 20
2.296240
  0
VERTEX
  8
PLAN_1
 62
     2
  6
CONTINUOUS
 10
-0.371898
 20
2.298736
  0
VERTEX
  8
PLAN_1
 62
     2
  6
CONTINUOUS
 10
-0.370650
 20
2.300815
  0
VERTEX
  8
PLAN_1
 62
     2
  6
CONTINUOUS
 10
-0.368984
 20
2.302898
  0
VERTEX
  8
PLAN_1
 62
     2
  6
CONTINUOUS
 10
-0.366906
 20
2.304976
  0
VERTEX
  8
PLAN_1
 62
     2
  6
CONTINUOUS
 10
-0.364823
 20
2.306224
  0
VERTEX
  8
PLAN_1
 62
     2
  6
CONTINUOUS
 10
-0.361913
 20
2.307472
  0
VERTEX
  8
PLAN_1
 62
     2
  6
CONTINUOUS
 10
-0.359000
 20
2.307890
  0
VERTEX
  8
PLAN_1
 62
     2
  6
CONTINUOUS
 10
-0.355673
 20
2.308303
  0
VERTEX
  8
PLAN_1
 62
     2
  6
CONTINUOUS
 10
-0.351094
 20
2.307890
  0
VERTEX
  8
PLAN_1
 62
     2
  6
CONTINUOUS
 10
-0.346937
 20
2.306642
  0
VERTEX
  8
PLAN_1
 62
     2
  6
CONTINUOUS
 10
-0.344854
 20
2.305807
  0
VERTEX
  8
PLAN_1
 62
     2
  6
CONTINUOUS
 10
-0.342776
 20
2.304976
  0
VERTEX
  8
PLAN_1
 62
     2
  6
CONTINUOUS
 10
-0.341110
 20
2.303311
  0
VERTEX
  8
PLAN_1
 62
     2
  6
CONTINUOUS
 10
-0.339449
 20
2.302063
  0
VERTEX
  8
PLAN_1
 62
     2
  6
CONTINUOUS
 10
-0.337783
 20
2.300402
  0
VERTEX
  8
PLAN_1
 62
     2
  6
CONTINUOUS
 10
-0.336535
 20
2.298319
  0
VERTEX
  8
PLAN_1
 62
     2
  6
CONTINUOUS
 10
-0.335287
 20
2.296240
  0
VERTEX
  8
PLAN_1
 62
     2
  6
CONTINUOUS
 10
-0.334039
 20
2.293744
  0
VERTEX
  8
PLAN_1
 62
     2
  6
CONTINUOUS
 10
-0.333209
 20
2.291248
  0
VERTEX
  8
PLAN_1
 62
     2
  6
CONTINUOUS
 10
-0.332791
 20
2.288335
  0
VERTEX
  8
PLAN_1
 62
     2
  6
CONTINUOUS
 10
-0.332374
 20
2.285425
  0
VERTEX
  8
PLAN_1
 62
     2
  6
CONTINUOUS
 10
-0.331961
 20
2.282094
  0
VERTEX
  8
PLAN_1
 62
     2
  6
CONTINUOUS
 10
-0.332374
 20
2.280016
  0
VERTEX
  8
PLAN_1
 62
     2
  6
CONTINUOUS
 10
-0.332374
 20
2.277937
  0
VERTEX
  8
PLAN_1
 62
     2
  6
CONTINUOUS
 10
-0.332791
 20
2.276272
  0
VERTEX
  8
PLAN_1
 62
     2
  6
CONTINUOUS
 10
-0.333209
 20
2.274606
  0
VERTEX
  8
PLAN_1
 62
     2
  6
CONTINUOUS
 10
-0.333622
 20
2.272945
  0
VERTEX
  8
PLAN_1
 62
     2
  6
CONTINUOUS
 10
-0.334039
 20
2.271280
  0
VERTEX
  8
PLAN_1
 62
     2
  6
CONTINUOUS
 10
-0.334870
 20
2.269614
  0
VERTEX
  8
PLAN_1
 62
     2
  6
CONTINUOUS
 10
-0.335287
 20
2.268366
  0
VERTEX
  8
PLAN_1
 62
     2
  6
CONTINUOUS
 10
-0.336953
 20
2.265457
  0
VERTEX
  8
PLAN_1
 62
     2
  6
CONTINUOUS
 10
-0.339449
 20
2.263378
  0
VERTEX
  8
PLAN_1
 62
     2
  6
CONTINUOUS
 10
-0.341528
 20
2.261713
  0
VERTEX
  8
PLAN_1
 62
     2
  6
CONTINUOUS
 10
-0.344441
 20
2.260047
  0
VERTEX
  8
PLAN_1
 62
     2
  6
CONTINUOUS
 10
-0.347350
 20
2.259217
  0
VERTEX
  8
PLAN_1
 62
     2
  6
CONTINUOUS
 10
-0.350264
 20
2.258386
  0
VERTEX
  8
PLAN_1
 62
     2
  6
CONTINUOUS
 10
-0.353177
 20
2.257551
  0
VERTEX
  8
PLAN_1
 62
     2
  6
CONTINUOUS
 10
-0.356504
 20
2.257551
  0
VERTEX
  8
PLAN_1
 62
     2
  6
CONTINUOUS
 10
-0.356504
 20
2.266705
  0
VERTEX
  8
PLAN_1
 62
     2
  6
CONTINUOUS
 10
-0.354008
 20
2.267118
  0
VERTEX
  8
PLAN_1
 62
     2
  6
CONTINUOUS
 10
-0.351094
 20
2.267535
  0
VERTEX
  8
PLAN_1
 62
     2
  6
CONTINUOUS
 10
-0.348185
 20
2.268366
  0
VERTEX
  8
PLAN_1
 62
     2
  6
CONTINUOUS
 10
-0.345689
 20
2.269614
  0
VERTEX
  8
PLAN_1
 62
     2
  6
CONTINUOUS
 10
-0.343606
 20
2.271697
  0
VERTEX
  8
PLAN_1
 62
     2
  6
CONTINUOUS
 10
-0.341945
 20
2.274193
  0
VERTEX
  8
PLAN_1
 62
     2
  6
CONTINUOUS
 10
-0.341110
 20
2.275854
  0
VERTEX
  8
PLAN_1
 62
     2
  6
CONTINUOUS
 10
-0.340697
 20
2.277937
  0
VERTEX
  8
PLAN_1
 62
     2
  6
CONTINUOUS
 10
-0.340280
 20
2.280016
  0
VERTEX
  8
PLAN_1
 62
     2
  6
CONTINUOUS
 10
-0.340280
 20
2.282512
  0
VERTEX
  8
PLAN_1
 62
     2
  6
CONTINUOUS
 10
-0.340697
 20
2.285839
  0
VERTEX
  8
PLAN_1
 62
     2
  6
CONTINUOUS
 10
-0.341528
 20
2.288752
  0
VERTEX
  8
PLAN_1
 62
     2
  6
CONTINUOUS
 10
-0.342776
 20
2.291665
  0
VERTEX
  8
PLAN_1
 62
     2
  6
CONTINUOUS
 10
-0.344441
 20
2.294161
  0
VERTEX
  8
PLAN_1
 62
     2
  6
CONTINUOUS
 10
-0.346520
 20
2.295823
  0
VERTEX
  8
PLAN_1
 62
     2
  6
CONTINUOUS
 10
-0.348598
 20
2.297071
  0
VERTEX
  8
PLAN_1
 62
     2
  6
CONTINUOUS
 10
-0.351512
 20
2.298319
  0
VERTEX
  8
PLAN_1
 62
     2
  6
CONTINUOUS
 10
-0.354425
 20
2.298319
  0
VERTEX
  8
PLAN_1
 62
     2
  6
CONTINUOUS
 10
-0.356504
 20
2.298319
  0
VERTEX
  8
PLAN_1
 62
     2
  6
CONTINUOUS
 10
-0.358583
 20
2.297906
  0
VERTEX
  8
PLAN_1
 62
     2
  6
CONTINUOUS
 10
-0.360248
 20
2.297488
  0
VERTEX
  8
PLAN_1
 62
     2
  6
CONTINUOUS
 10
-0.361913
 20
2.296657
  0
VERTEX
  8
PLAN_1
 62
     2
  6
CONTINUOUS
 10
-0.363992
 20
2.294575
  0
VERTEX
  8
PLAN_1
 62
     2
  6
CONTINUOUS
 10
-0.365657
 20
2.292079
  0
VERTEX
  8
PLAN_1
 62
     2
  6
CONTINUOUS
 10
-0.366906
 20
2.289583
  0
VERTEX
  8
PLAN_1
 62
     2
  6
CONTINUOUS
 10
-0.367736
 20
2.286673
  0
VERTEX
  8
PLAN_1
 62
     2
  6
CONTINUOUS
 10
-0.367736
 20
2.283760
  0
VERTEX
  8
PLAN_1
 62
     2
  6
CONTINUOUS
 10
-0.367736
 20
2.281264
  0
VERTEX
  8
PLAN_1
 62
     2
  6
CONTINUOUS
 10
-0.367736
 20
2.280846
  0
VERTEX
  8
PLAN_1
 62
     2
  6
CONTINUOUS
 10
-0.367736
 20
2.280433
  0
VERTEX
  8
PLAN_1
 62
     2
  6
CONTINUOUS
 10
-0.367736
 20
2.279598
  0
VERTEX
  8
PLAN_1
 62
     2
  6
CONTINUOUS
 10
-0.367736
 20
2.279185
  0
VERTEX
  8
PLAN_1
 62
     2
  6
CONTINUOUS
 10
-0.367736
 20
2.278768
  0
VERTEX
  8
PLAN_1
 62
     2
  6
CONTINUOUS
 10
-0.367736
 20
2.278350
  0
VERTEX
  8
PLAN_1
 62
     2
  6
CONTINUOUS
 10
-0.367736
 20
2.277520
  0
VERTEX
  8
PLAN_1
 62
     2
  6
CONTINUOUS
 10
-0.367736
 20
2.277102
  0
VERTEX
  8
PLAN_1
 62
     2
  6
CONTINUOUS
 10
-0.375642
 20
2.277102
  0
SEQEND
  8
0
  0
POLYLINE
  8
PLAN_1
 62
     2
  6
CONTINUOUS
 66
     1
 40
0.003000
 41
0.003000
  0
VERTEX
  8
PLAN_1
 62
     2
  6
CONTINUOUS
 10
-0.387705
 20
2.355311
  0
VERTEX
  8
PLAN_1
 62
     2
  6
CONTINUOUS
 10
-0.390201
 20
2.354480
  0
VERTEX
  8
PLAN_1
 62
     2
  6
CONTINUOUS
 10
-0.392280
 20
2.353650
  0
VERTEX
  8
PLAN_1
 62
     2
  6
CONTINUOUS
 10
-0.394358
 20
2.352815
  0
VERTEX
  8
PLAN_1
 62
     2
  6
CONTINUOUS
 10
-0.396024
 20
2.351567
  0
VERTEX
  8
PLAN_1
 62
     2
  6
CONTINUOUS
 10
-0.397272
 20
2.349906
  0
VERTEX
  8
PLAN_1
 62
     2
  6
CONTINUOUS
 10
-0.398102
 20
2.347823
  0
VERTEX
  8
PLAN_1
 62
     2
  6
CONTINUOUS
 10
-0.398937
 20
2.345327
  0
VERTEX
  8
PLAN_1
 62
     2
  6
CONTINUOUS
 10
-0.398937
 20
2.342417
  0
VERTEX
  8
PLAN_1
 62
     2
  6
CONTINUOUS
 10
-0.398937
 20
2.339921
  0
VERTEX
  8
PLAN_1
 62
     2
  6
CONTINUOUS
 10
-0.398102
 20
2.337839
  0
VERTEX
  8
PLAN_1
 62
     2
  6
CONTINUOUS
 10
-0.397272
 20
2.335760
  0
VERTEX
  8
PLAN_1
 62
     2
  6
CONTINUOUS
 10
-0.396024
 20
2.333681
  0
VERTEX
  8
PLAN_1
 62
     2
  6
CONTINUOUS
 10
-0.394358
 20
2.332016
  0
VERTEX
  8
PLAN_1
 62
     2
  6
CONTINUOUS
 10
-0.392697
 20
2.330768
  0
VERTEX
  8
PLAN_1
 62
     2
  6
CONTINUOUS
 10
-0.390614
 20
2.329520
  0
VERTEX
  8
PLAN_1
 62
     2
  6
CONTINUOUS
 10
-0.388535
 20
2.328689
  0
VERTEX
  8
PLAN_1
 62
     2
  6
CONTINUOUS
 10
-0.383961
 20
2.327024
  0
VERTEX
  8
PLAN_1
 62
     2
  6
CONTINUOUS
 10
-0.379386
 20
2.325776
  0
VERTEX
  8
PLAN_1
 62
     2
  6
CONTINUOUS
 10
-0.375224
 20
2.325358
  0
VERTEX
  8
PLAN_1
 62
     2
  6
CONTINUOUS
 10
-0.371898
 20
2.325358
  0
VERTEX
  8
PLAN_1
 62
     2
  6
CONTINUOUS
 10
-0.373146
 20
2.326606
  0
VERTEX
  8
PLAN_1
 62
     2
  6
CONTINUOUS
 10
-0.374807
 20
2.327854
  0
VERTEX
  8
PLAN_1
 62
     2
  6
CONTINUOUS
 10
-0.376472
 20
2.329102
  0
VERTEX
  8
PLAN_1
 62
     2
  6
CONTINUOUS
 10
-0.377720
 20
2.331185
  0
VERTEX
  8
PLAN_1
 62
     2
  6
CONTINUOUS
 10
-0.378969
 20
2.333681
  0
VERTEX
  8
PLAN_1
 62
     2
  6
CONTINUOUS
 10
-0.379799
 20
2.336177
  0
VERTEX
  8
PLAN_1
 62
     2
  6
CONTINUOUS
 10
-0.380634
 20
2.339087
  0
VERTEX
  8
PLAN_1
 62
     2
  6
CONTINUOUS
 10
-0.380634
 20
2.342831
  0
VERTEX
  8
PLAN_1
 62
     2
  6
CONTINUOUS
 10
-0.380634
 20
2.346161
  0
VERTEX
  8
PLAN_1
 62
     2
  6
CONTINUOUS
 10
-0.379386
 20
2.350319
  0
VERTEX
  8
PLAN_1
 62
     2
  6
CONTINUOUS
 10
-0.378138
 20
2.354063
  0
VERTEX
  8
PLAN_1
 62
     2
  6
CONTINUOUS
 10
-0.375642
 20
2.357394
  0
VERTEX
  8
PLAN_1
 62
     2
  6
CONTINUOUS
 10
-0.374394
 20
2.359055
  0
VERTEX
  8
PLAN_1
 62
     2
  6
CONTINUOUS
 10
-0.372728
 20
2.360720
  0
VERTEX
  8
PLAN_1
 62
     2
  6
CONTINUOUS
 10
-0.370650
 20
2.362386
  0
VERTEX
  8
PLAN_1
 62
     2
  6
CONTINUOUS
 10
-0.368567
 20
2.363217
  0
VERTEX
  8
PLAN_1
 62
     2
  6
CONTINUOUS
 10
-0.366071
 20
2.364465
  0
VERTEX
  8
PLAN_1
 62
     2
  6
CONTINUOUS
 10
-0.363575
 20
2.364882
  0
VERTEX
  8
PLAN_1
 62
     2
  6
CONTINUOUS
 10
-0.360665
 20
2.365713
  0
VERTEX
  8
PLAN_1
 62
     2
  6
CONTINUOUS
 10
-0.357335
 20
2.365713
  0
VERTEX
  8
PLAN_1
 62
     2
  6
CONTINUOUS
 10
-0.354839
 20
2.365713
  0
VERTEX
  8
PLAN_1
 62
     2
  6
CONTINUOUS
 10
-0.352343
 20
2.365295
  0
VERTEX
  8
PLAN_1
 62
     2
  6
CONTINUOUS
 10
-0.349846
 20
2.364882
  0
VERTEX
  8
PLAN_1
 62
     2
  6
CONTINUOUS
 10
-0.347768
 20
2.364047
  0
VERTEX
  8
PLAN_1
 62
     2
  6
CONTINUOUS
 10
-0.345272
 20
2.363217
  0
VERTEX
  8
PLAN_1
 62
     2
  6
CONTINUOUS
 10
-0.343193
 20
2.361969
  0
VERTEX
  8
PLAN_1
 62
     2
  6
CONTINUOUS
 10
-0.341110
 20
2.360303
  0
VERTEX
  8
PLAN_1
 62
     2
  6
CONTINUOUS
 10
-0.339031
 20
2.358642
  0
VERTEX
  8
PLAN_1
 62
     2
  6
CONTINUOUS
 10
-0.337783
 20
2.357394
  0
VERTEX
  8
PLAN_1
 62
     2
  6
CONTINUOUS
 10
-0.336118
 20
2.355728
  0
VERTEX
  8
PLAN_1
 62
     2
  6
CONTINUOUS
 10
-0.335287
 20
2.354063
  0
VERTEX
  8
PLAN_1
 62
     2
  6
CONTINUOUS
 10
-0.334039
 20
2.351984
  0
VERTEX
  8
PLAN_1
 62
     2
  6
CONTINUOUS
 10
-0.333209
 20
2.349488
  0
VERTEX
  8
PLAN_1
 62
     2
  6
CONTINUOUS
 10
-0.332791
 20
2.346992
  0
VERTEX
  8
PLAN_1
 62
     2
  6
CONTINUOUS
 10
-0.332374
 20
2.343665
  0
VERTEX
  8
PLAN_1
 62
     2
  6
CONTINUOUS
 10
-0.331961
 20
2.340335
  0
VERTEX
  8
PLAN_1
 62
     2
  6
CONTINUOUS
 10
-0.332374
 20
2.337839
  0
VERTEX
  8
PLAN_1
 62
     2
  6
CONTINUOUS
 10
-0.332791
 20
2.335760
  0
VERTEX
  8
PLAN_1
 62
     2
  6
CONTINUOUS
 10
-0.333209
 20
2.333264
  0
VERTEX
  8
PLAN_1
 62
     2
  6
CONTINUOUS
 10
-0.334457
 20
2.330768
  0
VERTEX
  8
PLAN_1
 62
     2
  6
CONTINUOUS
 10
-0.335705
 20
2.328272
  0
VERTEX
  8
PLAN_1
 62
     2
  6
CONTINUOUS
 10
-0.337783
 20
2.325776
  0
VERTEX
  8
PLAN_1
 62
     2
  6
CONTINUOUS
 10
-0.339862
 20
2.323280
  0
VERTEX
  8
PLAN_1
 62
     2
  6
CONTINUOUS
 10
-0.342776
 20
2.321201
  0
VERTEX
  8
PLAN_1
 62
     2
  6
CONTINUOUS
 10
-0.345272
 20
2.319953
  0
VERTEX
  8
PLAN_1
 62
     2
  6
CONTINUOUS
 10
-0.348185
 20
2.318705
  0
VERTEX
  8
PLAN_1
 62
     2
  6
CONTINUOUS
 10
-0.351094
 20
2.317870
  0
VERTEX
  8
PLAN_1
 62
     2
  6
CONTINUOUS
 10
-0.354425
 20
2.317039
  0
VERTEX
  8
PLAN_1
 62
     2
  6
CONTINUOUS
 10
-0.357752
 20
2.316209
  0
VERTEX
  8
PLAN_1
 62
     2
  6
CONTINUOUS
 10
-0.361079
 20
2.316209
  0
VERTEX
  8
PLAN_1
 62
     2
  6
CONTINUOUS
 10
-0.364409
 20
2.315791
  0
VERTEX
  8
PLAN_1
 62
     2
  6
CONTINUOUS
 10
-0.368154
 20
2.315791
  0
VERTEX
  8
PLAN_1
 62
     2
  6
CONTINUOUS
 10
-0.374394
 20
2.316209
  0
VERTEX
  8
PLAN_1
 62
     2
  6
CONTINUOUS
 10
-0.381047
 20
2.317039
  0
VERTEX
  8
PLAN_1
 62
     2
  6
CONTINUOUS
 10
-0.384374
 20
2.317457
  0
VERTEX
  8
PLAN_1
 62
     2
  6
CONTINUOUS
 10
-0.387705
 20
2.318705
  0
VERTEX
  8
PLAN_1
 62
     2
  6
CONTINUOUS
 10
-0.390614
 20
2.319535
  0
VERTEX
  8
PLAN_1
 62
     2
  6
CONTINUOUS
 10
-0.393528
 20
2.321201
  0
VERTEX
  8
PLAN_1
 62
     2
  6
CONTINUOUS
 10
-0.396441
 20
2.322862
  0
VERTEX
  8
PLAN_1
 62
     2
  6
CONTINUOUS
 10
-0.398937
 20
2.324528
  0
VERTEX
  8
PLAN_1
 62
     2
  6
CONTINUOUS
 10
-0.401433
 20
2.327024
  0
VERTEX
  8
PLAN_1
 62
     2
  6
CONTINUOUS
 10
-0.403512
 20
2.329520
  0
VERTEX
  8
PLAN_1
 62
     2
  6
CONTINUOUS
 10
-0.405177
 20
2.332016
  0
VERTEX
  8
PLAN_1
 62
     2
  6
CONTINUOUS
 10
-0.406425
 20
2.335343
  0
VERTEX
  8
PLAN_1
 62
     2
  6
CONTINUOUS
 10
-0.406839
 20
2.339087
  0
VERTEX
  8
PLAN_1
 62
     2
  6
CONTINUOUS
 10
-0.407256
 20
2.342831
  0
VERTEX
  8
PLAN_1
 62
     2
  6
CONTINUOUS
 10
-0.406839
 20
2.346161
  0
VERTEX
  8
PLAN_1
 62
     2
  6
CONTINUOUS
 10
-0.406425
 20
2.349488
  0
VERTEX
  8
PLAN_1
 62
     2
  6
CONTINUOUS
 10
-0.405177
 20
2.352815
  0
VERTEX
  8
PLAN_1
 62
     2
  6
CONTINUOUS
 10
-0.403094
 20
2.356146
  0
VERTEX
  8
PLAN_1
 62
     2
  6
CONTINUOUS
 10
-0.401846
 20
2.357807
  0
VERTEX
  8
PLAN_1
 62
     2
  6
CONTINUOUS
 10
-0.400598
 20
2.359055
  0
VERTEX
  8
PLAN_1
 62
     2
  6
CONTINUOUS
 10
-0.398937
 20
2.360303
  0
VERTEX
  8
PLAN_1
 62
     2
  6
CONTINUOUS
 10
-0.397272
 20
2.361551
  0
VERTEX
  8
PLAN_1
 62
     2
  6
CONTINUOUS
 10
-0.395193
 20
2.362386
  0
VERTEX
  8
PLAN_1
 62
     2
  6
CONTINUOUS
 10
-0.392697
 20
2.363217
  0
VERTEX
  8
PLAN_1
 62
     2
  6
CONTINUOUS
 10
-0.390614
 20
2.363634
  0
VERTEX
  8
PLAN_1
 62
     2
  6
CONTINUOUS
 10
-0.387705
 20
2.364047
  0
VERTEX
  8
PLAN_1
 62
     2
  6
CONTINUOUS
 10
-0.387705
 20
2.355311
  0
SEQEND
  8
0
  0
POLYLINE
  8
PLAN_1
 62
     2
  6
CONTINUOUS
 66
     1
 40
0.003000
 41
0.003000
  0
VERTEX
  8
PLAN_1
 62
     2
  6
CONTINUOUS
 10
-0.340280
 20
2.342000
  0
VERTEX
  8
PLAN_1
 62
     2
  6
CONTINUOUS
 10
-0.340697
 20
2.344913
  0
VERTEX
  8
PLAN_1
 62
     2
  6
CONTINUOUS
 10
-0.341528
 20
2.347823
  0
VERTEX
  8
PLAN_1
 62
     2
  6
CONTINUOUS
 10
-0.343193
 20
2.350319
  0
VERTEX
  8
PLAN_1
 62
     2
  6
CONTINUOUS
 10
-0.344854
 20
2.352402
  0
VERTEX
  8
PLAN_1
 62
     2
  6
CONTINUOUS
 10
-0.347350
 20
2.354063
  0
VERTEX
  8
PLAN_1
 62
     2
  6
CONTINUOUS
 10
-0.350264
 20
2.355311
  0
VERTEX
  8
PLAN_1
 62
     2
  6
CONTINUOUS
 10
-0.353591
 20
2.356146
  0
VERTEX
  8
PLAN_1
 62
     2
  6
CONTINUOUS
 10
-0.356921
 20
2.356146
  0
VERTEX
  8
PLAN_1
 62
     2
  6
CONTINUOUS
 10
-0.359417
 20
2.356146
  0
VERTEX
  8
PLAN_1
 62
     2
  6
CONTINUOUS
 10
-0.362327
 20
2.355311
  0
VERTEX
  8
PLAN_1
 62
     2
  6
CONTINUOUS
 10
-0.364823
 20
2.354480
  0
VERTEX
  8
PLAN_1
 62
     2
  6
CONTINUOUS
 10
-0.367319
 20
2.353232
  0
VERTEX
  8
PLAN_1
 62
     2
  6
CONTINUOUS
 10
-0.369402
 20
2.351154
  0
VERTEX
  8
PLAN_1
 62
     2
  6
CONTINUOUS
 10
-0.371063
 20
2.348657
  0
VERTEX
  8
PLAN_1
 62
     2
  6
CONTINUOUS
 10
-0.371898
 20
2.345327
  0
VERTEX
  8
PLAN_1
 62
     2
  6
CONTINUOUS
 10
-0.372311
 20
2.341583
  0
VERTEX
  8
PLAN_1
 62
     2
  6
CONTINUOUS
 10
-0.372311
 20
2.337839
  0
VERTEX
  8
PLAN_1
 62
     2
  6
CONTINUOUS
 10
-0.371063
 20
2.334929
  0
VERTEX
  8
PLAN_1
 62
     2
  6
CONTINUOUS
 10
-0.369815
 20
2.332433
  0
VERTEX
  8
PLAN_1
 62
     2
  6
CONTINUOUS
 10
-0.367736
 20
2.330350
  0
VERTEX
  8
PLAN_1
 62
     2
  6
CONTINUOUS
 10
-0.365240
 20
2.328689
  0
VERTEX
  8
PLAN_1
 62
     2
  6
CONTINUOUS
 10
-0.362744
 20
2.327441
  0
VERTEX
  8
PLAN_1
 62
     2
  6
CONTINUOUS
 10
-0.359831
 20
2.326606
  0
VERTEX
  8
PLAN_1
 62
     2
  6
CONTINUOUS
 10
-0.356504
 20
2.326606
  0
VERTEX
  8
PLAN_1
 62
     2
  6
CONTINUOUS
 10
-0.353591
 20
2.326606
  0
VERTEX
  8
PLAN_1
 62
     2
  6
CONTINUOUS
 10
-0.350681
 20
2.327441
  0
VERTEX
  8
PLAN_1
 62
     2
  6
CONTINUOUS
 10
-0.348185
 20
2.328689
  0
VERTEX
  8
PLAN_1
 62
     2
  6
CONTINUOUS
 10
-0.345689
 20
2.330350
  0
VERTEX
  8
PLAN_1
 62
     2
  6
CONTINUOUS
 10
-0.343606
 20
2.332433
  0
VERTEX
  8
PLAN_1
 62
     2
  6
CONTINUOUS
 10
-0.341945
 20
2.334929
  0
VERTEX
  8
PLAN_1
 62
     2
  6
CONTINUOUS
 10
-0.340697
 20
2.338256
  0
VERTEX
  8
PLAN_1
 62
     2
  6
CONTINUOUS
 10
-0.340280
 20
2.342000
  0
SEQEND
  8
0
  0
POLYLINE
  8
PLAN_1
 62
     2
  6
CONTINUOUS
 66
     1
 40
0.003000
 41
0.003000
  0
VERTEX
  8
PLAN_1
 62
     2
  6
CONTINUOUS
 10
-0.334039
 20
2.378606
  0
VERTEX
  8
PLAN_1
 62
     2
  6
CONTINUOUS
 10
-0.334039
 20
2.384433
  0
VERTEX
  8
PLAN_1
 62
     2
  6
CONTINUOUS
 10
-0.332374
 20
2.384016
  0
VERTEX
  8
PLAN_1
 62
     2
  6
CONTINUOUS
 10
-0.330295
 20
2.384016
  0
VERTEX
  8
PLAN_1
 62
     2
  6
CONTINUOUS
 10
-0.328634
 20
2.383598
  0
VERTEX
  8
PLAN_1
 62
     2
  6
CONTINUOUS
 10
-0.327386
 20
2.383185
  0
VERTEX
  8
PLAN_1
 62
     2
  6
CONTINUOUS
 10
-0.325720
 20
2.382350
  0
VERTEX
  8
PLAN_1
 62
     2
  6
CONTINUOUS
 10
-0.324890
 20
2.381520
  0
VERTEX
  8
PLAN_1
 62
     2
  6
CONTINUOUS
 10
-0.324055
 20
2.380272
  0
VERTEX
  8
PLAN_1
 62
     2
  6
CONTINUOUS
 10
-0.323642
 20
2.378606
  0
VERTEX
  8
PLAN_1
 62
     2
  6
CONTINUOUS
 10
-0.318650
 20
2.378606
  0
VERTEX
  8
PLAN_1
 62
     2
  6
CONTINUOUS
 10
-0.319063
 20
2.379854
  0
VERTEX
  8
PLAN_1
 62
     2
  6
CONTINUOUS
 10
-0.319480
 20
2.381102
  0
VERTEX
  8
PLAN_1
 62
     2
  6
CONTINUOUS
 10
-0.320311
 20
2.383185
  0
VERTEX
  8
PLAN_1
 62
     2
  6
CONTINUOUS
 10
-0.321559
 20
2.384846
  0
VERTEX
  8
PLAN_1
 62
     2
  6
CONTINUOUS
 10
-0.323642
 20
2.386512
  0
VERTEX
  8
PLAN_1
 62
     2
  6
CONTINUOUS
 10
-0.326551
 20
2.388177
  0
VERTEX
  8
PLAN_1
 62
     2
  6
CONTINUOUS
 10
-0.330295
 20
2.389008
  0
VERTEX
  8
PLAN_1
 62
     2
  6
CONTINUOUS
 10
-0.334870
 20
2.389425
  0
VERTEX
  8
PLAN_1
 62
     2
  6
CONTINUOUS
 10
-0.345272
 20
2.389425
  0
VERTEX
  8
PLAN_1
 62
     2
  6
CONTINUOUS
 10
-0.345272
 20
2.378606
  0
VERTEX
  8
PLAN_1
 62
     2
  6
CONTINUOUS
 10
-0.334039
 20
2.378606
  0
SEQEND
  8
0
  0
POLYLINE
  8
PLAN_1
 62
     2
  6
CONTINUOUS
 66
     1
 40
0.003000
 41
0.003000
  0
VERTEX
  8
PLAN_1
 62
     2
  6
CONTINUOUS
 10
-0.376472
 20
2.413969
  0
VERTEX
  8
PLAN_1
 62
     2
  6
CONTINUOUS
 10
-0.377720
 20
2.415217
  0
VERTEX
  8
PLAN_1
 62
     2
  6
CONTINUOUS
 10
-0.378551
 20
2.416465
  0
VERTEX
  8
PLAN_1
 62
     2
  6
CONTINUOUS
 10
-0.378969
 20
2.418130
  0
VERTEX
  8
PLAN_1
 62
     2
  6
CONTINUOUS
 10
-0.379799
 20
2.419791
  0
VERTEX
  8
PLAN_1
 62
     2
  6
CONTINUOUS
 10
-0.380217
 20
2.421457
  0
VERTEX
  8
PLAN_1
 62
     2
  6
CONTINUOUS
 10
-0.381047
 20
2.423535
  0
VERTEX
  8
PLAN_1
 62
     2
  6
CONTINUOUS
 10
-0.381047
 20
2.425614
  0
VERTEX
  8
PLAN_1
 62
     2
  6
CONTINUOUS
 10
-0.381047
 20
2.428110
  0
VERTEX
  8
PLAN_1
 62
     2
  6
CONTINUOUS
 10
-0.381047
 20
2.432689
  0
VERTEX
  8
PLAN_1
 62
     2
  6
CONTINUOUS
 10
-0.379799
 20
2.436846
  0
VERTEX
  8
PLAN_1
 62
     2
  6
CONTINUOUS
 10
-0.378969
 20
2.438929
  0
VERTEX
  8
PLAN_1
 62
     2
  6
CONTINUOUS
 10
-0.377720
 20
2.441008
  0
VERTEX
  8
PLAN_1
 62
     2
  6
CONTINUOUS
 10
-0.376472
 20
2.442673
  0
VERTEX
  8
PLAN_1
 62
     2
  6
CONTINUOUS
 10
-0.375224
 20
2.444335
  0
VERTEX
  8
PLAN_1
 62
     2
  6
CONTINUOUS
 10
-0.373559
 20
2.446000
  0
VERTEX
  8
PLAN_1
 62
     2
  6
CONTINUOUS
 10
-0.371898
 20
2.447665
  0
VERTEX
  8
PLAN_1
 62
     2
  6
CONTINUOUS
 10
-0.369815
 20
2.448913
  0
VERTEX
  8
PLAN_1
 62
     2
  6
CONTINUOUS
 10
-0.367736
 20
2.450161
  0
VERTEX
  8
PLAN_1
 62
     2
  6
CONTINUOUS
 10
-0.365657
 20
2.450992
  0
VERTEX
  8
PLAN_1
 62
     2
  6
CONTINUOUS
 10
-0.363161
 20
2.451409
  0
VERTEX
  8
PLAN_1
 62
     2
  6
CONTINUOUS
 10
-0.360665
 20
2.451823
  0
VERTEX
  8
PLAN_1
 62
     2
  6
CONTINUOUS
 10
-0.357752
 20
2.452240
  0
VERTEX
  8
PLAN_1
 62
     2
  6
CONTINUOUS
 10
-0.354425
 20
2.451823
  0
VERTEX
  8
PLAN_1
 62
     2
  6
CONTINUOUS
 10
-0.350264
 20
2.450992
  0
VERTEX
  8
PLAN_1
 62
     2
  6
CONTINUOUS
 10
-0.346102
 20
2.449744
  0
VERTEX
  8
PLAN_1
 62
     2
  6
CONTINUOUS
 10
-0.341945
 20
2.447248
  0
VERTEX
  8
PLAN_1
 62
     2
  6
CONTINUOUS
 10
-0.339862
 20
2.446000
  0
VERTEX
  8
PLAN_1
 62
     2
  6
CONTINUOUS
 10
-0.338201
 20
2.443921
  0
VERTEX
  8
PLAN_1
 62
     2
  6
CONTINUOUS
 10
-0.336535
 20
2.441839
  0
VERTEX
  8
PLAN_1
 62
     2
  6
CONTINUOUS
 10
-0.334870
 20
2.439343
  0
VERTEX
  8
PLAN_1
 62
     2
  6
CONTINUOUS
 10
-0.333622
 20
2.436433
  0
VERTEX
  8
PLAN_1
 62
     2
  6
CONTINUOUS
 10
-0.332791
 20
2.433102
  0
VERTEX
  8
PLAN_1
 62
     2
  6
CONTINUOUS
 10
-0.332374
 20
2.429776
  0
VERTEX
  8
PLAN_1
 62
     2
  6
CONTINUOUS
 10
-0.331961
 20
2.425614
  0
VERTEX
  8
PLAN_1
 62
     2
  6
CONTINUOUS
 10
-0.332374
 20
2.421870
  0
VERTEX
  8
PLAN_1
 62
     2
  6
CONTINUOUS
 10
-0.332791
 20
2.418130
  0
VERTEX
  8
PLAN_1
 62
     2
  6
CONTINUOUS
 10
-0.334039
 20
2.414386
  0
VERTEX
  8
PLAN_1
 62
     2
  6
CONTINUOUS
 10
-0.336118
 20
2.410642
  0
VERTEX
  8
PLAN_1
 62
     2
  6
CONTINUOUS
 10
-0.337366
 20
2.409394
  0
VERTEX
  8
PLAN_1
 62
     2
  6
CONTINUOUS
 10
-0.338614
 20
2.407728
  0
VERTEX
  8
PLAN_1
 62
     2
  6
CONTINUOUS
 10
-0.340280
 20
2.406480
  0
VERTEX
  8
PLAN_1
 62
     2
  6
CONTINUOUS
 10
-0.342358
 20
2.405232
  0
VERTEX
  8
PLAN_1
 62
     2
  6
CONTINUOUS
 10
-0.344441
 20
2.403984
  0
VERTEX
  8
PLAN_1
 62
     2
  6
CONTINUOUS
 10
-0.346937
 20
2.403154
  0
VERTEX
  8
PLAN_1
 62
     2
  6
CONTINUOUS
 10
-0.349433
 20
2.402319
  0
VERTEX
  8
PLAN_1
 62
     2
  6
CONTINUOUS
 10
-0.352343
 20
2.401906
  0
VERTEX
  8
PLAN_1
 62
     2
  6
CONTINUOUS
 10
-0.352343
 20
2.411472
  0
VERTEX
  8
PLAN_1
 62
     2
  6
CONTINUOUS
 10
-0.349433
 20
2.411890
  0
VERTEX
  8
PLAN_1
 62
     2
  6
CONTINUOUS
 10
-0.346937
 20
2.413138
  0
VERTEX
  8
PLAN_1
 62
     2
  6
CONTINUOUS
 10
-0.344854
 20
2.414386
  0
VERTEX
  8
PLAN_1
 62
     2
  6
CONTINUOUS
 10
-0.342776
 20
2.416465
  0
VERTEX
  8
PLAN_1
 62
     2
  6
CONTINUOUS
 10
-0.341528
 20
2.418543
  0
VERTEX
  8
PLAN_1
 62
     2
  6
CONTINUOUS
 10
-0.340697
 20
2.421039
  0
VERTEX
  8
PLAN_1
 62
     2
  6
CONTINUOUS
 10
-0.340280
 20
2.423953
  0
VERTEX
  8
PLAN_1
 62
     2
  6
CONTINUOUS
 10
-0.339862
 20
2.426862
  0
VERTEX
  8
PLAN_1
 62
     2
  6
CONTINUOUS
 10
-0.340280
 20
2.430193
  0
VERTEX
  8
PLAN_1
 62
     2
  6
CONTINUOUS
 10
-0.341528
 20
2.433520
  0
VERTEX
  8
PLAN_1
 62
     2
  6
CONTINUOUS
 10
-0.342776
 20
2.436016
  0
VERTEX
  8
PLAN_1
 62
     2
  6
CONTINUOUS
 10
-0.344854
 20
2.438094
  0
VERTEX
  8
PLAN_1
 62
     2
  6
CONTINUOUS
 10
-0.347350
 20
2.439760
  0
VERTEX
  8
PLAN_1
 62
     2
  6
CONTINUOUS
 10
-0.350264
 20
2.441425
  0
VERTEX
  8
PLAN_1
 62
     2
  6
CONTINUOUS
 10
-0.353591
 20
2.442256
  0
VERTEX
  8
PLAN_1
 62
     2
  6
CONTINUOUS
 10
-0.356921
 20
2.442256
  0
VERTEX
  8
PLAN_1
 62
     2
  6
CONTINUOUS
 10
-0.360665
 20
2.441839
  0
VERTEX
  8
PLAN_1
 62
     2
  6
CONTINUOUS
 10
-0.363575
 20
2.441008
  0
VERTEX
  8
PLAN_1
 62
     2
  6
CONTINUOUS
 10
-0.366488
 20
2.439760
  0
VERTEX
  8
PLAN_1
 62
     2
  6
CONTINUOUS
 10
-0.368984
 20
2.437681
  0
VERTEX
  8
PLAN_1
 62
     2
  6
CONTINUOUS
 10
-0.370650
 20
2.435185
  0
VERTEX
  8
PLAN_1
 62
     2
  6
CONTINUOUS
 10
-0.371898
 20
2.432272
  0
VERTEX
  8
PLAN_1
 62
     2
  6
CONTINUOUS
 10
-0.372728
 20
2.429358
  0
VERTEX
  8
PLAN_1
 62
     2
  6
CONTINUOUS
 10
-0.373146
 20
2.426031
  0
VERTEX
  8
PLAN_1
 62
     2
  6
CONTINUOUS
 10
-0.372728
 20
2.423953
  0
VERTEX
  8
PLAN_1
 62
     2
  6
CONTINUOUS
 10
-0.372728
 20
2.422287
  0
VERTEX
  8
PLAN_1
 62
     2
  6
CONTINUOUS
 10
-0.371898
 20
2.420209
  0
VERTEX
  8
PLAN_1
 62
     2
  6
CONTINUOUS
 10
-0.371063
 20
2.418543
  0
VERTEX
  8
PLAN_1
 62
     2
  6
CONTINUOUS
 10
-0.370232
 20
2.416882
  0
VERTEX
  8
PLAN_1
 62
     2
  6
CONTINUOUS
 10
-0.368984
 20
2.415217
  0
VERTEX
  8
PLAN_1
 62
     2
  6
CONTINUOUS
 10
-0.367736
 20
2.413969
  0
VERTEX
  8
PLAN_1
 62
     2
  6
CONTINUOUS
 10
-0.366071
 20
2.412720
  0
VERTEX
  8
PLAN_1
 62
     2
  6
CONTINUOUS
 10
-0.366488
 20
2.404815
  0
VERTEX
  8
PLAN_1
 62
     2
  6
CONTINUOUS
 10
-0.405591
 20
2.410224
  0
VERTEX
  8
PLAN_1
 62
     2
  6
CONTINUOUS
 10
-0.405591
 20
2.448079
  0
VERTEX
  8
PLAN_1
 62
     2
  6
CONTINUOUS
 10
-0.396854
 20
2.448079
  0
VERTEX
  8
PLAN_1
 62
     2
  6
CONTINUOUS
 10
-0.396854
 20
2.416882
  0
VERTEX
  8
PLAN_1
 62
     2
  6
CONTINUOUS
 10
-0.376472
 20
2.413969
  0
SEQEND
  8
0
  0
ENDSEC
  0
EOF
