  0
SECTION
  2
HEADER
  9
$ACADVER
  1
AC1006
  9
$EXTMIN
 10
-2.153248
 20
-3.936244
  9
$EXTMAX
 10
2.150000
 20
3.933000
  9
$LTSCALE
 40
0.000394
  9
$PDMODE
 70
    35
  9
$PDSIZE
 40
0.000315
  0
ENDSEC
  0
SECTION
  2
TABLES
  0
TABLE
  2
LTYPE
 70
     9
  0
LTYPE
  2
CONTINUOUS
 70
    64
  3
Solid line
 72
    65
 73
     0
 40
0.000000
  0
LTYPE
  2
DASHED
 70
    64
  3
__ __ __ __ __ __ __ __ __ __ __ __ __ __ __
 72
    65
 73
     2
 40
0.000003
 49
0.000002
 49
-0.000001
  0
LTYPE
  2
HIDDEN
 70
    64
  3
 _ _ _ _ _ _ _ _ _ _ _ _ _ _ _ _ _ _ _ _ _ _
 72
    65
 73
     2
 40
0.000001
 49
0.000001
 49
-0.000000
  0
LTYPE
  2
CENTER
 70
    64
  3
____ _ ____ _ ____ _ ____ _ ____ _ ____ _ ____
 72
    65
 73
     4
 40
0.000008
 49
0.000005
 49
-0.000001
 49
0.000001
 49
-0.000001
  0
LTYPE
  2
PHANTOM
 70
    64
  3
_____ _ _ _____ _ _ _____ _ _ _____ _ _ ____
 72
    65
 73
     6
 40
0.000010
 49
0.000005
 49
-0.000001
 49
0.000001
 49
-0.000001
 49
0.000001
 49
-0.000001
  0
LTYPE
  2
DOT
 70
    64
  3
...............................................
 72
    65
 73
     2
 40
0.000001
 49
0.000000
 49
-0.000001
  0
LTYPE
  2
DASHDOT
 70
    64
  3
__ . __ . __ . __ . __ . __ . __ . __ . __ . __
 72
    65
 73
     4
 40
0.000004
 49
0.000002
 49
-0.000001
 49
0.000000
 49
-0.000001
  0
LTYPE
  2
BORDER
 70
    64
  3
__ __ . __ __ . __ __ . __ __ . __ __ . __ __
 72
    65
 73
     6
 40
0.000007
 49
0.000002
 49
-0.000001
 49
0.000002
 49
-0.000001
 49
0.000000
 49
-0.000001
  0
LTYPE
  2
DIVIDE
 70
    64
  3
__ . . __ . . __ . . __ . . __ . . __ . . __
 72
    65
 73
     6
 40
0.000005
 49
0.000002
 49
-0.000001
 49
0.000000
 49
-0.000001
 49
0.000000
 49
-0.000001
  0
LTYPE
  2
DOTDOT
 70
    64
  3
 . .  . .  . .  . .  . .  . . 
 72
    65
 73
     5
 40
0.000002
 49
-0.000001
 49
0.000000
 49
-0.000001
 49
0.000000
 49
-0.000001
  0
ENDTAB
  0
TABLE
  2
STYLE
 70
     0
  0
ENDTAB
  0
TABLE
  2
LAYER
 70
     3
  0
LAYER
  2
FOREGROUND
 70
    64
 62
     7
  6
CONTINUOUS
  0
LAYER
  2
BACKGROUND
 70
    65
 62
    -7
  6
CONTINUOUS
  0
LAYER
  2
PLAN_1
 70
    64
 62
     7
  6
CONTINUOUS
  0
ENDTAB
  0
ENDSEC
  0
SECTION
  2
ENTITIES
  0
POLYLINE
  8
PLAN_1
  6
CONTINUOUS
 66
     1
 40
0.003000
 41
0.003000
  0
VERTEX
  8
PLAN_1
  6
CONTINUOUS
 10
0.288925
 20
-3.901323
  0
VERTEX
  8
PLAN_1
  6
CONTINUOUS
 10
0.132524
 20
-3.901323
  0
VERTEX
  8
PLAN_1
  6
CONTINUOUS
 10
0.132524
 20
-3.879189
  0
VERTEX
  8
PLAN_1
  6
CONTINUOUS
 10
0.254496
 20
-3.726232
  0
VERTEX
  8
PLAN_1
  6
CONTINUOUS
 10
0.141374
 20
-3.726232
  0
VERTEX
  8
PLAN_1
  6
CONTINUOUS
 10
0.141374
 20
-3.702134
  0
VERTEX
  8
PLAN_1
  6
CONTINUOUS
 10
0.288925
 20
-3.702134
  0
VERTEX
  8
PLAN_1
  6
CONTINUOUS
 10
0.288925
 20
-3.725740
  0
VERTEX
  8
PLAN_1
  6
CONTINUOUS
 10
0.166461
 20
-3.877717
  0
VERTEX
  8
PLAN_1
  6
CONTINUOUS
 10
0.288925
 20
-3.877717
  0
VERTEX
  8
PLAN_1
  6
CONTINUOUS
 10
0.288925
 20
-3.901323
  0
SEQEND
  8
0
  0
POLYLINE
  8
PLAN_1
  6
CONTINUOUS
 66
     1
 40
0.003000
 41
0.003000
  0
VERTEX
  8
PLAN_1
  6
CONTINUOUS
 10
0.456638
 20
-3.762134
  0
VERTEX
  8
PLAN_1
  6
CONTINUOUS
 10
0.455161
 20
-3.755740
  0
VERTEX
  8
PLAN_1
  6
CONTINUOUS
 10
0.452705
 20
-3.750331
  0
VERTEX
  8
PLAN_1
  6
CONTINUOUS
 10
0.450244
 20
-3.745413
  0
VERTEX
  8
PLAN_1
  6
CONTINUOUS
 10
0.447291
 20
-3.740988
  0
VERTEX
  8
PLAN_1
  6
CONTINUOUS
 10
0.444343
 20
-3.737051
  0
VERTEX
  8
PLAN_1
  6
CONTINUOUS
 10
0.440898
 20
-3.733610
  0
VERTEX
  8
PLAN_1
  6
CONTINUOUS
 10
0.436965
 20
-3.730657
  0
VERTEX
  8
PLAN_1
  6
CONTINUOUS
 10
0.433031
 20
-3.728201
  0
VERTEX
  8
PLAN_1
  6
CONTINUOUS
 10
0.429094
 20
-3.726232
  0
VERTEX
  8
PLAN_1
  6
CONTINUOUS
 10
0.424669
 20
-3.724756
  0
VERTEX
  8
PLAN_1
  6
CONTINUOUS
 10
0.420732
 20
-3.723280
  0
VERTEX
  8
PLAN_1
  6
CONTINUOUS
 10
0.416307
 20
-3.722295
  0
VERTEX
  8
PLAN_1
  6
CONTINUOUS
 10
0.408437
 20
-3.721315
  0
VERTEX
  8
PLAN_1
  6
CONTINUOUS
 10
0.400571
 20
-3.720823
  0
VERTEX
  8
PLAN_1
  6
CONTINUOUS
 10
0.394177
 20
-3.721315
  0
VERTEX
  8
PLAN_1
  6
CONTINUOUS
 10
0.387783
 20
-3.722295
  0
VERTEX
  8
PLAN_1
  6
CONTINUOUS
 10
0.381390
 20
-3.723772
  0
VERTEX
  8
PLAN_1
  6
CONTINUOUS
 10
0.375484
 20
-3.725740
  0
VERTEX
  8
PLAN_1
  6
CONTINUOUS
 10
0.369583
 20
-3.728689
  0
VERTEX
  8
PLAN_1
  6
CONTINUOUS
 10
0.364173
 20
-3.732134
  0
VERTEX
  8
PLAN_1
  6
CONTINUOUS
 10
0.359256
 20
-3.736067
  0
VERTEX
  8
PLAN_1
  6
CONTINUOUS
 10
0.354831
 20
-3.740988
  0
VERTEX
  8
PLAN_1
  6
CONTINUOUS
 10
0.350402
 20
-3.745906
  0
VERTEX
  8
PLAN_1
  6
CONTINUOUS
 10
0.346469
 20
-3.751807
  0
VERTEX
  8
PLAN_1
  6
CONTINUOUS
 10
0.343516
 20
-3.758201
  0
VERTEX
  8
PLAN_1
  6
CONTINUOUS
 10
0.340567
 20
-3.765579
  0
VERTEX
  8
PLAN_1
  6
CONTINUOUS
 10
0.338598
 20
-3.772957
  0
VERTEX
  8
PLAN_1
  6
CONTINUOUS
 10
0.337122
 20
-3.781315
  0
VERTEX
  8
PLAN_1
  6
CONTINUOUS
 10
0.336138
 20
-3.790661
  0
VERTEX
  8
PLAN_1
  6
CONTINUOUS
 10
0.335650
 20
-3.800008
  0
VERTEX
  8
PLAN_1
  6
CONTINUOUS
 10
0.335650
 20
-3.808858
  0
VERTEX
  8
PLAN_1
  6
CONTINUOUS
 10
0.336138
 20
-3.817220
  0
VERTEX
  8
PLAN_1
  6
CONTINUOUS
 10
0.337614
 20
-3.825091
  0
VERTEX
  8
PLAN_1
  6
CONTINUOUS
 10
0.339091
 20
-3.832957
  0
VERTEX
  8
PLAN_1
  6
CONTINUOUS
 10
0.341059
 20
-3.839843
  0
VERTEX
  8
PLAN_1
  6
CONTINUOUS
 10
0.343516
 20
-3.846728
  0
VERTEX
  8
PLAN_1
  6
CONTINUOUS
 10
0.346469
 20
-3.853122
  0
VERTEX
  8
PLAN_1
  6
CONTINUOUS
 10
0.349909
 20
-3.859024
  0
VERTEX
  8
PLAN_1
  6
CONTINUOUS
 10
0.354339
 20
-3.864437
  0
VERTEX
  8
PLAN_1
  6
CONTINUOUS
 10
0.359256
 20
-3.868862
  0
VERTEX
  8
PLAN_1
  6
CONTINUOUS
 10
0.364173
 20
-3.873287
  0
VERTEX
  8
PLAN_1
  6
CONTINUOUS
 10
0.370567
 20
-3.876732
  0
VERTEX
  8
PLAN_1
  6
CONTINUOUS
 10
0.376961
 20
-3.879189
  0
VERTEX
  8
PLAN_1
  6
CONTINUOUS
 10
0.384831
 20
-3.881157
  0
VERTEX
  8
PLAN_1
  6
CONTINUOUS
 10
0.392701
 20
-3.882634
  0
VERTEX
  8
PLAN_1
  6
CONTINUOUS
 10
0.401551
 20
-3.883126
  0
VERTEX
  8
PLAN_1
  6
CONTINUOUS
 10
0.404996
 20
-3.882634
  0
VERTEX
  8
PLAN_1
  6
CONTINUOUS
 10
0.408929
 20
-3.882634
  0
VERTEX
  8
PLAN_1
  6
CONTINUOUS
 10
0.412374
 20
-3.881650
  0
VERTEX
  8
PLAN_1
  6
CONTINUOUS
 10
0.416799
 20
-3.881157
  0
VERTEX
  8
PLAN_1
  6
CONTINUOUS
 10
0.420732
 20
-3.879681
  0
VERTEX
  8
PLAN_1
  6
CONTINUOUS
 10
0.424669
 20
-3.877717
  0
VERTEX
  8
PLAN_1
  6
CONTINUOUS
 10
0.429094
 20
-3.875748
  0
VERTEX
  8
PLAN_1
  6
CONTINUOUS
 10
0.433031
 20
-3.872795
  0
VERTEX
  8
PLAN_1
  6
CONTINUOUS
 10
0.437457
 20
-3.869846
  0
VERTEX
  8
PLAN_1
  6
CONTINUOUS
 10
0.440898
 20
-3.865909
  0
VERTEX
  8
PLAN_1
  6
CONTINUOUS
 10
0.444835
 20
-3.861484
  0
VERTEX
  8
PLAN_1
  6
CONTINUOUS
 10
0.448276
 20
-3.856567
  0
VERTEX
  8
PLAN_1
  6
CONTINUOUS
 10
0.451228
 20
-3.850665
  0
VERTEX
  8
PLAN_1
  6
CONTINUOUS
 10
0.454177
 20
-3.843780
  0
VERTEX
  8
PLAN_1
  6
CONTINUOUS
 10
0.456638
 20
-3.836402
  0
VERTEX
  8
PLAN_1
  6
CONTINUOUS
 10
0.458606
 20
-3.828039
  0
VERTEX
  8
PLAN_1
  6
CONTINUOUS
 10
0.484673
 20
-3.828039
  0
VERTEX
  8
PLAN_1
  6
CONTINUOUS
 10
0.483197
 20
-3.834925
  0
VERTEX
  8
PLAN_1
  6
CONTINUOUS
 10
0.482213
 20
-3.841319
  0
VERTEX
  8
PLAN_1
  6
CONTINUOUS
 10
0.480244
 20
-3.847713
  0
VERTEX
  8
PLAN_1
  6
CONTINUOUS
 10
0.478280
 20
-3.853122
  0
VERTEX
  8
PLAN_1
  6
CONTINUOUS
 10
0.476311
 20
-3.858531
  0
VERTEX
  8
PLAN_1
  6
CONTINUOUS
 10
0.473850
 20
-3.863453
  0
VERTEX
  8
PLAN_1
  6
CONTINUOUS
 10
0.471394
 20
-3.867878
  0
VERTEX
  8
PLAN_1
  6
CONTINUOUS
 10
0.468441
 20
-3.872303
  0
VERTEX
  8
PLAN_1
  6
CONTINUOUS
 10
0.465492
 20
-3.876240
  0
VERTEX
  8
PLAN_1
  6
CONTINUOUS
 10
0.462539
 20
-3.879681
  0
VERTEX
  8
PLAN_1
  6
CONTINUOUS
 10
0.459587
 20
-3.883126
  0
VERTEX
  8
PLAN_1
  6
CONTINUOUS
 10
0.456146
 20
-3.886075
  0
VERTEX
  8
PLAN_1
  6
CONTINUOUS
 10
0.449260
 20
-3.891484
  0
VERTEX
  8
PLAN_1
  6
CONTINUOUS
 10
0.442374
 20
-3.895913
  0
VERTEX
  8
PLAN_1
  6
CONTINUOUS
 10
0.435488
 20
-3.899354
  0
VERTEX
  8
PLAN_1
  6
CONTINUOUS
 10
0.428602
 20
-3.901815
  0
VERTEX
  8
PLAN_1
  6
CONTINUOUS
 10
0.422209
 20
-3.903783
  0
VERTEX
  8
PLAN_1
  6
CONTINUOUS
 10
0.415815
 20
-3.905256
  0
VERTEX
  8
PLAN_1
  6
CONTINUOUS
 10
0.404996
 20
-3.906732
  0
VERTEX
  8
PLAN_1
  6
CONTINUOUS
 10
0.397618
 20
-3.906732
  0
VERTEX
  8
PLAN_1
  6
CONTINUOUS
 10
0.388764
 20
-3.906240
  0
VERTEX
  8
PLAN_1
  6
CONTINUOUS
 10
0.380406
 20
-3.905256
  0
VERTEX
  8
PLAN_1
  6
CONTINUOUS
 10
0.372535
 20
-3.903783
  0
VERTEX
  8
PLAN_1
  6
CONTINUOUS
 10
0.364173
 20
-3.900831
  0
VERTEX
  8
PLAN_1
  6
CONTINUOUS
 10
0.356795
 20
-3.897878
  0
VERTEX
  8
PLAN_1
  6
CONTINUOUS
 10
0.349417
 20
-3.893453
  0
VERTEX
  8
PLAN_1
  6
CONTINUOUS
 10
0.342043
 20
-3.888535
  0
VERTEX
  8
PLAN_1
  6
CONTINUOUS
 10
0.335650
 20
-3.882634
  0
VERTEX
  8
PLAN_1
  6
CONTINUOUS
 10
0.332697
 20
-3.879189
  0
VERTEX
  8
PLAN_1
  6
CONTINUOUS
 10
0.329744
 20
-3.875748
  0
VERTEX
  8
PLAN_1
  6
CONTINUOUS
 10
0.326795
 20
-3.871811
  0
VERTEX
  8
PLAN_1
  6
CONTINUOUS
 10
0.324335
 20
-3.867878
  0
VERTEX
  8
PLAN_1
  6
CONTINUOUS
 10
0.321878
 20
-3.863945
  0
VERTEX
  8
PLAN_1
  6
CONTINUOUS
 10
0.319417
 20
-3.859516
  0
VERTEX
  8
PLAN_1
  6
CONTINUOUS
 10
0.317449
 20
-3.854598
  0
VERTEX
  8
PLAN_1
  6
CONTINUOUS
 10
0.315484
 20
-3.849681
  0
VERTEX
  8
PLAN_1
  6
CONTINUOUS
 10
0.313516
 20
-3.844272
  0
VERTEX
  8
PLAN_1
  6
CONTINUOUS
 10
0.312039
 20
-3.838862
  0
VERTEX
  8
PLAN_1
  6
CONTINUOUS
 10
0.311055
 20
-3.833449
  0
VERTEX
  8
PLAN_1
  6
CONTINUOUS
 10
0.309583
 20
-3.827547
  0
VERTEX
  8
PLAN_1
  6
CONTINUOUS
 10
0.309091
 20
-3.821154
  0
VERTEX
  8
PLAN_1
  6
CONTINUOUS
 10
0.308106
 20
-3.814760
  0
VERTEX
  8
PLAN_1
  6
CONTINUOUS
 10
0.308106
 20
-3.807874
  0
VERTEX
  8
PLAN_1
  6
CONTINUOUS
 10
0.307614
 20
-3.800988
  0
VERTEX
  8
PLAN_1
  6
CONTINUOUS
 10
0.308106
 20
-3.789677
  0
VERTEX
  8
PLAN_1
  6
CONTINUOUS
 10
0.309583
 20
-3.778858
  0
VERTEX
  8
PLAN_1
  6
CONTINUOUS
 10
0.311547
 20
-3.768528
  0
VERTEX
  8
PLAN_1
  6
CONTINUOUS
 10
0.314008
 20
-3.758693
  0
VERTEX
  8
PLAN_1
  6
CONTINUOUS
 10
0.317449
 20
-3.749346
  0
VERTEX
  8
PLAN_1
  6
CONTINUOUS
 10
0.321878
 20
-3.740988
  0
VERTEX
  8
PLAN_1
  6
CONTINUOUS
 10
0.326795
 20
-3.733118
  0
VERTEX
  8
PLAN_1
  6
CONTINUOUS
 10
0.332697
 20
-3.725740
  0
VERTEX
  8
PLAN_1
  6
CONTINUOUS
 10
0.335650
 20
-3.722787
  0
VERTEX
  8
PLAN_1
  6
CONTINUOUS
 10
0.339091
 20
-3.719346
  0
VERTEX
  8
PLAN_1
  6
CONTINUOUS
 10
0.342531
 20
-3.716394
  0
VERTEX
  8
PLAN_1
  6
CONTINUOUS
 10
0.345976
 20
-3.713445
  0
VERTEX
  8
PLAN_1
  6
CONTINUOUS
 10
0.349417
 20
-3.710984
  0
VERTEX
  8
PLAN_1
  6
CONTINUOUS
 10
0.353354
 20
-3.708528
  0
VERTEX
  8
PLAN_1
  6
CONTINUOUS
 10
0.357780
 20
-3.706559
  0
VERTEX
  8
PLAN_1
  6
CONTINUOUS
 10
0.361717
 20
-3.704591
  0
VERTEX
  8
PLAN_1
  6
CONTINUOUS
 10
0.366142
 20
-3.702626
  0
VERTEX
  8
PLAN_1
  6
CONTINUOUS
 10
0.370567
 20
-3.701150
  0
VERTEX
  8
PLAN_1
  6
CONTINUOUS
 10
0.375484
 20
-3.700165
  0
VERTEX
  8
PLAN_1
  6
CONTINUOUS
 10
0.379913
 20
-3.698689
  0
VERTEX
  8
PLAN_1
  6
CONTINUOUS
 10
0.385323
 20
-3.698197
  0
VERTEX
  8
PLAN_1
  6
CONTINUOUS
 10
0.390240
 20
-3.697705
  0
VERTEX
  8
PLAN_1
  6
CONTINUOUS
 10
0.395650
 20
-3.697213
  0
VERTEX
  8
PLAN_1
  6
CONTINUOUS
 10
0.400571
 20
-3.697213
  0
VERTEX
  8
PLAN_1
  6
CONTINUOUS
 10
0.409913
 20
-3.697213
  0
VERTEX
  8
PLAN_1
  6
CONTINUOUS
 10
0.418768
 20
-3.698197
  0
VERTEX
  8
PLAN_1
  6
CONTINUOUS
 10
0.427126
 20
-3.700165
  0
VERTEX
  8
PLAN_1
  6
CONTINUOUS
 10
0.434504
 20
-3.702626
  0
VERTEX
  8
PLAN_1
  6
CONTINUOUS
 10
0.441882
 20
-3.705575
  0
VERTEX
  8
PLAN_1
  6
CONTINUOUS
 10
0.448276
 20
-3.709020
  0
VERTEX
  8
PLAN_1
  6
CONTINUOUS
 10
0.454177
 20
-3.712953
  0
VERTEX
  8
PLAN_1
  6
CONTINUOUS
 10
0.459587
 20
-3.716886
  0
VERTEX
  8
PLAN_1
  6
CONTINUOUS
 10
0.464508
 20
-3.721807
  0
VERTEX
  8
PLAN_1
  6
CONTINUOUS
 10
0.468441
 20
-3.726724
  0
VERTEX
  8
PLAN_1
  6
CONTINUOUS
 10
0.472374
 20
-3.732134
  0
VERTEX
  8
PLAN_1
  6
CONTINUOUS
 10
0.475327
 20
-3.738035
  0
VERTEX
  8
PLAN_1
  6
CONTINUOUS
 10
0.478280
 20
-3.743937
  0
VERTEX
  8
PLAN_1
  6
CONTINUOUS
 10
0.480244
 20
-3.749839
  0
VERTEX
  8
PLAN_1
  6
CONTINUOUS
 10
0.481720
 20
-3.756232
  0
VERTEX
  8
PLAN_1
  6
CONTINUOUS
 10
0.482705
 20
-3.762134
  0
VERTEX
  8
PLAN_1
  6
CONTINUOUS
 10
0.456638
 20
-3.762134
  0
SEQEND
  8
0
  0
POLYLINE
  8
PLAN_1
  6
CONTINUOUS
 66
     1
 40
0.003000
 41
0.003000
  0
VERTEX
  8
PLAN_1
  6
CONTINUOUS
 10
0.544181
 20
-3.901323
  0
VERTEX
  8
PLAN_1
  6
CONTINUOUS
 10
0.517134
 20
-3.901323
  0
VERTEX
  8
PLAN_1
  6
CONTINUOUS
 10
0.517134
 20
-3.702134
  0
VERTEX
  8
PLAN_1
  6
CONTINUOUS
 10
0.544181
 20
-3.702134
  0
VERTEX
  8
PLAN_1
  6
CONTINUOUS
 10
0.544181
 20
-3.799024
  0
VERTEX
  8
PLAN_1
  6
CONTINUOUS
 10
0.640583
 20
-3.702134
  0
VERTEX
  8
PLAN_1
  6
CONTINUOUS
 10
0.677961
 20
-3.702134
  0
VERTEX
  8
PLAN_1
  6
CONTINUOUS
 10
0.594843
 20
-3.782791
  0
VERTEX
  8
PLAN_1
  6
CONTINUOUS
 10
0.679929
 20
-3.901323
  0
VERTEX
  8
PLAN_1
  6
CONTINUOUS
 10
0.645008
 20
-3.901323
  0
VERTEX
  8
PLAN_1
  6
CONTINUOUS
 10
0.575661
 20
-3.801480
  0
VERTEX
  8
PLAN_1
  6
CONTINUOUS
 10
0.544181
 20
-3.831484
  0
VERTEX
  8
PLAN_1
  6
CONTINUOUS
 10
0.544181
 20
-3.901323
  0
SEQEND
  8
0
  0
POLYLINE
  8
PLAN_1
  6
CONTINUOUS
 66
     1
 40
0.003000
 41
0.003000
  0
VERTEX
  8
PLAN_1
  6
CONTINUOUS
 10
0.787146
 20
-3.901323
  0
VERTEX
  8
PLAN_1
  6
CONTINUOUS
 10
0.760587
 20
-3.901323
  0
VERTEX
  8
PLAN_1
  6
CONTINUOUS
 10
0.760587
 20
-3.821154
  0
VERTEX
  8
PLAN_1
  6
CONTINUOUS
 10
0.685339
 20
-3.702134
  0
VERTEX
  8
PLAN_1
  6
CONTINUOUS
 10
0.716815
 20
-3.702134
  0
VERTEX
  8
PLAN_1
  6
CONTINUOUS
 10
0.773866
 20
-3.798039
  0
VERTEX
  8
PLAN_1
  6
CONTINUOUS
 10
0.830917
 20
-3.702134
  0
VERTEX
  8
PLAN_1
  6
CONTINUOUS
 10
0.862394
 20
-3.702134
  0
VERTEX
  8
PLAN_1
  6
CONTINUOUS
 10
0.787146
 20
-3.821154
  0
VERTEX
  8
PLAN_1
  6
CONTINUOUS
 10
0.787146
 20
-3.901323
  0
SEQEND
  8
0
  0
POLYLINE
  8
PLAN_1
  6
CONTINUOUS
 66
     1
 40
0.003000
 41
0.003000
  0
VERTEX
  8
PLAN_1
  6
CONTINUOUS
 10
0.907150
 20
-3.788201
  0
VERTEX
  8
PLAN_1
  6
CONTINUOUS
 10
0.910594
 20
-3.785744
  0
VERTEX
  8
PLAN_1
  6
CONTINUOUS
 10
0.914528
 20
-3.783283
  0
VERTEX
  8
PLAN_1
  6
CONTINUOUS
 10
0.918465
 20
-3.781315
  0
VERTEX
  8
PLAN_1
  6
CONTINUOUS
 10
0.922890
 20
-3.779350
  0
VERTEX
  8
PLAN_1
  6
CONTINUOUS
 10
0.927807
 20
-3.777874
  0
VERTEX
  8
PLAN_1
  6
CONTINUOUS
 10
0.933217
 20
-3.776890
  0
VERTEX
  8
PLAN_1
  6
CONTINUOUS
 10
0.938630
 20
-3.775906
  0
VERTEX
  8
PLAN_1
  6
CONTINUOUS
 10
0.945024
 20
-3.775906
  0
VERTEX
  8
PLAN_1
  6
CONTINUOUS
 10
0.950925
 20
-3.775906
  0
VERTEX
  8
PLAN_1
  6
CONTINUOUS
 10
0.956827
 20
-3.776890
  0
VERTEX
  8
PLAN_1
  6
CONTINUOUS
 10
0.962728
 20
-3.778366
  0
VERTEX
  8
PLAN_1
  6
CONTINUOUS
 10
0.968630
 20
-3.779843
  0
VERTEX
  8
PLAN_1
  6
CONTINUOUS
 10
0.974039
 20
-3.782299
  0
VERTEX
  8
PLAN_1
  6
CONTINUOUS
 10
0.979449
 20
-3.784760
  0
VERTEX
  8
PLAN_1
  6
CONTINUOUS
 10
0.984370
 20
-3.788201
  0
VERTEX
  8
PLAN_1
  6
CONTINUOUS
 10
0.989287
 20
-3.792138
  0
VERTEX
  8
PLAN_1
  6
CONTINUOUS
 10
0.993220
 20
-3.796071
  0
VERTEX
  8
PLAN_1
  6
CONTINUOUS
 10
0.997157
 20
-3.800988
  0
VERTEX
  8
PLAN_1
  6
CONTINUOUS
 10
1.000598
 20
-3.805909
  0
VERTEX
  8
PLAN_1
  6
CONTINUOUS
 10
1.003551
 20
-3.811319
  0
VERTEX
  8
PLAN_1
  6
CONTINUOUS
 10
1.006008
 20
-3.817713
  0
VERTEX
  8
PLAN_1
  6
CONTINUOUS
 10
1.007976
 20
-3.824106
  0
VERTEX
  8
PLAN_1
  6
CONTINUOUS
 10
1.008961
 20
-3.830992
  0
VERTEX
  8
PLAN_1
  6
CONTINUOUS
 10
1.009453
 20
-3.838370
  0
VERTEX
  8
PLAN_1
  6
CONTINUOUS
 10
1.008961
 20
-3.842795
  0
VERTEX
  8
PLAN_1
  6
CONTINUOUS
 10
1.008961
 20
-3.847220
  0
VERTEX
  8
PLAN_1
  6
CONTINUOUS
 10
1.007976
 20
-3.852630
  0
VERTEX
  8
PLAN_1
  6
CONTINUOUS
 10
1.006992
 20
-3.858043
  0
VERTEX
  8
PLAN_1
  6
CONTINUOUS
 10
1.005024
 20
-3.863945
  0
VERTEX
  8
PLAN_1
  6
CONTINUOUS
 10
1.003059
 20
-3.869354
  0
VERTEX
  8
PLAN_1
  6
CONTINUOUS
 10
1.000106
 20
-3.875256
  0
VERTEX
  8
PLAN_1
  6
CONTINUOUS
 10
0.996665
 20
-3.880665
  0
VERTEX
  8
PLAN_1
  6
CONTINUOUS
 10
0.992728
 20
-3.886075
  0
VERTEX
  8
PLAN_1
  6
CONTINUOUS
 10
0.987811
 20
-3.890992
  0
VERTEX
  8
PLAN_1
  6
CONTINUOUS
 10
0.981909
 20
-3.895421
  0
VERTEX
  8
PLAN_1
  6
CONTINUOUS
 10
0.975516
 20
-3.899354
  0
VERTEX
  8
PLAN_1
  6
CONTINUOUS
 10
0.971583
 20
-3.900831
  0
VERTEX
  8
PLAN_1
  6
CONTINUOUS
 10
0.967646
 20
-3.902307
  0
VERTEX
  8
PLAN_1
  6
CONTINUOUS
 10
0.963713
 20
-3.903783
  0
VERTEX
  8
PLAN_1
  6
CONTINUOUS
 10
0.959283
 20
-3.904764
  0
VERTEX
  8
PLAN_1
  6
CONTINUOUS
 10
0.954366
 20
-3.905748
  0
VERTEX
  8
PLAN_1
  6
CONTINUOUS
 10
0.949449
 20
-3.906240
  0
VERTEX
  8
PLAN_1
  6
CONTINUOUS
 10
0.944039
 20
-3.906732
  0
VERTEX
  8
PLAN_1
  6
CONTINUOUS
 10
0.938630
 20
-3.906732
  0
VERTEX
  8
PLAN_1
  6
CONTINUOUS
 10
0.933709
 20
-3.906732
  0
VERTEX
  8
PLAN_1
  6
CONTINUOUS
 10
0.928791
 20
-3.906240
  0
VERTEX
  8
PLAN_1
  6
CONTINUOUS
 10
0.923382
 20
-3.905748
  0
VERTEX
  8
PLAN_1
  6
CONTINUOUS
 10
0.918465
 20
-3.904764
  0
VERTEX
  8
PLAN_1
  6
CONTINUOUS
 10
0.913547
 20
-3.903291
  0
VERTEX
  8
PLAN_1
  6
CONTINUOUS
 10
0.908626
 20
-3.901323
  0
VERTEX
  8
PLAN_1
  6
CONTINUOUS
 10
0.903709
 20
-3.898862
  0
VERTEX
  8
PLAN_1
  6
CONTINUOUS
 10
0.899283
 20
-3.896406
  0
VERTEX
  8
PLAN_1
  6
CONTINUOUS
 10
0.894854
 20
-3.892961
  0
VERTEX
  8
PLAN_1
  6
CONTINUOUS
 10
0.890921
 20
-3.889028
  0
VERTEX
  8
PLAN_1
  6
CONTINUOUS
 10
0.886988
 20
-3.884598
  0
VERTEX
  8
PLAN_1
  6
CONTINUOUS
 10
0.883543
 20
-3.879681
  0
VERTEX
  8
PLAN_1
  6
CONTINUOUS
 10
0.880594
 20
-3.874272
  0
VERTEX
  8
PLAN_1
  6
CONTINUOUS
 10
0.878626
 20
-3.867878
  0
VERTEX
  8
PLAN_1
  6
CONTINUOUS
 10
0.876657
 20
-3.860992
  0
VERTEX
  8
PLAN_1
  6
CONTINUOUS
 10
0.875673
 20
-3.853122
  0
VERTEX
  8
PLAN_1
  6
CONTINUOUS
 10
0.900756
 20
-3.853122
  0
VERTEX
  8
PLAN_1
  6
CONTINUOUS
 10
0.901248
 20
-3.857059
  0
VERTEX
  8
PLAN_1
  6
CONTINUOUS
 10
0.902232
 20
-3.860992
  0
VERTEX
  8
PLAN_1
  6
CONTINUOUS
 10
0.903709
 20
-3.864437
  0
VERTEX
  8
PLAN_1
  6
CONTINUOUS
 10
0.905185
 20
-3.867878
  0
VERTEX
  8
PLAN_1
  6
CONTINUOUS
 10
0.907150
 20
-3.870831
  0
VERTEX
  8
PLAN_1
  6
CONTINUOUS
 10
0.909118
 20
-3.873287
  0
VERTEX
  8
PLAN_1
  6
CONTINUOUS
 10
0.911579
 20
-3.875748
  0
VERTEX
  8
PLAN_1
  6
CONTINUOUS
 10
0.914035
 20
-3.877717
  0
VERTEX
  8
PLAN_1
  6
CONTINUOUS
 10
0.916988
 20
-3.879681
  0
VERTEX
  8
PLAN_1
  6
CONTINUOUS
 10
0.919941
 20
-3.881157
  0
VERTEX
  8
PLAN_1
  6
CONTINUOUS
 10
0.923382
 20
-3.882634
  0
VERTEX
  8
PLAN_1
  6
CONTINUOUS
 10
0.926823
 20
-3.883618
  0
VERTEX
  8
PLAN_1
  6
CONTINUOUS
 10
0.930268
 20
-3.884598
  0
VERTEX
  8
PLAN_1
  6
CONTINUOUS
 10
0.934201
 20
-3.885091
  0
VERTEX
  8
PLAN_1
  6
CONTINUOUS
 10
0.938138
 20
-3.885583
  0
VERTEX
  8
PLAN_1
  6
CONTINUOUS
 10
0.942071
 20
-3.885583
  0
VERTEX
  8
PLAN_1
  6
CONTINUOUS
 10
0.946496
 20
-3.885583
  0
VERTEX
  8
PLAN_1
  6
CONTINUOUS
 10
0.950925
 20
-3.884598
  0
VERTEX
  8
PLAN_1
  6
CONTINUOUS
 10
0.955350
 20
-3.883618
  0
VERTEX
  8
PLAN_1
  6
CONTINUOUS
 10
0.959283
 20
-3.882142
  0
VERTEX
  8
PLAN_1
  6
CONTINUOUS
 10
0.962728
 20
-3.880173
  0
VERTEX
  8
PLAN_1
  6
CONTINUOUS
 10
0.966169
 20
-3.878205
  0
VERTEX
  8
PLAN_1
  6
CONTINUOUS
 10
0.969122
 20
-3.875256
  0
VERTEX
  8
PLAN_1
  6
CONTINUOUS
 10
0.972071
 20
-3.872303
  0
VERTEX
  8
PLAN_1
  6
CONTINUOUS
 10
0.974531
 20
-3.869354
  0
VERTEX
  8
PLAN_1
  6
CONTINUOUS
 10
0.976992
 20
-3.865909
  0
VERTEX
  8
PLAN_1
  6
CONTINUOUS
 10
0.978957
 20
-3.862469
  0
VERTEX
  8
PLAN_1
  6
CONTINUOUS
 10
0.980433
 20
-3.858531
  0
VERTEX
  8
PLAN_1
  6
CONTINUOUS
 10
0.981417
 20
-3.854106
  0
VERTEX
  8
PLAN_1
  6
CONTINUOUS
 10
0.982402
 20
-3.850173
  0
VERTEX
  8
PLAN_1
  6
CONTINUOUS
 10
0.982894
 20
-3.845744
  0
VERTEX
  8
PLAN_1
  6
CONTINUOUS
 10
0.983386
 20
-3.840827
  0
VERTEX
  8
PLAN_1
  6
CONTINUOUS
 10
0.982894
 20
-3.835909
  0
VERTEX
  8
PLAN_1
  6
CONTINUOUS
 10
0.982402
 20
-3.830992
  0
VERTEX
  8
PLAN_1
  6
CONTINUOUS
 10
0.981417
 20
-3.826563
  0
VERTEX
  8
PLAN_1
  6
CONTINUOUS
 10
0.979941
 20
-3.822630
  0
VERTEX
  8
PLAN_1
  6
CONTINUOUS
 10
0.977976
 20
-3.818697
  0
VERTEX
  8
PLAN_1
  6
CONTINUOUS
 10
0.976008
 20
-3.815252
  0
VERTEX
  8
PLAN_1
  6
CONTINUOUS
 10
0.973547
 20
-3.811811
  0
VERTEX
  8
PLAN_1
  6
CONTINUOUS
 10
0.970598
 20
-3.808858
  0
VERTEX
  8
PLAN_1
  6
CONTINUOUS
 10
0.967646
 20
-3.806402
  0
VERTEX
  8
PLAN_1
  6
CONTINUOUS
 10
0.964205
 20
-3.803941
  0
VERTEX
  8
PLAN_1
  6
CONTINUOUS
 10
0.960760
 20
-3.801972
  0
VERTEX
  8
PLAN_1
  6
CONTINUOUS
 10
0.956827
 20
-3.800496
  0
VERTEX
  8
PLAN_1
  6
CONTINUOUS
 10
0.952890
 20
-3.799516
  0
VERTEX
  8
PLAN_1
  6
CONTINUOUS
 10
0.948465
 20
-3.798531
  0
VERTEX
  8
PLAN_1
  6
CONTINUOUS
 10
0.944531
 20
-3.798039
  0
VERTEX
  8
PLAN_1
  6
CONTINUOUS
 10
0.940102
 20
-3.797547
  0
VERTEX
  8
PLAN_1
  6
CONTINUOUS
 10
0.934693
 20
-3.798039
  0
VERTEX
  8
PLAN_1
  6
CONTINUOUS
 10
0.929776
 20
-3.799024
  0
VERTEX
  8
PLAN_1
  6
CONTINUOUS
 10
0.924858
 20
-3.800496
  0
VERTEX
  8
PLAN_1
  6
CONTINUOUS
 10
0.919941
 20
-3.802465
  0
VERTEX
  8
PLAN_1
  6
CONTINUOUS
 10
0.915512
 20
-3.805417
  0
VERTEX
  8
PLAN_1
  6
CONTINUOUS
 10
0.911087
 20
-3.808366
  0
VERTEX
  8
PLAN_1
  6
CONTINUOUS
 10
0.907150
 20
-3.812303
  0
VERTEX
  8
PLAN_1
  6
CONTINUOUS
 10
0.903709
 20
-3.816236
  0
VERTEX
  8
PLAN_1
  6
CONTINUOUS
 10
0.882559
 20
-3.815252
  0
VERTEX
  8
PLAN_1
  6
CONTINUOUS
 10
0.897315
 20
-3.710492
  0
VERTEX
  8
PLAN_1
  6
CONTINUOUS
 10
0.998630
 20
-3.710492
  0
VERTEX
  8
PLAN_1
  6
CONTINUOUS
 10
0.998630
 20
-3.734594
  0
VERTEX
  8
PLAN_1
  6
CONTINUOUS
 10
0.915512
 20
-3.734594
  0
VERTEX
  8
PLAN_1
  6
CONTINUOUS
 10
0.907150
 20
-3.788201
  0
SEQEND
  8
0
  0
POLYLINE
  8
PLAN_1
  6
CONTINUOUS
 66
     1
 40
0.003000
 41
0.003000
  0
VERTEX
  8
PLAN_1
  6
CONTINUOUS
 10
1.032567
 20
-3.773449
  0
VERTEX
  8
PLAN_1
  6
CONTINUOUS
 10
1.033059
 20
-3.766563
  0
VERTEX
  8
PLAN_1
  6
CONTINUOUS
 10
1.033551
 20
-3.760169
  0
VERTEX
  8
PLAN_1
  6
CONTINUOUS
 10
1.035028
 20
-3.753776
  0
VERTEX
  8
PLAN_1
  6
CONTINUOUS
 10
1.036504
 20
-3.747874
  0
VERTEX
  8
PLAN_1
  6
CONTINUOUS
 10
1.038961
 20
-3.741969
  0
VERTEX
  8
PLAN_1
  6
CONTINUOUS
 10
1.041421
 20
-3.736559
  0
VERTEX
  8
PLAN_1
  6
CONTINUOUS
 10
1.044862
 20
-3.731150
  0
VERTEX
  8
PLAN_1
  6
CONTINUOUS
 10
1.048799
 20
-3.726724
  0
VERTEX
  8
PLAN_1
  6
CONTINUOUS
 10
1.052732
 20
-3.722295
  0
VERTEX
  8
PLAN_1
  6
CONTINUOUS
 10
1.057650
 20
-3.718362
  0
VERTEX
  8
PLAN_1
  6
CONTINUOUS
 10
1.062571
 20
-3.714921
  0
VERTEX
  8
PLAN_1
  6
CONTINUOUS
 10
1.068472
 20
-3.711969
  0
VERTEX
  8
PLAN_1
  6
CONTINUOUS
 10
1.074374
 20
-3.709508
  0
VERTEX
  8
PLAN_1
  6
CONTINUOUS
 10
1.080768
 20
-3.708035
  0
VERTEX
  8
PLAN_1
  6
CONTINUOUS
 10
1.087654
 20
-3.706559
  0
VERTEX
  8
PLAN_1
  6
CONTINUOUS
 10
1.095520
 20
-3.706559
  0
VERTEX
  8
PLAN_1
  6
CONTINUOUS
 10
1.100933
 20
-3.706559
  0
VERTEX
  8
PLAN_1
  6
CONTINUOUS
 10
1.106343
 20
-3.707051
  0
VERTEX
  8
PLAN_1
  6
CONTINUOUS
 10
1.111260
 20
-3.708035
  0
VERTEX
  8
PLAN_1
  6
CONTINUOUS
 10
1.116177
 20
-3.709020
  0
VERTEX
  8
PLAN_1
  6
CONTINUOUS
 10
1.120606
 20
-3.710492
  0
VERTEX
  8
PLAN_1
  6
CONTINUOUS
 10
1.124539
 20
-3.711969
  0
VERTEX
  8
PLAN_1
  6
CONTINUOUS
 10
1.128472
 20
-3.713937
  0
VERTEX
  8
PLAN_1
  6
CONTINUOUS
 10
1.132409
 20
-3.715902
  0
VERTEX
  8
PLAN_1
  6
CONTINUOUS
 10
1.135850
 20
-3.718362
  0
VERTEX
  8
PLAN_1
  6
CONTINUOUS
 10
1.138803
 20
-3.720823
  0
VERTEX
  8
PLAN_1
  6
CONTINUOUS
 10
1.141752
 20
-3.723772
  0
VERTEX
  8
PLAN_1
  6
CONTINUOUS
 10
1.144213
 20
-3.726724
  0
VERTEX
  8
PLAN_1
  6
CONTINUOUS
 10
1.149130
 20
-3.733118
  0
VERTEX
  8
PLAN_1
  6
CONTINUOUS
 10
1.153067
 20
-3.740004
  0
VERTEX
  8
PLAN_1
  6
CONTINUOUS
 10
1.156016
 20
-3.746890
  0
VERTEX
  8
PLAN_1
  6
CONTINUOUS
 10
1.158476
 20
-3.754268
  0
VERTEX
  8
PLAN_1
  6
CONTINUOUS
 10
1.160441
 20
-3.762134
  0
VERTEX
  8
PLAN_1
  6
CONTINUOUS
 10
1.161917
 20
-3.769512
  0
VERTEX
  8
PLAN_1
  6
CONTINUOUS
 10
1.162902
 20
-3.776890
  0
VERTEX
  8
PLAN_1
  6
CONTINUOUS
 10
1.163394
 20
-3.783776
  0
VERTEX
  8
PLAN_1
  6
CONTINUOUS
 10
1.163394
 20
-3.790661
  0
VERTEX
  8
PLAN_1
  6
CONTINUOUS
 10
1.163886
 20
-3.797055
  0
VERTEX
  8
PLAN_1
  6
CONTINUOUS
 10
1.163394
 20
-3.807382
  0
VERTEX
  8
PLAN_1
  6
CONTINUOUS
 10
1.161917
 20
-3.822630
  0
VERTEX
  8
PLAN_1
  6
CONTINUOUS
 10
1.160933
 20
-3.831484
  0
VERTEX
  8
PLAN_1
  6
CONTINUOUS
 10
1.158969
 20
-3.840827
  0
VERTEX
  8
PLAN_1
  6
CONTINUOUS
 10
1.156508
 20
-3.850173
  0
VERTEX
  8
PLAN_1
  6
CONTINUOUS
 10
1.153559
 20
-3.859516
  0
VERTEX
  8
PLAN_1
  6
CONTINUOUS
 10
1.151591
 20
-3.864437
  0
VERTEX
  8
PLAN_1
  6
CONTINUOUS
 10
1.149622
 20
-3.868862
  0
VERTEX
  8
PLAN_1
  6
CONTINUOUS
 10
1.147165
 20
-3.873287
  0
VERTEX
  8
PLAN_1
  6
CONTINUOUS
 10
1.144705
 20
-3.877717
  0
VERTEX
  8
PLAN_1
  6
CONTINUOUS
 10
1.142244
 20
-3.881650
  0
VERTEX
  8
PLAN_1
  6
CONTINUOUS
 10
1.138803
 20
-3.885583
  0
VERTEX
  8
PLAN_1
  6
CONTINUOUS
 10
1.135850
 20
-3.889028
  0
VERTEX
  8
PLAN_1
  6
CONTINUOUS
 10
1.132409
 20
-3.892469
  0
VERTEX
  8
PLAN_1
  6
CONTINUOUS
 10
1.128472
 20
-3.895913
  0
VERTEX
  8
PLAN_1
  6
CONTINUOUS
 10
1.124539
 20
-3.898370
  0
VERTEX
  8
PLAN_1
  6
CONTINUOUS
 10
1.120114
 20
-3.900831
  0
VERTEX
  8
PLAN_1
  6
CONTINUOUS
 10
1.115193
 20
-3.902799
  0
VERTEX
  8
PLAN_1
  6
CONTINUOUS
 10
1.110276
 20
-3.904764
  0
VERTEX
  8
PLAN_1
  6
CONTINUOUS
 10
1.104866
 20
-3.905748
  0
VERTEX
  8
PLAN_1
  6
CONTINUOUS
 10
1.098965
 20
-3.906732
  0
VERTEX
  8
PLAN_1
  6
CONTINUOUS
 10
1.093063
 20
-3.906732
  0
VERTEX
  8
PLAN_1
  6
CONTINUOUS
 10
1.084701
 20
-3.906240
  0
VERTEX
  8
PLAN_1
  6
CONTINUOUS
 10
1.077323
 20
-3.905256
  0
VERTEX
  8
PLAN_1
  6
CONTINUOUS
 10
1.070437
 20
-3.903783
  0
VERTEX
  8
PLAN_1
  6
CONTINUOUS
 10
1.064535
 20
-3.901323
  0
VERTEX
  8
PLAN_1
  6
CONTINUOUS
 10
1.059126
 20
-3.898370
  0
VERTEX
  8
PLAN_1
  6
CONTINUOUS
 10
1.054209
 20
-3.895421
  0
VERTEX
  8
PLAN_1
  6
CONTINUOUS
 10
1.050272
 20
-3.891484
  0
VERTEX
  8
PLAN_1
  6
CONTINUOUS
 10
1.046831
 20
-3.888043
  0
VERTEX
  8
PLAN_1
  6
CONTINUOUS
 10
1.043878
 20
-3.883618
  0
VERTEX
  8
PLAN_1
  6
CONTINUOUS
 10
1.040929
 20
-3.879681
  0
VERTEX
  8
PLAN_1
  6
CONTINUOUS
 10
1.038961
 20
-3.875256
  0
VERTEX
  8
PLAN_1
  6
CONTINUOUS
 10
1.037484
 20
-3.870831
  0
VERTEX
  8
PLAN_1
  6
CONTINUOUS
 10
1.036504
 20
-3.866402
  0
VERTEX
  8
PLAN_1
  6
CONTINUOUS
 10
1.035520
 20
-3.862469
  0
VERTEX
  8
PLAN_1
  6
CONTINUOUS
 10
1.035028
 20
-3.858531
  0
VERTEX
  8
PLAN_1
  6
CONTINUOUS
 10
1.035028
 20
-3.854598
  0
VERTEX
  8
PLAN_1
  6
CONTINUOUS
 10
1.059126
 20
-3.854598
  0
VERTEX
  8
PLAN_1
  6
CONTINUOUS
 10
1.059618
 20
-3.858043
  0
VERTEX
  8
PLAN_1
  6
CONTINUOUS
 10
1.060110
 20
-3.861484
  0
VERTEX
  8
PLAN_1
  6
CONTINUOUS
 10
1.061094
 20
-3.864929
  0
VERTEX
  8
PLAN_1
  6
CONTINUOUS
 10
1.062079
 20
-3.867878
  0
VERTEX
  8
PLAN_1
  6
CONTINUOUS
 10
1.063551
 20
-3.870831
  0
VERTEX
  8
PLAN_1
  6
CONTINUOUS
 10
1.065028
 20
-3.873287
  0
VERTEX
  8
PLAN_1
  6
CONTINUOUS
 10
1.066996
 20
-3.875748
  0
VERTEX
  8
PLAN_1
  6
CONTINUOUS
 10
1.068965
 20
-3.878205
  0
VERTEX
  8
PLAN_1
  6
CONTINUOUS
 10
1.070929
 20
-3.880173
  0
VERTEX
  8
PLAN_1
  6
CONTINUOUS
 10
1.073390
 20
-3.881650
  0
VERTEX
  8
PLAN_1
  6
CONTINUOUS
 10
1.075850
 20
-3.883126
  0
VERTEX
  8
PLAN_1
  6
CONTINUOUS
 10
1.078799
 20
-3.884110
  0
VERTEX
  8
PLAN_1
  6
CONTINUOUS
 10
1.081752
 20
-3.885091
  0
VERTEX
  8
PLAN_1
  6
CONTINUOUS
 10
1.085193
 20
-3.886075
  0
VERTEX
  8
PLAN_1
  6
CONTINUOUS
 10
1.088638
 20
-3.886567
  0
VERTEX
  8
PLAN_1
  6
CONTINUOUS
 10
1.092079
 20
-3.886567
  0
VERTEX
  8
PLAN_1
  6
CONTINUOUS
 10
1.096996
 20
-3.886075
  0
VERTEX
  8
PLAN_1
  6
CONTINUOUS
 10
1.101913
 20
-3.885583
  0
VERTEX
  8
PLAN_1
  6
CONTINUOUS
 10
1.105850
 20
-3.884110
  0
VERTEX
  8
PLAN_1
  6
CONTINUOUS
 10
1.109783
 20
-3.882142
  0
VERTEX
  8
PLAN_1
  6
CONTINUOUS
 10
1.113720
 20
-3.879681
  0
VERTEX
  8
PLAN_1
  6
CONTINUOUS
 10
1.117161
 20
-3.876732
  0
VERTEX
  8
PLAN_1
  6
CONTINUOUS
 10
1.120606
 20
-3.873287
  0
VERTEX
  8
PLAN_1
  6
CONTINUOUS
 10
1.123555
 20
-3.868862
  0
VERTEX
  8
PLAN_1
  6
CONTINUOUS
 10
1.126016
 20
-3.864437
  0
VERTEX
  8
PLAN_1
  6
CONTINUOUS
 10
1.128472
 20
-3.859024
  0
VERTEX
  8
PLAN_1
  6
CONTINUOUS
 10
1.130933
 20
-3.853122
  0
VERTEX
  8
PLAN_1
  6
CONTINUOUS
 10
1.132902
 20
-3.846236
  0
VERTEX
  8
PLAN_1
  6
CONTINUOUS
 10
1.134866
 20
-3.838862
  0
VERTEX
  8
PLAN_1
  6
CONTINUOUS
 10
1.136343
 20
-3.830992
  0
VERTEX
  8
PLAN_1
  6
CONTINUOUS
 10
1.137819
 20
-3.822630
  0
VERTEX
  8
PLAN_1
  6
CONTINUOUS
 10
1.139295
 20
-3.813776
  0
VERTEX
  8
PLAN_1
  6
CONTINUOUS
 10
1.138803
 20
-3.812795
  0
VERTEX
  8
PLAN_1
  6
CONTINUOUS
 10
1.137327
 20
-3.815744
  0
VERTEX
  8
PLAN_1
  6
CONTINUOUS
 10
1.135358
 20
-3.818205
  0
VERTEX
  8
PLAN_1
  6
CONTINUOUS
 10
1.133394
 20
-3.820661
  0
VERTEX
  8
PLAN_1
  6
CONTINUOUS
 10
1.130933
 20
-3.823122
  0
VERTEX
  8
PLAN_1
  6
CONTINUOUS
 10
1.126016
 20
-3.827055
  0
VERTEX
  8
PLAN_1
  6
CONTINUOUS
 10
1.120606
 20
-3.830500
  0
VERTEX
  8
PLAN_1
  6
CONTINUOUS
 10
1.114213
 20
-3.832957
  0
VERTEX
  8
PLAN_1
  6
CONTINUOUS
 10
1.107327
 20
-3.834925
  0
VERTEX
  8
PLAN_1
  6
CONTINUOUS
 10
1.100933
 20
-3.835909
  0
VERTEX
  8
PLAN_1
  6
CONTINUOUS
 10
1.094047
 20
-3.836402
  0
VERTEX
  8
PLAN_1
  6
CONTINUOUS
 10
1.087161
 20
-3.835909
  0
VERTEX
  8
PLAN_1
  6
CONTINUOUS
 10
1.080768
 20
-3.835417
  0
VERTEX
  8
PLAN_1
  6
CONTINUOUS
 10
1.074866
 20
-3.833941
  0
VERTEX
  8
PLAN_1
  6
CONTINUOUS
 10
1.068965
 20
-3.831976
  0
VERTEX
  8
PLAN_1
  6
CONTINUOUS
 10
1.063551
 20
-3.829516
  0
VERTEX
  8
PLAN_1
  6
CONTINUOUS
 10
1.058634
 20
-3.826563
  0
VERTEX
  8
PLAN_1
  6
CONTINUOUS
 10
1.054209
 20
-3.823122
  0
VERTEX
  8
PLAN_1
  6
CONTINUOUS
 10
1.049783
 20
-3.819189
  0
VERTEX
  8
PLAN_1
  6
CONTINUOUS
 10
1.045846
 20
-3.815252
  0
VERTEX
  8
PLAN_1
  6
CONTINUOUS
 10
1.042406
 20
-3.810335
  0
VERTEX
  8
PLAN_1
  6
CONTINUOUS
 10
1.039453
 20
-3.804925
  0
VERTEX
  8
PLAN_1
  6
CONTINUOUS
 10
1.036992
 20
-3.799516
  0
VERTEX
  8
PLAN_1
  6
CONTINUOUS
 10
1.035028
 20
-3.793610
  0
VERTEX
  8
PLAN_1
  6
CONTINUOUS
 10
1.033551
 20
-3.787217
  0
VERTEX
  8
PLAN_1
  6
CONTINUOUS
 10
1.033059
 20
-3.780335
  0
VERTEX
  8
PLAN_1
  6
CONTINUOUS
 10
1.032567
 20
-3.773449
  0
SEQEND
  8
0
  0
POLYLINE
  8
PLAN_1
  6
CONTINUOUS
 66
     1
 40
0.003000
 41
0.003000
  0
VERTEX
  8
PLAN_1
  6
CONTINUOUS
 10
1.134866
 20
-3.770004
  0
VERTEX
  8
PLAN_1
  6
CONTINUOUS
 10
1.134866
 20
-3.766071
  0
VERTEX
  8
PLAN_1
  6
CONTINUOUS
 10
1.134374
 20
-3.761642
  0
VERTEX
  8
PLAN_1
  6
CONTINUOUS
 10
1.133886
 20
-3.757709
  0
VERTEX
  8
PLAN_1
  6
CONTINUOUS
 10
1.132902
 20
-3.754268
  0
VERTEX
  8
PLAN_1
  6
CONTINUOUS
 10
1.131425
 20
-3.750331
  0
VERTEX
  8
PLAN_1
  6
CONTINUOUS
 10
1.129949
 20
-3.746890
  0
VERTEX
  8
PLAN_1
  6
CONTINUOUS
 10
1.127980
 20
-3.743937
  0
VERTEX
  8
PLAN_1
  6
CONTINUOUS
 10
1.126016
 20
-3.740988
  0
VERTEX
  8
PLAN_1
  6
CONTINUOUS
 10
1.123555
 20
-3.738035
  0
VERTEX
  8
PLAN_1
  6
CONTINUOUS
 10
1.120606
 20
-3.735575
  0
VERTEX
  8
PLAN_1
  6
CONTINUOUS
 10
1.117161
 20
-3.733610
  0
VERTEX
  8
PLAN_1
  6
CONTINUOUS
 10
1.113720
 20
-3.731642
  0
VERTEX
  8
PLAN_1
  6
CONTINUOUS
 10
1.109783
 20
-3.730165
  0
VERTEX
  8
PLAN_1
  6
CONTINUOUS
 10
1.105358
 20
-3.729181
  0
VERTEX
  8
PLAN_1
  6
CONTINUOUS
 10
1.100933
 20
-3.728689
  0
VERTEX
  8
PLAN_1
  6
CONTINUOUS
 10
1.095520
 20
-3.728201
  0
VERTEX
  8
PLAN_1
  6
CONTINUOUS
 10
1.091587
 20
-3.728689
  0
VERTEX
  8
PLAN_1
  6
CONTINUOUS
 10
1.087654
 20
-3.729181
  0
VERTEX
  8
PLAN_1
  6
CONTINUOUS
 10
1.083717
 20
-3.730165
  0
VERTEX
  8
PLAN_1
  6
CONTINUOUS
 10
1.080276
 20
-3.731642
  0
VERTEX
  8
PLAN_1
  6
CONTINUOUS
 10
1.076831
 20
-3.733118
  0
VERTEX
  8
PLAN_1
  6
CONTINUOUS
 10
1.073882
 20
-3.735575
  0
VERTEX
  8
PLAN_1
  6
CONTINUOUS
 10
1.070929
 20
-3.737543
  0
VERTEX
  8
PLAN_1
  6
CONTINUOUS
 10
1.068472
 20
-3.740496
  0
VERTEX
  8
PLAN_1
  6
CONTINUOUS
 10
1.066012
 20
-3.743445
  0
VERTEX
  8
PLAN_1
  6
CONTINUOUS
 10
1.064043
 20
-3.746890
  0
VERTEX
  8
PLAN_1
  6
CONTINUOUS
 10
1.062079
 20
-3.750331
  0
VERTEX
  8
PLAN_1
  6
CONTINUOUS
 10
1.060602
 20
-3.754268
  0
VERTEX
  8
PLAN_1
  6
CONTINUOUS
 10
1.059618
 20
-3.758693
  0
VERTEX
  8
PLAN_1
  6
CONTINUOUS
 10
1.058634
 20
-3.762626
  0
VERTEX
  8
PLAN_1
  6
CONTINUOUS
 10
1.058142
 20
-3.767547
  0
VERTEX
  8
PLAN_1
  6
CONTINUOUS
 10
1.058142
 20
-3.771972
  0
VERTEX
  8
PLAN_1
  6
CONTINUOUS
 10
1.058142
 20
-3.778858
  0
VERTEX
  8
PLAN_1
  6
CONTINUOUS
 10
1.059126
 20
-3.784760
  0
VERTEX
  8
PLAN_1
  6
CONTINUOUS
 10
1.060110
 20
-3.790169
  0
VERTEX
  8
PLAN_1
  6
CONTINUOUS
 10
1.061587
 20
-3.794594
  0
VERTEX
  8
PLAN_1
  6
CONTINUOUS
 10
1.063551
 20
-3.798531
  0
VERTEX
  8
PLAN_1
  6
CONTINUOUS
 10
1.066012
 20
-3.801972
  0
VERTEX
  8
PLAN_1
  6
CONTINUOUS
 10
1.068965
 20
-3.804925
  0
VERTEX
  8
PLAN_1
  6
CONTINUOUS
 10
1.071421
 20
-3.807382
  0
VERTEX
  8
PLAN_1
  6
CONTINUOUS
 10
1.074866
 20
-3.809350
  0
VERTEX
  8
PLAN_1
  6
CONTINUOUS
 10
1.077815
 20
-3.810827
  0
VERTEX
  8
PLAN_1
  6
CONTINUOUS
 10
1.081260
 20
-3.812303
  0
VERTEX
  8
PLAN_1
  6
CONTINUOUS
 10
1.084701
 20
-3.813283
  0
VERTEX
  8
PLAN_1
  6
CONTINUOUS
 10
1.091094
 20
-3.814268
  0
VERTEX
  8
PLAN_1
  6
CONTINUOUS
 10
1.097488
 20
-3.814268
  0
VERTEX
  8
PLAN_1
  6
CONTINUOUS
 10
1.102898
 20
-3.814268
  0
VERTEX
  8
PLAN_1
  6
CONTINUOUS
 10
1.108799
 20
-3.812795
  0
VERTEX
  8
PLAN_1
  6
CONTINUOUS
 10
1.111752
 20
-3.811811
  0
VERTEX
  8
PLAN_1
  6
CONTINUOUS
 10
1.115193
 20
-3.810335
  0
VERTEX
  8
PLAN_1
  6
CONTINUOUS
 10
1.118146
 20
-3.808858
  0
VERTEX
  8
PLAN_1
  6
CONTINUOUS
 10
1.121098
 20
-3.806890
  0
VERTEX
  8
PLAN_1
  6
CONTINUOUS
 10
1.124047
 20
-3.803941
  0
VERTEX
  8
PLAN_1
  6
CONTINUOUS
 10
1.126508
 20
-3.800988
  0
VERTEX
  8
PLAN_1
  6
CONTINUOUS
 10
1.128965
 20
-3.797547
  0
VERTEX
  8
PLAN_1
  6
CONTINUOUS
 10
1.130933
 20
-3.793122
  0
VERTEX
  8
PLAN_1
  6
CONTINUOUS
 10
1.132902
 20
-3.788201
  0
VERTEX
  8
PLAN_1
  6
CONTINUOUS
 10
1.133886
 20
-3.782791
  0
VERTEX
  8
PLAN_1
  6
CONTINUOUS
 10
1.134866
 20
-3.776890
  0
VERTEX
  8
PLAN_1
  6
CONTINUOUS
 10
1.134866
 20
-3.770004
  0
SEQEND
  8
0
  0
SOLID
  8
PLAN_1
 10
1.175197
 20
-3.936244
 11
1.175197
 21
-3.922472
 12
1.329630
 22
-3.936244
 13
1.329630
 23
-3.922472
  0
POLYLINE
  8
PLAN_1
  6
CONTINUOUS
 66
     1
 40
0.003000
 41
0.003000
  0
VERTEX
  8
PLAN_1
  6
CONTINUOUS
 10
1.175197
 20
-3.936244
  0
VERTEX
  8
PLAN_1
  6
CONTINUOUS
 10
1.175197
 20
-3.922472
  0
VERTEX
  8
PLAN_1
  6
CONTINUOUS
 10
1.329630
 20
-3.922472
  0
VERTEX
  8
PLAN_1
  6
CONTINUOUS
 10
1.329630
 20
-3.936244
  0
VERTEX
  8
PLAN_1
  6
CONTINUOUS
 10
1.175197
 20
-3.936244
  0
SEQEND
  8
0
  0
POLYLINE
  8
PLAN_1
  6
CONTINUOUS
 66
     1
 40
0.003000
 41
0.003000
  0
VERTEX
  8
PLAN_1
  6
CONTINUOUS
 10
1.381272
 20
-3.901323
  0
VERTEX
  8
PLAN_1
  6
CONTINUOUS
 10
1.354224
 20
-3.901323
  0
VERTEX
  8
PLAN_1
  6
CONTINUOUS
 10
1.354224
 20
-3.702134
  0
VERTEX
  8
PLAN_1
  6
CONTINUOUS
 10
1.446193
 20
-3.702134
  0
VERTEX
  8
PLAN_1
  6
CONTINUOUS
 10
1.452587
 20
-3.702626
  0
VERTEX
  8
PLAN_1
  6
CONTINUOUS
 10
1.458492
 20
-3.702626
  0
VERTEX
  8
PLAN_1
  6
CONTINUOUS
 10
1.464394
 20
-3.703606
  0
VERTEX
  8
PLAN_1
  6
CONTINUOUS
 10
1.470295
 20
-3.704591
  0
VERTEX
  8
PLAN_1
  6
CONTINUOUS
 10
1.476197
 20
-3.706067
  0
VERTEX
  8
PLAN_1
  6
CONTINUOUS
 10
1.481606
 20
-3.708035
  0
VERTEX
  8
PLAN_1
  6
CONTINUOUS
 10
1.486524
 20
-3.710492
  0
VERTEX
  8
PLAN_1
  6
CONTINUOUS
 10
1.491441
 20
-3.713445
  0
VERTEX
  8
PLAN_1
  6
CONTINUOUS
 10
1.495870
 20
-3.716394
  0
VERTEX
  8
PLAN_1
  6
CONTINUOUS
 10
1.499803
 20
-3.720331
  0
VERTEX
  8
PLAN_1
  6
CONTINUOUS
 10
1.503248
 20
-3.724756
  0
VERTEX
  8
PLAN_1
  6
CONTINUOUS
 10
1.506197
 20
-3.729673
  0
VERTEX
  8
PLAN_1
  6
CONTINUOUS
 10
1.508657
 20
-3.735087
  0
VERTEX
  8
PLAN_1
  6
CONTINUOUS
 10
1.510134
 20
-3.741480
  0
VERTEX
  8
PLAN_1
  6
CONTINUOUS
 10
1.511606
 20
-3.748362
  0
VERTEX
  8
PLAN_1
  6
CONTINUOUS
 10
1.511606
 20
-3.755740
  0
VERTEX
  8
PLAN_1
  6
CONTINUOUS
 10
1.511606
 20
-3.761150
  0
VERTEX
  8
PLAN_1
  6
CONTINUOUS
 10
1.511114
 20
-3.766071
  0
VERTEX
  8
PLAN_1
  6
CONTINUOUS
 10
1.510134
 20
-3.770496
  0
VERTEX
  8
PLAN_1
  6
CONTINUOUS
 10
1.509150
 20
-3.774429
  0
VERTEX
  8
PLAN_1
  6
CONTINUOUS
 10
1.508165
 20
-3.778366
  0
VERTEX
  8
PLAN_1
  6
CONTINUOUS
 10
1.506197
 20
-3.781807
  0
VERTEX
  8
PLAN_1
  6
CONTINUOUS
 10
1.504720
 20
-3.785252
  0
VERTEX
  8
PLAN_1
  6
CONTINUOUS
 10
1.502756
 20
-3.787709
  0
VERTEX
  8
PLAN_1
  6
CONTINUOUS
 10
1.498327
 20
-3.793122
  0
VERTEX
  8
PLAN_1
  6
CONTINUOUS
 10
1.493902
 20
-3.797055
  0
VERTEX
  8
PLAN_1
  6
CONTINUOUS
 10
1.488984
 20
-3.800496
  0
VERTEX
  8
PLAN_1
  6
CONTINUOUS
 10
1.484067
 20
-3.803449
  0
VERTEX
  8
PLAN_1
  6
CONTINUOUS
 10
1.488492
 20
-3.805417
  0
VERTEX
  8
PLAN_1
  6
CONTINUOUS
 10
1.492425
 20
-3.807382
  0
VERTEX
  8
PLAN_1
  6
CONTINUOUS
 10
1.496362
 20
-3.810335
  0
VERTEX
  8
PLAN_1
  6
CONTINUOUS
 10
1.499803
 20
-3.813776
  0
VERTEX
  8
PLAN_1
  6
CONTINUOUS
 10
1.501280
 20
-3.815744
  0
VERTEX
  8
PLAN_1
  6
CONTINUOUS
 10
1.502756
 20
-3.818205
  0
VERTEX
  8
PLAN_1
  6
CONTINUOUS
 10
1.504228
 20
-3.821154
  0
VERTEX
  8
PLAN_1
  6
CONTINUOUS
 10
1.505213
 20
-3.824106
  0
VERTEX
  8
PLAN_1
  6
CONTINUOUS
 10
1.506197
 20
-3.827547
  0
VERTEX
  8
PLAN_1
  6
CONTINUOUS
 10
1.507181
 20
-3.831484
  0
VERTEX
  8
PLAN_1
  6
CONTINUOUS
 10
1.507673
 20
-3.835909
  0
VERTEX
  8
PLAN_1
  6
CONTINUOUS
 10
1.508165
 20
-3.840827
  0
VERTEX
  8
PLAN_1
  6
CONTINUOUS
 10
1.509642
 20
-3.877224
  0
VERTEX
  8
PLAN_1
  6
CONTINUOUS
 10
1.509642
 20
-3.881157
  0
VERTEX
  8
PLAN_1
  6
CONTINUOUS
 10
1.510134
 20
-3.884110
  0
VERTEX
  8
PLAN_1
  6
CONTINUOUS
 10
1.510626
 20
-3.887059
  0
VERTEX
  8
PLAN_1
  6
CONTINUOUS
 10
1.511606
 20
-3.889520
  0
VERTEX
  8
PLAN_1
  6
CONTINUOUS
 10
1.513083
 20
-3.891484
  0
VERTEX
  8
PLAN_1
  6
CONTINUOUS
 10
1.514559
 20
-3.893453
  0
VERTEX
  8
PLAN_1
  6
CONTINUOUS
 10
1.517020
 20
-3.895421
  0
VERTEX
  8
PLAN_1
  6
CONTINUOUS
 10
1.519476
 20
-3.896898
  0
VERTEX
  8
PLAN_1
  6
CONTINUOUS
 10
1.519476
 20
-3.901323
  0
VERTEX
  8
PLAN_1
  6
CONTINUOUS
 10
1.486524
 20
-3.901323
  0
VERTEX
  8
PLAN_1
  6
CONTINUOUS
 10
1.485047
 20
-3.896406
  0
VERTEX
  8
PLAN_1
  6
CONTINUOUS
 10
1.484067
 20
-3.889520
  0
VERTEX
  8
PLAN_1
  6
CONTINUOUS
 10
1.483575
 20
-3.882142
  0
VERTEX
  8
PLAN_1
  6
CONTINUOUS
 10
1.482591
 20
-3.874764
  0
VERTEX
  8
PLAN_1
  6
CONTINUOUS
 10
1.482098
 20
-3.867386
  0
VERTEX
  8
PLAN_1
  6
CONTINUOUS
 10
1.482098
 20
-3.860992
  0
VERTEX
  8
PLAN_1
  6
CONTINUOUS
 10
1.482098
 20
-3.855583
  0
VERTEX
  8
PLAN_1
  6
CONTINUOUS
 10
1.482098
 20
-3.851650
  0
VERTEX
  8
PLAN_1
  6
CONTINUOUS
 10
1.481606
 20
-3.845256
  0
VERTEX
  8
PLAN_1
  6
CONTINUOUS
 10
1.480622
 20
-3.839350
  0
VERTEX
  8
PLAN_1
  6
CONTINUOUS
 10
1.480130
 20
-3.835909
  0
VERTEX
  8
PLAN_1
  6
CONTINUOUS
 10
1.479146
 20
-3.832957
  0
VERTEX
  8
PLAN_1
  6
CONTINUOUS
 10
1.477673
 20
-3.830500
  0
VERTEX
  8
PLAN_1
  6
CONTINUOUS
 10
1.476197
 20
-3.827547
  0
VERTEX
  8
PLAN_1
  6
CONTINUOUS
 10
1.474228
 20
-3.825091
  0
VERTEX
  8
PLAN_1
  6
CONTINUOUS
 10
1.471772
 20
-3.823122
  0
VERTEX
  8
PLAN_1
  6
CONTINUOUS
 10
1.468819
 20
-3.821154
  0
VERTEX
  8
PLAN_1
  6
CONTINUOUS
 10
1.465374
 20
-3.819189
  0
VERTEX
  8
PLAN_1
  6
CONTINUOUS
 10
1.461441
 20
-3.817713
  0
VERTEX
  8
PLAN_1
  6
CONTINUOUS
 10
1.457016
 20
-3.816728
  0
VERTEX
  8
PLAN_1
  6
CONTINUOUS
 10
1.452098
 20
-3.816236
  0
VERTEX
  8
PLAN_1
  6
CONTINUOUS
 10
1.446193
 20
-3.816236
  0
VERTEX
  8
PLAN_1
  6
CONTINUOUS
 10
1.381272
 20
-3.816236
  0
VERTEX
  8
PLAN_1
  6
CONTINUOUS
 10
1.381272
 20
-3.901323
  0
SEQEND
  8
0
  0
POLYLINE
  8
PLAN_1
  6
CONTINUOUS
 66
     1
 40
0.003000
 41
0.003000
  0
VERTEX
  8
PLAN_1
  6
CONTINUOUS
 10
1.381272
 20
-3.793122
  0
VERTEX
  8
PLAN_1
  6
CONTINUOUS
 10
1.443736
 20
-3.793122
  0
VERTEX
  8
PLAN_1
  6
CONTINUOUS
 10
1.451114
 20
-3.792630
  0
VERTEX
  8
PLAN_1
  6
CONTINUOUS
 10
1.458000
 20
-3.791646
  0
VERTEX
  8
PLAN_1
  6
CONTINUOUS
 10
1.461933
 20
-3.791154
  0
VERTEX
  8
PLAN_1
  6
CONTINUOUS
 10
1.464886
 20
-3.789677
  0
VERTEX
  8
PLAN_1
  6
CONTINUOUS
 10
1.468327
 20
-3.788693
  0
VERTEX
  8
PLAN_1
  6
CONTINUOUS
 10
1.471280
 20
-3.786728
  0
VERTEX
  8
PLAN_1
  6
CONTINUOUS
 10
1.473736
 20
-3.784760
  0
VERTEX
  8
PLAN_1
  6
CONTINUOUS
 10
1.476689
 20
-3.782299
  0
VERTEX
  8
PLAN_1
  6
CONTINUOUS
 10
1.478654
 20
-3.779843
  0
VERTEX
  8
PLAN_1
  6
CONTINUOUS
 10
1.480622
 20
-3.776398
  0
VERTEX
  8
PLAN_1
  6
CONTINUOUS
 10
1.482098
 20
-3.772957
  0
VERTEX
  8
PLAN_1
  6
CONTINUOUS
 10
1.483083
 20
-3.768528
  0
VERTEX
  8
PLAN_1
  6
CONTINUOUS
 10
1.484067
 20
-3.763610
  0
VERTEX
  8
PLAN_1
  6
CONTINUOUS
 10
1.484067
 20
-3.758693
  0
VERTEX
  8
PLAN_1
  6
CONTINUOUS
 10
1.484067
 20
-3.753283
  0
VERTEX
  8
PLAN_1
  6
CONTINUOUS
 10
1.483083
 20
-3.748362
  0
VERTEX
  8
PLAN_1
  6
CONTINUOUS
 10
1.482098
 20
-3.743937
  0
VERTEX
  8
PLAN_1
  6
CONTINUOUS
 10
1.480130
 20
-3.740496
  0
VERTEX
  8
PLAN_1
  6
CONTINUOUS
 10
1.478654
 20
-3.737051
  0
VERTEX
  8
PLAN_1
  6
CONTINUOUS
 10
1.476197
 20
-3.734594
  0
VERTEX
  8
PLAN_1
  6
CONTINUOUS
 10
1.473736
 20
-3.732134
  0
VERTEX
  8
PLAN_1
  6
CONTINUOUS
 10
1.471280
 20
-3.730165
  0
VERTEX
  8
PLAN_1
  6
CONTINUOUS
 10
1.468327
 20
-3.728689
  0
VERTEX
  8
PLAN_1
  6
CONTINUOUS
 10
1.465374
 20
-3.727709
  0
VERTEX
  8
PLAN_1
  6
CONTINUOUS
 10
1.462425
 20
-3.726724
  0
VERTEX
  8
PLAN_1
  6
CONTINUOUS
 10
1.459472
 20
-3.726232
  0
VERTEX
  8
PLAN_1
  6
CONTINUOUS
 10
1.453571
 20
-3.725248
  0
VERTEX
  8
PLAN_1
  6
CONTINUOUS
 10
1.448161
 20
-3.725248
  0
VERTEX
  8
PLAN_1
  6
CONTINUOUS
 10
1.381272
 20
-3.725248
  0
VERTEX
  8
PLAN_1
  6
CONTINUOUS
 10
1.381272
 20
-3.793122
  0
SEQEND
  8
0
  0
SOLID
  8
PLAN_1
 10
1.583413
 20
-3.901323
 11
1.554398
 21
-3.901323
 12
1.583413
 22
-3.872303
 13
1.554398
 23
-3.872303
  0
POLYLINE
  8
PLAN_1
  6
CONTINUOUS
 66
     1
 40
0.003000
 41
0.003000
  0
VERTEX
  8
PLAN_1
  6
CONTINUOUS
 10
1.583413
 20
-3.901323
  0
VERTEX
  8
PLAN_1
  6
CONTINUOUS
 10
1.554398
 20
-3.901323
  0
VERTEX
  8
PLAN_1
  6
CONTINUOUS
 10
1.554398
 20
-3.872303
  0
VERTEX
  8
PLAN_1
  6
CONTINUOUS
 10
1.583413
 20
-3.872303
  0
VERTEX
  8
PLAN_1
  6
CONTINUOUS
 10
1.583413
 20
-3.901323
  0
SEQEND
  8
0
  0
POLYLINE
  8
PLAN_1
  6
CONTINUOUS
 66
     1
 40
0.003000
 41
0.003000
  0
VERTEX
  8
PLAN_1
  6
CONTINUOUS
 10
1.778177
 20
-3.901323
  0
VERTEX
  8
PLAN_1
  6
CONTINUOUS
 10
1.631122
 20
-3.901323
  0
VERTEX
  8
PLAN_1
  6
CONTINUOUS
 10
1.631122
 20
-3.702134
  0
VERTEX
  8
PLAN_1
  6
CONTINUOUS
 10
1.776705
 20
-3.702134
  0
VERTEX
  8
PLAN_1
  6
CONTINUOUS
 10
1.776705
 20
-3.726232
  0
VERTEX
  8
PLAN_1
  6
CONTINUOUS
 10
1.658173
 20
-3.726232
  0
VERTEX
  8
PLAN_1
  6
CONTINUOUS
 10
1.658173
 20
-3.787217
  0
VERTEX
  8
PLAN_1
  6
CONTINUOUS
 10
1.767358
 20
-3.787217
  0
VERTEX
  8
PLAN_1
  6
CONTINUOUS
 10
1.767358
 20
-3.810827
  0
VERTEX
  8
PLAN_1
  6
CONTINUOUS
 10
1.658173
 20
-3.810827
  0
VERTEX
  8
PLAN_1
  6
CONTINUOUS
 10
1.658173
 20
-3.877717
  0
VERTEX
  8
PLAN_1
  6
CONTINUOUS
 10
1.778177
 20
-3.877717
  0
VERTEX
  8
PLAN_1
  6
CONTINUOUS
 10
1.778177
 20
-3.901323
  0
SEQEND
  8
0
  0
POLYLINE
  8
PLAN_1
  6
CONTINUOUS
 66
     1
 40
0.003000
 41
0.003000
  0
VERTEX
  8
PLAN_1
  6
CONTINUOUS
 10
1.843591
 20
-3.901323
  0
VERTEX
  8
PLAN_1
  6
CONTINUOUS
 10
1.816539
 20
-3.901323
  0
VERTEX
  8
PLAN_1
  6
CONTINUOUS
 10
1.816539
 20
-3.702134
  0
VERTEX
  8
PLAN_1
  6
CONTINUOUS
 10
1.906055
 20
-3.702134
  0
VERTEX
  8
PLAN_1
  6
CONTINUOUS
 10
1.912941
 20
-3.702626
  0
VERTEX
  8
PLAN_1
  6
CONTINUOUS
 10
1.919335
 20
-3.703114
  0
VERTEX
  8
PLAN_1
  6
CONTINUOUS
 10
1.925236
 20
-3.704591
  0
VERTEX
  8
PLAN_1
  6
CONTINUOUS
 10
1.931138
 20
-3.706559
  0
VERTEX
  8
PLAN_1
  6
CONTINUOUS
 10
1.936055
 20
-3.709020
  0
VERTEX
  8
PLAN_1
  6
CONTINUOUS
 10
1.940972
 20
-3.711476
  0
VERTEX
  8
PLAN_1
  6
CONTINUOUS
 10
1.945402
 20
-3.714429
  0
VERTEX
  8
PLAN_1
  6
CONTINUOUS
 10
1.949827
 20
-3.718362
  0
VERTEX
  8
PLAN_1
  6
CONTINUOUS
 10
1.953268
 20
-3.722295
  0
VERTEX
  8
PLAN_1
  6
CONTINUOUS
 10
1.956220
 20
-3.726232
  0
VERTEX
  8
PLAN_1
  6
CONTINUOUS
 10
1.959169
 20
-3.731150
  0
VERTEX
  8
PLAN_1
  6
CONTINUOUS
 10
1.961138
 20
-3.736067
  0
VERTEX
  8
PLAN_1
  6
CONTINUOUS
 10
1.963106
 20
-3.740988
  0
VERTEX
  8
PLAN_1
  6
CONTINUOUS
 10
1.964091
 20
-3.746890
  0
VERTEX
  8
PLAN_1
  6
CONTINUOUS
 10
1.965071
 20
-3.752299
  0
VERTEX
  8
PLAN_1
  6
CONTINUOUS
 10
1.965071
 20
-3.758201
  0
VERTEX
  8
PLAN_1
  6
CONTINUOUS
 10
1.965071
 20
-3.763610
  0
VERTEX
  8
PLAN_1
  6
CONTINUOUS
 10
1.964583
 20
-3.769020
  0
VERTEX
  8
PLAN_1
  6
CONTINUOUS
 10
1.963598
 20
-3.773941
  0
VERTEX
  8
PLAN_1
  6
CONTINUOUS
 10
1.962122
 20
-3.779350
  0
VERTEX
  8
PLAN_1
  6
CONTINUOUS
 10
1.960154
 20
-3.784268
  0
VERTEX
  8
PLAN_1
  6
CONTINUOUS
 10
1.958189
 20
-3.789185
  0
VERTEX
  8
PLAN_1
  6
CONTINUOUS
 10
1.955236
 20
-3.794102
  0
VERTEX
  8
PLAN_1
  6
CONTINUOUS
 10
1.951795
 20
-3.798531
  0
VERTEX
  8
PLAN_1
  6
CONTINUOUS
 10
1.948350
 20
-3.802465
  0
VERTEX
  8
PLAN_1
  6
CONTINUOUS
 10
1.943925
 20
-3.805909
  0
VERTEX
  8
PLAN_1
  6
CONTINUOUS
 10
1.939008
 20
-3.809350
  0
VERTEX
  8
PLAN_1
  6
CONTINUOUS
 10
1.933594
 20
-3.812303
  0
VERTEX
  8
PLAN_1
  6
CONTINUOUS
 10
1.927693
 20
-3.814268
  0
VERTEX
  8
PLAN_1
  6
CONTINUOUS
 10
1.921299
 20
-3.816236
  0
VERTEX
  8
PLAN_1
  6
CONTINUOUS
 10
1.913921
 20
-3.817220
  0
VERTEX
  8
PLAN_1
  6
CONTINUOUS
 10
1.906055
 20
-3.817220
  0
VERTEX
  8
PLAN_1
  6
CONTINUOUS
 10
1.843591
 20
-3.817220
  0
VERTEX
  8
PLAN_1
  6
CONTINUOUS
 10
1.843591
 20
-3.901323
  0
SEQEND
  8
0
  0
POLYLINE
  8
PLAN_1
  6
CONTINUOUS
 66
     1
 40
0.003000
 41
0.003000
  0
VERTEX
  8
PLAN_1
  6
CONTINUOUS
 10
1.843591
 20
-3.794594
  0
VERTEX
  8
PLAN_1
  6
CONTINUOUS
 10
1.897201
 20
-3.794594
  0
VERTEX
  8
PLAN_1
  6
CONTINUOUS
 10
1.901626
 20
-3.794102
  0
VERTEX
  8
PLAN_1
  6
CONTINUOUS
 10
1.905563
 20
-3.794102
  0
VERTEX
  8
PLAN_1
  6
CONTINUOUS
 10
1.909496
 20
-3.793610
  0
VERTEX
  8
PLAN_1
  6
CONTINUOUS
 10
1.913429
 20
-3.792630
  0
VERTEX
  8
PLAN_1
  6
CONTINUOUS
 10
1.917366
 20
-3.791646
  0
VERTEX
  8
PLAN_1
  6
CONTINUOUS
 10
1.920315
 20
-3.790169
  0
VERTEX
  8
PLAN_1
  6
CONTINUOUS
 10
1.923760
 20
-3.788693
  0
VERTEX
  8
PLAN_1
  6
CONTINUOUS
 10
1.926217
 20
-3.786728
  0
VERTEX
  8
PLAN_1
  6
CONTINUOUS
 10
1.928677
 20
-3.784268
  0
VERTEX
  8
PLAN_1
  6
CONTINUOUS
 10
1.931138
 20
-3.781807
  0
VERTEX
  8
PLAN_1
  6
CONTINUOUS
 10
1.933102
 20
-3.778858
  0
VERTEX
  8
PLAN_1
  6
CONTINUOUS
 10
1.934579
 20
-3.775413
  0
VERTEX
  8
PLAN_1
  6
CONTINUOUS
 10
1.936055
 20
-3.771972
  0
VERTEX
  8
PLAN_1
  6
CONTINUOUS
 10
1.937039
 20
-3.768035
  0
VERTEX
  8
PLAN_1
  6
CONTINUOUS
 10
1.937531
 20
-3.763610
  0
VERTEX
  8
PLAN_1
  6
CONTINUOUS
 10
1.937531
 20
-3.758693
  0
VERTEX
  8
PLAN_1
  6
CONTINUOUS
 10
1.937531
 20
-3.754268
  0
VERTEX
  8
PLAN_1
  6
CONTINUOUS
 10
1.936547
 20
-3.749839
  0
VERTEX
  8
PLAN_1
  6
CONTINUOUS
 10
1.936055
 20
-3.746398
  0
VERTEX
  8
PLAN_1
  6
CONTINUOUS
 10
1.934579
 20
-3.742953
  0
VERTEX
  8
PLAN_1
  6
CONTINUOUS
 10
1.933102
 20
-3.739512
  0
VERTEX
  8
PLAN_1
  6
CONTINUOUS
 10
1.931138
 20
-3.737051
  0
VERTEX
  8
PLAN_1
  6
CONTINUOUS
 10
1.928677
 20
-3.734594
  0
VERTEX
  8
PLAN_1
  6
CONTINUOUS
 10
1.926217
 20
-3.732626
  0
VERTEX
  8
PLAN_1
  6
CONTINUOUS
 10
1.923268
 20
-3.730657
  0
VERTEX
  8
PLAN_1
  6
CONTINUOUS
 10
1.920315
 20
-3.729181
  0
VERTEX
  8
PLAN_1
  6
CONTINUOUS
 10
1.916874
 20
-3.727709
  0
VERTEX
  8
PLAN_1
  6
CONTINUOUS
 10
1.913429
 20
-3.726724
  0
VERTEX
  8
PLAN_1
  6
CONTINUOUS
 10
1.906055
 20
-3.725740
  0
VERTEX
  8
PLAN_1
  6
CONTINUOUS
 10
1.898185
 20
-3.725248
  0
VERTEX
  8
PLAN_1
  6
CONTINUOUS
 10
1.843591
 20
-3.725248
  0
VERTEX
  8
PLAN_1
  6
CONTINUOUS
 10
1.843591
 20
-3.794594
  0
SEQEND
  8
0
  0
POLYLINE
  8
PLAN_1
  6
CONTINUOUS
 66
     1
 40
0.003000
 41
0.003000
  0
VERTEX
  8
PLAN_1
  6
CONTINUOUS
 10
2.119016
 20
-3.760661
  0
VERTEX
  8
PLAN_1
  6
CONTINUOUS
 10
2.118524
 20
-3.755248
  0
VERTEX
  8
PLAN_1
  6
CONTINUOUS
 10
2.117539
 20
-3.749839
  0
VERTEX
  8
PLAN_1
  6
CONTINUOUS
 10
2.116063
 20
-3.745413
  0
VERTEX
  8
PLAN_1
  6
CONTINUOUS
 10
2.114098
 20
-3.740988
  0
VERTEX
  8
PLAN_1
  6
CONTINUOUS
 10
2.111638
 20
-3.737543
  0
VERTEX
  8
PLAN_1
  6
CONTINUOUS
 10
2.108685
 20
-3.734102
  0
VERTEX
  8
PLAN_1
  6
CONTINUOUS
 10
2.105736
 20
-3.731150
  0
VERTEX
  8
PLAN_1
  6
CONTINUOUS
 10
2.102291
 20
-3.728689
  0
VERTEX
  8
PLAN_1
  6
CONTINUOUS
 10
2.098850
 20
-3.726724
  0
VERTEX
  8
PLAN_1
  6
CONTINUOUS
 10
2.094913
 20
-3.724756
  0
VERTEX
  8
PLAN_1
  6
CONTINUOUS
 10
2.090980
 20
-3.723280
  0
VERTEX
  8
PLAN_1
  6
CONTINUOUS
 10
2.086555
 20
-3.721807
  0
VERTEX
  8
PLAN_1
  6
CONTINUOUS
 10
2.082618
 20
-3.721315
  0
VERTEX
  8
PLAN_1
  6
CONTINUOUS
 10
2.078193
 20
-3.720331
  0
VERTEX
  8
PLAN_1
  6
CONTINUOUS
 10
2.074260
 20
-3.720331
  0
VERTEX
  8
PLAN_1
  6
CONTINUOUS
 10
2.069831
 20
-3.719839
  0
VERTEX
  8
PLAN_1
  6
CONTINUOUS
 10
2.062945
 20
-3.720331
  0
VERTEX
  8
PLAN_1
  6
CONTINUOUS
 10
2.055571
 20
-3.721315
  0
VERTEX
  8
PLAN_1
  6
CONTINUOUS
 10
2.051634
 20
-3.721807
  0
VERTEX
  8
PLAN_1
  6
CONTINUOUS
 10
2.047701
 20
-3.723280
  0
VERTEX
  8
PLAN_1
  6
CONTINUOUS
 10
2.044256
 20
-3.724264
  0
VERTEX
  8
PLAN_1
  6
CONTINUOUS
 10
2.040815
 20
-3.726232
  0
VERTEX
  8
PLAN_1
  6
CONTINUOUS
 10
2.037370
 20
-3.728201
  0
VERTEX
  8
PLAN_1
  6
CONTINUOUS
 10
2.034421
 20
-3.730657
  0
VERTEX
  8
PLAN_1
  6
CONTINUOUS
 10
2.031469
 20
-3.733610
  0
VERTEX
  8
PLAN_1
  6
CONTINUOUS
 10
2.029012
 20
-3.736559
  0
VERTEX
  8
PLAN_1
  6
CONTINUOUS
 10
2.027043
 20
-3.740496
  0
VERTEX
  8
PLAN_1
  6
CONTINUOUS
 10
2.025567
 20
-3.744921
  0
VERTEX
  8
PLAN_1
  6
CONTINUOUS
 10
2.024583
 20
-3.749839
  0
VERTEX
  8
PLAN_1
  6
CONTINUOUS
 10
2.024091
 20
-3.754756
  0
VERTEX
  8
PLAN_1
  6
CONTINUOUS
 10
2.024583
 20
-3.758201
  0
VERTEX
  8
PLAN_1
  6
CONTINUOUS
 10
2.024583
 20
-3.760661
  0
VERTEX
  8
PLAN_1
  6
CONTINUOUS
 10
2.025567
 20
-3.763610
  0
VERTEX
  8
PLAN_1
  6
CONTINUOUS
 10
2.026059
 20
-3.765579
  0
VERTEX
  8
PLAN_1
  6
CONTINUOUS
 10
2.027535
 20
-3.768035
  0
VERTEX
  8
PLAN_1
  6
CONTINUOUS
 10
2.028520
 20
-3.769512
  0
VERTEX
  8
PLAN_1
  6
CONTINUOUS
 10
2.029992
 20
-3.771480
  0
VERTEX
  8
PLAN_1
  6
CONTINUOUS
 10
2.031469
 20
-3.772957
  0
VERTEX
  8
PLAN_1
  6
CONTINUOUS
 10
2.035406
 20
-3.775413
  0
VERTEX
  8
PLAN_1
  6
CONTINUOUS
 10
2.039339
 20
-3.777382
  0
VERTEX
  8
PLAN_1
  6
CONTINUOUS
 10
2.043272
 20
-3.778858
  0
VERTEX
  8
PLAN_1
  6
CONTINUOUS
 10
2.047701
 20
-3.780335
  0
VERTEX
  8
PLAN_1
  6
CONTINUOUS
 10
2.104752
 20
-3.793122
  0
VERTEX
  8
PLAN_1
  6
CONTINUOUS
 10
2.109669
 20
-3.794594
  0
VERTEX
  8
PLAN_1
  6
CONTINUOUS
 10
2.114098
 20
-3.796071
  0
VERTEX
  8
PLAN_1
  6
CONTINUOUS
 10
2.118524
 20
-3.797547
  0
VERTEX
  8
PLAN_1
  6
CONTINUOUS
 10
2.122949
 20
-3.799516
  0
VERTEX
  8
PLAN_1
  6
CONTINUOUS
 10
2.126886
 20
-3.801972
  0
VERTEX
  8
PLAN_1
  6
CONTINUOUS
 10
2.130327
 20
-3.804433
  0
VERTEX
  8
PLAN_1
  6
CONTINUOUS
 10
2.133772
 20
-3.807382
  0
VERTEX
  8
PLAN_1
  6
CONTINUOUS
 10
2.137213
 20
-3.810335
  0
VERTEX
  8
PLAN_1
  6
CONTINUOUS
 10
2.140165
 20
-3.813776
  0
VERTEX
  8
PLAN_1
  6
CONTINUOUS
 10
2.142622
 20
-3.817220
  0
VERTEX
  8
PLAN_1
  6
CONTINUOUS
 10
2.144591
 20
-3.821646
  0
VERTEX
  8
PLAN_1
  6
CONTINUOUS
 10
2.146559
 20
-3.825583
  0
VERTEX
  8
PLAN_1
  6
CONTINUOUS
 10
2.148031
 20
-3.830500
  0
VERTEX
  8
PLAN_1
  6
CONTINUOUS
 10
2.149016
 20
-3.835417
  0
VERTEX
  8
PLAN_1
  6
CONTINUOUS
 10
2.150000
 20
-3.840827
  0
VERTEX
  8
PLAN_1
  6
CONTINUOUS
 10
2.150000
 20
-3.846728
  0
VERTEX
  8
PLAN_1
  6
CONTINUOUS
 10
2.150000
 20
-3.851157
  0
VERTEX
  8
PLAN_1
  6
CONTINUOUS
 10
2.149508
 20
-3.855091
  0
VERTEX
  8
PLAN_1
  6
CONTINUOUS
 10
2.149016
 20
-3.859024
  0
VERTEX
  8
PLAN_1
  6
CONTINUOUS
 10
2.148031
 20
-3.862961
  0
VERTEX
  8
PLAN_1
  6
CONTINUOUS
 10
2.147047
 20
-3.866402
  0
VERTEX
  8
PLAN_1
  6
CONTINUOUS
 10
2.145575
 20
-3.869846
  0
VERTEX
  8
PLAN_1
  6
CONTINUOUS
 10
2.144098
 20
-3.872795
  0
VERTEX
  8
PLAN_1
  6
CONTINUOUS
 10
2.142622
 20
-3.875748
  0
VERTEX
  8
PLAN_1
  6
CONTINUOUS
 10
2.138689
 20
-3.881650
  0
VERTEX
  8
PLAN_1
  6
CONTINUOUS
 10
2.134260
 20
-3.886567
  0
VERTEX
  8
PLAN_1
  6
CONTINUOUS
 10
2.129343
 20
-3.890504
  0
VERTEX
  8
PLAN_1
  6
CONTINUOUS
 10
2.123933
 20
-3.894437
  0
VERTEX
  8
PLAN_1
  6
CONTINUOUS
 10
2.118031
 20
-3.897390
  0
VERTEX
  8
PLAN_1
  6
CONTINUOUS
 10
2.111638
 20
-3.900339
  0
VERTEX
  8
PLAN_1
  6
CONTINUOUS
 10
2.105244
 20
-3.902307
  0
VERTEX
  8
PLAN_1
  6
CONTINUOUS
 10
2.098358
 20
-3.904272
  0
VERTEX
  8
PLAN_1
  6
CONTINUOUS
 10
2.091965
 20
-3.905256
  0
VERTEX
  8
PLAN_1
  6
CONTINUOUS
 10
2.085079
 20
-3.906240
  0
VERTEX
  8
PLAN_1
  6
CONTINUOUS
 10
2.078685
 20
-3.906732
  0
VERTEX
  8
PLAN_1
  6
CONTINUOUS
 10
2.071799
 20
-3.906732
  0
VERTEX
  8
PLAN_1
  6
CONTINUOUS
 10
2.065406
 20
-3.906732
  0
VERTEX
  8
PLAN_1
  6
CONTINUOUS
 10
2.059012
 20
-3.906240
  0
VERTEX
  8
PLAN_1
  6
CONTINUOUS
 10
2.053602
 20
-3.905748
  0
VERTEX
  8
PLAN_1
  6
CONTINUOUS
 10
2.048193
 20
-3.904764
  0
VERTEX
  8
PLAN_1
  6
CONTINUOUS
 10
2.038846
 20
-3.902799
  0
VERTEX
  8
PLAN_1
  6
CONTINUOUS
 10
2.031469
 20
-3.900339
  0
VERTEX
  8
PLAN_1
  6
CONTINUOUS
 10
2.025075
 20
-3.897390
  0
VERTEX
  8
PLAN_1
  6
CONTINUOUS
 10
2.019665
 20
-3.893945
  0
VERTEX
  8
PLAN_1
  6
CONTINUOUS
 10
2.015240
 20
-3.890992
  0
VERTEX
  8
PLAN_1
  6
CONTINUOUS
 10
2.011795
 20
-3.887551
  0
VERTEX
  8
PLAN_1
  6
CONTINUOUS
 10
2.005894
 20
-3.881650
  0
VERTEX
  8
PLAN_1
  6
CONTINUOUS
 10
2.001469
 20
-3.875748
  0
VERTEX
  8
PLAN_1
  6
CONTINUOUS
 10
1.998024
 20
-3.869846
  0
VERTEX
  8
PLAN_1
  6
CONTINUOUS
 10
1.995075
 20
-3.863453
  0
VERTEX
  8
PLAN_1
  6
CONTINUOUS
 10
1.993598
 20
-3.857059
  0
VERTEX
  8
PLAN_1
  6
CONTINUOUS
 10
1.992122
 20
-3.850665
  0
VERTEX
  8
PLAN_1
  6
CONTINUOUS
 10
1.991630
 20
-3.844272
  0
VERTEX
  8
PLAN_1
  6
CONTINUOUS
 10
1.991630
 20
-3.837386
  0
VERTEX
  8
PLAN_1
  6
CONTINUOUS
 10
2.016717
 20
-3.837386
  0
VERTEX
  8
PLAN_1
  6
CONTINUOUS
 10
2.017205
 20
-3.843780
  0
VERTEX
  8
PLAN_1
  6
CONTINUOUS
 10
2.018189
 20
-3.849681
  0
VERTEX
  8
PLAN_1
  6
CONTINUOUS
 10
2.019665
 20
-3.855091
  0
VERTEX
  8
PLAN_1
  6
CONTINUOUS
 10
2.021634
 20
-3.859516
  0
VERTEX
  8
PLAN_1
  6
CONTINUOUS
 10
2.024583
 20
-3.863945
  0
VERTEX
  8
PLAN_1
  6
CONTINUOUS
 10
2.027535
 20
-3.867878
  0
VERTEX
  8
PLAN_1
  6
CONTINUOUS
 10
2.030976
 20
-3.871323
  0
VERTEX
  8
PLAN_1
  6
CONTINUOUS
 10
2.034421
 20
-3.873780
  0
VERTEX
  8
PLAN_1
  6
CONTINUOUS
 10
2.038846
 20
-3.876240
  0
VERTEX
  8
PLAN_1
  6
CONTINUOUS
 10
2.043272
 20
-3.878697
  0
VERTEX
  8
PLAN_1
  6
CONTINUOUS
 10
2.047701
 20
-3.880173
  0
VERTEX
  8
PLAN_1
  6
CONTINUOUS
 10
2.052126
 20
-3.881650
  0
VERTEX
  8
PLAN_1
  6
CONTINUOUS
 10
2.057043
 20
-3.882634
  0
VERTEX
  8
PLAN_1
  6
CONTINUOUS
 10
2.061965
 20
-3.883126
  0
VERTEX
  8
PLAN_1
  6
CONTINUOUS
 10
2.066882
 20
-3.883618
  0
VERTEX
  8
PLAN_1
  6
CONTINUOUS
 10
2.071799
 20
-3.883618
  0
VERTEX
  8
PLAN_1
  6
CONTINUOUS
 10
2.079669
 20
-3.883618
  0
VERTEX
  8
PLAN_1
  6
CONTINUOUS
 10
2.088031
 20
-3.882634
  0
VERTEX
  8
PLAN_1
  6
CONTINUOUS
 10
2.092457
 20
-3.881650
  0
VERTEX
  8
PLAN_1
  6
CONTINUOUS
 10
2.096882
 20
-3.880665
  0
VERTEX
  8
PLAN_1
  6
CONTINUOUS
 10
2.100819
 20
-3.879189
  0
VERTEX
  8
PLAN_1
  6
CONTINUOUS
 10
2.105244
 20
-3.877717
  0
VERTEX
  8
PLAN_1
  6
CONTINUOUS
 10
2.109177
 20
-3.875748
  0
VERTEX
  8
PLAN_1
  6
CONTINUOUS
 10
2.112622
 20
-3.873287
  0
VERTEX
  8
PLAN_1
  6
CONTINUOUS
 10
2.115571
 20
-3.870831
  0
VERTEX
  8
PLAN_1
  6
CONTINUOUS
 10
2.118524
 20
-3.867386
  0
VERTEX
  8
PLAN_1
  6
CONTINUOUS
 10
2.120980
 20
-3.863945
  0
VERTEX
  8
PLAN_1
  6
CONTINUOUS
 10
2.122457
 20
-3.860008
  0
VERTEX
  8
PLAN_1
  6
CONTINUOUS
 10
2.123441
 20
-3.855091
  0
VERTEX
  8
PLAN_1
  6
CONTINUOUS
 10
2.123933
 20
-3.850173
  0
VERTEX
  8
PLAN_1
  6
CONTINUOUS
 10
2.123933
 20
-3.846236
  0
VERTEX
  8
PLAN_1
  6
CONTINUOUS
 10
2.123441
 20
-3.842795
  0
VERTEX
  8
PLAN_1
  6
CONTINUOUS
 10
2.122949
 20
-3.839843
  0
VERTEX
  8
PLAN_1
  6
CONTINUOUS
 10
2.121965
 20
-3.836894
  0
VERTEX
  8
PLAN_1
  6
CONTINUOUS
 10
2.120492
 20
-3.834433
  0
VERTEX
  8
PLAN_1
  6
CONTINUOUS
 10
2.119016
 20
-3.831976
  0
VERTEX
  8
PLAN_1
  6
CONTINUOUS
 10
2.117047
 20
-3.829516
  0
VERTEX
  8
PLAN_1
  6
CONTINUOUS
 10
2.115079
 20
-3.827547
  0
VERTEX
  8
PLAN_1
  6
CONTINUOUS
 10
2.112130
 20
-3.825583
  0
VERTEX
  8
PLAN_1
  6
CONTINUOUS
 10
2.109177
 20
-3.824106
  0
VERTEX
  8
PLAN_1
  6
CONTINUOUS
 10
2.105736
 20
-3.822138
  0
VERTEX
  8
PLAN_1
  6
CONTINUOUS
 10
2.101799
 20
-3.820661
  0
VERTEX
  8
PLAN_1
  6
CONTINUOUS
 10
2.092457
 20
-3.817713
  0
VERTEX
  8
PLAN_1
  6
CONTINUOUS
 10
2.081638
 20
-3.814760
  0
VERTEX
  8
PLAN_1
  6
CONTINUOUS
 10
2.040815
 20
-3.805417
  0
VERTEX
  8
PLAN_1
  6
CONTINUOUS
 10
2.034913
 20
-3.803941
  0
VERTEX
  8
PLAN_1
  6
CONTINUOUS
 10
2.028520
 20
-3.801972
  0
VERTEX
  8
PLAN_1
  6
CONTINUOUS
 10
2.025075
 20
-3.800496
  0
VERTEX
  8
PLAN_1
  6
CONTINUOUS
 10
2.021634
 20
-3.798531
  0
VERTEX
  8
PLAN_1
  6
CONTINUOUS
 10
2.017697
 20
-3.796563
  0
VERTEX
  8
PLAN_1
  6
CONTINUOUS
 10
2.014748
 20
-3.794102
  0
VERTEX
  8
PLAN_1
  6
CONTINUOUS
 10
2.011303
 20
-3.791154
  0
VERTEX
  8
PLAN_1
  6
CONTINUOUS
 10
2.008354
 20
-3.787709
  0
VERTEX
  8
PLAN_1
  6
CONTINUOUS
 10
2.005402
 20
-3.784268
  0
VERTEX
  8
PLAN_1
  6
CONTINUOUS
 10
2.002945
 20
-3.780335
  0
VERTEX
  8
PLAN_1
  6
CONTINUOUS
 10
2.000976
 20
-3.775413
  0
VERTEX
  8
PLAN_1
  6
CONTINUOUS
 10
1.999500
 20
-3.770496
  0
VERTEX
  8
PLAN_1
  6
CONTINUOUS
 10
1.998516
 20
-3.764594
  0
VERTEX
  8
PLAN_1
  6
CONTINUOUS
 10
1.998024
 20
-3.758693
  0
VERTEX
  8
PLAN_1
  6
CONTINUOUS
 10
1.998516
 20
-3.752791
  0
VERTEX
  8
PLAN_1
  6
CONTINUOUS
 10
1.999008
 20
-3.746890
  0
VERTEX
  8
PLAN_1
  6
CONTINUOUS
 10
2.000484
 20
-3.741480
  0
VERTEX
  8
PLAN_1
  6
CONTINUOUS
 10
2.001961
 20
-3.736067
  0
VERTEX
  8
PLAN_1
  6
CONTINUOUS
 10
2.004417
 20
-3.730657
  0
VERTEX
  8
PLAN_1
  6
CONTINUOUS
 10
2.006878
 20
-3.725248
  0
VERTEX
  8
PLAN_1
  6
CONTINUOUS
 10
2.010323
 20
-3.720823
  0
VERTEX
  8
PLAN_1
  6
CONTINUOUS
 10
2.014256
 20
-3.715902
  0
VERTEX
  8
PLAN_1
  6
CONTINUOUS
 10
2.018681
 20
-3.711969
  0
VERTEX
  8
PLAN_1
  6
CONTINUOUS
 10
2.023598
 20
-3.708528
  0
VERTEX
  8
PLAN_1
  6
CONTINUOUS
 10
2.029504
 20
-3.705083
  0
VERTEX
  8
PLAN_1
  6
CONTINUOUS
 10
2.035406
 20
-3.702134
  0
VERTEX
  8
PLAN_1
  6
CONTINUOUS
 10
2.042291
 20
-3.700165
  0
VERTEX
  8
PLAN_1
  6
CONTINUOUS
 10
2.049665
 20
-3.698197
  0
VERTEX
  8
PLAN_1
  6
CONTINUOUS
 10
2.058028
 20
-3.697213
  0
VERTEX
  8
PLAN_1
  6
CONTINUOUS
 10
2.066882
 20
-3.697213
  0
VERTEX
  8
PLAN_1
  6
CONTINUOUS
 10
2.073276
 20
-3.697213
  0
VERTEX
  8
PLAN_1
  6
CONTINUOUS
 10
2.079177
 20
-3.697705
  0
VERTEX
  8
PLAN_1
  6
CONTINUOUS
 10
2.084587
 20
-3.698197
  0
VERTEX
  8
PLAN_1
  6
CONTINUOUS
 10
2.089996
 20
-3.698689
  0
VERTEX
  8
PLAN_1
  6
CONTINUOUS
 10
2.094913
 20
-3.699673
  0
VERTEX
  8
PLAN_1
  6
CONTINUOUS
 10
2.099835
 20
-3.701150
  0
VERTEX
  8
PLAN_1
  6
CONTINUOUS
 10
2.104260
 20
-3.702134
  0
VERTEX
  8
PLAN_1
  6
CONTINUOUS
 10
2.108193
 20
-3.703606
  0
VERTEX
  8
PLAN_1
  6
CONTINUOUS
 10
2.115571
 20
-3.707543
  0
VERTEX
  8
PLAN_1
  6
CONTINUOUS
 10
2.121472
 20
-3.711476
  0
VERTEX
  8
PLAN_1
  6
CONTINUOUS
 10
2.126886
 20
-3.715902
  0
VERTEX
  8
PLAN_1
  6
CONTINUOUS
 10
2.131311
 20
-3.720331
  0
VERTEX
  8
PLAN_1
  6
CONTINUOUS
 10
2.134752
 20
-3.725740
  0
VERTEX
  8
PLAN_1
  6
CONTINUOUS
 10
2.137705
 20
-3.730657
  0
VERTEX
  8
PLAN_1
  6
CONTINUOUS
 10
2.140165
 20
-3.736067
  0
VERTEX
  8
PLAN_1
  6
CONTINUOUS
 10
2.141638
 20
-3.741480
  0
VERTEX
  8
PLAN_1
  6
CONTINUOUS
 10
2.142622
 20
-3.746398
  0
VERTEX
  8
PLAN_1
  6
CONTINUOUS
 10
2.143606
 20
-3.751315
  0
VERTEX
  8
PLAN_1
  6
CONTINUOUS
 10
2.144098
 20
-3.756232
  0
VERTEX
  8
PLAN_1
  6
CONTINUOUS
 10
2.144591
 20
-3.760661
  0
VERTEX
  8
PLAN_1
  6
CONTINUOUS
 10
2.119016
 20
-3.760661
  0
SEQEND
  8
0
  0
POLYLINE
  8
PLAN_1
  6
CONTINUOUS
 66
     1
 40
0.008358
 41
0.008358
  0
VERTEX
  8
PLAN_1
  6
CONTINUOUS
 10
-1.687240
 20
2.593260
  0
VERTEX
  8
PLAN_1
  6
CONTINUOUS
 10
-1.687240
 20
3.519866
  0
VERTEX
  8
PLAN_1
  6
CONTINUOUS
 10
-1.926268
 20
3.519866
  0
VERTEX
  8
PLAN_1
  6
CONTINUOUS
 10
-1.926268
 20
2.456531
  0
SEQEND
  8
0
  0
POLYLINE
  8
PLAN_1
  6
CONTINUOUS
 66
     1
 40
0.003933
 41
0.003933
  0
VERTEX
  8
PLAN_1
  6
CONTINUOUS
 10
-2.118079
 20
2.337020
  0
VERTEX
  8
PLAN_1
  6
CONTINUOUS
 10
-1.440343
 20
2.735890
  0
SEQEND
  8
0
  0
POLYLINE
  8
PLAN_1
  6
CONTINUOUS
 66
     1
 40
0.003933
 41
0.003933
  0
VERTEX
  8
PLAN_1
  6
CONTINUOUS
 10
-1.432472
 20
2.560311
  0
VERTEX
  8
PLAN_1
  6
CONTINUOUS
 10
-2.102835
 20
2.169307
  0
SEQEND
  8
0
  0
POLYLINE
  8
PLAN_1
  6
CONTINUOUS
 66
     1
 40
0.008358
 41
0.008358
  0
VERTEX
  8
PLAN_1
  6
CONTINUOUS
 10
-1.981350
 20
0.606280
  0
VERTEX
  8
PLAN_1
  6
CONTINUOUS
 10
-1.981350
 20
1.062693
  0
VERTEX
  8
PLAN_1
  6
CONTINUOUS
 10
-2.089555
 20
1.062693
  0
VERTEX
  8
PLAN_1
  6
CONTINUOUS
 10
-2.089555
 20
0.606280
  0
VERTEX
  8
PLAN_1
  6
CONTINUOUS
 10
-1.981350
 20
0.606280
  0
SEQEND
  8
0
  0
POLYLINE
  8
PLAN_1
  6
CONTINUOUS
 66
     1
 40
0.008358
 41
0.008358
  0
VERTEX
  8
PLAN_1
  6
CONTINUOUS
 10
-2.088571
 20
0.946130
  0
VERTEX
  8
PLAN_1
  6
CONTINUOUS
 10
-1.984303
 20
0.946130
  0
SEQEND
  8
0
  0
POLYLINE
  8
PLAN_1
  6
CONTINUOUS
 66
     1
 40
0.008358
 41
0.008358
  0
VERTEX
  8
PLAN_1
  6
CONTINUOUS
 10
-2.088571
 20
0.722350
  0
VERTEX
  8
PLAN_1
  6
CONTINUOUS
 10
-1.984303
 20
0.722350
  0
SEQEND
  8
0
  0
POLYLINE
  8
PLAN_1
  6
CONTINUOUS
 66
     1
 40
0.008358
 41
0.008358
  0
VERTEX
  8
PLAN_1
  6
CONTINUOUS
 10
-2.076276
 20
1.062201
  0
VERTEX
  8
PLAN_1
  6
CONTINUOUS
 10
-2.077752
 20
1.059744
  0
VERTEX
  8
PLAN_1
  6
CONTINUOUS
 10
-2.080701
 20
1.052366
  0
VERTEX
  8
PLAN_1
  6
CONTINUOUS
 10
-2.082669
 20
1.046957
  0
VERTEX
  8
PLAN_1
  6
CONTINUOUS
 10
-2.084638
 20
1.040563
  0
VERTEX
  8
PLAN_1
  6
CONTINUOUS
 10
-2.086110
 20
1.033677
  0
VERTEX
  8
PLAN_1
  6
CONTINUOUS
 10
-2.087587
 20
1.025315
  0
VERTEX
  8
PLAN_1
  6
CONTINUOUS
 10
-2.088571
 20
1.016953
  0
VERTEX
  8
PLAN_1
  6
CONTINUOUS
 10
-2.089555
 20
1.008102
  0
VERTEX
  8
PLAN_1
  6
CONTINUOUS
 10
-2.089063
 20
0.998264
  0
VERTEX
  8
PLAN_1
  6
CONTINUOUS
 10
-2.088571
 20
0.988429
  0
VERTEX
  8
PLAN_1
  6
CONTINUOUS
 10
-2.087587
 20
0.983020
  0
VERTEX
  8
PLAN_1
  6
CONTINUOUS
 10
-2.086602
 20
0.977606
  0
VERTEX
  8
PLAN_1
  6
CONTINUOUS
 10
-2.085126
 20
0.972689
  0
VERTEX
  8
PLAN_1
  6
CONTINUOUS
 10
-2.083654
 20
0.967280
  0
VERTEX
  8
PLAN_1
  6
CONTINUOUS
 10
-2.081685
 20
0.961870
  0
VERTEX
  8
PLAN_1
  6
CONTINUOUS
 10
-2.079717
 20
0.956461
  0
VERTEX
  8
PLAN_1
  6
CONTINUOUS
 10
-2.076768
 20
0.951047
  0
VERTEX
  8
PLAN_1
  6
CONTINUOUS
 10
-2.073815
 20
0.945638
  0
VERTEX
  8
PLAN_1
  6
CONTINUOUS
 10
-2.075291
 20
0.941705
  0
VERTEX
  8
PLAN_1
  6
CONTINUOUS
 10
-2.078732
 20
0.929409
  0
VERTEX
  8
PLAN_1
  6
CONTINUOUS
 10
-2.080701
 20
0.921047
  0
VERTEX
  8
PLAN_1
  6
CONTINUOUS
 10
-2.082669
 20
0.910228
  0
VERTEX
  8
PLAN_1
  6
CONTINUOUS
 10
-2.084638
 20
0.897933
  0
VERTEX
  8
PLAN_1
  6
CONTINUOUS
 10
-2.086602
 20
0.884161
  0
VERTEX
  8
PLAN_1
  6
CONTINUOUS
 10
-2.088079
 20
0.868913
  0
VERTEX
  8
PLAN_1
  6
CONTINUOUS
 10
-2.089063
 20
0.851701
  0
VERTEX
  8
PLAN_1
  6
CONTINUOUS
 10
-2.089555
 20
0.833504
  0
VERTEX
  8
PLAN_1
  6
CONTINUOUS
 10
-2.089063
 20
0.813831
  0
VERTEX
  8
PLAN_1
  6
CONTINUOUS
 10
-2.087587
 20
0.792681
  0
VERTEX
  8
PLAN_1
  6
CONTINUOUS
 10
-2.085126
 20
0.770547
  0
VERTEX
  8
PLAN_1
  6
CONTINUOUS
 10
-2.083654
 20
0.758744
  0
VERTEX
  8
PLAN_1
  6
CONTINUOUS
 10
-2.081685
 20
0.746941
  0
VERTEX
  8
PLAN_1
  6
CONTINUOUS
 10
-2.079717
 20
0.734646
  0
VERTEX
  8
PLAN_1
  6
CONTINUOUS
 10
-2.076768
 20
0.722350
  0
VERTEX
  8
PLAN_1
  6
CONTINUOUS
 10
-2.078244
 20
0.719890
  0
VERTEX
  8
PLAN_1
  6
CONTINUOUS
 10
-2.081193
 20
0.712512
  0
VERTEX
  8
PLAN_1
  6
CONTINUOUS
 10
-2.083161
 20
0.707102
  0
VERTEX
  8
PLAN_1
  6
CONTINUOUS
 10
-2.084638
 20
0.701201
  0
VERTEX
  8
PLAN_1
  6
CONTINUOUS
 10
-2.086602
 20
0.694315
  0
VERTEX
  8
PLAN_1
  6
CONTINUOUS
 10
-2.088079
 20
0.686445
  0
VERTEX
  8
PLAN_1
  6
CONTINUOUS
 10
-2.089063
 20
0.678087
  0
VERTEX
  8
PLAN_1
  6
CONTINUOUS
 10
-2.089555
 20
0.669232
  0
VERTEX
  8
PLAN_1
  6
CONTINUOUS
 10
-2.089555
 20
0.659394
  0
VERTEX
  8
PLAN_1
  6
CONTINUOUS
 10
-2.088571
 20
0.649559
  0
VERTEX
  8
PLAN_1
  6
CONTINUOUS
 10
-2.088079
 20
0.644642
  0
VERTEX
  8
PLAN_1
  6
CONTINUOUS
 10
-2.087094
 20
0.639228
  0
VERTEX
  8
PLAN_1
  6
CONTINUOUS
 10
-2.085618
 20
0.634311
  0
VERTEX
  8
PLAN_1
  6
CONTINUOUS
 10
-2.084146
 20
0.628902
  0
VERTEX
  8
PLAN_1
  6
CONTINUOUS
 10
-2.082177
 20
0.623492
  0
VERTEX
  8
PLAN_1
  6
CONTINUOUS
 10
-2.079717
 20
0.618083
  0
VERTEX
  8
PLAN_1
  6
CONTINUOUS
 10
-2.077260
 20
0.612673
  0
VERTEX
  8
PLAN_1
  6
CONTINUOUS
 10
-2.074307
 20
0.607752
  0
SEQEND
  8
0
  0
POLYLINE
  8
PLAN_1
  6
CONTINUOUS
 66
     1
 40
0.008358
 41
0.008358
  0
VERTEX
  8
PLAN_1
  6
CONTINUOUS
 10
-1.687240
 20
2.399480
  0
VERTEX
  8
PLAN_1
  6
CONTINUOUS
 10
-1.687240
 20
1.131059
  0
SEQEND
  8
0
  0
POLYLINE
  8
PLAN_1
  6
CONTINUOUS
 66
     1
 40
0.008358
 41
0.008358
  0
VERTEX
  8
PLAN_1
  6
CONTINUOUS
 10
-1.926268
 20
1.131059
  0
VERTEX
  8
PLAN_1
  6
CONTINUOUS
 10
-1.926268
 20
2.262260
  0
SEQEND
  8
0
  0
POLYLINE
  8
PLAN_1
  6
CONTINUOUS
 66
     1
 40
0.008358
 41
0.008358
  0
VERTEX
  8
PLAN_1
  6
CONTINUOUS
 10
-1.926268
 20
0.521685
  0
VERTEX
  8
PLAN_1
  6
CONTINUOUS
 10
-1.926268
 20
-0.190976
  0
VERTEX
  8
PLAN_1
  6
CONTINUOUS
 10
-1.687240
 20
-0.190976
  0
VERTEX
  8
PLAN_1
  6
CONTINUOUS
 10
-1.687240
 20
0.521685
  0
SEQEND
  8
0
  0
POLYLINE
  8
PLAN_1
  6
CONTINUOUS
 66
     1
 40
0.008358
 41
0.008358
  0
VERTEX
  8
PLAN_1
  6
CONTINUOUS
 10
-1.687240
 20
0.521685
  0
VERTEX
  8
PLAN_1
  6
CONTINUOUS
 10
-1.616417
 20
0.521685
  0
VERTEX
  8
PLAN_1
  6
CONTINUOUS
 10
-1.616417
 20
0.449386
  0
VERTEX
  8
PLAN_1
  6
CONTINUOUS
 10
-1.365583
 20
0.415941
  0
VERTEX
  8
PLAN_1
  6
CONTINUOUS
 10
-1.259843
 20
0.416925
  0
VERTEX
  8
PLAN_1
  6
CONTINUOUS
 10
-1.259843
 20
1.240736
  0
VERTEX
  8
PLAN_1
  6
CONTINUOUS
 10
-1.374437
 20
1.240736
  0
VERTEX
  8
PLAN_1
  6
CONTINUOUS
 10
-1.616417
 20
1.199913
  0
VERTEX
  8
PLAN_1
  6
CONTINUOUS
 10
-1.616417
 20
1.131059
  0
VERTEX
  8
PLAN_1
  6
CONTINUOUS
 10
-1.687240
 20
1.131059
  0
SEQEND
  8
0
  0
POLYLINE
  8
PLAN_1
  6
CONTINUOUS
 66
     1
 40
0.008358
 41
0.008358
  0
VERTEX
  8
PLAN_1
  6
CONTINUOUS
 10
-1.926268
 20
1.131059
  0
VERTEX
  8
PLAN_1
  6
CONTINUOUS
 10
-1.981843
 20
1.131059
  0
VERTEX
  8
PLAN_1
  6
CONTINUOUS
 10
-1.981843
 20
0.521685
  0
VERTEX
  8
PLAN_1
  6
CONTINUOUS
 10
-1.926268
 20
0.521685
  0
SEQEND
  8
0
  0
POLYLINE
  8
PLAN_1
  6
CONTINUOUS
 66
     1
 40
0.008358
 41
0.008358
  0
VERTEX
  8
PLAN_1
  6
CONTINUOUS
 10
-1.926268
 20
1.131059
  0
VERTEX
  8
PLAN_1
  6
CONTINUOUS
 10
-1.687240
 20
1.131059
  0
SEQEND
  8
0
  0
POLYLINE
  8
PLAN_1
  6
CONTINUOUS
 66
     1
 40
0.008358
 41
0.008358
  0
VERTEX
  8
PLAN_1
  6
CONTINUOUS
 10
-1.926268
 20
0.521685
  0
VERTEX
  8
PLAN_1
  6
CONTINUOUS
 10
-1.687240
 20
0.521685
  0
SEQEND
  8
0
  0
POLYLINE
  8
PLAN_1
  6
CONTINUOUS
 66
     1
 40
0.008358
 41
0.008358
  0
VERTEX
  8
PLAN_1
  6
CONTINUOUS
 10
-1.364110
 20
1.240736
  0
VERTEX
  8
PLAN_1
  6
CONTINUOUS
 10
-1.364110
 20
0.420858
  0
SEQEND
  8
0
  0
POLYLINE
  8
PLAN_1
  6
CONTINUOUS
 66
     1
 40
0.008358
 41
0.008358
  0
VERTEX
  8
PLAN_1
  6
CONTINUOUS
 10
-1.616417
 20
0.525126
  0
VERTEX
  8
PLAN_1
  6
CONTINUOUS
 10
-1.616417
 20
1.123681
  0
SEQEND
  8
0
  0
POLYLINE
  8
PLAN_1
  6
CONTINUOUS
 66
     1
 40
0.008358
 41
0.008358
  0
VERTEX
  8
PLAN_1
  6
CONTINUOUS
 10
-2.139720
 20
0.962362
  0
VERTEX
  8
PLAN_1
  6
CONTINUOUS
 10
-2.139720
 20
0.703661
  0
SEQEND
  8
0
  0
POLYLINE
  8
PLAN_1
  6
CONTINUOUS
 66
     1
 40
0.008358
 41
0.008358
  0
VERTEX
  8
PLAN_1
  6
CONTINUOUS
 10
-2.139720
 20
0.703661
  0
VERTEX
  8
PLAN_1
  6
CONTINUOUS
 10
-2.149067
 20
0.712512
  0
VERTEX
  8
PLAN_1
  6
CONTINUOUS
 10
-2.149067
 20
0.952524
  0
VERTEX
  8
PLAN_1
  6
CONTINUOUS
 10
-2.139720
 20
0.961870
  0
VERTEX
  8
PLAN_1
  6
CONTINUOUS
 10
-2.089555
 20
0.962362
  0
VERTEX
  8
PLAN_1
  6
CONTINUOUS
 10
-2.089555
 20
0.703661
  0
VERTEX
  8
PLAN_1
  6
CONTINUOUS
 10
-2.139720
 20
0.703661
  0
SEQEND
  8
0
  0
POLYLINE
  8
PLAN_1
  6
CONTINUOUS
 66
     1
 40
0.008358
 41
0.008358
  0
VERTEX
  8
PLAN_1
  6
CONTINUOUS
 10
-1.655764
 20
0.562996
  0
VERTEX
  8
PLAN_1
  6
CONTINUOUS
 10
-1.655764
 20
1.084335
  0
VERTEX
  8
PLAN_1
  6
CONTINUOUS
 10
-1.950858
 20
1.084335
  0
VERTEX
  8
PLAN_1
  6
CONTINUOUS
 10
-1.950858
 20
0.562996
  0
VERTEX
  8
PLAN_1
  6
CONTINUOUS
 10
-1.655764
 20
0.562996
  0
SEQEND
  8
0
  0
POLYLINE
  8
PLAN_1
  6
CONTINUOUS
 66
     1
 40
0.008358
 41
0.008358
  0
VERTEX
  8
PLAN_1
  6
CONTINUOUS
 10
-1.951843
 20
1.084335
  0
VERTEX
  8
PLAN_1
  6
CONTINUOUS
 10
-1.987256
 20
1.129091
  0
SEQEND
  8
0
  0
POLYLINE
  8
PLAN_1
  6
CONTINUOUS
 66
     1
 40
0.008358
 41
0.008358
  0
VERTEX
  8
PLAN_1
  6
CONTINUOUS
 10
-1.986272
 20
0.524142
  0
VERTEX
  8
PLAN_1
  6
CONTINUOUS
 10
-1.950858
 20
0.562996
  0
SEQEND
  8
0
  0
POLYLINE
  8
PLAN_1
  6
CONTINUOUS
 66
     1
 40
0.008358
 41
0.008358
  0
VERTEX
  8
PLAN_1
  6
CONTINUOUS
 10
-1.655272
 20
1.084827
  0
VERTEX
  8
PLAN_1
  6
CONTINUOUS
 10
-1.616909
 20
1.129583
  0
SEQEND
  8
0
  0
POLYLINE
  8
PLAN_1
  6
CONTINUOUS
 66
     1
 40
0.008358
 41
0.008358
  0
VERTEX
  8
PLAN_1
  6
CONTINUOUS
 10
-1.616909
 20
0.525126
  0
VERTEX
  8
PLAN_1
  6
CONTINUOUS
 10
-1.656256
 20
0.563488
  0
SEQEND
  8
0
  0
POLYLINE
  8
PLAN_1
  6
CONTINUOUS
 66
     1
 40
0.008358
 41
0.008358
  0
VERTEX
  8
PLAN_1
  6
CONTINUOUS
 10
0.138425
 20
0.247244
  0
VERTEX
  8
PLAN_1
  6
CONTINUOUS
 10
0.138425
 20
1.240736
  0
VERTEX
  8
PLAN_1
  6
CONTINUOUS
 10
-1.257382
 20
1.240736
  0
VERTEX
  8
PLAN_1
  6
CONTINUOUS
 10
-1.257382
 20
0.247244
  0
VERTEX
  8
PLAN_1
  6
CONTINUOUS
 10
0.138425
 20
0.247244
  0
SEQEND
  8
0
  0
POLYLINE
  8
PLAN_1
  6
CONTINUOUS
 66
     1
 40
0.008358
 41
0.008358
  0
VERTEX
  8
PLAN_1
  6
CONTINUOUS
 10
-0.335205
 20
-0.197862
  0
VERTEX
  8
PLAN_1
  6
CONTINUOUS
 10
-0.335205
 20
-0.148677
  0
VERTEX
  8
PLAN_1
  6
CONTINUOUS
 10
-0.761618
 20
-0.148677
  0
VERTEX
  8
PLAN_1
  6
CONTINUOUS
 10
-0.761618
 20
-0.197862
  0
VERTEX
  8
PLAN_1
  6
CONTINUOUS
 10
-0.335205
 20
-0.197862
  0
SEQEND
  8
0
  0
POLYLINE
  8
PLAN_1
  6
CONTINUOUS
 66
     1
 40
0.008358
 41
0.008358
  0
VERTEX
  8
PLAN_1
  6
CONTINUOUS
 10
0.024323
 20
0.220685
  0
VERTEX
  8
PLAN_1
  6
CONTINUOUS
 10
0.024323
 20
0.242327
  0
VERTEX
  8
PLAN_1
  6
CONTINUOUS
 10
-1.121146
 20
0.242327
  0
VERTEX
  8
PLAN_1
  6
CONTINUOUS
 10
-1.121146
 20
0.220685
  0
VERTEX
  8
PLAN_1
  6
CONTINUOUS
 10
0.024323
 20
0.220685
  0
SEQEND
  8
0
  0
POLYLINE
  8
PLAN_1
  6
CONTINUOUS
 66
     1
 40
0.008358
 41
0.008358
  0
VERTEX
  8
PLAN_1
  6
CONTINUOUS
 10
-0.227988
 20
-0.148677
  0
VERTEX
  8
PLAN_1
  6
CONTINUOUS
 10
-0.227988
 20
0.220685
  0
VERTEX
  8
PLAN_1
  6
CONTINUOUS
 10
-0.889496
 20
0.220685
  0
VERTEX
  8
PLAN_1
  6
CONTINUOUS
 10
-0.889496
 20
-0.148677
  0
VERTEX
  8
PLAN_1
  6
CONTINUOUS
 10
-0.227988
 20
-0.148677
  0
SEQEND
  8
0
  0
POLYLINE
  8
PLAN_1
 62
     5
  6
CONTINUOUS
 66
     1
 40
0.003000
 41
0.003000
  0
VERTEX
  8
PLAN_1
 62
     5
  6
CONTINUOUS
 10
-1.434933
 20
-0.500827
  0
VERTEX
  8
PLAN_1
 62
     5
  6
CONTINUOUS
 10
-1.434933
 20
-0.492465
  0
SEQEND
  8
0
  0
POLYLINE
  8
PLAN_1
 62
     5
  6
CONTINUOUS
 66
     1
 40
0.003000
 41
0.003000
  0
VERTEX
  8
PLAN_1
 62
     5
  6
CONTINUOUS
 10
-1.434933
 20
-0.484102
  0
VERTEX
  8
PLAN_1
 62
     5
  6
CONTINUOUS
 10
-1.434933
 20
-0.475744
  0
SEQEND
  8
0
  0
POLYLINE
  8
PLAN_1
 62
     5
  6
CONTINUOUS
 66
     1
 40
0.003000
 41
0.003000
  0
VERTEX
  8
PLAN_1
 62
     5
  6
CONTINUOUS
 10
-1.434933
 20
-0.467382
  0
VERTEX
  8
PLAN_1
 62
     5
  6
CONTINUOUS
 10
-1.434933
 20
-0.459020
  0
SEQEND
  8
0
  0
POLYLINE
  8
PLAN_1
 62
     5
  6
CONTINUOUS
 66
     1
 40
0.003000
 41
0.003000
  0
VERTEX
  8
PLAN_1
 62
     5
  6
CONTINUOUS
 10
-1.434933
 20
-0.450661
  0
VERTEX
  8
PLAN_1
 62
     5
  6
CONTINUOUS
 10
-1.434933
 20
-0.442299
  0
SEQEND
  8
0
  0
POLYLINE
  8
PLAN_1
 62
     5
  6
CONTINUOUS
 66
     1
 40
0.003000
 41
0.003000
  0
VERTEX
  8
PLAN_1
 62
     5
  6
CONTINUOUS
 10
-1.434933
 20
-0.433937
  0
VERTEX
  8
PLAN_1
 62
     5
  6
CONTINUOUS
 10
-1.434933
 20
-0.425575
  0
SEQEND
  8
0
  0
POLYLINE
  8
PLAN_1
 62
     5
  6
CONTINUOUS
 66
     1
 40
0.003000
 41
0.003000
  0
VERTEX
  8
PLAN_1
 62
     5
  6
CONTINUOUS
 10
-1.434933
 20
-0.417217
  0
VERTEX
  8
PLAN_1
 62
     5
  6
CONTINUOUS
 10
-1.434933
 20
-0.408854
  0
SEQEND
  8
0
  0
POLYLINE
  8
PLAN_1
 62
     5
  6
CONTINUOUS
 66
     1
 40
0.003000
 41
0.003000
  0
VERTEX
  8
PLAN_1
 62
     5
  6
CONTINUOUS
 10
-1.434933
 20
-0.400492
  0
VERTEX
  8
PLAN_1
 62
     5
  6
CONTINUOUS
 10
-1.434933
 20
-0.392134
  0
SEQEND
  8
0
  0
POLYLINE
  8
PLAN_1
 62
     5
  6
CONTINUOUS
 66
     1
 40
0.003000
 41
0.003000
  0
VERTEX
  8
PLAN_1
 62
     5
  6
CONTINUOUS
 10
-1.434933
 20
-0.384264
  0
VERTEX
  8
PLAN_1
 62
     5
  6
CONTINUOUS
 10
-1.434933
 20
-0.375902
  0
SEQEND
  8
0
  0
POLYLINE
  8
PLAN_1
 62
     5
  6
CONTINUOUS
 66
     1
 40
0.003000
 41
0.003000
  0
VERTEX
  8
PLAN_1
 62
     5
  6
CONTINUOUS
 10
-1.434933
 20
-0.367539
  0
VERTEX
  8
PLAN_1
 62
     5
  6
CONTINUOUS
 10
-1.434933
 20
-0.359181
  0
SEQEND
  8
0
  0
POLYLINE
  8
PLAN_1
 62
     5
  6
CONTINUOUS
 66
     1
 40
0.003000
 41
0.003000
  0
VERTEX
  8
PLAN_1
 62
     5
  6
CONTINUOUS
 10
-1.434933
 20
-0.350819
  0
VERTEX
  8
PLAN_1
 62
     5
  6
CONTINUOUS
 10
-1.434933
 20
-0.342457
  0
SEQEND
  8
0
  0
POLYLINE
  8
PLAN_1
 62
     5
  6
CONTINUOUS
 66
     1
 40
0.003000
 41
0.003000
  0
VERTEX
  8
PLAN_1
 62
     5
  6
CONTINUOUS
 10
-1.434933
 20
-0.334098
  0
VERTEX
  8
PLAN_1
 62
     5
  6
CONTINUOUS
 10
-1.434933
 20
-0.325736
  0
SEQEND
  8
0
  0
POLYLINE
  8
PLAN_1
 62
     5
  6
CONTINUOUS
 66
     1
 40
0.003000
 41
0.003000
  0
VERTEX
  8
PLAN_1
 62
     5
  6
CONTINUOUS
 10
-1.434933
 20
-0.317374
  0
VERTEX
  8
PLAN_1
 62
     5
  6
CONTINUOUS
 10
-1.434933
 20
-0.309012
  0
SEQEND
  8
0
  0
POLYLINE
  8
PLAN_1
 62
     5
  6
CONTINUOUS
 66
     1
 40
0.003000
 41
0.003000
  0
VERTEX
  8
PLAN_1
 62
     5
  6
CONTINUOUS
 10
-1.434933
 20
-0.300654
  0
VERTEX
  8
PLAN_1
 62
     5
  6
CONTINUOUS
 10
-1.434933
 20
-0.292291
  0
SEQEND
  8
0
  0
POLYLINE
  8
PLAN_1
 62
     5
  6
CONTINUOUS
 66
     1
 40
0.003000
 41
0.003000
  0
VERTEX
  8
PLAN_1
 62
     5
  6
CONTINUOUS
 10
-1.434933
 20
-0.283929
  0
VERTEX
  8
PLAN_1
 62
     5
  6
CONTINUOUS
 10
-1.434933
 20
-0.275571
  0
SEQEND
  8
0
  0
POLYLINE
  8
PLAN_1
 62
     5
  6
CONTINUOUS
 66
     1
 40
0.003000
 41
0.003000
  0
VERTEX
  8
PLAN_1
 62
     5
  6
CONTINUOUS
 10
-1.434933
 20
-0.267209
  0
VERTEX
  8
PLAN_1
 62
     5
  6
CONTINUOUS
 10
-1.434933
 20
-0.259339
  0
SEQEND
  8
0
  0
POLYLINE
  8
PLAN_1
 62
     5
  6
CONTINUOUS
 66
     1
 40
0.003000
 41
0.003000
  0
VERTEX
  8
PLAN_1
 62
     5
  6
CONTINUOUS
 10
-1.434933
 20
-0.250976
  0
VERTEX
  8
PLAN_1
 62
     5
  6
CONTINUOUS
 10
-1.434933
 20
-0.242618
  0
SEQEND
  8
0
  0
POLYLINE
  8
PLAN_1
 62
     5
  6
CONTINUOUS
 66
     1
 40
0.003000
 41
0.003000
  0
VERTEX
  8
PLAN_1
 62
     5
  6
CONTINUOUS
 10
-1.434933
 20
-0.234256
  0
VERTEX
  8
PLAN_1
 62
     5
  6
CONTINUOUS
 10
-1.434933
 20
-0.225894
  0
SEQEND
  8
0
  0
POLYLINE
  8
PLAN_1
 62
     5
  6
CONTINUOUS
 66
     1
 40
0.003000
 41
0.003000
  0
VERTEX
  8
PLAN_1
 62
     5
  6
CONTINUOUS
 10
-1.434933
 20
-0.217531
  0
VERTEX
  8
PLAN_1
 62
     5
  6
CONTINUOUS
 10
-1.434933
 20
-0.209173
  0
SEQEND
  8
0
  0
POLYLINE
  8
PLAN_1
 62
     5
  6
CONTINUOUS
 66
     1
 40
0.003000
 41
0.003000
  0
VERTEX
  8
PLAN_1
 62
     5
  6
CONTINUOUS
 10
-1.434933
 20
-0.200811
  0
VERTEX
  8
PLAN_1
 62
     5
  6
CONTINUOUS
 10
-1.434933
 20
-0.192449
  0
SEQEND
  8
0
  0
POLYLINE
  8
PLAN_1
 62
     5
  6
CONTINUOUS
 66
     1
 40
0.003000
 41
0.003000
  0
VERTEX
  8
PLAN_1
 62
     5
  6
CONTINUOUS
 10
-1.434933
 20
-0.184091
  0
VERTEX
  8
PLAN_1
 62
     5
  6
CONTINUOUS
 10
-1.434933
 20
-0.175728
  0
SEQEND
  8
0
  0
POLYLINE
  8
PLAN_1
 62
     5
  6
CONTINUOUS
 66
     1
 40
0.003000
 41
0.003000
  0
VERTEX
  8
PLAN_1
 62
     5
  6
CONTINUOUS
 10
-1.434933
 20
-0.167366
  0
VERTEX
  8
PLAN_1
 62
     5
  6
CONTINUOUS
 10
-1.434933
 20
-0.159008
  0
SEQEND
  8
0
  0
POLYLINE
  8
PLAN_1
 62
     5
  6
CONTINUOUS
 66
     1
 40
0.003000
 41
0.003000
  0
VERTEX
  8
PLAN_1
 62
     5
  6
CONTINUOUS
 10
-1.434933
 20
-0.150646
  0
VERTEX
  8
PLAN_1
 62
     5
  6
CONTINUOUS
 10
-1.434933
 20
-0.142283
  0
SEQEND
  8
0
  0
POLYLINE
  8
PLAN_1
 62
     5
  6
CONTINUOUS
 66
     1
 40
0.003000
 41
0.003000
  0
VERTEX
  8
PLAN_1
 62
     5
  6
CONTINUOUS
 10
-1.434933
 20
-0.133921
  0
VERTEX
  8
PLAN_1
 62
     5
  6
CONTINUOUS
 10
-1.434933
 20
-0.126055
  0
SEQEND
  8
0
  0
POLYLINE
  8
PLAN_1
 62
     5
  6
CONTINUOUS
 66
     1
 40
0.003000
 41
0.003000
  0
VERTEX
  8
PLAN_1
 62
     5
  6
CONTINUOUS
 10
-1.434933
 20
-0.117693
  0
VERTEX
  8
PLAN_1
 62
     5
  6
CONTINUOUS
 10
-1.434933
 20
-0.109331
  0
SEQEND
  8
0
  0
POLYLINE
  8
PLAN_1
 62
     5
  6
CONTINUOUS
 66
     1
 40
0.003000
 41
0.003000
  0
VERTEX
  8
PLAN_1
 62
     5
  6
CONTINUOUS
 10
-1.434933
 20
-0.100969
  0
VERTEX
  8
PLAN_1
 62
     5
  6
CONTINUOUS
 10
-1.434933
 20
-0.092610
  0
SEQEND
  8
0
  0
POLYLINE
  8
PLAN_1
 62
     5
  6
CONTINUOUS
 66
     1
 40
0.003000
 41
0.003000
  0
VERTEX
  8
PLAN_1
 62
     5
  6
CONTINUOUS
 10
-1.434933
 20
-0.084248
  0
VERTEX
  8
PLAN_1
 62
     5
  6
CONTINUOUS
 10
-1.434933
 20
-0.075886
  0
SEQEND
  8
0
  0
POLYLINE
  8
PLAN_1
 62
     5
  6
CONTINUOUS
 66
     1
 40
0.003000
 41
0.003000
  0
VERTEX
  8
PLAN_1
 62
     5
  6
CONTINUOUS
 10
-1.434933
 20
-0.067528
  0
VERTEX
  8
PLAN_1
 62
     5
  6
CONTINUOUS
 10
-1.434933
 20
-0.059165
  0
SEQEND
  8
0
  0
POLYLINE
  8
PLAN_1
 62
     5
  6
CONTINUOUS
 66
     1
 40
0.003000
 41
0.003000
  0
VERTEX
  8
PLAN_1
 62
     5
  6
CONTINUOUS
 10
-1.434933
 20
-0.050803
  0
VERTEX
  8
PLAN_1
 62
     5
  6
CONTINUOUS
 10
-1.434933
 20
-0.042441
  0
SEQEND
  8
0
  0
POLYLINE
  8
PLAN_1
 62
     5
  6
CONTINUOUS
 66
     1
 40
0.003000
 41
0.003000
  0
VERTEX
  8
PLAN_1
 62
     5
  6
CONTINUOUS
 10
-1.434933
 20
-0.034083
  0
VERTEX
  8
PLAN_1
 62
     5
  6
CONTINUOUS
 10
-1.434933
 20
-0.025720
  0
SEQEND
  8
0
  0
POLYLINE
  8
PLAN_1
 62
     5
  6
CONTINUOUS
 66
     1
 40
0.003000
 41
0.003000
  0
VERTEX
  8
PLAN_1
 62
     5
  6
CONTINUOUS
 10
-1.434933
 20
-0.017358
  0
VERTEX
  8
PLAN_1
 62
     5
  6
CONTINUOUS
 10
-1.434933
 20
-0.009000
  0
SEQEND
  8
0
  0
POLYLINE
  8
PLAN_1
 62
     5
  6
CONTINUOUS
 66
     1
 40
0.003000
 41
0.003000
  0
VERTEX
  8
PLAN_1
 62
     5
  6
CONTINUOUS
 10
-1.434933
 20
-0.001130
  0
VERTEX
  8
PLAN_1
 62
     5
  6
CONTINUOUS
 10
-1.434933
 20
0.007232
  0
SEQEND
  8
0
  0
POLYLINE
  8
PLAN_1
 62
     5
  6
CONTINUOUS
 66
     1
 40
0.003000
 41
0.003000
  0
VERTEX
  8
PLAN_1
 62
     5
  6
CONTINUOUS
 10
-1.434933
 20
0.015594
  0
VERTEX
  8
PLAN_1
 62
     5
  6
CONTINUOUS
 10
-1.434933
 20
0.023953
  0
SEQEND
  8
0
  0
POLYLINE
  8
PLAN_1
 62
     5
  6
CONTINUOUS
 66
     1
 40
0.003000
 41
0.003000
  0
VERTEX
  8
PLAN_1
 62
     5
  6
CONTINUOUS
 10
-1.434933
 20
0.032315
  0
VERTEX
  8
PLAN_1
 62
     5
  6
CONTINUOUS
 10
-1.434933
 20
0.040677
  0
SEQEND
  8
0
  0
POLYLINE
  8
PLAN_1
 62
     5
  6
CONTINUOUS
 66
     1
 40
0.003000
 41
0.003000
  0
VERTEX
  8
PLAN_1
 62
     5
  6
CONTINUOUS
 10
-1.434933
 20
0.049035
  0
VERTEX
  8
PLAN_1
 62
     5
  6
CONTINUOUS
 10
-1.434933
 20
0.057398
  0
SEQEND
  8
0
  0
POLYLINE
  8
PLAN_1
 62
     5
  6
CONTINUOUS
 66
     1
 40
0.003000
 41
0.003000
  0
VERTEX
  8
PLAN_1
 62
     5
  6
CONTINUOUS
 10
-1.434933
 20
0.065760
  0
VERTEX
  8
PLAN_1
 62
     5
  6
CONTINUOUS
 10
-1.434933
 20
0.074122
  0
SEQEND
  8
0
  0
POLYLINE
  8
PLAN_1
 62
     5
  6
CONTINUOUS
 66
     1
 40
0.003000
 41
0.003000
  0
VERTEX
  8
PLAN_1
 62
     5
  6
CONTINUOUS
 10
-1.434933
 20
0.082480
  0
VERTEX
  8
PLAN_1
 62
     5
  6
CONTINUOUS
 10
-1.434933
 20
0.090843
  0
SEQEND
  8
0
  0
POLYLINE
  8
PLAN_1
 62
     5
  6
CONTINUOUS
 66
     1
 40
0.003000
 41
0.003000
  0
VERTEX
  8
PLAN_1
 62
     5
  6
CONTINUOUS
 10
-1.434933
 20
0.099205
  0
VERTEX
  8
PLAN_1
 62
     5
  6
CONTINUOUS
 10
-1.434933
 20
0.107563
  0
SEQEND
  8
0
  0
POLYLINE
  8
PLAN_1
 62
     5
  6
CONTINUOUS
 66
     1
 40
0.003000
 41
0.003000
  0
VERTEX
  8
PLAN_1
 62
     5
  6
CONTINUOUS
 10
-1.434933
 20
0.115925
  0
VERTEX
  8
PLAN_1
 62
     5
  6
CONTINUOUS
 10
-1.434933
 20
0.123795
  0
SEQEND
  8
0
  0
POLYLINE
  8
PLAN_1
 62
     5
  6
CONTINUOUS
 66
     1
 40
0.003000
 41
0.003000
  0
VERTEX
  8
PLAN_1
 62
     5
  6
CONTINUOUS
 10
-1.434933
 20
0.132157
  0
VERTEX
  8
PLAN_1
 62
     5
  6
CONTINUOUS
 10
-1.434933
 20
0.140516
  0
SEQEND
  8
0
  0
POLYLINE
  8
PLAN_1
 62
     5
  6
CONTINUOUS
 66
     1
 40
0.003000
 41
0.003000
  0
VERTEX
  8
PLAN_1
 62
     5
  6
CONTINUOUS
 10
-1.434933
 20
0.148878
  0
VERTEX
  8
PLAN_1
 62
     5
  6
CONTINUOUS
 10
-1.434933
 20
0.157240
  0
SEQEND
  8
0
  0
POLYLINE
  8
PLAN_1
 62
     5
  6
CONTINUOUS
 66
     1
 40
0.003000
 41
0.003000
  0
VERTEX
  8
PLAN_1
 62
     5
  6
CONTINUOUS
 10
-1.434933
 20
0.165598
  0
VERTEX
  8
PLAN_1
 62
     5
  6
CONTINUOUS
 10
-1.434933
 20
0.173961
  0
SEQEND
  8
0
  0
POLYLINE
  8
PLAN_1
 62
     5
  6
CONTINUOUS
 66
     1
 40
0.003000
 41
0.003000
  0
VERTEX
  8
PLAN_1
 62
     5
  6
CONTINUOUS
 10
-1.434933
 20
0.182323
  0
VERTEX
  8
PLAN_1
 62
     5
  6
CONTINUOUS
 10
-1.434933
 20
0.190685
  0
SEQEND
  8
0
  0
POLYLINE
  8
PLAN_1
 62
     5
  6
CONTINUOUS
 66
     1
 40
0.003000
 41
0.003000
  0
VERTEX
  8
PLAN_1
 62
     5
  6
CONTINUOUS
 10
-1.434933
 20
0.199043
  0
VERTEX
  8
PLAN_1
 62
     5
  6
CONTINUOUS
 10
-1.434933
 20
0.207406
  0
SEQEND
  8
0
  0
POLYLINE
  8
PLAN_1
 62
     5
  6
CONTINUOUS
 66
     1
 40
0.003000
 41
0.003000
  0
VERTEX
  8
PLAN_1
 62
     5
  6
CONTINUOUS
 10
-1.434933
 20
0.215768
  0
VERTEX
  8
PLAN_1
 62
     5
  6
CONTINUOUS
 10
-1.434933
 20
0.224126
  0
SEQEND
  8
0
  0
POLYLINE
  8
PLAN_1
 62
     5
  6
CONTINUOUS
 66
     1
 40
0.003000
 41
0.003000
  0
VERTEX
  8
PLAN_1
 62
     5
  6
CONTINUOUS
 10
-1.434933
 20
0.232488
  0
VERTEX
  8
PLAN_1
 62
     5
  6
CONTINUOUS
 10
-1.434933
 20
0.240850
  0
SEQEND
  8
0
  0
POLYLINE
  8
PLAN_1
 62
     5
  6
CONTINUOUS
 66
     1
 40
0.003000
 41
0.003000
  0
VERTEX
  8
PLAN_1
 62
     5
  6
CONTINUOUS
 10
-1.433457
 20
0.247244
  0
VERTEX
  8
PLAN_1
 62
     5
  6
CONTINUOUS
 10
-1.425094
 20
0.247244
  0
SEQEND
  8
0
  0
POLYLINE
  8
PLAN_1
 62
     5
  6
CONTINUOUS
 66
     1
 40
0.003000
 41
0.003000
  0
VERTEX
  8
PLAN_1
 62
     5
  6
CONTINUOUS
 10
-1.416732
 20
0.247244
  0
VERTEX
  8
PLAN_1
 62
     5
  6
CONTINUOUS
 10
-1.408374
 20
0.247244
  0
SEQEND
  8
0
  0
POLYLINE
  8
PLAN_1
 62
     5
  6
CONTINUOUS
 66
     1
 40
0.003000
 41
0.003000
  0
VERTEX
  8
PLAN_1
 62
     5
  6
CONTINUOUS
 10
-1.400012
 20
0.247244
  0
VERTEX
  8
PLAN_1
 62
     5
  6
CONTINUOUS
 10
-1.391650
 20
0.247244
  0
SEQEND
  8
0
  0
POLYLINE
  8
PLAN_1
 62
     5
  6
CONTINUOUS
 66
     1
 40
0.003000
 41
0.003000
  0
VERTEX
  8
PLAN_1
 62
     5
  6
CONTINUOUS
 10
-1.383291
 20
0.247244
  0
VERTEX
  8
PLAN_1
 62
     5
  6
CONTINUOUS
 10
-1.374929
 20
0.247244
  0
SEQEND
  8
0
  0
POLYLINE
  8
PLAN_1
 62
     5
  6
CONTINUOUS
 66
     1
 40
0.003000
 41
0.003000
  0
VERTEX
  8
PLAN_1
 62
     5
  6
CONTINUOUS
 10
-1.366567
 20
0.247244
  0
VERTEX
  8
PLAN_1
 62
     5
  6
CONTINUOUS
 10
-1.358205
 20
0.247244
  0
SEQEND
  8
0
  0
POLYLINE
  8
PLAN_1
 62
     5
  6
CONTINUOUS
 66
     1
 40
0.003000
 41
0.003000
  0
VERTEX
  8
PLAN_1
 62
     5
  6
CONTINUOUS
 10
-1.349846
 20
0.247244
  0
VERTEX
  8
PLAN_1
 62
     5
  6
CONTINUOUS
 10
-1.341484
 20
0.247244
  0
SEQEND
  8
0
  0
POLYLINE
  8
PLAN_1
 62
     5
  6
CONTINUOUS
 66
     1
 40
0.003000
 41
0.003000
  0
VERTEX
  8
PLAN_1
 62
     5
  6
CONTINUOUS
 10
-1.333614
 20
0.247244
  0
VERTEX
  8
PLAN_1
 62
     5
  6
CONTINUOUS
 10
-1.325256
 20
0.247244
  0
SEQEND
  8
0
  0
POLYLINE
  8
PLAN_1
 62
     5
  6
CONTINUOUS
 66
     1
 40
0.003000
 41
0.003000
  0
VERTEX
  8
PLAN_1
 62
     5
  6
CONTINUOUS
 10
-1.316894
 20
0.247244
  0
VERTEX
  8
PLAN_1
 62
     5
  6
CONTINUOUS
 10
-1.308531
 20
0.247244
  0
SEQEND
  8
0
  0
POLYLINE
  8
PLAN_1
 62
     5
  6
CONTINUOUS
 66
     1
 40
0.003000
 41
0.003000
  0
VERTEX
  8
PLAN_1
 62
     5
  6
CONTINUOUS
 10
-1.300169
 20
0.247244
  0
VERTEX
  8
PLAN_1
 62
     5
  6
CONTINUOUS
 10
-1.291811
 20
0.247244
  0
SEQEND
  8
0
  0
POLYLINE
  8
PLAN_1
 62
     5
  6
CONTINUOUS
 66
     1
 40
0.003000
 41
0.003000
  0
VERTEX
  8
PLAN_1
 62
     5
  6
CONTINUOUS
 10
-1.283449
 20
0.247244
  0
VERTEX
  8
PLAN_1
 62
     5
  6
CONTINUOUS
 10
-1.275087
 20
0.247244
  0
SEQEND
  8
0
  0
POLYLINE
  8
PLAN_1
 62
     5
  6
CONTINUOUS
 66
     1
 40
0.003000
 41
0.003000
  0
VERTEX
  8
PLAN_1
 62
     5
  6
CONTINUOUS
 10
-1.266728
 20
0.247244
  0
VERTEX
  8
PLAN_1
 62
     5
  6
CONTINUOUS
 10
-1.258366
 20
0.247244
  0
SEQEND
  8
0
  0
POLYLINE
  8
PLAN_1
 62
     5
  6
CONTINUOUS
 66
     1
 40
0.003000
 41
0.003000
  0
VERTEX
  8
PLAN_1
 62
     5
  6
CONTINUOUS
 10
-1.250004
 20
0.247244
  0
VERTEX
  8
PLAN_1
 62
     5
  6
CONTINUOUS
 10
-1.241642
 20
0.247244
  0
SEQEND
  8
0
  0
POLYLINE
  8
PLAN_1
 62
     5
  6
CONTINUOUS
 66
     1
 40
0.003000
 41
0.003000
  0
VERTEX
  8
PLAN_1
 62
     5
  6
CONTINUOUS
 10
-1.233283
 20
0.247244
  0
VERTEX
  8
PLAN_1
 62
     5
  6
CONTINUOUS
 10
-1.224921
 20
0.247244
  0
SEQEND
  8
0
  0
POLYLINE
  8
PLAN_1
 62
     5
  6
CONTINUOUS
 66
     1
 40
0.003000
 41
0.003000
  0
VERTEX
  8
PLAN_1
 62
     5
  6
CONTINUOUS
 10
-1.216559
 20
0.247244
  0
VERTEX
  8
PLAN_1
 62
     5
  6
CONTINUOUS
 10
-1.208201
 20
0.247244
  0
SEQEND
  8
0
  0
POLYLINE
  8
PLAN_1
 62
     5
  6
CONTINUOUS
 66
     1
 40
0.003000
 41
0.003000
  0
VERTEX
  8
PLAN_1
 62
     5
  6
CONTINUOUS
 10
-1.200331
 20
0.247244
  0
VERTEX
  8
PLAN_1
 62
     5
  6
CONTINUOUS
 10
-1.191969
 20
0.247244
  0
SEQEND
  8
0
  0
POLYLINE
  8
PLAN_1
 62
     5
  6
CONTINUOUS
 66
     1
 40
0.003000
 41
0.003000
  0
VERTEX
  8
PLAN_1
 62
     5
  6
CONTINUOUS
 10
-1.183606
 20
0.247244
  0
VERTEX
  8
PLAN_1
 62
     5
  6
CONTINUOUS
 10
-1.175248
 20
0.247244
  0
SEQEND
  8
0
  0
POLYLINE
  8
PLAN_1
 62
     5
  6
CONTINUOUS
 66
     1
 40
0.003000
 41
0.003000
  0
VERTEX
  8
PLAN_1
 62
     5
  6
CONTINUOUS
 10
-1.166886
 20
0.247244
  0
VERTEX
  8
PLAN_1
 62
     5
  6
CONTINUOUS
 10
-1.158524
 20
0.247244
  0
SEQEND
  8
0
  0
POLYLINE
  8
PLAN_1
 62
     5
  6
CONTINUOUS
 66
     1
 40
0.003000
 41
0.003000
  0
VERTEX
  8
PLAN_1
 62
     5
  6
CONTINUOUS
 10
-1.150165
 20
0.247244
  0
VERTEX
  8
PLAN_1
 62
     5
  6
CONTINUOUS
 10
-1.141803
 20
0.247244
  0
SEQEND
  8
0
  0
POLYLINE
  8
PLAN_1
 62
     5
  6
CONTINUOUS
 66
     1
 40
0.003000
 41
0.003000
  0
VERTEX
  8
PLAN_1
 62
     5
  6
CONTINUOUS
 10
-1.133441
 20
0.247244
  0
VERTEX
  8
PLAN_1
 62
     5
  6
CONTINUOUS
 10
-1.125079
 20
0.247244
  0
SEQEND
  8
0
  0
POLYLINE
  8
PLAN_1
 62
     5
  6
CONTINUOUS
 66
     1
 40
0.003000
 41
0.003000
  0
VERTEX
  8
PLAN_1
 62
     5
  6
CONTINUOUS
 10
-1.116720
 20
0.247244
  0
VERTEX
  8
PLAN_1
 62
     5
  6
CONTINUOUS
 10
-1.108358
 20
0.247244
  0
SEQEND
  8
0
  0
POLYLINE
  8
PLAN_1
 62
     5
  6
CONTINUOUS
 66
     1
 40
0.003000
 41
0.003000
  0
VERTEX
  8
PLAN_1
 62
     5
  6
CONTINUOUS
 10
-1.099996
 20
0.247244
  0
VERTEX
  8
PLAN_1
 62
     5
  6
CONTINUOUS
 10
-1.091638
 20
0.247244
  0
SEQEND
  8
0
  0
POLYLINE
  8
PLAN_1
 62
     5
  6
CONTINUOUS
 66
     1
 40
0.003000
 41
0.003000
  0
VERTEX
  8
PLAN_1
 62
     5
  6
CONTINUOUS
 10
-1.083276
 20
0.247244
  0
VERTEX
  8
PLAN_1
 62
     5
  6
CONTINUOUS
 10
-1.075406
 20
0.247244
  0
SEQEND
  8
0
  0
POLYLINE
  8
PLAN_1
 62
     5
  6
CONTINUOUS
 66
     1
 40
0.003000
 41
0.003000
  0
VERTEX
  8
PLAN_1
 62
     5
  6
CONTINUOUS
 10
-1.067043
 20
0.247244
  0
VERTEX
  8
PLAN_1
 62
     5
  6
CONTINUOUS
 10
-1.058685
 20
0.247244
  0
SEQEND
  8
0
  0
POLYLINE
  8
PLAN_1
 62
     5
  6
CONTINUOUS
 66
     1
 40
0.003000
 41
0.003000
  0
VERTEX
  8
PLAN_1
 62
     5
  6
CONTINUOUS
 10
-1.050323
 20
0.247244
  0
VERTEX
  8
PLAN_1
 62
     5
  6
CONTINUOUS
 10
-1.041961
 20
0.247244
  0
SEQEND
  8
0
  0
POLYLINE
  8
PLAN_1
 62
     5
  6
CONTINUOUS
 66
     1
 40
0.003000
 41
0.003000
  0
VERTEX
  8
PLAN_1
 62
     5
  6
CONTINUOUS
 10
-1.033598
 20
0.247244
  0
VERTEX
  8
PLAN_1
 62
     5
  6
CONTINUOUS
 10
-1.025240
 20
0.247244
  0
SEQEND
  8
0
  0
POLYLINE
  8
PLAN_1
 62
     5
  6
CONTINUOUS
 66
     1
 40
0.003000
 41
0.003000
  0
VERTEX
  8
PLAN_1
 62
     5
  6
CONTINUOUS
 10
-1.016878
 20
0.247244
  0
VERTEX
  8
PLAN_1
 62
     5
  6
CONTINUOUS
 10
-1.008516
 20
0.247244
  0
SEQEND
  8
0
  0
POLYLINE
  8
PLAN_1
 62
     5
  6
CONTINUOUS
 66
     1
 40
0.003000
 41
0.003000
  0
VERTEX
  8
PLAN_1
 62
     5
  6
CONTINUOUS
 10
-1.000157
 20
0.247244
  0
VERTEX
  8
PLAN_1
 62
     5
  6
CONTINUOUS
 10
-0.991795
 20
0.247244
  0
SEQEND
  8
0
  0
POLYLINE
  8
PLAN_1
 62
     5
  6
CONTINUOUS
 66
     1
 40
0.003000
 41
0.003000
  0
VERTEX
  8
PLAN_1
 62
     5
  6
CONTINUOUS
 10
-0.983433
 20
0.247244
  0
VERTEX
  8
PLAN_1
 62
     5
  6
CONTINUOUS
 10
-0.975071
 20
0.247244
  0
SEQEND
  8
0
  0
POLYLINE
  8
PLAN_1
 62
     5
  6
CONTINUOUS
 66
     1
 40
0.003000
 41
0.003000
  0
VERTEX
  8
PLAN_1
 62
     5
  6
CONTINUOUS
 10
-0.966713
 20
0.247244
  0
VERTEX
  8
PLAN_1
 62
     5
  6
CONTINUOUS
 10
-0.958350
 20
0.247244
  0
SEQEND
  8
0
  0
POLYLINE
  8
PLAN_1
 62
     5
  6
CONTINUOUS
 66
     1
 40
0.003000
 41
0.003000
  0
VERTEX
  8
PLAN_1
 62
     5
  6
CONTINUOUS
 10
-0.949988
 20
0.247244
  0
VERTEX
  8
PLAN_1
 62
     5
  6
CONTINUOUS
 10
-0.942122
 20
0.247244
  0
SEQEND
  8
0
  0
POLYLINE
  8
PLAN_1
 62
     5
  6
CONTINUOUS
 66
     1
 40
0.003000
 41
0.003000
  0
VERTEX
  8
PLAN_1
 62
     5
  6
CONTINUOUS
 10
-0.933760
 20
0.247244
  0
VERTEX
  8
PLAN_1
 62
     5
  6
CONTINUOUS
 10
-0.925398
 20
0.247244
  0
SEQEND
  8
0
  0
POLYLINE
  8
PLAN_1
 62
     5
  6
CONTINUOUS
 66
     1
 40
0.003000
 41
0.003000
  0
VERTEX
  8
PLAN_1
 62
     5
  6
CONTINUOUS
 10
-0.917035
 20
0.247244
  0
VERTEX
  8
PLAN_1
 62
     5
  6
CONTINUOUS
 10
-0.908677
 20
0.247244
  0
SEQEND
  8
0
  0
POLYLINE
  8
PLAN_1
 62
     5
  6
CONTINUOUS
 66
     1
 40
0.003000
 41
0.003000
  0
VERTEX
  8
PLAN_1
 62
     5
  6
CONTINUOUS
 10
-0.900315
 20
0.247244
  0
VERTEX
  8
PLAN_1
 62
     5
  6
CONTINUOUS
 10
-0.891953
 20
0.247244
  0
SEQEND
  8
0
  0
POLYLINE
  8
PLAN_1
 62
     5
  6
CONTINUOUS
 66
     1
 40
0.003000
 41
0.003000
  0
VERTEX
  8
PLAN_1
 62
     5
  6
CONTINUOUS
 10
-0.883594
 20
0.247244
  0
VERTEX
  8
PLAN_1
 62
     5
  6
CONTINUOUS
 10
-0.875232
 20
0.247244
  0
SEQEND
  8
0
  0
POLYLINE
  8
PLAN_1
 62
     5
  6
CONTINUOUS
 66
     1
 40
0.003000
 41
0.003000
  0
VERTEX
  8
PLAN_1
 62
     5
  6
CONTINUOUS
 10
-0.866870
 20
0.247244
  0
VERTEX
  8
PLAN_1
 62
     5
  6
CONTINUOUS
 10
-0.858508
 20
0.247244
  0
SEQEND
  8
0
  0
POLYLINE
  8
PLAN_1
 62
     5
  6
CONTINUOUS
 66
     1
 40
0.003000
 41
0.003000
  0
VERTEX
  8
PLAN_1
 62
     5
  6
CONTINUOUS
 10
-0.850150
 20
0.247244
  0
VERTEX
  8
PLAN_1
 62
     5
  6
CONTINUOUS
 10
-0.841787
 20
0.247244
  0
SEQEND
  8
0
  0
POLYLINE
  8
PLAN_1
 62
     5
  6
CONTINUOUS
 66
     1
 40
0.003000
 41
0.003000
  0
VERTEX
  8
PLAN_1
 62
     5
  6
CONTINUOUS
 10
-0.833425
 20
0.247244
  0
VERTEX
  8
PLAN_1
 62
     5
  6
CONTINUOUS
 10
-0.825067
 20
0.247244
  0
SEQEND
  8
0
  0
POLYLINE
  8
PLAN_1
 62
     5
  6
CONTINUOUS
 66
     1
 40
0.003000
 41
0.003000
  0
VERTEX
  8
PLAN_1
 62
     5
  6
CONTINUOUS
 10
-0.817197
 20
0.247244
  0
VERTEX
  8
PLAN_1
 62
     5
  6
CONTINUOUS
 10
-0.808835
 20
0.247244
  0
SEQEND
  8
0
  0
POLYLINE
  8
PLAN_1
 62
     5
  6
CONTINUOUS
 66
     1
 40
0.003000
 41
0.003000
  0
VERTEX
  8
PLAN_1
 62
     5
  6
CONTINUOUS
 10
-0.800472
 20
0.247244
  0
VERTEX
  8
PLAN_1
 62
     5
  6
CONTINUOUS
 10
-0.792114
 20
0.247244
  0
SEQEND
  8
0
  0
POLYLINE
  8
PLAN_1
 62
     5
  6
CONTINUOUS
 66
     1
 40
0.003000
 41
0.003000
  0
VERTEX
  8
PLAN_1
 62
     5
  6
CONTINUOUS
 10
-0.783752
 20
0.247244
  0
VERTEX
  8
PLAN_1
 62
     5
  6
CONTINUOUS
 10
-0.775390
 20
0.247244
  0
SEQEND
  8
0
  0
POLYLINE
  8
PLAN_1
 62
     5
  6
CONTINUOUS
 66
     1
 40
0.003000
 41
0.003000
  0
VERTEX
  8
PLAN_1
 62
     5
  6
CONTINUOUS
 10
-0.767031
 20
0.247244
  0
VERTEX
  8
PLAN_1
 62
     5
  6
CONTINUOUS
 10
-0.758669
 20
0.247244
  0
SEQEND
  8
0
  0
POLYLINE
  8
PLAN_1
 62
     5
  6
CONTINUOUS
 66
     1
 40
0.003000
 41
0.003000
  0
VERTEX
  8
PLAN_1
 62
     5
  6
CONTINUOUS
 10
-0.750307
 20
0.247244
  0
VERTEX
  8
PLAN_1
 62
     5
  6
CONTINUOUS
 10
-0.741945
 20
0.247244
  0
SEQEND
  8
0
  0
POLYLINE
  8
PLAN_1
 62
     5
  6
CONTINUOUS
 66
     1
 40
0.003000
 41
0.003000
  0
VERTEX
  8
PLAN_1
 62
     5
  6
CONTINUOUS
 10
-0.733587
 20
0.247244
  0
VERTEX
  8
PLAN_1
 62
     5
  6
CONTINUOUS
 10
-0.725224
 20
0.247244
  0
SEQEND
  8
0
  0
POLYLINE
  8
PLAN_1
 62
     5
  6
CONTINUOUS
 66
     1
 40
0.003000
 41
0.003000
  0
VERTEX
  8
PLAN_1
 62
     5
  6
CONTINUOUS
 10
-0.716862
 20
0.247244
  0
VERTEX
  8
PLAN_1
 62
     5
  6
CONTINUOUS
 10
-0.708504
 20
0.247244
  0
SEQEND
  8
0
  0
POLYLINE
  8
PLAN_1
 62
     5
  6
CONTINUOUS
 66
     1
 40
0.003000
 41
0.003000
  0
VERTEX
  8
PLAN_1
 62
     5
  6
CONTINUOUS
 10
-0.700142
 20
0.247244
  0
VERTEX
  8
PLAN_1
 62
     5
  6
CONTINUOUS
 10
-0.691780
 20
0.247244
  0
SEQEND
  8
0
  0
POLYLINE
  8
PLAN_1
 62
     5
  6
CONTINUOUS
 66
     1
 40
0.003000
 41
0.003000
  0
VERTEX
  8
PLAN_1
 62
     5
  6
CONTINUOUS
 10
-0.683909
 20
0.247244
  0
VERTEX
  8
PLAN_1
 62
     5
  6
CONTINUOUS
 10
-0.675551
 20
0.247244
  0
SEQEND
  8
0
  0
POLYLINE
  8
PLAN_1
 62
     5
  6
CONTINUOUS
 66
     1
 40
0.003000
 41
0.003000
  0
VERTEX
  8
PLAN_1
 62
     5
  6
CONTINUOUS
 10
-0.667189
 20
0.247244
  0
VERTEX
  8
PLAN_1
 62
     5
  6
CONTINUOUS
 10
-0.658827
 20
0.247244
  0
SEQEND
  8
0
  0
POLYLINE
  8
PLAN_1
 62
     5
  6
CONTINUOUS
 66
     1
 40
0.003000
 41
0.003000
  0
VERTEX
  8
PLAN_1
 62
     5
  6
CONTINUOUS
 10
-0.650469
 20
0.247244
  0
VERTEX
  8
PLAN_1
 62
     5
  6
CONTINUOUS
 10
-0.642106
 20
0.247244
  0
SEQEND
  8
0
  0
POLYLINE
  8
PLAN_1
 62
     5
  6
CONTINUOUS
 66
     1
 40
0.003000
 41
0.003000
  0
VERTEX
  8
PLAN_1
 62
     5
  6
CONTINUOUS
 10
-0.633744
 20
0.247244
  0
VERTEX
  8
PLAN_1
 62
     5
  6
CONTINUOUS
 10
-0.625382
 20
0.247244
  0
SEQEND
  8
0
  0
POLYLINE
  8
PLAN_1
 62
     5
  6
CONTINUOUS
 66
     1
 40
0.003000
 41
0.003000
  0
VERTEX
  8
PLAN_1
 62
     5
  6
CONTINUOUS
 10
-0.617024
 20
0.247244
  0
VERTEX
  8
PLAN_1
 62
     5
  6
CONTINUOUS
 10
-0.608661
 20
0.247244
  0
SEQEND
  8
0
  0
POLYLINE
  8
PLAN_1
 62
     5
  6
CONTINUOUS
 66
     1
 40
0.003000
 41
0.003000
  0
VERTEX
  8
PLAN_1
 62
     5
  6
CONTINUOUS
 10
-0.600299
 20
0.247244
  0
VERTEX
  8
PLAN_1
 62
     5
  6
CONTINUOUS
 10
-0.591941
 20
0.247244
  0
SEQEND
  8
0
  0
POLYLINE
  8
PLAN_1
 62
     5
  6
CONTINUOUS
 66
     1
 40
0.003000
 41
0.003000
  0
VERTEX
  8
PLAN_1
 62
     5
  6
CONTINUOUS
 10
-0.583579
 20
0.247244
  0
VERTEX
  8
PLAN_1
 62
     5
  6
CONTINUOUS
 10
-0.575217
 20
0.247244
  0
SEQEND
  8
0
  0
POLYLINE
  8
PLAN_1
 62
     5
  6
CONTINUOUS
 66
     1
 40
0.003000
 41
0.003000
  0
VERTEX
  8
PLAN_1
 62
     5
  6
CONTINUOUS
 10
-0.566854
 20
0.247244
  0
VERTEX
  8
PLAN_1
 62
     5
  6
CONTINUOUS
 10
-0.558988
 20
0.247244
  0
SEQEND
  8
0
  0
POLYLINE
  8
PLAN_1
 62
     5
  6
CONTINUOUS
 66
     1
 40
0.003000
 41
0.003000
  0
VERTEX
  8
PLAN_1
 62
     5
  6
CONTINUOUS
 10
-0.550626
 20
0.247244
  0
VERTEX
  8
PLAN_1
 62
     5
  6
CONTINUOUS
 10
-0.542264
 20
0.247244
  0
SEQEND
  8
0
  0
POLYLINE
  8
PLAN_1
 62
     5
  6
CONTINUOUS
 66
     1
 40
0.003000
 41
0.003000
  0
VERTEX
  8
PLAN_1
 62
     5
  6
CONTINUOUS
 10
-0.533902
 20
0.247244
  0
VERTEX
  8
PLAN_1
 62
     5
  6
CONTINUOUS
 10
-0.525543
 20
0.247244
  0
SEQEND
  8
0
  0
POLYLINE
  8
PLAN_1
 62
     5
  6
CONTINUOUS
 66
     1
 40
0.003000
 41
0.003000
  0
VERTEX
  8
PLAN_1
 62
     5
  6
CONTINUOUS
 10
-0.517181
 20
0.247244
  0
VERTEX
  8
PLAN_1
 62
     5
  6
CONTINUOUS
 10
-0.508819
 20
0.247244
  0
SEQEND
  8
0
  0
POLYLINE
  8
PLAN_1
 62
     5
  6
CONTINUOUS
 66
     1
 40
0.003000
 41
0.003000
  0
VERTEX
  8
PLAN_1
 62
     5
  6
CONTINUOUS
 10
-0.500461
 20
0.247244
  0
VERTEX
  8
PLAN_1
 62
     5
  6
CONTINUOUS
 10
-0.492098
 20
0.247244
  0
SEQEND
  8
0
  0
POLYLINE
  8
PLAN_1
 62
     5
  6
CONTINUOUS
 66
     1
 40
0.003000
 41
0.003000
  0
VERTEX
  8
PLAN_1
 62
     5
  6
CONTINUOUS
 10
-0.483736
 20
0.247244
  0
VERTEX
  8
PLAN_1
 62
     5
  6
CONTINUOUS
 10
-0.475374
 20
0.247244
  0
SEQEND
  8
0
  0
POLYLINE
  8
PLAN_1
 62
     5
  6
CONTINUOUS
 66
     1
 40
0.003000
 41
0.003000
  0
VERTEX
  8
PLAN_1
 62
     5
  6
CONTINUOUS
 10
-0.467016
 20
0.247244
  0
VERTEX
  8
PLAN_1
 62
     5
  6
CONTINUOUS
 10
-0.458654
 20
0.247244
  0
SEQEND
  8
0
  0
POLYLINE
  8
PLAN_1
 62
     5
  6
CONTINUOUS
 66
     1
 40
0.003000
 41
0.003000
  0
VERTEX
  8
PLAN_1
 62
     5
  6
CONTINUOUS
 10
-0.450291
 20
0.247244
  0
VERTEX
  8
PLAN_1
 62
     5
  6
CONTINUOUS
 10
-0.441933
 20
0.247244
  0
SEQEND
  8
0
  0
POLYLINE
  8
PLAN_1
 62
     5
  6
CONTINUOUS
 66
     1
 40
0.003000
 41
0.003000
  0
VERTEX
  8
PLAN_1
 62
     5
  6
CONTINUOUS
 10
-0.433571
 20
0.247244
  0
VERTEX
  8
PLAN_1
 62
     5
  6
CONTINUOUS
 10
-0.425701
 20
0.247244
  0
SEQEND
  8
0
  0
POLYLINE
  8
PLAN_1
 62
     5
  6
CONTINUOUS
 66
     1
 40
0.003000
 41
0.003000
  0
VERTEX
  8
PLAN_1
 62
     5
  6
CONTINUOUS
 10
-0.417339
 20
0.247244
  0
VERTEX
  8
PLAN_1
 62
     5
  6
CONTINUOUS
 10
-0.408980
 20
0.247244
  0
SEQEND
  8
0
  0
POLYLINE
  8
PLAN_1
 62
     5
  6
CONTINUOUS
 66
     1
 40
0.003000
 41
0.003000
  0
VERTEX
  8
PLAN_1
 62
     5
  6
CONTINUOUS
 10
-0.400618
 20
0.247244
  0
VERTEX
  8
PLAN_1
 62
     5
  6
CONTINUOUS
 10
-0.392256
 20
0.247244
  0
SEQEND
  8
0
  0
POLYLINE
  8
PLAN_1
 62
     5
  6
CONTINUOUS
 66
     1
 40
0.003000
 41
0.003000
  0
VERTEX
  8
PLAN_1
 62
     5
  6
CONTINUOUS
 10
-0.383898
 20
0.247244
  0
VERTEX
  8
PLAN_1
 62
     5
  6
CONTINUOUS
 10
-0.375535
 20
0.247244
  0
SEQEND
  8
0
  0
POLYLINE
  8
PLAN_1
 62
     5
  6
CONTINUOUS
 66
     1
 40
0.003000
 41
0.003000
  0
VERTEX
  8
PLAN_1
 62
     5
  6
CONTINUOUS
 10
-0.367173
 20
0.247244
  0
VERTEX
  8
PLAN_1
 62
     5
  6
CONTINUOUS
 10
-0.358811
 20
0.247244
  0
SEQEND
  8
0
  0
POLYLINE
  8
PLAN_1
 62
     5
  6
CONTINUOUS
 66
     1
 40
0.003000
 41
0.003000
  0
VERTEX
  8
PLAN_1
 62
     5
  6
CONTINUOUS
 10
-0.350453
 20
0.247244
  0
VERTEX
  8
PLAN_1
 62
     5
  6
CONTINUOUS
 10
-0.342091
 20
0.247244
  0
SEQEND
  8
0
  0
POLYLINE
  8
PLAN_1
 62
     5
  6
CONTINUOUS
 66
     1
 40
0.003000
 41
0.003000
  0
VERTEX
  8
PLAN_1
 62
     5
  6
CONTINUOUS
 10
-0.333728
 20
0.247244
  0
VERTEX
  8
PLAN_1
 62
     5
  6
CONTINUOUS
 10
-0.325370
 20
0.247244
  0
SEQEND
  8
0
  0
POLYLINE
  8
PLAN_1
 62
     5
  6
CONTINUOUS
 66
     1
 40
0.003000
 41
0.003000
  0
VERTEX
  8
PLAN_1
 62
     5
  6
CONTINUOUS
 10
-0.317008
 20
0.247244
  0
VERTEX
  8
PLAN_1
 62
     5
  6
CONTINUOUS
 10
-0.308646
 20
0.247244
  0
SEQEND
  8
0
  0
POLYLINE
  8
PLAN_1
 62
     5
  6
CONTINUOUS
 66
     1
 40
0.003000
 41
0.003000
  0
VERTEX
  8
PLAN_1
 62
     5
  6
CONTINUOUS
 10
-0.300776
 20
0.247244
  0
VERTEX
  8
PLAN_1
 62
     5
  6
CONTINUOUS
 10
-0.292417
 20
0.247244
  0
SEQEND
  8
0
  0
POLYLINE
  8
PLAN_1
 62
     5
  6
CONTINUOUS
 66
     1
 40
0.003000
 41
0.003000
  0
VERTEX
  8
PLAN_1
 62
     5
  6
CONTINUOUS
 10
-0.284055
 20
0.247244
  0
VERTEX
  8
PLAN_1
 62
     5
  6
CONTINUOUS
 10
-0.275693
 20
0.247244
  0
SEQEND
  8
0
  0
POLYLINE
  8
PLAN_1
 62
     5
  6
CONTINUOUS
 66
     1
 40
0.003000
 41
0.003000
  0
VERTEX
  8
PLAN_1
 62
     5
  6
CONTINUOUS
 10
-0.267335
 20
0.247244
  0
VERTEX
  8
PLAN_1
 62
     5
  6
CONTINUOUS
 10
-0.258972
 20
0.247244
  0
SEQEND
  8
0
  0
POLYLINE
  8
PLAN_1
 62
     5
  6
CONTINUOUS
 66
     1
 40
0.003000
 41
0.003000
  0
VERTEX
  8
PLAN_1
 62
     5
  6
CONTINUOUS
 10
-0.250610
 20
0.247244
  0
VERTEX
  8
PLAN_1
 62
     5
  6
CONTINUOUS
 10
-0.242248
 20
0.247244
  0
SEQEND
  8
0
  0
POLYLINE
  8
PLAN_1
 62
     5
  6
CONTINUOUS
 66
     1
 40
0.003000
 41
0.003000
  0
VERTEX
  8
PLAN_1
 62
     5
  6
CONTINUOUS
 10
-0.233890
 20
0.247244
  0
VERTEX
  8
PLAN_1
 62
     5
  6
CONTINUOUS
 10
-0.225528
 20
0.247244
  0
SEQEND
  8
0
  0
POLYLINE
  8
PLAN_1
 62
     5
  6
CONTINUOUS
 66
     1
 40
0.003000
 41
0.003000
  0
VERTEX
  8
PLAN_1
 62
     5
  6
CONTINUOUS
 10
-0.217165
 20
0.247244
  0
VERTEX
  8
PLAN_1
 62
     5
  6
CONTINUOUS
 10
-0.208807
 20
0.247244
  0
SEQEND
  8
0
  0
POLYLINE
  8
PLAN_1
 62
     5
  6
CONTINUOUS
 66
     1
 40
0.003000
 41
0.003000
  0
VERTEX
  8
PLAN_1
 62
     5
  6
CONTINUOUS
 10
-0.200445
 20
0.247244
  0
VERTEX
  8
PLAN_1
 62
     5
  6
CONTINUOUS
 10
-0.192083
 20
0.247244
  0
SEQEND
  8
0
  0
POLYLINE
  8
PLAN_1
 62
     5
  6
CONTINUOUS
 66
     1
 40
0.003000
 41
0.003000
  0
VERTEX
  8
PLAN_1
 62
     5
  6
CONTINUOUS
 10
-0.183720
 20
0.247244
  0
VERTEX
  8
PLAN_1
 62
     5
  6
CONTINUOUS
 10
-0.175854
 20
0.247244
  0
SEQEND
  8
0
  0
POLYLINE
  8
PLAN_1
 62
     5
  6
CONTINUOUS
 66
     1
 40
0.003000
 41
0.003000
  0
VERTEX
  8
PLAN_1
 62
     5
  6
CONTINUOUS
 10
-0.167492
 20
0.247244
  0
VERTEX
  8
PLAN_1
 62
     5
  6
CONTINUOUS
 10
-0.159130
 20
0.247244
  0
SEQEND
  8
0
  0
POLYLINE
  8
PLAN_1
 62
     5
  6
CONTINUOUS
 66
     1
 40
0.003000
 41
0.003000
  0
VERTEX
  8
PLAN_1
 62
     5
  6
CONTINUOUS
 10
-0.150772
 20
0.247244
  0
VERTEX
  8
PLAN_1
 62
     5
  6
CONTINUOUS
 10
-0.142409
 20
0.247244
  0
SEQEND
  8
0
  0
POLYLINE
  8
PLAN_1
 62
     5
  6
CONTINUOUS
 66
     1
 40
0.003000
 41
0.003000
  0
VERTEX
  8
PLAN_1
 62
     5
  6
CONTINUOUS
 10
-0.134047
 20
0.247244
  0
VERTEX
  8
PLAN_1
 62
     5
  6
CONTINUOUS
 10
-0.125685
 20
0.247244
  0
SEQEND
  8
0
  0
POLYLINE
  8
PLAN_1
 62
     5
  6
CONTINUOUS
 66
     1
 40
0.003000
 41
0.003000
  0
VERTEX
  8
PLAN_1
 62
     5
  6
CONTINUOUS
 10
-0.117327
 20
0.247244
  0
VERTEX
  8
PLAN_1
 62
     5
  6
CONTINUOUS
 10
-0.108965
 20
0.247244
  0
SEQEND
  8
0
  0
POLYLINE
  8
PLAN_1
 62
     5
  6
CONTINUOUS
 66
     1
 40
0.003000
 41
0.003000
  0
VERTEX
  8
PLAN_1
 62
     5
  6
CONTINUOUS
 10
-0.100602
 20
0.247244
  0
VERTEX
  8
PLAN_1
 62
     5
  6
CONTINUOUS
 10
-0.092244
 20
0.247244
  0
SEQEND
  8
0
  0
POLYLINE
  8
PLAN_1
 62
     5
  6
CONTINUOUS
 66
     1
 40
0.003000
 41
0.003000
  0
VERTEX
  8
PLAN_1
 62
     5
  6
CONTINUOUS
 10
-0.083882
 20
0.247244
  0
VERTEX
  8
PLAN_1
 62
     5
  6
CONTINUOUS
 10
-0.075520
 20
0.247244
  0
SEQEND
  8
0
  0
POLYLINE
  8
PLAN_1
 62
     5
  6
CONTINUOUS
 66
     1
 40
0.003000
 41
0.003000
  0
VERTEX
  8
PLAN_1
 62
     5
  6
CONTINUOUS
 10
-0.067157
 20
0.247244
  0
VERTEX
  8
PLAN_1
 62
     5
  6
CONTINUOUS
 10
-0.058799
 20
0.247244
  0
SEQEND
  8
0
  0
POLYLINE
  8
PLAN_1
 62
     5
  6
CONTINUOUS
 66
     1
 40
0.003000
 41
0.003000
  0
VERTEX
  8
PLAN_1
 62
     5
  6
CONTINUOUS
 10
-0.050437
 20
0.247244
  0
VERTEX
  8
PLAN_1
 62
     5
  6
CONTINUOUS
 10
-0.042567
 20
0.247244
  0
SEQEND
  8
0
  0
POLYLINE
  8
PLAN_1
 62
     5
  6
CONTINUOUS
 66
     1
 40
0.003000
 41
0.003000
  0
VERTEX
  8
PLAN_1
 62
     5
  6
CONTINUOUS
 10
-0.034205
 20
0.247244
  0
VERTEX
  8
PLAN_1
 62
     5
  6
CONTINUOUS
 10
-0.025846
 20
0.247244
  0
SEQEND
  8
0
  0
POLYLINE
  8
PLAN_1
 62
     5
  6
CONTINUOUS
 66
     1
 40
0.003000
 41
0.003000
  0
VERTEX
  8
PLAN_1
 62
     5
  6
CONTINUOUS
 10
-0.017484
 20
0.247244
  0
VERTEX
  8
PLAN_1
 62
     5
  6
CONTINUOUS
 10
-0.009122
 20
0.247244
  0
SEQEND
  8
0
  0
POLYLINE
  8
PLAN_1
 62
     5
  6
CONTINUOUS
 66
     1
 40
0.003000
 41
0.003000
  0
VERTEX
  8
PLAN_1
 62
     5
  6
CONTINUOUS
 10
-0.000764
 20
0.247244
  0
VERTEX
  8
PLAN_1
 62
     5
  6
CONTINUOUS
 10
0.007598
 20
0.247244
  0
SEQEND
  8
0
  0
POLYLINE
  8
PLAN_1
 62
     5
  6
CONTINUOUS
 66
     1
 40
0.003000
 41
0.003000
  0
VERTEX
  8
PLAN_1
 62
     5
  6
CONTINUOUS
 10
0.015961
 20
0.247244
  0
VERTEX
  8
PLAN_1
 62
     5
  6
CONTINUOUS
 10
0.024323
 20
0.247244
  0
SEQEND
  8
0
  0
POLYLINE
  8
PLAN_1
 62
     5
  6
CONTINUOUS
 66
     1
 40
0.003000
 41
0.003000
  0
VERTEX
  8
PLAN_1
 62
     5
  6
CONTINUOUS
 10
0.032681
 20
0.247244
  0
VERTEX
  8
PLAN_1
 62
     5
  6
CONTINUOUS
 10
0.041043
 20
0.247244
  0
SEQEND
  8
0
  0
POLYLINE
  8
PLAN_1
 62
     5
  6
CONTINUOUS
 66
     1
 40
0.003000
 41
0.003000
  0
VERTEX
  8
PLAN_1
 62
     5
  6
CONTINUOUS
 10
0.049406
 20
0.247244
  0
VERTEX
  8
PLAN_1
 62
     5
  6
CONTINUOUS
 10
0.057764
 20
0.247244
  0
SEQEND
  8
0
  0
POLYLINE
  8
PLAN_1
 62
     5
  6
CONTINUOUS
 66
     1
 40
0.003000
 41
0.003000
  0
VERTEX
  8
PLAN_1
 62
     5
  6
CONTINUOUS
 10
0.066126
 20
0.247244
  0
VERTEX
  8
PLAN_1
 62
     5
  6
CONTINUOUS
 10
0.074488
 20
0.247244
  0
SEQEND
  8
0
  0
POLYLINE
  8
PLAN_1
 62
     5
  6
CONTINUOUS
 66
     1
 40
0.003000
 41
0.003000
  0
VERTEX
  8
PLAN_1
 62
     5
  6
CONTINUOUS
 10
0.082358
 20
0.247244
  0
VERTEX
  8
PLAN_1
 62
     5
  6
CONTINUOUS
 10
0.090717
 20
0.247244
  0
SEQEND
  8
0
  0
POLYLINE
  8
PLAN_1
 62
     5
  6
CONTINUOUS
 66
     1
 40
0.003000
 41
0.003000
  0
VERTEX
  8
PLAN_1
 62
     5
  6
CONTINUOUS
 10
0.099079
 20
0.247244
  0
VERTEX
  8
PLAN_1
 62
     5
  6
CONTINUOUS
 10
0.107441
 20
0.247244
  0
SEQEND
  8
0
  0
POLYLINE
  8
PLAN_1
 62
     5
  6
CONTINUOUS
 66
     1
 40
0.003000
 41
0.003000
  0
VERTEX
  8
PLAN_1
 62
     5
  6
CONTINUOUS
 10
0.115799
 20
0.247244
  0
VERTEX
  8
PLAN_1
 62
     5
  6
CONTINUOUS
 10
0.124161
 20
0.247244
  0
SEQEND
  8
0
  0
POLYLINE
  8
PLAN_1
 62
     5
  6
CONTINUOUS
 66
     1
 40
0.003000
 41
0.003000
  0
VERTEX
  8
PLAN_1
 62
     5
  6
CONTINUOUS
 10
0.132524
 20
0.247244
  0
VERTEX
  8
PLAN_1
 62
     5
  6
CONTINUOUS
 10
0.136949
 20
0.247244
  0
VERTEX
  8
PLAN_1
 62
     5
  6
CONTINUOUS
 10
0.136949
 20
0.242819
  0
SEQEND
  8
0
  0
POLYLINE
  8
PLAN_1
 62
     5
  6
CONTINUOUS
 66
     1
 40
0.003000
 41
0.003000
  0
VERTEX
  8
PLAN_1
 62
     5
  6
CONTINUOUS
 10
0.136949
 20
0.234457
  0
VERTEX
  8
PLAN_1
 62
     5
  6
CONTINUOUS
 10
0.136949
 20
0.226094
  0
SEQEND
  8
0
  0
POLYLINE
  8
PLAN_1
 62
     5
  6
CONTINUOUS
 66
     1
 40
0.003000
 41
0.003000
  0
VERTEX
  8
PLAN_1
 62
     5
  6
CONTINUOUS
 10
0.136949
 20
0.218224
  0
VERTEX
  8
PLAN_1
 62
     5
  6
CONTINUOUS
 10
0.136949
 20
0.209866
  0
SEQEND
  8
0
  0
POLYLINE
  8
PLAN_1
 62
     5
  6
CONTINUOUS
 66
     1
 40
0.003000
 41
0.003000
  0
VERTEX
  8
PLAN_1
 62
     5
  6
CONTINUOUS
 10
0.136949
 20
0.201504
  0
VERTEX
  8
PLAN_1
 62
     5
  6
CONTINUOUS
 10
0.136949
 20
0.193142
  0
SEQEND
  8
0
  0
POLYLINE
  8
PLAN_1
 62
     5
  6
CONTINUOUS
 66
     1
 40
0.003000
 41
0.003000
  0
VERTEX
  8
PLAN_1
 62
     5
  6
CONTINUOUS
 10
0.136949
 20
0.184783
  0
VERTEX
  8
PLAN_1
 62
     5
  6
CONTINUOUS
 10
0.136949
 20
0.176421
  0
SEQEND
  8
0
  0
POLYLINE
  8
PLAN_1
 62
     5
  6
CONTINUOUS
 66
     1
 40
0.003000
 41
0.003000
  0
VERTEX
  8
PLAN_1
 62
     5
  6
CONTINUOUS
 10
0.136949
 20
0.168059
  0
VERTEX
  8
PLAN_1
 62
     5
  6
CONTINUOUS
 10
0.136949
 20
0.159697
  0
SEQEND
  8
0
  0
POLYLINE
  8
PLAN_1
 62
     5
  6
CONTINUOUS
 66
     1
 40
0.003000
 41
0.003000
  0
VERTEX
  8
PLAN_1
 62
     5
  6
CONTINUOUS
 10
0.136949
 20
0.151339
  0
VERTEX
  8
PLAN_1
 62
     5
  6
CONTINUOUS
 10
0.136949
 20
0.142976
  0
SEQEND
  8
0
  0
POLYLINE
  8
PLAN_1
 62
     5
  6
CONTINUOUS
 66
     1
 40
0.003000
 41
0.003000
  0
VERTEX
  8
PLAN_1
 62
     5
  6
CONTINUOUS
 10
0.136949
 20
0.134614
  0
VERTEX
  8
PLAN_1
 62
     5
  6
CONTINUOUS
 10
0.136949
 20
0.126256
  0
SEQEND
  8
0
  0
POLYLINE
  8
PLAN_1
 62
     5
  6
CONTINUOUS
 66
     1
 40
0.003000
 41
0.003000
  0
VERTEX
  8
PLAN_1
 62
     5
  6
CONTINUOUS
 10
0.136949
 20
0.117894
  0
VERTEX
  8
PLAN_1
 62
     5
  6
CONTINUOUS
 10
0.136949
 20
0.109531
  0
SEQEND
  8
0
  0
POLYLINE
  8
PLAN_1
 62
     5
  6
CONTINUOUS
 66
     1
 40
0.003000
 41
0.003000
  0
VERTEX
  8
PLAN_1
 62
     5
  6
CONTINUOUS
 10
0.136949
 20
0.101169
  0
VERTEX
  8
PLAN_1
 62
     5
  6
CONTINUOUS
 10
0.136949
 20
0.094776
  0
VERTEX
  8
PLAN_1
 62
     5
  6
CONTINUOUS
 10
0.138425
 20
0.094776
  0
SEQEND
  8
0
  0
POLYLINE
  8
PLAN_1
 62
     5
  6
CONTINUOUS
 66
     1
 40
0.003000
 41
0.003000
  0
VERTEX
  8
PLAN_1
 62
     5
  6
CONTINUOUS
 10
0.146787
 20
0.094776
  0
VERTEX
  8
PLAN_1
 62
     5
  6
CONTINUOUS
 10
0.155146
 20
0.094776
  0
SEQEND
  8
0
  0
POLYLINE
  8
PLAN_1
 62
     5
  6
CONTINUOUS
 66
     1
 40
0.003000
 41
0.003000
  0
VERTEX
  8
PLAN_1
 62
     5
  6
CONTINUOUS
 10
0.163508
 20
0.094776
  0
VERTEX
  8
PLAN_1
 62
     5
  6
CONTINUOUS
 10
0.171870
 20
0.094776
  0
SEQEND
  8
0
  0
POLYLINE
  8
PLAN_1
 62
     5
  6
CONTINUOUS
 66
     1
 40
0.003000
 41
0.003000
  0
VERTEX
  8
PLAN_1
 62
     5
  6
CONTINUOUS
 10
0.178756
 20
0.093303
  0
VERTEX
  8
PLAN_1
 62
     5
  6
CONTINUOUS
 10
0.178756
 20
0.084941
  0
SEQEND
  8
0
  0
POLYLINE
  8
PLAN_1
 62
     5
  6
CONTINUOUS
 66
     1
 40
0.003000
 41
0.003000
  0
VERTEX
  8
PLAN_1
 62
     5
  6
CONTINUOUS
 10
0.178756
 20
0.076579
  0
VERTEX
  8
PLAN_1
 62
     5
  6
CONTINUOUS
 10
0.178756
 20
0.068217
  0
SEQEND
  8
0
  0
POLYLINE
  8
PLAN_1
 62
     5
  6
CONTINUOUS
 66
     1
 40
0.003000
 41
0.003000
  0
VERTEX
  8
PLAN_1
 62
     5
  6
CONTINUOUS
 10
0.178756
 20
0.059858
  0
VERTEX
  8
PLAN_1
 62
     5
  6
CONTINUOUS
 10
0.178756
 20
0.051496
  0
SEQEND
  8
0
  0
POLYLINE
  8
PLAN_1
 62
     5
  6
CONTINUOUS
 66
     1
 40
0.003000
 41
0.003000
  0
VERTEX
  8
PLAN_1
 62
     5
  6
CONTINUOUS
 10
0.178756
 20
0.043134
  0
VERTEX
  8
PLAN_1
 62
     5
  6
CONTINUOUS
 10
0.178756
 20
0.034776
  0
SEQEND
  8
0
  0
POLYLINE
  8
PLAN_1
 62
     5
  6
CONTINUOUS
 66
     1
 40
0.003000
 41
0.003000
  0
VERTEX
  8
PLAN_1
 62
     5
  6
CONTINUOUS
 10
0.178756
 20
0.026906
  0
VERTEX
  8
PLAN_1
 62
     5
  6
CONTINUOUS
 10
0.178756
 20
0.018543
  0
SEQEND
  8
0
  0
POLYLINE
  8
PLAN_1
 62
     5
  6
CONTINUOUS
 66
     1
 40
0.003000
 41
0.003000
  0
VERTEX
  8
PLAN_1
 62
     5
  6
CONTINUOUS
 10
0.178756
 20
0.010181
  0
VERTEX
  8
PLAN_1
 62
     5
  6
CONTINUOUS
 10
0.178756
 20
0.001823
  0
SEQEND
  8
0
  0
POLYLINE
  8
PLAN_1
 62
     5
  6
CONTINUOUS
 66
     1
 40
0.003000
 41
0.003000
  0
VERTEX
  8
PLAN_1
 62
     5
  6
CONTINUOUS
 10
0.178756
 20
-0.006539
  0
VERTEX
  8
PLAN_1
 62
     5
  6
CONTINUOUS
 10
0.178756
 20
-0.014902
  0
SEQEND
  8
0
  0
POLYLINE
  8
PLAN_1
 62
     5
  6
CONTINUOUS
 66
     1
 40
0.003000
 41
0.003000
  0
VERTEX
  8
PLAN_1
 62
     5
  6
CONTINUOUS
 10
0.178756
 20
-0.023260
  0
VERTEX
  8
PLAN_1
 62
     5
  6
CONTINUOUS
 10
0.178756
 20
-0.031622
  0
SEQEND
  8
0
  0
POLYLINE
  8
PLAN_1
 62
     5
  6
CONTINUOUS
 66
     1
 40
0.003000
 41
0.003000
  0
VERTEX
  8
PLAN_1
 62
     5
  6
CONTINUOUS
 10
0.178756
 20
-0.039984
  0
VERTEX
  8
PLAN_1
 62
     5
  6
CONTINUOUS
 10
0.178756
 20
-0.048346
  0
SEQEND
  8
0
  0
POLYLINE
  8
PLAN_1
 62
     5
  6
CONTINUOUS
 66
     1
 40
0.003000
 41
0.003000
  0
VERTEX
  8
PLAN_1
 62
     5
  6
CONTINUOUS
 10
0.178756
 20
-0.056705
  0
VERTEX
  8
PLAN_1
 62
     5
  6
CONTINUOUS
 10
0.178756
 20
-0.065067
  0
SEQEND
  8
0
  0
POLYLINE
  8
PLAN_1
 62
     5
  6
CONTINUOUS
 66
     1
 40
0.003000
 41
0.003000
  0
VERTEX
  8
PLAN_1
 62
     5
  6
CONTINUOUS
 10
0.178756
 20
-0.073429
  0
VERTEX
  8
PLAN_1
 62
     5
  6
CONTINUOUS
 10
0.178756
 20
-0.081787
  0
SEQEND
  8
0
  0
POLYLINE
  8
PLAN_1
 62
     5
  6
CONTINUOUS
 66
     1
 40
0.003000
 41
0.003000
  0
VERTEX
  8
PLAN_1
 62
     5
  6
CONTINUOUS
 10
0.178756
 20
-0.090150
  0
VERTEX
  8
PLAN_1
 62
     5
  6
CONTINUOUS
 10
0.178756
 20
-0.098512
  0
SEQEND
  8
0
  0
POLYLINE
  8
PLAN_1
 62
     5
  6
CONTINUOUS
 66
     1
 40
0.003000
 41
0.003000
  0
VERTEX
  8
PLAN_1
 62
     5
  6
CONTINUOUS
 10
0.178756
 20
-0.106382
  0
VERTEX
  8
PLAN_1
 62
     5
  6
CONTINUOUS
 10
0.178756
 20
-0.114740
  0
SEQEND
  8
0
  0
POLYLINE
  8
PLAN_1
 62
     5
  6
CONTINUOUS
 66
     1
 40
0.003000
 41
0.003000
  0
VERTEX
  8
PLAN_1
 62
     5
  6
CONTINUOUS
 10
0.178756
 20
-0.123102
  0
VERTEX
  8
PLAN_1
 62
     5
  6
CONTINUOUS
 10
0.178756
 20
-0.131465
  0
SEQEND
  8
0
  0
POLYLINE
  8
PLAN_1
 62
     5
  6
CONTINUOUS
 66
     1
 40
0.003000
 41
0.003000
  0
VERTEX
  8
PLAN_1
 62
     5
  6
CONTINUOUS
 10
0.178756
 20
-0.139823
  0
VERTEX
  8
PLAN_1
 62
     5
  6
CONTINUOUS
 10
0.178756
 20
-0.148185
  0
SEQEND
  8
0
  0
POLYLINE
  8
PLAN_1
 62
     5
  6
CONTINUOUS
 66
     1
 40
0.003000
 41
0.003000
  0
VERTEX
  8
PLAN_1
 62
     5
  6
CONTINUOUS
 10
0.178756
 20
-0.156547
  0
VERTEX
  8
PLAN_1
 62
     5
  6
CONTINUOUS
 10
0.178756
 20
-0.164909
  0
SEQEND
  8
0
  0
POLYLINE
  8
PLAN_1
 62
     5
  6
CONTINUOUS
 66
     1
 40
0.003000
 41
0.003000
  0
VERTEX
  8
PLAN_1
 62
     5
  6
CONTINUOUS
 10
0.178756
 20
-0.173268
  0
VERTEX
  8
PLAN_1
 62
     5
  6
CONTINUOUS
 10
0.178756
 20
-0.181630
  0
SEQEND
  8
0
  0
POLYLINE
  8
PLAN_1
 62
     5
  6
CONTINUOUS
 66
     1
 40
0.003000
 41
0.003000
  0
VERTEX
  8
PLAN_1
 62
     5
  6
CONTINUOUS
 10
0.178756
 20
-0.189992
  0
VERTEX
  8
PLAN_1
 62
     5
  6
CONTINUOUS
 10
0.178756
 20
-0.198350
  0
SEQEND
  8
0
  0
POLYLINE
  8
PLAN_1
 62
     5
  6
CONTINUOUS
 66
     1
 40
0.003000
 41
0.003000
  0
VERTEX
  8
PLAN_1
 62
     5
  6
CONTINUOUS
 10
0.178756
 20
-0.206713
  0
VERTEX
  8
PLAN_1
 62
     5
  6
CONTINUOUS
 10
0.178756
 20
-0.209665
  0
VERTEX
  8
PLAN_1
 62
     5
  6
CONTINUOUS
 10
0.173346
 20
-0.209665
  0
SEQEND
  8
0
  0
POLYLINE
  8
PLAN_1
 62
     5
  6
CONTINUOUS
 66
     1
 40
0.003000
 41
0.003000
  0
VERTEX
  8
PLAN_1
 62
     5
  6
CONTINUOUS
 10
0.164984
 20
-0.209665
  0
VERTEX
  8
PLAN_1
 62
     5
  6
CONTINUOUS
 10
0.156622
 20
-0.209665
  0
SEQEND
  8
0
  0
POLYLINE
  8
PLAN_1
 62
     5
  6
CONTINUOUS
 66
     1
 40
0.003000
 41
0.003000
  0
VERTEX
  8
PLAN_1
 62
     5
  6
CONTINUOUS
 10
0.148260
 20
-0.209665
  0
VERTEX
  8
PLAN_1
 62
     5
  6
CONTINUOUS
 10
0.139902
 20
-0.209665
  0
SEQEND
  8
0
  0
POLYLINE
  8
PLAN_1
 62
     5
  6
CONTINUOUS
 66
     1
 40
0.003000
 41
0.003000
  0
VERTEX
  8
PLAN_1
 62
     5
  6
CONTINUOUS
 10
0.136949
 20
-0.214583
  0
VERTEX
  8
PLAN_1
 62
     5
  6
CONTINUOUS
 10
0.136949
 20
-0.222945
  0
SEQEND
  8
0
  0
POLYLINE
  8
PLAN_1
 62
     5
  6
CONTINUOUS
 66
     1
 40
0.003000
 41
0.003000
  0
VERTEX
  8
PLAN_1
 62
     5
  6
CONTINUOUS
 10
0.136949
 20
-0.231303
  0
VERTEX
  8
PLAN_1
 62
     5
  6
CONTINUOUS
 10
0.136949
 20
-0.239665
  0
SEQEND
  8
0
  0
POLYLINE
  8
PLAN_1
 62
     5
  6
CONTINUOUS
 66
     1
 40
0.003000
 41
0.003000
  0
VERTEX
  8
PLAN_1
 62
     5
  6
CONTINUOUS
 10
0.136949
 20
-0.248028
  0
VERTEX
  8
PLAN_1
 62
     5
  6
CONTINUOUS
 10
0.136949
 20
-0.256390
  0
SEQEND
  8
0
  0
POLYLINE
  8
PLAN_1
 62
     5
  6
CONTINUOUS
 66
     1
 40
0.003000
 41
0.003000
  0
VERTEX
  8
PLAN_1
 62
     5
  6
CONTINUOUS
 10
0.136949
 20
-0.264748
  0
VERTEX
  8
PLAN_1
 62
     5
  6
CONTINUOUS
 10
0.136949
 20
-0.273110
  0
SEQEND
  8
0
  0
POLYLINE
  8
PLAN_1
 62
     5
  6
CONTINUOUS
 66
     1
 40
0.003000
 41
0.003000
  0
VERTEX
  8
PLAN_1
 62
     5
  6
CONTINUOUS
 10
0.136949
 20
-0.281472
  0
VERTEX
  8
PLAN_1
 62
     5
  6
CONTINUOUS
 10
0.136949
 20
-0.289831
  0
SEQEND
  8
0
  0
POLYLINE
  8
PLAN_1
 62
     5
  6
CONTINUOUS
 66
     1
 40
0.003000
 41
0.003000
  0
VERTEX
  8
PLAN_1
 62
     5
  6
CONTINUOUS
 10
0.136949
 20
-0.298193
  0
VERTEX
  8
PLAN_1
 62
     5
  6
CONTINUOUS
 10
0.136949
 20
-0.306063
  0
SEQEND
  8
0
  0
POLYLINE
  8
PLAN_1
 62
     5
  6
CONTINUOUS
 66
     1
 40
0.003000
 41
0.003000
  0
VERTEX
  8
PLAN_1
 62
     5
  6
CONTINUOUS
 10
0.136949
 20
-0.314425
  0
VERTEX
  8
PLAN_1
 62
     5
  6
CONTINUOUS
 10
0.136949
 20
-0.322783
  0
SEQEND
  8
0
  0
POLYLINE
  8
PLAN_1
 62
     5
  6
CONTINUOUS
 66
     1
 40
0.003000
 41
0.003000
  0
VERTEX
  8
PLAN_1
 62
     5
  6
CONTINUOUS
 10
0.136949
 20
-0.331146
  0
VERTEX
  8
PLAN_1
 62
     5
  6
CONTINUOUS
 10
0.136949
 20
-0.339508
  0
SEQEND
  8
0
  0
POLYLINE
  8
PLAN_1
 62
     5
  6
CONTINUOUS
 66
     1
 40
0.003000
 41
0.003000
  0
VERTEX
  8
PLAN_1
 62
     5
  6
CONTINUOUS
 10
0.136949
 20
-0.347866
  0
VERTEX
  8
PLAN_1
 62
     5
  6
CONTINUOUS
 10
0.136949
 20
-0.356228
  0
SEQEND
  8
0
  0
POLYLINE
  8
PLAN_1
 62
     5
  6
CONTINUOUS
 66
     1
 40
0.003000
 41
0.003000
  0
VERTEX
  8
PLAN_1
 62
     5
  6
CONTINUOUS
 10
0.136949
 20
-0.364591
  0
VERTEX
  8
PLAN_1
 62
     5
  6
CONTINUOUS
 10
0.136949
 20
-0.372953
  0
SEQEND
  8
0
  0
POLYLINE
  8
PLAN_1
 62
     5
  6
CONTINUOUS
 66
     1
 40
0.003000
 41
0.003000
  0
VERTEX
  8
PLAN_1
 62
     5
  6
CONTINUOUS
 10
0.136949
 20
-0.381311
  0
VERTEX
  8
PLAN_1
 62
     5
  6
CONTINUOUS
 10
0.136949
 20
-0.389673
  0
SEQEND
  8
0
  0
POLYLINE
  8
PLAN_1
 62
     5
  6
CONTINUOUS
 66
     1
 40
0.003000
 41
0.003000
  0
VERTEX
  8
PLAN_1
 62
     5
  6
CONTINUOUS
 10
0.136949
 20
-0.398035
  0
VERTEX
  8
PLAN_1
 62
     5
  6
CONTINUOUS
 10
0.136949
 20
-0.406394
  0
SEQEND
  8
0
  0
POLYLINE
  8
PLAN_1
 62
     5
  6
CONTINUOUS
 66
     1
 40
0.003000
 41
0.003000
  0
VERTEX
  8
PLAN_1
 62
     5
  6
CONTINUOUS
 10
0.136949
 20
-0.414756
  0
VERTEX
  8
PLAN_1
 62
     5
  6
CONTINUOUS
 10
0.136949
 20
-0.423118
  0
SEQEND
  8
0
  0
POLYLINE
  8
PLAN_1
 62
     5
  6
CONTINUOUS
 66
     1
 40
0.003000
 41
0.003000
  0
VERTEX
  8
PLAN_1
 62
     5
  6
CONTINUOUS
 10
0.136949
 20
-0.430988
  0
VERTEX
  8
PLAN_1
 62
     5
  6
CONTINUOUS
 10
0.136949
 20
-0.439346
  0
SEQEND
  8
0
  0
POLYLINE
  8
PLAN_1
 62
     5
  6
CONTINUOUS
 66
     1
 40
0.003000
 41
0.003000
  0
VERTEX
  8
PLAN_1
 62
     5
  6
CONTINUOUS
 10
0.136949
 20
-0.447709
  0
VERTEX
  8
PLAN_1
 62
     5
  6
CONTINUOUS
 10
0.136949
 20
-0.456071
  0
SEQEND
  8
0
  0
POLYLINE
  8
PLAN_1
 62
     5
  6
CONTINUOUS
 66
     1
 40
0.003000
 41
0.003000
  0
VERTEX
  8
PLAN_1
 62
     5
  6
CONTINUOUS
 10
0.136949
 20
-0.464429
  0
VERTEX
  8
PLAN_1
 62
     5
  6
CONTINUOUS
 10
0.136949
 20
-0.472791
  0
SEQEND
  8
0
  0
POLYLINE
  8
PLAN_1
 62
     5
  6
CONTINUOUS
 66
     1
 40
0.003000
 41
0.003000
  0
VERTEX
  8
PLAN_1
 62
     5
  6
CONTINUOUS
 10
0.136949
 20
-0.481154
  0
VERTEX
  8
PLAN_1
 62
     5
  6
CONTINUOUS
 10
0.136949
 20
-0.489516
  0
SEQEND
  8
0
  0
POLYLINE
  8
PLAN_1
 62
     5
  6
CONTINUOUS
 66
     1
 40
0.003000
 41
0.003000
  0
VERTEX
  8
PLAN_1
 62
     5
  6
CONTINUOUS
 10
0.136949
 20
-0.497874
  0
VERTEX
  8
PLAN_1
 62
     5
  6
CONTINUOUS
 10
0.136949
 20
-0.500827
  0
SEQEND
  8
0
  0
POLYLINE
  8
PLAN_1
 62
     5
  6
CONTINUOUS
 66
     1
 40
0.003000
 41
0.003000
  0
VERTEX
  8
PLAN_1
 62
     5
  6
CONTINUOUS
 10
0.136949
 20
-0.497874
  0
VERTEX
  8
PLAN_1
 62
     5
  6
CONTINUOUS
 10
0.136949
 20
-0.500827
  0
SEQEND
  8
0
  0
POLYLINE
  8
PLAN_1
  6
CONTINUOUS
 66
     1
 40
0.008358
 41
0.008358
  0
VERTEX
  8
PLAN_1
  6
CONTINUOUS
 10
-0.889496
 20
0.248720
  0
VERTEX
  8
PLAN_1
  6
CONTINUOUS
 10
-0.889496
 20
0.433646
  0
VERTEX
  8
PLAN_1
  6
CONTINUOUS
 10
-1.261807
 20
0.433646
  0
SEQEND
  8
0
  0
POLYLINE
  8
PLAN_1
  6
CONTINUOUS
 66
     1
 40
0.008358
 41
0.008358
  0
VERTEX
  8
PLAN_1
  6
CONTINUOUS
 10
0.139409
 20
0.433646
  0
VERTEX
  8
PLAN_1
  6
CONTINUOUS
 10
-0.213232
 20
0.433646
  0
VERTEX
  8
PLAN_1
  6
CONTINUOUS
 10
-0.213232
 20
0.248720
  0
SEQEND
  8
0
  0
POLYLINE
  8
PLAN_1
  6
CONTINUOUS
 66
     1
 40
0.008358
 41
0.008358
  0
VERTEX
  8
PLAN_1
  6
CONTINUOUS
 10
-1.001138
 20
0.251177
  0
VERTEX
  8
PLAN_1
  6
CONTINUOUS
 10
-1.001138
 20
0.433646
  0
SEQEND
  8
0
  0
POLYLINE
  8
PLAN_1
  6
CONTINUOUS
 66
     1
 40
0.008358
 41
0.008358
  0
VERTEX
  8
PLAN_1
  6
CONTINUOUS
 10
-0.118311
 20
0.251177
  0
VERTEX
  8
PLAN_1
  6
CONTINUOUS
 10
-0.118311
 20
0.433646
  0
SEQEND
  8
0
  0
POLYLINE
  8
PLAN_1
 62
     2
  6
CONTINUOUS
 66
     1
 40
0.003933
 41
0.003933
  0
VERTEX
  8
PLAN_1
 62
     2
  6
CONTINUOUS
 10
-1.967091
 20
3.082138
  0
VERTEX
  8
PLAN_1
 62
     2
  6
CONTINUOUS
 10
-1.381323
 20
3.082138
  0
SEQEND
  8
0
  0
SOLID
  8
PLAN_1
 62
     2
 10
-1.926268
 20
3.082138
 11
-1.985287
 21
3.097878
 12
-1.926268
 22
3.082138
 13
-1.985287
 23
3.066402
  0
POLYLINE
  8
PLAN_1
 62
     2
  6
CONTINUOUS
 66
     1
 40
0.003000
 41
0.003000
  0
VERTEX
  8
PLAN_1
 62
     2
  6
CONTINUOUS
 10
-1.926268
 20
3.082138
  0
VERTEX
  8
PLAN_1
 62
     2
  6
CONTINUOUS
 10
-1.985287
 20
3.097878
  0
VERTEX
  8
PLAN_1
 62
     2
  6
CONTINUOUS
 10
-1.985287
 20
3.066402
  0
VERTEX
  8
PLAN_1
 62
     2
  6
CONTINUOUS
 10
-1.926268
 20
3.082138
  0
SEQEND
  8
0
  0
SOLID
  8
PLAN_1
 62
     2
 10
-1.687240
 20
3.082138
 11
-1.628220
 21
3.097878
 12
-1.687240
 22
3.082138
 13
-1.628220
 23
3.066402
  0
POLYLINE
  8
PLAN_1
 62
     2
  6
CONTINUOUS
 66
     1
 40
0.003000
 41
0.003000
  0
VERTEX
  8
PLAN_1
 62
     2
  6
CONTINUOUS
 10
-1.687240
 20
3.082138
  0
VERTEX
  8
PLAN_1
 62
     2
  6
CONTINUOUS
 10
-1.628220
 20
3.097878
  0
VERTEX
  8
PLAN_1
 62
     2
  6
CONTINUOUS
 10
-1.628220
 20
3.066402
  0
VERTEX
  8
PLAN_1
 62
     2
  6
CONTINUOUS
 10
-1.687240
 20
3.082138
  0
SEQEND
  8
0
  0
POLYLINE
  8
PLAN_1
 62
     2
  6
CONTINUOUS
 66
     1
 40
0.003000
 41
0.003000
  0
VERTEX
  8
PLAN_1
 62
     2
  6
CONTINUOUS
 10
-1.492476
 20
3.169685
  0
VERTEX
  8
PLAN_1
 62
     2
  6
CONTINUOUS
 10
-1.490016
 20
3.166732
  0
VERTEX
  8
PLAN_1
 62
     2
  6
CONTINUOUS
 10
-1.488539
 20
3.163291
  0
VERTEX
  8
PLAN_1
 62
     2
  6
CONTINUOUS
 10
-1.487067
 20
3.159846
  0
VERTEX
  8
PLAN_1
 62
     2
  6
CONTINUOUS
 10
-1.485591
 20
3.156406
  0
VERTEX
  8
PLAN_1
 62
     2
  6
CONTINUOUS
 10
-1.485098
 20
3.152961
  0
VERTEX
  8
PLAN_1
 62
     2
  6
CONTINUOUS
 10
-1.484114
 20
3.149520
  0
VERTEX
  8
PLAN_1
 62
     2
  6
CONTINUOUS
 10
-1.484114
 20
3.146075
  0
VERTEX
  8
PLAN_1
 62
     2
  6
CONTINUOUS
 10
-1.483622
 20
3.142634
  0
VERTEX
  8
PLAN_1
 62
     2
  6
CONTINUOUS
 10
-1.484114
 20
3.136732
  0
VERTEX
  8
PLAN_1
 62
     2
  6
CONTINUOUS
 10
-1.485591
 20
3.129846
  0
VERTEX
  8
PLAN_1
 62
     2
  6
CONTINUOUS
 10
-1.486575
 20
3.126402
  0
VERTEX
  8
PLAN_1
 62
     2
  6
CONTINUOUS
 10
-1.488047
 20
3.123453
  0
VERTEX
  8
PLAN_1
 62
     2
  6
CONTINUOUS
 10
-1.489524
 20
3.120008
  0
VERTEX
  8
PLAN_1
 62
     2
  6
CONTINUOUS
 10
-1.491492
 20
3.117059
  0
VERTEX
  8
PLAN_1
 62
     2
  6
CONTINUOUS
 10
-1.493953
 20
3.114106
  0
VERTEX
  8
PLAN_1
 62
     2
  6
CONTINUOUS
 10
-1.496409
 20
3.111650
  0
VERTEX
  8
PLAN_1
 62
     2
  6
CONTINUOUS
 10
-1.499362
 20
3.109189
  0
VERTEX
  8
PLAN_1
 62
     2
  6
CONTINUOUS
 10
-1.502803
 20
3.107220
  0
VERTEX
  8
PLAN_1
 62
     2
  6
CONTINUOUS
 10
-1.506740
 20
3.105744
  0
VERTEX
  8
PLAN_1
 62
     2
  6
CONTINUOUS
 10
-1.510673
 20
3.104764
  0
VERTEX
  8
PLAN_1
 62
     2
  6
CONTINUOUS
 10
-1.515098
 20
3.103780
  0
VERTEX
  8
PLAN_1
 62
     2
  6
CONTINUOUS
 10
-1.520020
 20
3.103780
  0
VERTEX
  8
PLAN_1
 62
     2
  6
CONTINUOUS
 10
-1.524445
 20
3.103780
  0
VERTEX
  8
PLAN_1
 62
     2
  6
CONTINUOUS
 10
-1.527886
 20
3.104272
  0
VERTEX
  8
PLAN_1
 62
     2
  6
CONTINUOUS
 10
-1.531331
 20
3.104764
  0
VERTEX
  8
PLAN_1
 62
     2
  6
CONTINUOUS
 10
-1.534280
 20
3.106236
  0
VERTEX
  8
PLAN_1
 62
     2
  6
CONTINUOUS
 10
-1.537232
 20
3.107220
  0
VERTEX
  8
PLAN_1
 62
     2
  6
CONTINUOUS
 10
-1.540181
 20
3.108697
  0
VERTEX
  8
PLAN_1
 62
     2
  6
CONTINUOUS
 10
-1.542642
 20
3.110665
  0
VERTEX
  8
PLAN_1
 62
     2
  6
CONTINUOUS
 10
-1.544610
 20
3.112630
  0
VERTEX
  8
PLAN_1
 62
     2
  6
CONTINUOUS
 10
-1.552969
 20
3.103780
  0
VERTEX
  8
PLAN_1
 62
     2
  6
CONTINUOUS
 10
-1.556413
 20
3.106236
  0
VERTEX
  8
PLAN_1
 62
     2
  6
CONTINUOUS
 10
-1.548051
 20
3.115583
  0
VERTEX
  8
PLAN_1
 62
     2
  6
CONTINUOUS
 10
-1.550020
 20
3.119024
  0
VERTEX
  8
PLAN_1
 62
     2
  6
CONTINUOUS
 10
-1.551988
 20
3.121976
  0
VERTEX
  8
PLAN_1
 62
     2
  6
CONTINUOUS
 10
-1.553461
 20
3.125417
  0
VERTEX
  8
PLAN_1
 62
     2
  6
CONTINUOUS
 10
-1.554445
 20
3.129354
  0
VERTEX
  8
PLAN_1
 62
     2
  6
CONTINUOUS
 10
-1.555429
 20
3.132795
  0
VERTEX
  8
PLAN_1
 62
     2
  6
CONTINUOUS
 10
-1.556413
 20
3.136240
  0
VERTEX
  8
PLAN_1
 62
     2
  6
CONTINUOUS
 10
-1.556413
 20
3.139681
  0
VERTEX
  8
PLAN_1
 62
     2
  6
CONTINUOUS
 10
-1.556413
 20
3.142634
  0
VERTEX
  8
PLAN_1
 62
     2
  6
CONTINUOUS
 10
-1.556413
 20
3.149028
  0
VERTEX
  8
PLAN_1
 62
     2
  6
CONTINUOUS
 10
-1.554937
 20
3.155913
  0
VERTEX
  8
PLAN_1
 62
     2
  6
CONTINUOUS
 10
-1.553953
 20
3.159354
  0
VERTEX
  8
PLAN_1
 62
     2
  6
CONTINUOUS
 10
-1.552480
 20
3.162307
  0
VERTEX
  8
PLAN_1
 62
     2
  6
CONTINUOUS
 10
-1.551004
 20
3.165748
  0
VERTEX
  8
PLAN_1
 62
     2
  6
CONTINUOUS
 10
-1.549035
 20
3.168701
  0
VERTEX
  8
PLAN_1
 62
     2
  6
CONTINUOUS
 10
-1.546575
 20
3.171157
  0
VERTEX
  8
PLAN_1
 62
     2
  6
CONTINUOUS
 10
-1.544118
 20
3.174110
  0
VERTEX
  8
PLAN_1
 62
     2
  6
CONTINUOUS
 10
-1.541165
 20
3.176079
  0
VERTEX
  8
PLAN_1
 62
     2
  6
CONTINUOUS
 10
-1.537724
 20
3.178535
  0
VERTEX
  8
PLAN_1
 62
     2
  6
CONTINUOUS
 10
-1.533787
 20
3.180012
  0
VERTEX
  8
PLAN_1
 62
     2
  6
CONTINUOUS
 10
-1.529854
 20
3.180996
  0
VERTEX
  8
PLAN_1
 62
     2
  6
CONTINUOUS
 10
-1.525429
 20
3.181980
  0
VERTEX
  8
PLAN_1
 62
     2
  6
CONTINUOUS
 10
-1.520020
 20
3.181980
  0
VERTEX
  8
PLAN_1
 62
     2
  6
CONTINUOUS
 10
-1.516083
 20
3.181980
  0
VERTEX
  8
PLAN_1
 62
     2
  6
CONTINUOUS
 10
-1.512642
 20
3.181488
  0
VERTEX
  8
PLAN_1
 62
     2
  6
CONTINUOUS
 10
-1.508705
 20
3.180504
  0
VERTEX
  8
PLAN_1
 62
     2
  6
CONTINUOUS
 10
-1.505756
 20
3.179520
  0
VERTEX
  8
PLAN_1
 62
     2
  6
CONTINUOUS
 10
-1.502803
 20
3.178043
  0
VERTEX
  8
PLAN_1
 62
     2
  6
CONTINUOUS
 10
-1.499854
 20
3.176571
  0
VERTEX
  8
PLAN_1
 62
     2
  6
CONTINUOUS
 10
-1.497394
 20
3.175094
  0
VERTEX
  8
PLAN_1
 62
     2
  6
CONTINUOUS
 10
-1.495425
 20
3.173126
  0
VERTEX
  8
PLAN_1
 62
     2
  6
CONTINUOUS
 10
-1.487067
 20
3.181980
  0
VERTEX
  8
PLAN_1
 62
     2
  6
CONTINUOUS
 10
-1.483622
 20
3.179028
  0
VERTEX
  8
PLAN_1
 62
     2
  6
CONTINUOUS
 10
-1.492476
 20
3.169685
  0
SEQEND
  8
0
  0
POLYLINE
  8
PLAN_1
 62
     2
  6
CONTINUOUS
 66
     1
 40
0.003000
 41
0.003000
  0
VERTEX
  8
PLAN_1
 62
     2
  6
CONTINUOUS
 10
-1.538217
 20
3.120008
  0
VERTEX
  8
PLAN_1
 62
     2
  6
CONTINUOUS
 10
-1.536248
 20
3.118043
  0
VERTEX
  8
PLAN_1
 62
     2
  6
CONTINUOUS
 10
-1.534772
 20
3.116567
  0
VERTEX
  8
PLAN_1
 62
     2
  6
CONTINUOUS
 10
-1.532315
 20
3.115583
  0
VERTEX
  8
PLAN_1
 62
     2
  6
CONTINUOUS
 10
-1.530346
 20
3.114598
  0
VERTEX
  8
PLAN_1
 62
     2
  6
CONTINUOUS
 10
-1.527886
 20
3.113614
  0
VERTEX
  8
PLAN_1
 62
     2
  6
CONTINUOUS
 10
-1.525429
 20
3.113122
  0
VERTEX
  8
PLAN_1
 62
     2
  6
CONTINUOUS
 10
-1.522969
 20
3.112630
  0
VERTEX
  8
PLAN_1
 62
     2
  6
CONTINUOUS
 10
-1.520020
 20
3.112630
  0
VERTEX
  8
PLAN_1
 62
     2
  6
CONTINUOUS
 10
-1.517067
 20
3.112630
  0
VERTEX
  8
PLAN_1
 62
     2
  6
CONTINUOUS
 10
-1.514606
 20
3.113122
  0
VERTEX
  8
PLAN_1
 62
     2
  6
CONTINUOUS
 10
-1.511657
 20
3.113614
  0
VERTEX
  8
PLAN_1
 62
     2
  6
CONTINUOUS
 10
-1.509197
 20
3.114598
  0
VERTEX
  8
PLAN_1
 62
     2
  6
CONTINUOUS
 10
-1.507228
 20
3.116075
  0
VERTEX
  8
PLAN_1
 62
     2
  6
CONTINUOUS
 10
-1.504772
 20
3.117551
  0
VERTEX
  8
PLAN_1
 62
     2
  6
CONTINUOUS
 10
-1.502803
 20
3.119024
  0
VERTEX
  8
PLAN_1
 62
     2
  6
CONTINUOUS
 10
-1.501327
 20
3.120992
  0
VERTEX
  8
PLAN_1
 62
     2
  6
CONTINUOUS
 10
-1.499362
 20
3.122961
  0
VERTEX
  8
PLAN_1
 62
     2
  6
CONTINUOUS
 10
-1.498378
 20
3.125417
  0
VERTEX
  8
PLAN_1
 62
     2
  6
CONTINUOUS
 10
-1.496902
 20
3.127878
  0
VERTEX
  8
PLAN_1
 62
     2
  6
CONTINUOUS
 10
-1.495917
 20
3.130831
  0
VERTEX
  8
PLAN_1
 62
     2
  6
CONTINUOUS
 10
-1.494933
 20
3.136732
  0
VERTEX
  8
PLAN_1
 62
     2
  6
CONTINUOUS
 10
-1.494441
 20
3.142634
  0
VERTEX
  8
PLAN_1
 62
     2
  6
CONTINUOUS
 10
-1.494441
 20
3.145583
  0
VERTEX
  8
PLAN_1
 62
     2
  6
CONTINUOUS
 10
-1.494441
 20
3.148535
  0
VERTEX
  8
PLAN_1
 62
     2
  6
CONTINUOUS
 10
-1.494933
 20
3.150992
  0
VERTEX
  8
PLAN_1
 62
     2
  6
CONTINUOUS
 10
-1.495425
 20
3.153453
  0
VERTEX
  8
PLAN_1
 62
     2
  6
CONTINUOUS
 10
-1.496409
 20
3.155913
  0
VERTEX
  8
PLAN_1
 62
     2
  6
CONTINUOUS
 10
-1.496902
 20
3.157878
  0
VERTEX
  8
PLAN_1
 62
     2
  6
CONTINUOUS
 10
-1.498378
 20
3.159846
  0
VERTEX
  8
PLAN_1
 62
     2
  6
CONTINUOUS
 10
-1.499362
 20
3.161815
  0
VERTEX
  8
PLAN_1
 62
     2
  6
CONTINUOUS
 10
-1.538217
 20
3.120008
  0
SEQEND
  8
0
  0
POLYLINE
  8
PLAN_1
 62
     2
  6
CONTINUOUS
 66
     1
 40
0.003000
 41
0.003000
  0
VERTEX
  8
PLAN_1
 62
     2
  6
CONTINUOUS
 10
-1.501819
 20
3.165748
  0
VERTEX
  8
PLAN_1
 62
     2
  6
CONTINUOUS
 10
-1.503787
 20
3.167224
  0
VERTEX
  8
PLAN_1
 62
     2
  6
CONTINUOUS
 10
-1.505756
 20
3.168701
  0
VERTEX
  8
PLAN_1
 62
     2
  6
CONTINUOUS
 10
-1.507720
 20
3.170177
  0
VERTEX
  8
PLAN_1
 62
     2
  6
CONTINUOUS
 10
-1.510181
 20
3.171157
  0
VERTEX
  8
PLAN_1
 62
     2
  6
CONTINUOUS
 10
-1.512150
 20
3.172142
  0
VERTEX
  8
PLAN_1
 62
     2
  6
CONTINUOUS
 10
-1.514606
 20
3.172634
  0
VERTEX
  8
PLAN_1
 62
     2
  6
CONTINUOUS
 10
-1.517559
 20
3.173126
  0
VERTEX
  8
PLAN_1
 62
     2
  6
CONTINUOUS
 10
-1.520020
 20
3.173126
  0
VERTEX
  8
PLAN_1
 62
     2
  6
CONTINUOUS
 10
-1.523461
 20
3.173126
  0
VERTEX
  8
PLAN_1
 62
     2
  6
CONTINUOUS
 10
-1.525921
 20
3.172634
  0
VERTEX
  8
PLAN_1
 62
     2
  6
CONTINUOUS
 10
-1.528870
 20
3.172142
  0
VERTEX
  8
PLAN_1
 62
     2
  6
CONTINUOUS
 10
-1.531331
 20
3.171157
  0
VERTEX
  8
PLAN_1
 62
     2
  6
CONTINUOUS
 10
-1.533295
 20
3.169685
  0
VERTEX
  8
PLAN_1
 62
     2
  6
CONTINUOUS
 10
-1.535756
 20
3.168209
  0
VERTEX
  8
PLAN_1
 62
     2
  6
CONTINUOUS
 10
-1.537724
 20
3.166732
  0
VERTEX
  8
PLAN_1
 62
     2
  6
CONTINUOUS
 10
-1.539201
 20
3.164764
  0
VERTEX
  8
PLAN_1
 62
     2
  6
CONTINUOUS
 10
-1.540673
 20
3.162307
  0
VERTEX
  8
PLAN_1
 62
     2
  6
CONTINUOUS
 10
-1.542150
 20
3.160339
  0
VERTEX
  8
PLAN_1
 62
     2
  6
CONTINUOUS
 10
-1.543626
 20
3.157878
  0
VERTEX
  8
PLAN_1
 62
     2
  6
CONTINUOUS
 10
-1.544610
 20
3.154929
  0
VERTEX
  8
PLAN_1
 62
     2
  6
CONTINUOUS
 10
-1.545594
 20
3.149028
  0
VERTEX
  8
PLAN_1
 62
     2
  6
CONTINUOUS
 10
-1.546087
 20
3.142634
  0
VERTEX
  8
PLAN_1
 62
     2
  6
CONTINUOUS
 10
-1.546087
 20
3.140173
  0
VERTEX
  8
PLAN_1
 62
     2
  6
CONTINUOUS
 10
-1.546087
 20
3.137224
  0
VERTEX
  8
PLAN_1
 62
     2
  6
CONTINUOUS
 10
-1.545594
 20
3.134764
  0
VERTEX
  8
PLAN_1
 62
     2
  6
CONTINUOUS
 10
-1.545102
 20
3.132303
  0
VERTEX
  8
PLAN_1
 62
     2
  6
CONTINUOUS
 10
-1.544118
 20
3.129846
  0
VERTEX
  8
PLAN_1
 62
     2
  6
CONTINUOUS
 10
-1.543134
 20
3.127386
  0
VERTEX
  8
PLAN_1
 62
     2
  6
CONTINUOUS
 10
-1.542150
 20
3.125417
  0
VERTEX
  8
PLAN_1
 62
     2
  6
CONTINUOUS
 10
-1.541165
 20
3.123453
  0
VERTEX
  8
PLAN_1
 62
     2
  6
CONTINUOUS
 10
-1.501819
 20
3.165748
  0
SEQEND
  8
0
  0
POLYLINE
  8
PLAN_1
 62
     2
  6
CONTINUOUS
 66
     1
 40
0.003000
 41
0.003000
  0
VERTEX
  8
PLAN_1
 62
     2
  6
CONTINUOUS
 10
-1.436406
 20
3.159354
  0
VERTEX
  8
PLAN_1
 62
     2
  6
CONTINUOUS
 10
-1.436898
 20
3.161323
  0
VERTEX
  8
PLAN_1
 62
     2
  6
CONTINUOUS
 10
-1.437882
 20
3.163783
  0
VERTEX
  8
PLAN_1
 62
     2
  6
CONTINUOUS
 10
-1.438866
 20
3.165748
  0
VERTEX
  8
PLAN_1
 62
     2
  6
CONTINUOUS
 10
-1.439850
 20
3.167224
  0
VERTEX
  8
PLAN_1
 62
     2
  6
CONTINUOUS
 10
-1.441819
 20
3.168701
  0
VERTEX
  8
PLAN_1
 62
     2
  6
CONTINUOUS
 10
-1.443783
 20
3.169685
  0
VERTEX
  8
PLAN_1
 62
     2
  6
CONTINUOUS
 10
-1.446244
 20
3.170177
  0
VERTEX
  8
PLAN_1
 62
     2
  6
CONTINUOUS
 10
-1.448705
 20
3.170665
  0
VERTEX
  8
PLAN_1
 62
     2
  6
CONTINUOUS
 10
-1.451654
 20
3.170177
  0
VERTEX
  8
PLAN_1
 62
     2
  6
CONTINUOUS
 10
-1.453622
 20
3.169685
  0
VERTEX
  8
PLAN_1
 62
     2
  6
CONTINUOUS
 10
-1.456079
 20
3.168701
  0
VERTEX
  8
PLAN_1
 62
     2
  6
CONTINUOUS
 10
-1.457555
 20
3.167224
  0
VERTEX
  8
PLAN_1
 62
     2
  6
CONTINUOUS
 10
-1.459524
 20
3.165748
  0
VERTEX
  8
PLAN_1
 62
     2
  6
CONTINUOUS
 10
-1.460508
 20
3.163783
  0
VERTEX
  8
PLAN_1
 62
     2
  6
CONTINUOUS
 10
-1.461980
 20
3.161815
  0
VERTEX
  8
PLAN_1
 62
     2
  6
CONTINUOUS
 10
-1.462965
 20
3.159846
  0
VERTEX
  8
PLAN_1
 62
     2
  6
CONTINUOUS
 10
-1.464441
 20
3.155421
  0
VERTEX
  8
PLAN_1
 62
     2
  6
CONTINUOUS
 10
-1.465425
 20
3.150992
  0
VERTEX
  8
PLAN_1
 62
     2
  6
CONTINUOUS
 10
-1.465917
 20
3.146567
  0
VERTEX
  8
PLAN_1
 62
     2
  6
CONTINUOUS
 10
-1.466409
 20
3.143618
  0
VERTEX
  8
PLAN_1
 62
     2
  6
CONTINUOUS
 10
-1.465917
 20
3.143126
  0
VERTEX
  8
PLAN_1
 62
     2
  6
CONTINUOUS
 10
-1.464933
 20
3.144598
  0
VERTEX
  8
PLAN_1
 62
     2
  6
CONTINUOUS
 10
-1.463949
 20
3.146075
  0
VERTEX
  8
PLAN_1
 62
     2
  6
CONTINUOUS
 10
-1.461980
 20
3.147551
  0
VERTEX
  8
PLAN_1
 62
     2
  6
CONTINUOUS
 10
-1.460508
 20
3.149028
  0
VERTEX
  8
PLAN_1
 62
     2
  6
CONTINUOUS
 10
-1.458047
 20
3.150504
  0
VERTEX
  8
PLAN_1
 62
     2
  6
CONTINUOUS
 10
-1.455098
 20
3.151484
  0
VERTEX
  8
PLAN_1
 62
     2
  6
CONTINUOUS
 10
-1.452146
 20
3.151976
  0
VERTEX
  8
PLAN_1
 62
     2
  6
CONTINUOUS
 10
-1.448705
 20
3.151976
  0
VERTEX
  8
PLAN_1
 62
     2
  6
CONTINUOUS
 10
-1.445260
 20
3.151976
  0
VERTEX
  8
PLAN_1
 62
     2
  6
CONTINUOUS
 10
-1.441327
 20
3.150992
  0
VERTEX
  8
PLAN_1
 62
     2
  6
CONTINUOUS
 10
-1.437390
 20
3.149520
  0
VERTEX
  8
PLAN_1
 62
     2
  6
CONTINUOUS
 10
-1.433949
 20
3.147059
  0
VERTEX
  8
PLAN_1
 62
     2
  6
CONTINUOUS
 10
-1.432472
 20
3.145583
  0
VERTEX
  8
PLAN_1
 62
     2
  6
CONTINUOUS
 10
-1.430504
 20
3.144110
  0
VERTEX
  8
PLAN_1
 62
     2
  6
CONTINUOUS
 10
-1.429520
 20
3.142142
  0
VERTEX
  8
PLAN_1
 62
     2
  6
CONTINUOUS
 10
-1.428047
 20
3.139681
  0
VERTEX
  8
PLAN_1
 62
     2
  6
CONTINUOUS
 10
-1.427063
 20
3.137717
  0
VERTEX
  8
PLAN_1
 62
     2
  6
CONTINUOUS
 10
-1.426571
 20
3.134764
  0
VERTEX
  8
PLAN_1
 62
     2
  6
CONTINUOUS
 10
-1.426079
 20
3.132303
  0
VERTEX
  8
PLAN_1
 62
     2
  6
CONTINUOUS
 10
-1.425587
 20
3.128862
  0
VERTEX
  8
PLAN_1
 62
     2
  6
CONTINUOUS
 10
-1.426079
 20
3.126402
  0
VERTEX
  8
PLAN_1
 62
     2
  6
CONTINUOUS
 10
-1.426079
 20
3.123453
  0
VERTEX
  8
PLAN_1
 62
     2
  6
CONTINUOUS
 10
-1.426571
 20
3.121484
  0
VERTEX
  8
PLAN_1
 62
     2
  6
CONTINUOUS
 10
-1.427555
 20
3.119024
  0
VERTEX
  8
PLAN_1
 62
     2
  6
CONTINUOUS
 10
-1.428539
 20
3.116567
  0
VERTEX
  8
PLAN_1
 62
     2
  6
CONTINUOUS
 10
-1.429520
 20
3.114598
  0
VERTEX
  8
PLAN_1
 62
     2
  6
CONTINUOUS
 10
-1.430996
 20
3.112630
  0
VERTEX
  8
PLAN_1
 62
     2
  6
CONTINUOUS
 10
-1.432965
 20
3.110665
  0
VERTEX
  8
PLAN_1
 62
     2
  6
CONTINUOUS
 10
-1.434441
 20
3.109189
  0
VERTEX
  8
PLAN_1
 62
     2
  6
CONTINUOUS
 10
-1.435913
 20
3.107713
  0
VERTEX
  8
PLAN_1
 62
     2
  6
CONTINUOUS
 10
-1.437390
 20
3.106728
  0
VERTEX
  8
PLAN_1
 62
     2
  6
CONTINUOUS
 10
-1.439850
 20
3.105256
  0
VERTEX
  8
PLAN_1
 62
     2
  6
CONTINUOUS
 10
-1.441819
 20
3.104764
  0
VERTEX
  8
PLAN_1
 62
     2
  6
CONTINUOUS
 10
-1.444768
 20
3.104272
  0
VERTEX
  8
PLAN_1
 62
     2
  6
CONTINUOUS
 10
-1.447720
 20
3.103780
  0
VERTEX
  8
PLAN_1
 62
     2
  6
CONTINUOUS
 10
-1.451161
 20
3.103780
  0
VERTEX
  8
PLAN_1
 62
     2
  6
CONTINUOUS
 10
-1.453622
 20
3.103780
  0
VERTEX
  8
PLAN_1
 62
     2
  6
CONTINUOUS
 10
-1.456079
 20
3.104272
  0
VERTEX
  8
PLAN_1
 62
     2
  6
CONTINUOUS
 10
-1.458539
 20
3.104764
  0
VERTEX
  8
PLAN_1
 62
     2
  6
CONTINUOUS
 10
-1.461000
 20
3.105744
  0
VERTEX
  8
PLAN_1
 62
     2
  6
CONTINUOUS
 10
-1.463457
 20
3.107220
  0
VERTEX
  8
PLAN_1
 62
     2
  6
CONTINUOUS
 10
-1.465917
 20
3.109189
  0
VERTEX
  8
PLAN_1
 62
     2
  6
CONTINUOUS
 10
-1.467886
 20
3.111157
  0
VERTEX
  8
PLAN_1
 62
     2
  6
CONTINUOUS
 10
-1.470343
 20
3.114106
  0
VERTEX
  8
PLAN_1
 62
     2
  6
CONTINUOUS
 10
-1.471819
 20
3.117059
  0
VERTEX
  8
PLAN_1
 62
     2
  6
CONTINUOUS
 10
-1.472803
 20
3.119516
  0
VERTEX
  8
PLAN_1
 62
     2
  6
CONTINUOUS
 10
-1.473787
 20
3.122469
  0
VERTEX
  8
PLAN_1
 62
     2
  6
CONTINUOUS
 10
-1.474772
 20
3.125909
  0
VERTEX
  8
PLAN_1
 62
     2
  6
CONTINUOUS
 10
-1.475260
 20
3.128862
  0
VERTEX
  8
PLAN_1
 62
     2
  6
CONTINUOUS
 10
-1.475260
 20
3.132303
  0
VERTEX
  8
PLAN_1
 62
     2
  6
CONTINUOUS
 10
-1.475752
 20
3.135748
  0
VERTEX
  8
PLAN_1
 62
     2
  6
CONTINUOUS
 10
-1.475752
 20
3.139681
  0
VERTEX
  8
PLAN_1
 62
     2
  6
CONTINUOUS
 10
-1.475260
 20
3.145583
  0
VERTEX
  8
PLAN_1
 62
     2
  6
CONTINUOUS
 10
-1.474772
 20
3.152469
  0
VERTEX
  8
PLAN_1
 62
     2
  6
CONTINUOUS
 10
-1.472803
 20
3.158862
  0
VERTEX
  8
PLAN_1
 62
     2
  6
CONTINUOUS
 10
-1.470343
 20
3.165256
  0
VERTEX
  8
PLAN_1
 62
     2
  6
CONTINUOUS
 10
-1.468866
 20
3.167717
  0
VERTEX
  8
PLAN_1
 62
     2
  6
CONTINUOUS
 10
-1.466902
 20
3.170665
  0
VERTEX
  8
PLAN_1
 62
     2
  6
CONTINUOUS
 10
-1.464441
 20
3.172634
  0
VERTEX
  8
PLAN_1
 62
     2
  6
CONTINUOUS
 10
-1.461980
 20
3.174602
  0
VERTEX
  8
PLAN_1
 62
     2
  6
CONTINUOUS
 10
-1.459524
 20
3.176571
  0
VERTEX
  8
PLAN_1
 62
     2
  6
CONTINUOUS
 10
-1.456079
 20
3.177551
  0
VERTEX
  8
PLAN_1
 62
     2
  6
CONTINUOUS
 10
-1.452638
 20
3.178535
  0
VERTEX
  8
PLAN_1
 62
     2
  6
CONTINUOUS
 10
-1.448705
 20
3.178535
  0
VERTEX
  8
PLAN_1
 62
     2
  6
CONTINUOUS
 10
-1.445260
 20
3.178535
  0
VERTEX
  8
PLAN_1
 62
     2
  6
CONTINUOUS
 10
-1.441819
 20
3.177551
  0
VERTEX
  8
PLAN_1
 62
     2
  6
CONTINUOUS
 10
-1.438374
 20
3.176571
  0
VERTEX
  8
PLAN_1
 62
     2
  6
CONTINUOUS
 10
-1.435425
 20
3.174602
  0
VERTEX
  8
PLAN_1
 62
     2
  6
CONTINUOUS
 10
-1.432472
 20
3.171650
  0
VERTEX
  8
PLAN_1
 62
     2
  6
CONTINUOUS
 10
-1.430012
 20
3.168701
  0
VERTEX
  8
PLAN_1
 62
     2
  6
CONTINUOUS
 10
-1.429031
 20
3.166732
  0
VERTEX
  8
PLAN_1
 62
     2
  6
CONTINUOUS
 10
-1.428047
 20
3.164272
  0
VERTEX
  8
PLAN_1
 62
     2
  6
CONTINUOUS
 10
-1.427555
 20
3.161815
  0
VERTEX
  8
PLAN_1
 62
     2
  6
CONTINUOUS
 10
-1.427555
 20
3.159354
  0
VERTEX
  8
PLAN_1
 62
     2
  6
CONTINUOUS
 10
-1.436406
 20
3.159354
  0
SEQEND
  8
0
  0
POLYLINE
  8
PLAN_1
 62
     2
  6
CONTINUOUS
 66
     1
 40
0.003000
 41
0.003000
  0
VERTEX
  8
PLAN_1
 62
     2
  6
CONTINUOUS
 10
-1.449685
 20
3.111650
  0
VERTEX
  8
PLAN_1
 62
     2
  6
CONTINUOUS
 10
-1.446736
 20
3.112138
  0
VERTEX
  8
PLAN_1
 62
     2
  6
CONTINUOUS
 10
-1.443783
 20
3.113122
  0
VERTEX
  8
PLAN_1
 62
     2
  6
CONTINUOUS
 10
-1.441327
 20
3.114598
  0
VERTEX
  8
PLAN_1
 62
     2
  6
CONTINUOUS
 10
-1.439358
 20
3.116567
  0
VERTEX
  8
PLAN_1
 62
     2
  6
CONTINUOUS
 10
-1.437390
 20
3.119024
  0
VERTEX
  8
PLAN_1
 62
     2
  6
CONTINUOUS
 10
-1.436406
 20
3.121484
  0
VERTEX
  8
PLAN_1
 62
     2
  6
CONTINUOUS
 10
-1.435425
 20
3.124929
  0
VERTEX
  8
PLAN_1
 62
     2
  6
CONTINUOUS
 10
-1.435425
 20
3.128370
  0
VERTEX
  8
PLAN_1
 62
     2
  6
CONTINUOUS
 10
-1.435425
 20
3.130831
  0
VERTEX
  8
PLAN_1
 62
     2
  6
CONTINUOUS
 10
-1.435913
 20
3.133780
  0
VERTEX
  8
PLAN_1
 62
     2
  6
CONTINUOUS
 10
-1.436898
 20
3.136240
  0
VERTEX
  8
PLAN_1
 62
     2
  6
CONTINUOUS
 10
-1.438374
 20
3.138697
  0
VERTEX
  8
PLAN_1
 62
     2
  6
CONTINUOUS
 10
-1.440343
 20
3.140665
  0
VERTEX
  8
PLAN_1
 62
     2
  6
CONTINUOUS
 10
-1.442799
 20
3.142634
  0
VERTEX
  8
PLAN_1
 62
     2
  6
CONTINUOUS
 10
-1.446244
 20
3.143618
  0
VERTEX
  8
PLAN_1
 62
     2
  6
CONTINUOUS
 10
-1.450177
 20
3.144110
  0
VERTEX
  8
PLAN_1
 62
     2
  6
CONTINUOUS
 10
-1.453622
 20
3.143618
  0
VERTEX
  8
PLAN_1
 62
     2
  6
CONTINUOUS
 10
-1.456571
 20
3.142634
  0
VERTEX
  8
PLAN_1
 62
     2
  6
CONTINUOUS
 10
-1.459031
 20
3.141157
  0
VERTEX
  8
PLAN_1
 62
     2
  6
CONTINUOUS
 10
-1.461492
 20
3.139189
  0
VERTEX
  8
PLAN_1
 62
     2
  6
CONTINUOUS
 10
-1.462965
 20
3.136732
  0
VERTEX
  8
PLAN_1
 62
     2
  6
CONTINUOUS
 10
-1.463949
 20
3.134272
  0
VERTEX
  8
PLAN_1
 62
     2
  6
CONTINUOUS
 10
-1.464933
 20
3.131323
  0
VERTEX
  8
PLAN_1
 62
     2
  6
CONTINUOUS
 10
-1.464933
 20
3.127878
  0
VERTEX
  8
PLAN_1
 62
     2
  6
CONTINUOUS
 10
-1.464933
 20
3.124929
  0
VERTEX
  8
PLAN_1
 62
     2
  6
CONTINUOUS
 10
-1.463949
 20
3.121976
  0
VERTEX
  8
PLAN_1
 62
     2
  6
CONTINUOUS
 10
-1.462965
 20
3.119516
  0
VERTEX
  8
PLAN_1
 62
     2
  6
CONTINUOUS
 10
-1.461492
 20
3.117059
  0
VERTEX
  8
PLAN_1
 62
     2
  6
CONTINUOUS
 10
-1.459031
 20
3.114598
  0
VERTEX
  8
PLAN_1
 62
     2
  6
CONTINUOUS
 10
-1.456571
 20
3.113122
  0
VERTEX
  8
PLAN_1
 62
     2
  6
CONTINUOUS
 10
-1.453622
 20
3.112138
  0
VERTEX
  8
PLAN_1
 62
     2
  6
CONTINUOUS
 10
-1.449685
 20
3.111650
  0
SEQEND
  8
0
  0
POLYLINE
  8
PLAN_1
 62
     2
  6
CONTINUOUS
 66
     1
 40
0.003933
 41
0.003933
  0
VERTEX
  8
PLAN_1
 62
     2
  6
CONTINUOUS
 10
-2.119555
 20
3.836110
  0
VERTEX
  8
PLAN_1
 62
     2
  6
CONTINUOUS
 10
0.149244
 20
3.836110
  0
SEQEND
  8
0
  0
SOLID
  8
PLAN_1
 62
     2
 10
0.178756
 20
3.836110
 11
0.119736
 21
3.851850
 12
0.178756
 22
3.836110
 13
0.119736
 23
3.820370
  0
POLYLINE
  8
PLAN_1
 62
     2
  6
CONTINUOUS
 66
     1
 40
0.003000
 41
0.003000
  0
VERTEX
  8
PLAN_1
 62
     2
  6
CONTINUOUS
 10
0.178756
 20
3.836110
  0
VERTEX
  8
PLAN_1
 62
     2
  6
CONTINUOUS
 10
0.119736
 20
3.851850
  0
VERTEX
  8
PLAN_1
 62
     2
  6
CONTINUOUS
 10
0.119736
 20
3.820370
  0
VERTEX
  8
PLAN_1
 62
     2
  6
CONTINUOUS
 10
0.178756
 20
3.836110
  0
SEQEND
  8
0
  0
SOLID
  8
PLAN_1
 62
     2
 10
-2.149067
 20
3.836110
 11
-2.089555
 21
3.851850
 12
-2.149067
 22
3.836110
 13
-2.089555
 23
3.820370
  0
POLYLINE
  8
PLAN_1
 62
     2
  6
CONTINUOUS
 66
     1
 40
0.003000
 41
0.003000
  0
VERTEX
  8
PLAN_1
 62
     2
  6
CONTINUOUS
 10
-2.149067
 20
3.836110
  0
VERTEX
  8
PLAN_1
 62
     2
  6
CONTINUOUS
 10
-2.089555
 20
3.851850
  0
VERTEX
  8
PLAN_1
 62
     2
  6
CONTINUOUS
 10
-2.089555
 20
3.820370
  0
VERTEX
  8
PLAN_1
 62
     2
  6
CONTINUOUS
 10
-2.149067
 20
3.836110
  0
SEQEND
  8
0
  0
POLYLINE
  8
PLAN_1
 62
     2
  6
CONTINUOUS
 66
     1
 40
0.003000
 41
0.003000
  0
VERTEX
  8
PLAN_1
 62
     2
  6
CONTINUOUS
 10
-1.027697
 20
3.902508
  0
VERTEX
  8
PLAN_1
 62
     2
  6
CONTINUOUS
 10
-1.026717
 20
3.903492
  0
VERTEX
  8
PLAN_1
 62
     2
  6
CONTINUOUS
 10
-1.025240
 20
3.903980
  0
VERTEX
  8
PLAN_1
 62
     2
  6
CONTINUOUS
 10
-1.023764
 20
3.904965
  0
VERTEX
  8
PLAN_1
 62
     2
  6
CONTINUOUS
 10
-1.021795
 20
3.905457
  0
VERTEX
  8
PLAN_1
 62
     2
  6
CONTINUOUS
 10
-1.020323
 20
3.905949
  0
VERTEX
  8
PLAN_1
 62
     2
  6
CONTINUOUS
 10
-1.018354
 20
3.906441
  0
VERTEX
  8
PLAN_1
 62
     2
  6
CONTINUOUS
 10
-1.015894
 20
3.906933
  0
VERTEX
  8
PLAN_1
 62
     2
  6
CONTINUOUS
 10
-1.013437
 20
3.906933
  0
VERTEX
  8
PLAN_1
 62
     2
  6
CONTINUOUS
 10
-1.009008
 20
3.906441
  0
VERTEX
  8
PLAN_1
 62
     2
  6
CONTINUOUS
 10
-1.005075
 20
3.905457
  0
VERTEX
  8
PLAN_1
 62
     2
  6
CONTINUOUS
 10
-1.000650
 20
3.903492
  0
VERTEX
  8
PLAN_1
 62
     2
  6
CONTINUOUS
 10
-0.997205
 20
3.901031
  0
VERTEX
  8
PLAN_1
 62
     2
  6
CONTINUOUS
 10
-0.994256
 20
3.897587
  0
VERTEX
  8
PLAN_1
 62
     2
  6
CONTINUOUS
 10
-0.991795
 20
3.893654
  0
VERTEX
  8
PLAN_1
 62
     2
  6
CONTINUOUS
 10
-0.990811
 20
3.891193
  0
VERTEX
  8
PLAN_1
 62
     2
  6
CONTINUOUS
 10
-0.990319
 20
3.888736
  0
VERTEX
  8
PLAN_1
 62
     2
  6
CONTINUOUS
 10
-0.989827
 20
3.886276
  0
VERTEX
  8
PLAN_1
 62
     2
  6
CONTINUOUS
 10
-0.989335
 20
3.883819
  0
VERTEX
  8
PLAN_1
 62
     2
  6
CONTINUOUS
 10
-0.989827
 20
3.880374
  0
VERTEX
  8
PLAN_1
 62
     2
  6
CONTINUOUS
 10
-0.990319
 20
3.875949
  0
VERTEX
  8
PLAN_1
 62
     2
  6
CONTINUOUS
 10
-0.991795
 20
3.872012
  0
VERTEX
  8
PLAN_1
 62
     2
  6
CONTINUOUS
 10
-0.994256
 20
3.867587
  0
VERTEX
  8
PLAN_1
 62
     2
  6
CONTINUOUS
 10
-0.995728
 20
3.865618
  0
VERTEX
  8
PLAN_1
 62
     2
  6
CONTINUOUS
 10
-0.997697
 20
3.863654
  0
VERTEX
  8
PLAN_1
 62
     2
  6
CONTINUOUS
 10
-0.999665
 20
3.862177
  0
VERTEX
  8
PLAN_1
 62
     2
  6
CONTINUOUS
 10
-1.002122
 20
3.860701
  0
VERTEX
  8
PLAN_1
 62
     2
  6
CONTINUOUS
 10
-1.005075
 20
3.859717
  0
VERTEX
  8
PLAN_1
 62
     2
  6
CONTINUOUS
 10
-1.008516
 20
3.858732
  0
VERTEX
  8
PLAN_1
 62
     2
  6
CONTINUOUS
 10
-1.011961
 20
3.858244
  0
VERTEX
  8
PLAN_1
 62
     2
  6
CONTINUOUS
 10
-1.015894
 20
3.857752
  0
VERTEX
  8
PLAN_1
 62
     2
  6
CONTINUOUS
 10
-1.019831
 20
3.858244
  0
VERTEX
  8
PLAN_1
 62
     2
  6
CONTINUOUS
 10
-1.023764
 20
3.858732
  0
VERTEX
  8
PLAN_1
 62
     2
  6
CONTINUOUS
 10
-1.027205
 20
3.860209
  0
VERTEX
  8
PLAN_1
 62
     2
  6
CONTINUOUS
 10
-1.030650
 20
3.861685
  0
VERTEX
  8
PLAN_1
 62
     2
  6
CONTINUOUS
 10
-1.032618
 20
3.863161
  0
VERTEX
  8
PLAN_1
 62
     2
  6
CONTINUOUS
 10
-1.034091
 20
3.864638
  0
VERTEX
  8
PLAN_1
 62
     2
  6
CONTINUOUS
 10
-1.035567
 20
3.866110
  0
VERTEX
  8
PLAN_1
 62
     2
  6
CONTINUOUS
 10
-1.036551
 20
3.868079
  0
VERTEX
  8
PLAN_1
 62
     2
  6
CONTINUOUS
 10
-1.037535
 20
3.870047
  0
VERTEX
  8
PLAN_1
 62
     2
  6
CONTINUOUS
 10
-1.038520
 20
3.872504
  0
VERTEX
  8
PLAN_1
 62
     2
  6
CONTINUOUS
 10
-1.039012
 20
3.874965
  0
VERTEX
  8
PLAN_1
 62
     2
  6
CONTINUOUS
 10
-1.039504
 20
3.877913
  0
VERTEX
  8
PLAN_1
 62
     2
  6
CONTINUOUS
 10
-1.030157
 20
3.877913
  0
VERTEX
  8
PLAN_1
 62
     2
  6
CONTINUOUS
 10
-1.029665
 20
3.874965
  0
VERTEX
  8
PLAN_1
 62
     2
  6
CONTINUOUS
 10
-1.028681
 20
3.872504
  0
VERTEX
  8
PLAN_1
 62
     2
  6
CONTINUOUS
 10
-1.027205
 20
3.870539
  0
VERTEX
  8
PLAN_1
 62
     2
  6
CONTINUOUS
 10
-1.025240
 20
3.868571
  0
VERTEX
  8
PLAN_1
 62
     2
  6
CONTINUOUS
 10
-1.022780
 20
3.867587
  0
VERTEX
  8
PLAN_1
 62
     2
  6
CONTINUOUS
 10
-1.020323
 20
3.866602
  0
VERTEX
  8
PLAN_1
 62
     2
  6
CONTINUOUS
 10
-1.017862
 20
3.866110
  0
VERTEX
  8
PLAN_1
 62
     2
  6
CONTINUOUS
 10
-1.014909
 20
3.865618
  0
VERTEX
  8
PLAN_1
 62
     2
  6
CONTINUOUS
 10
-1.011469
 20
3.866110
  0
VERTEX
  8
PLAN_1
 62
     2
  6
CONTINUOUS
 10
-1.008516
 20
3.867094
  0
VERTEX
  8
PLAN_1
 62
     2
  6
CONTINUOUS
 10
-1.005567
 20
3.868571
  0
VERTEX
  8
PLAN_1
 62
     2
  6
CONTINUOUS
 10
-1.003598
 20
3.870539
  0
VERTEX
  8
PLAN_1
 62
     2
  6
CONTINUOUS
 10
-1.001630
 20
3.872996
  0
VERTEX
  8
PLAN_1
 62
     2
  6
CONTINUOUS
 10
-1.000650
 20
3.875949
  0
VERTEX
  8
PLAN_1
 62
     2
  6
CONTINUOUS
 10
-0.999665
 20
3.879390
  0
VERTEX
  8
PLAN_1
 62
     2
  6
CONTINUOUS
 10
-0.999173
 20
3.882343
  0
VERTEX
  8
PLAN_1
 62
     2
  6
CONTINUOUS
 10
-0.999665
 20
3.886276
  0
VERTEX
  8
PLAN_1
 62
     2
  6
CONTINUOUS
 10
-1.000650
 20
3.889720
  0
VERTEX
  8
PLAN_1
 62
     2
  6
CONTINUOUS
 10
-1.002122
 20
3.892177
  0
VERTEX
  8
PLAN_1
 62
     2
  6
CONTINUOUS
 10
-1.004091
 20
3.894638
  0
VERTEX
  8
PLAN_1
 62
     2
  6
CONTINUOUS
 10
-1.006551
 20
3.896606
  0
VERTEX
  8
PLAN_1
 62
     2
  6
CONTINUOUS
 10
-1.009008
 20
3.897587
  0
VERTEX
  8
PLAN_1
 62
     2
  6
CONTINUOUS
 10
-1.012453
 20
3.898571
  0
VERTEX
  8
PLAN_1
 62
     2
  6
CONTINUOUS
 10
-1.015402
 20
3.898571
  0
VERTEX
  8
PLAN_1
 62
     2
  6
CONTINUOUS
 10
-1.017370
 20
3.898571
  0
VERTEX
  8
PLAN_1
 62
     2
  6
CONTINUOUS
 10
-1.019339
 20
3.898079
  0
VERTEX
  8
PLAN_1
 62
     2
  6
CONTINUOUS
 10
-1.021303
 20
3.897587
  0
VERTEX
  8
PLAN_1
 62
     2
  6
CONTINUOUS
 10
-1.023272
 20
3.897098
  0
VERTEX
  8
PLAN_1
 62
     2
  6
CONTINUOUS
 10
-1.024748
 20
3.896114
  0
VERTEX
  8
PLAN_1
 62
     2
  6
CONTINUOUS
 10
-1.026224
 20
3.894638
  0
VERTEX
  8
PLAN_1
 62
     2
  6
CONTINUOUS
 10
-1.027697
 20
3.893161
  0
VERTEX
  8
PLAN_1
 62
     2
  6
CONTINUOUS
 10
-1.029173
 20
3.891685
  0
VERTEX
  8
PLAN_1
 62
     2
  6
CONTINUOUS
 10
-1.037043
 20
3.892177
  0
VERTEX
  8
PLAN_1
 62
     2
  6
CONTINUOUS
 10
-1.031634
 20
3.931524
  0
VERTEX
  8
PLAN_1
 62
     2
  6
CONTINUOUS
 10
-0.993764
 20
3.931524
  0
VERTEX
  8
PLAN_1
 62
     2
  6
CONTINUOUS
 10
-0.993764
 20
3.922673
  0
VERTEX
  8
PLAN_1
 62
     2
  6
CONTINUOUS
 10
-1.024748
 20
3.922673
  0
VERTEX
  8
PLAN_1
 62
     2
  6
CONTINUOUS
 10
-1.027697
 20
3.902508
  0
SEQEND
  8
0
  0
POLYLINE
  8
PLAN_1
 62
     2
  6
CONTINUOUS
 66
     1
 40
0.003000
 41
0.003000
  0
VERTEX
  8
PLAN_1
 62
     2
  6
CONTINUOUS
 10
-0.980976
 20
3.907917
  0
VERTEX
  8
PLAN_1
 62
     2
  6
CONTINUOUS
 10
-0.980484
 20
3.912835
  0
VERTEX
  8
PLAN_1
 62
     2
  6
CONTINUOUS
 10
-0.979500
 20
3.917260
  0
VERTEX
  8
PLAN_1
 62
     2
  6
CONTINUOUS
 10
-0.977531
 20
3.921689
  0
VERTEX
  8
PLAN_1
 62
     2
  6
CONTINUOUS
 10
-0.974583
 20
3.925622
  0
VERTEX
  8
PLAN_1
 62
     2
  6
CONTINUOUS
 10
-0.973106
 20
3.927098
  0
VERTEX
  8
PLAN_1
 62
     2
  6
CONTINUOUS
 10
-0.971630
 20
3.928575
  0
VERTEX
  8
PLAN_1
 62
     2
  6
CONTINUOUS
 10
-0.969661
 20
3.930047
  0
VERTEX
  8
PLAN_1
 62
     2
  6
CONTINUOUS
 10
-0.967205
 20
3.931031
  0
VERTEX
  8
PLAN_1
 62
     2
  6
CONTINUOUS
 10
-0.965236
 20
3.932016
  0
VERTEX
  8
PLAN_1
 62
     2
  6
CONTINUOUS
 10
-0.962776
 20
3.932508
  0
VERTEX
  8
PLAN_1
 62
     2
  6
CONTINUOUS
 10
-0.959827
 20
3.933000
  0
VERTEX
  8
PLAN_1
 62
     2
  6
CONTINUOUS
 10
-0.957366
 20
3.933000
  0
VERTEX
  8
PLAN_1
 62
     2
  6
CONTINUOUS
 10
-0.952941
 20
3.932508
  0
VERTEX
  8
PLAN_1
 62
     2
  6
CONTINUOUS
 10
-0.949496
 20
3.932016
  0
VERTEX
  8
PLAN_1
 62
     2
  6
CONTINUOUS
 10
-0.946055
 20
3.931031
  0
VERTEX
  8
PLAN_1
 62
     2
  6
CONTINUOUS
 10
-0.943594
 20
3.929559
  0
VERTEX
  8
PLAN_1
 62
     2
  6
CONTINUOUS
 10
-0.941138
 20
3.927591
  0
VERTEX
  8
PLAN_1
 62
     2
  6
CONTINUOUS
 10
-0.938677
 20
3.925622
  0
VERTEX
  8
PLAN_1
 62
     2
  6
CONTINUOUS
 10
-0.937201
 20
3.923165
  0
VERTEX
  8
PLAN_1
 62
     2
  6
CONTINUOUS
 10
-0.935728
 20
3.920705
  0
VERTEX
  8
PLAN_1
 62
     2
  6
CONTINUOUS
 10
-0.933760
 20
3.914803
  0
VERTEX
  8
PLAN_1
 62
     2
  6
CONTINUOUS
 10
-0.932283
 20
3.909394
  0
VERTEX
  8
PLAN_1
 62
     2
  6
CONTINUOUS
 10
-0.931791
 20
3.903980
  0
VERTEX
  8
PLAN_1
 62
     2
  6
CONTINUOUS
 10
-0.931791
 20
3.899063
  0
VERTEX
  8
PLAN_1
 62
     2
  6
CONTINUOUS
 10
-0.931791
 20
3.895130
  0
VERTEX
  8
PLAN_1
 62
     2
  6
CONTINUOUS
 10
-0.932283
 20
3.889228
  0
VERTEX
  8
PLAN_1
 62
     2
  6
CONTINUOUS
 10
-0.933268
 20
3.882835
  0
VERTEX
  8
PLAN_1
 62
     2
  6
CONTINUOUS
 10
-0.935728
 20
3.875457
  0
VERTEX
  8
PLAN_1
 62
     2
  6
CONTINUOUS
 10
-0.936709
 20
3.872012
  0
VERTEX
  8
PLAN_1
 62
     2
  6
CONTINUOUS
 10
-0.938677
 20
3.869063
  0
VERTEX
  8
PLAN_1
 62
     2
  6
CONTINUOUS
 10
-0.940646
 20
3.866110
  0
VERTEX
  8
PLAN_1
 62
     2
  6
CONTINUOUS
 10
-0.943594
 20
3.863161
  0
VERTEX
  8
PLAN_1
 62
     2
  6
CONTINUOUS
 10
-0.946547
 20
3.861193
  0
VERTEX
  8
PLAN_1
 62
     2
  6
CONTINUOUS
 10
-0.949988
 20
3.859224
  0
VERTEX
  8
PLAN_1
 62
     2
  6
CONTINUOUS
 10
-0.953925
 20
3.858244
  0
VERTEX
  8
PLAN_1
 62
     2
  6
CONTINUOUS
 10
-0.958350
 20
3.857752
  0
VERTEX
  8
PLAN_1
 62
     2
  6
CONTINUOUS
 10
-0.961303
 20
3.858244
  0
VERTEX
  8
PLAN_1
 62
     2
  6
CONTINUOUS
 10
-0.964252
 20
3.858244
  0
VERTEX
  8
PLAN_1
 62
     2
  6
CONTINUOUS
 10
-0.966713
 20
3.859224
  0
VERTEX
  8
PLAN_1
 62
     2
  6
CONTINUOUS
 10
-0.968677
 20
3.859717
  0
VERTEX
  8
PLAN_1
 62
     2
  6
CONTINUOUS
 10
-0.972614
 20
3.862177
  0
VERTEX
  8
PLAN_1
 62
     2
  6
CONTINUOUS
 10
-0.975563
 20
3.865126
  0
VERTEX
  8
PLAN_1
 62
     2
  6
CONTINUOUS
 10
-0.977531
 20
3.868079
  0
VERTEX
  8
PLAN_1
 62
     2
  6
CONTINUOUS
 10
-0.979008
 20
3.871520
  0
VERTEX
  8
PLAN_1
 62
     2
  6
CONTINUOUS
 10
-0.979500
 20
3.874472
  0
VERTEX
  8
PLAN_1
 62
     2
  6
CONTINUOUS
 10
-0.979992
 20
3.877425
  0
VERTEX
  8
PLAN_1
 62
     2
  6
CONTINUOUS
 10
-0.970646
 20
3.877425
  0
VERTEX
  8
PLAN_1
 62
     2
  6
CONTINUOUS
 10
-0.970646
 20
3.874965
  0
VERTEX
  8
PLAN_1
 62
     2
  6
CONTINUOUS
 10
-0.969661
 20
3.872504
  0
VERTEX
  8
PLAN_1
 62
     2
  6
CONTINUOUS
 10
-0.968677
 20
3.870539
  0
VERTEX
  8
PLAN_1
 62
     2
  6
CONTINUOUS
 10
-0.967205
 20
3.868571
  0
VERTEX
  8
PLAN_1
 62
     2
  6
CONTINUOUS
 10
-0.965236
 20
3.867094
  0
VERTEX
  8
PLAN_1
 62
     2
  6
CONTINUOUS
 10
-0.963268
 20
3.866110
  0
VERTEX
  8
PLAN_1
 62
     2
  6
CONTINUOUS
 10
-0.961303
 20
3.865618
  0
VERTEX
  8
PLAN_1
 62
     2
  6
CONTINUOUS
 10
-0.958350
 20
3.865618
  0
VERTEX
  8
PLAN_1
 62
     2
  6
CONTINUOUS
 10
-0.954909
 20
3.866110
  0
VERTEX
  8
PLAN_1
 62
     2
  6
CONTINUOUS
 10
-0.951957
 20
3.867094
  0
VERTEX
  8
PLAN_1
 62
     2
  6
CONTINUOUS
 10
-0.949008
 20
3.869063
  0
VERTEX
  8
PLAN_1
 62
     2
  6
CONTINUOUS
 10
-0.946547
 20
3.872012
  0
VERTEX
  8
PLAN_1
 62
     2
  6
CONTINUOUS
 10
-0.944579
 20
3.875949
  0
VERTEX
  8
PLAN_1
 62
     2
  6
CONTINUOUS
 10
-0.943102
 20
3.880374
  0
VERTEX
  8
PLAN_1
 62
     2
  6
CONTINUOUS
 10
-0.941630
 20
3.886276
  0
VERTEX
  8
PLAN_1
 62
     2
  6
CONTINUOUS
 10
-0.940646
 20
3.892669
  0
VERTEX
  8
PLAN_1
 62
     2
  6
CONTINUOUS
 10
-0.941138
 20
3.893161
  0
VERTEX
  8
PLAN_1
 62
     2
  6
CONTINUOUS
 10
-0.942122
 20
3.891193
  0
VERTEX
  8
PLAN_1
 62
     2
  6
CONTINUOUS
 10
-0.943594
 20
3.889228
  0
VERTEX
  8
PLAN_1
 62
     2
  6
CONTINUOUS
 10
-0.945563
 20
3.887752
  0
VERTEX
  8
PLAN_1
 62
     2
  6
CONTINUOUS
 10
-0.948024
 20
3.886768
  0
VERTEX
  8
PLAN_1
 62
     2
  6
CONTINUOUS
 10
-0.949988
 20
3.885783
  0
VERTEX
  8
PLAN_1
 62
     2
  6
CONTINUOUS
 10
-0.952449
 20
3.884799
  0
VERTEX
  8
PLAN_1
 62
     2
  6
CONTINUOUS
 10
-0.955402
 20
3.884311
  0
VERTEX
  8
PLAN_1
 62
     2
  6
CONTINUOUS
 10
-0.957858
 20
3.884311
  0
VERTEX
  8
PLAN_1
 62
     2
  6
CONTINUOUS
 10
-0.962776
 20
3.884799
  0
VERTEX
  8
PLAN_1
 62
     2
  6
CONTINUOUS
 10
-0.967205
 20
3.885783
  0
VERTEX
  8
PLAN_1
 62
     2
  6
CONTINUOUS
 10
-0.971138
 20
3.887752
  0
VERTEX
  8
PLAN_1
 62
     2
  6
CONTINUOUS
 10
-0.974583
 20
3.890705
  0
VERTEX
  8
PLAN_1
 62
     2
  6
CONTINUOUS
 10
-0.977039
 20
3.894146
  0
VERTEX
  8
PLAN_1
 62
     2
  6
CONTINUOUS
 10
-0.979008
 20
3.898079
  0
VERTEX
  8
PLAN_1
 62
     2
  6
CONTINUOUS
 10
-0.980484
 20
3.902508
  0
VERTEX
  8
PLAN_1
 62
     2
  6
CONTINUOUS
 10
-0.980976
 20
3.907917
  0
SEQEND
  8
0
  0
POLYLINE
  8
PLAN_1
 62
     2
  6
CONTINUOUS
 66
     1
 40
0.003000
 41
0.003000
  0
VERTEX
  8
PLAN_1
 62
     2
  6
CONTINUOUS
 10
-0.942610
 20
3.909394
  0
VERTEX
  8
PLAN_1
 62
     2
  6
CONTINUOUS
 10
-0.942610
 20
3.912343
  0
VERTEX
  8
PLAN_1
 62
     2
  6
CONTINUOUS
 10
-0.943102
 20
3.915295
  0
VERTEX
  8
PLAN_1
 62
     2
  6
CONTINUOUS
 10
-0.944087
 20
3.917752
  0
VERTEX
  8
PLAN_1
 62
     2
  6
CONTINUOUS
 10
-0.946055
 20
3.920213
  0
VERTEX
  8
PLAN_1
 62
     2
  6
CONTINUOUS
 10
-0.948024
 20
3.922181
  0
VERTEX
  8
PLAN_1
 62
     2
  6
CONTINUOUS
 10
-0.950480
 20
3.923654
  0
VERTEX
  8
PLAN_1
 62
     2
  6
CONTINUOUS
 10
-0.953433
 20
3.924638
  0
VERTEX
  8
PLAN_1
 62
     2
  6
CONTINUOUS
 10
-0.957366
 20
3.924638
  0
VERTEX
  8
PLAN_1
 62
     2
  6
CONTINUOUS
 10
-0.960319
 20
3.924638
  0
VERTEX
  8
PLAN_1
 62
     2
  6
CONTINUOUS
 10
-0.962776
 20
3.923654
  0
VERTEX
  8
PLAN_1
 62
     2
  6
CONTINUOUS
 10
-0.965236
 20
3.922181
  0
VERTEX
  8
PLAN_1
 62
     2
  6
CONTINUOUS
 10
-0.967205
 20
3.920213
  0
VERTEX
  8
PLAN_1
 62
     2
  6
CONTINUOUS
 10
-0.969169
 20
3.917752
  0
VERTEX
  8
PLAN_1
 62
     2
  6
CONTINUOUS
 10
-0.970154
 20
3.914803
  0
VERTEX
  8
PLAN_1
 62
     2
  6
CONTINUOUS
 10
-0.971138
 20
3.911850
  0
VERTEX
  8
PLAN_1
 62
     2
  6
CONTINUOUS
 10
-0.971138
 20
3.908409
  0
VERTEX
  8
PLAN_1
 62
     2
  6
CONTINUOUS
 10
-0.971138
 20
3.903492
  0
VERTEX
  8
PLAN_1
 62
     2
  6
CONTINUOUS
 10
-0.969661
 20
3.900047
  0
VERTEX
  8
PLAN_1
 62
     2
  6
CONTINUOUS
 10
-0.968189
 20
3.897098
  0
VERTEX
  8
PLAN_1
 62
     2
  6
CONTINUOUS
 10
-0.966220
 20
3.895130
  0
VERTEX
  8
PLAN_1
 62
     2
  6
CONTINUOUS
 10
-0.963760
 20
3.893654
  0
VERTEX
  8
PLAN_1
 62
     2
  6
CONTINUOUS
 10
-0.961303
 20
3.893161
  0
VERTEX
  8
PLAN_1
 62
     2
  6
CONTINUOUS
 10
-0.958843
 20
3.892669
  0
VERTEX
  8
PLAN_1
 62
     2
  6
CONTINUOUS
 10
-0.956382
 20
3.892669
  0
VERTEX
  8
PLAN_1
 62
     2
  6
CONTINUOUS
 10
-0.954417
 20
3.892669
  0
VERTEX
  8
PLAN_1
 62
     2
  6
CONTINUOUS
 10
-0.952449
 20
3.893161
  0
VERTEX
  8
PLAN_1
 62
     2
  6
CONTINUOUS
 10
-0.949988
 20
3.894146
  0
VERTEX
  8
PLAN_1
 62
     2
  6
CONTINUOUS
 10
-0.947531
 20
3.895622
  0
VERTEX
  8
PLAN_1
 62
     2
  6
CONTINUOUS
 10
-0.945563
 20
3.897587
  0
VERTEX
  8
PLAN_1
 62
     2
  6
CONTINUOUS
 10
-0.944087
 20
3.900539
  0
VERTEX
  8
PLAN_1
 62
     2
  6
CONTINUOUS
 10
-0.942610
 20
3.904472
  0
VERTEX
  8
PLAN_1
 62
     2
  6
CONTINUOUS
 10
-0.942610
 20
3.909394
  0
SEQEND
  8
0
  0
POLYLINE
  8
PLAN_1
 62
     2
  6
CONTINUOUS
 66
     1
 40
0.003933
 41
0.003933
  0
VERTEX
  8
PLAN_1
 62
     2
  6
CONTINUOUS
 10
-1.782654
 20
3.678724
  0
VERTEX
  8
PLAN_1
 62
     2
  6
CONTINUOUS
 10
0.149244
 20
3.678724
  0
SEQEND
  8
0
  0
SOLID
  8
PLAN_1
 62
     2
 10
0.178756
 20
3.678724
 11
0.119736
 21
3.694465
 12
0.178756
 22
3.678724
 13
0.119736
 23
3.662988
  0
POLYLINE
  8
PLAN_1
 62
     2
  6
CONTINUOUS
 66
     1
 40
0.003000
 41
0.003000
  0
VERTEX
  8
PLAN_1
 62
     2
  6
CONTINUOUS
 10
0.178756
 20
3.678724
  0
VERTEX
  8
PLAN_1
 62
     2
  6
CONTINUOUS
 10
0.119736
 20
3.694465
  0
VERTEX
  8
PLAN_1
 62
     2
  6
CONTINUOUS
 10
0.119736
 20
3.662988
  0
VERTEX
  8
PLAN_1
 62
     2
  6
CONTINUOUS
 10
0.178756
 20
3.678724
  0
SEQEND
  8
0
  0
SOLID
  8
PLAN_1
 62
     2
 10
-1.812165
 20
3.678724
 11
-1.753146
 21
3.694465
 12
-1.812165
 22
3.678724
 13
-1.753146
 23
3.662988
  0
POLYLINE
  8
PLAN_1
 62
     2
  6
CONTINUOUS
 66
     1
 40
0.003000
 41
0.003000
  0
VERTEX
  8
PLAN_1
 62
     2
  6
CONTINUOUS
 10
-1.812165
 20
3.678724
  0
VERTEX
  8
PLAN_1
 62
     2
  6
CONTINUOUS
 10
-1.753146
 20
3.694465
  0
VERTEX
  8
PLAN_1
 62
     2
  6
CONTINUOUS
 10
-1.753146
 20
3.662988
  0
VERTEX
  8
PLAN_1
 62
     2
  6
CONTINUOUS
 10
-1.812165
 20
3.678724
  0
SEQEND
  8
0
  0
POLYLINE
  8
PLAN_1
 62
     2
  6
CONTINUOUS
 66
     1
 40
0.003000
 41
0.003000
  0
VERTEX
  8
PLAN_1
 62
     2
  6
CONTINUOUS
 10
-0.830969
 20
3.720039
  0
VERTEX
  8
PLAN_1
 62
     2
  6
CONTINUOUS
 10
-0.830969
 20
3.702335
  0
VERTEX
  8
PLAN_1
 62
     2
  6
CONTINUOUS
 10
-0.840311
 20
3.702335
  0
VERTEX
  8
PLAN_1
 62
     2
  6
CONTINUOUS
 10
-0.840311
 20
3.720039
  0
VERTEX
  8
PLAN_1
 62
     2
  6
CONTINUOUS
 10
-0.871787
 20
3.720039
  0
VERTEX
  8
PLAN_1
 62
     2
  6
CONTINUOUS
 10
-0.871787
 20
3.729382
  0
VERTEX
  8
PLAN_1
 62
     2
  6
CONTINUOUS
 10
-0.838346
 20
3.775614
  0
VERTEX
  8
PLAN_1
 62
     2
  6
CONTINUOUS
 10
-0.830969
 20
3.775614
  0
VERTEX
  8
PLAN_1
 62
     2
  6
CONTINUOUS
 10
-0.830969
 20
3.727909
  0
VERTEX
  8
PLAN_1
 62
     2
  6
CONTINUOUS
 10
-0.820146
 20
3.727909
  0
VERTEX
  8
PLAN_1
 62
     2
  6
CONTINUOUS
 10
-0.820146
 20
3.720039
  0
VERTEX
  8
PLAN_1
 62
     2
  6
CONTINUOUS
 10
-0.830969
 20
3.720039
  0
SEQEND
  8
0
  0
SOLID
  8
PLAN_1
 62
     2
 10
-0.863429
 20
3.727909
 11
-0.840311
 21
3.727909
 12
-0.863429
 22
3.727909
 13
-0.840311
 23
3.761350
  0
POLYLINE
  8
PLAN_1
 62
     2
  6
CONTINUOUS
 66
     1
 40
0.003000
 41
0.003000
  0
VERTEX
  8
PLAN_1
 62
     2
  6
CONTINUOUS
 10
-0.863429
 20
3.727909
  0
VERTEX
  8
PLAN_1
 62
     2
  6
CONTINUOUS
 10
-0.840311
 20
3.727909
  0
VERTEX
  8
PLAN_1
 62
     2
  6
CONTINUOUS
 10
-0.840311
 20
3.761350
  0
VERTEX
  8
PLAN_1
 62
     2
  6
CONTINUOUS
 10
-0.863429
 20
3.727909
  0
SEQEND
  8
0
  0
POLYLINE
  8
PLAN_1
 62
     2
  6
CONTINUOUS
 66
     1
 40
0.003000
 41
0.003000
  0
VERTEX
  8
PLAN_1
 62
     2
  6
CONTINUOUS
 10
-0.774898
 20
3.741189
  0
VERTEX
  8
PLAN_1
 62
     2
  6
CONTINUOUS
 10
-0.771457
 20
3.739713
  0
VERTEX
  8
PLAN_1
 62
     2
  6
CONTINUOUS
 10
-0.768996
 20
3.737744
  0
VERTEX
  8
PLAN_1
 62
     2
  6
CONTINUOUS
 10
-0.766539
 20
3.735283
  0
VERTEX
  8
PLAN_1
 62
     2
  6
CONTINUOUS
 10
-0.765063
 20
3.732827
  0
VERTEX
  8
PLAN_1
 62
     2
  6
CONTINUOUS
 10
-0.764079
 20
3.730366
  0
VERTEX
  8
PLAN_1
 62
     2
  6
CONTINUOUS
 10
-0.763587
 20
3.727909
  0
VERTEX
  8
PLAN_1
 62
     2
  6
CONTINUOUS
 10
-0.763094
 20
3.725941
  0
VERTEX
  8
PLAN_1
 62
     2
  6
CONTINUOUS
 10
-0.763094
 20
3.723480
  0
VERTEX
  8
PLAN_1
 62
     2
  6
CONTINUOUS
 10
-0.763094
 20
3.719055
  0
VERTEX
  8
PLAN_1
 62
     2
  6
CONTINUOUS
 10
-0.764571
 20
3.715122
  0
VERTEX
  8
PLAN_1
 62
     2
  6
CONTINUOUS
 10
-0.766047
 20
3.711185
  0
VERTEX
  8
PLAN_1
 62
     2
  6
CONTINUOUS
 10
-0.768996
 20
3.707744
  0
VERTEX
  8
PLAN_1
 62
     2
  6
CONTINUOUS
 10
-0.770472
 20
3.706268
  0
VERTEX
  8
PLAN_1
 62
     2
  6
CONTINUOUS
 10
-0.772441
 20
3.704791
  0
VERTEX
  8
PLAN_1
 62
     2
  6
CONTINUOUS
 10
-0.774406
 20
3.703315
  0
VERTEX
  8
PLAN_1
 62
     2
  6
CONTINUOUS
 10
-0.776374
 20
3.702335
  0
VERTEX
  8
PLAN_1
 62
     2
  6
CONTINUOUS
 10
-0.778835
 20
3.701350
  0
VERTEX
  8
PLAN_1
 62
     2
  6
CONTINUOUS
 10
-0.781783
 20
3.700858
  0
VERTEX
  8
PLAN_1
 62
     2
  6
CONTINUOUS
 10
-0.784736
 20
3.700366
  0
VERTEX
  8
PLAN_1
 62
     2
  6
CONTINUOUS
 10
-0.787685
 20
3.700366
  0
VERTEX
  8
PLAN_1
 62
     2
  6
CONTINUOUS
 10
-0.789161
 20
3.700366
  0
VERTEX
  8
PLAN_1
 62
     2
  6
CONTINUOUS
 10
-0.791130
 20
3.700858
  0
VERTEX
  8
PLAN_1
 62
     2
  6
CONTINUOUS
 10
-0.793587
 20
3.700858
  0
VERTEX
  8
PLAN_1
 62
     2
  6
CONTINUOUS
 10
-0.796047
 20
3.701350
  0
VERTEX
  8
PLAN_1
 62
     2
  6
CONTINUOUS
 10
-0.798016
 20
3.702335
  0
VERTEX
  8
PLAN_1
 62
     2
  6
CONTINUOUS
 10
-0.800472
 20
3.703315
  0
VERTEX
  8
PLAN_1
 62
     2
  6
CONTINUOUS
 10
-0.802933
 20
3.704299
  0
VERTEX
  8
PLAN_1
 62
     2
  6
CONTINUOUS
 10
-0.805394
 20
3.706268
  0
VERTEX
  8
PLAN_1
 62
     2
  6
CONTINUOUS
 10
-0.807850
 20
3.708236
  0
VERTEX
  8
PLAN_1
 62
     2
  6
CONTINUOUS
 10
-0.809819
 20
3.710693
  0
VERTEX
  8
PLAN_1
 62
     2
  6
CONTINUOUS
 10
-0.810803
 20
3.713154
  0
VERTEX
  8
PLAN_1
 62
     2
  6
CONTINUOUS
 10
-0.811787
 20
3.715610
  0
VERTEX
  8
PLAN_1
 62
     2
  6
CONTINUOUS
 10
-0.812280
 20
3.718071
  0
VERTEX
  8
PLAN_1
 62
     2
  6
CONTINUOUS
 10
-0.812772
 20
3.720039
  0
VERTEX
  8
PLAN_1
 62
     2
  6
CONTINUOUS
 10
-0.812772
 20
3.722008
  0
VERTEX
  8
PLAN_1
 62
     2
  6
CONTINUOUS
 10
-0.812772
 20
3.723480
  0
VERTEX
  8
PLAN_1
 62
     2
  6
CONTINUOUS
 10
-0.812772
 20
3.726433
  0
VERTEX
  8
PLAN_1
 62
     2
  6
CONTINUOUS
 10
-0.811787
 20
3.729382
  0
VERTEX
  8
PLAN_1
 62
     2
  6
CONTINUOUS
 10
-0.810803
 20
3.732335
  0
VERTEX
  8
PLAN_1
 62
     2
  6
CONTINUOUS
 10
-0.809327
 20
3.734303
  0
VERTEX
  8
PLAN_1
 62
     2
  6
CONTINUOUS
 10
-0.807850
 20
3.736760
  0
VERTEX
  8
PLAN_1
 62
     2
  6
CONTINUOUS
 10
-0.805394
 20
3.738236
  0
VERTEX
  8
PLAN_1
 62
     2
  6
CONTINUOUS
 10
-0.802933
 20
3.739713
  0
VERTEX
  8
PLAN_1
 62
     2
  6
CONTINUOUS
 10
-0.800472
 20
3.741189
  0
VERTEX
  8
PLAN_1
 62
     2
  6
CONTINUOUS
 10
-0.802441
 20
3.742169
  0
VERTEX
  8
PLAN_1
 62
     2
  6
CONTINUOUS
 10
-0.804409
 20
3.743646
  0
VERTEX
  8
PLAN_1
 62
     2
  6
CONTINUOUS
 10
-0.806374
 20
3.745122
  0
VERTEX
  8
PLAN_1
 62
     2
  6
CONTINUOUS
 10
-0.807850
 20
3.746598
  0
VERTEX
  8
PLAN_1
 62
     2
  6
CONTINUOUS
 10
-0.808835
 20
3.748563
  0
VERTEX
  8
PLAN_1
 62
     2
  6
CONTINUOUS
 10
-0.809819
 20
3.750531
  0
VERTEX
  8
PLAN_1
 62
     2
  6
CONTINUOUS
 10
-0.810311
 20
3.752992
  0
VERTEX
  8
PLAN_1
 62
     2
  6
CONTINUOUS
 10
-0.810311
 20
3.755449
  0
VERTEX
  8
PLAN_1
 62
     2
  6
CONTINUOUS
 10
-0.809819
 20
3.758402
  0
VERTEX
  8
PLAN_1
 62
     2
  6
CONTINUOUS
 10
-0.809327
 20
3.761843
  0
VERTEX
  8
PLAN_1
 62
     2
  6
CONTINUOUS
 10
-0.807850
 20
3.765287
  0
VERTEX
  8
PLAN_1
 62
     2
  6
CONTINUOUS
 10
-0.805886
 20
3.768236
  0
VERTEX
  8
PLAN_1
 62
     2
  6
CONTINUOUS
 10
-0.804409
 20
3.769713
  0
VERTEX
  8
PLAN_1
 62
     2
  6
CONTINUOUS
 10
-0.802933
 20
3.771189
  0
VERTEX
  8
PLAN_1
 62
     2
  6
CONTINUOUS
 10
-0.800965
 20
3.772665
  0
VERTEX
  8
PLAN_1
 62
     2
  6
CONTINUOUS
 10
-0.799000
 20
3.773650
  0
VERTEX
  8
PLAN_1
 62
     2
  6
CONTINUOUS
 10
-0.796539
 20
3.774138
  0
VERTEX
  8
PLAN_1
 62
     2
  6
CONTINUOUS
 10
-0.794079
 20
3.775122
  0
VERTEX
  8
PLAN_1
 62
     2
  6
CONTINUOUS
 10
-0.791130
 20
3.775614
  0
VERTEX
  8
PLAN_1
 62
     2
  6
CONTINUOUS
 10
-0.788177
 20
3.775614
  0
VERTEX
  8
PLAN_1
 62
     2
  6
CONTINUOUS
 10
-0.782276
 20
3.775122
  0
VERTEX
  8
PLAN_1
 62
     2
  6
CONTINUOUS
 10
-0.777850
 20
3.773650
  0
VERTEX
  8
PLAN_1
 62
     2
  6
CONTINUOUS
 10
-0.773913
 20
3.771681
  0
VERTEX
  8
PLAN_1
 62
     2
  6
CONTINUOUS
 10
-0.770965
 20
3.769220
  0
VERTEX
  8
PLAN_1
 62
     2
  6
CONTINUOUS
 10
-0.768504
 20
3.766272
  0
VERTEX
  8
PLAN_1
 62
     2
  6
CONTINUOUS
 10
-0.767031
 20
3.763319
  0
VERTEX
  8
PLAN_1
 62
     2
  6
CONTINUOUS
 10
-0.766047
 20
3.759878
  0
VERTEX
  8
PLAN_1
 62
     2
  6
CONTINUOUS
 10
-0.765555
 20
3.756925
  0
VERTEX
  8
PLAN_1
 62
     2
  6
CONTINUOUS
 10
-0.766047
 20
3.752992
  0
VERTEX
  8
PLAN_1
 62
     2
  6
CONTINUOUS
 10
-0.766539
 20
3.750039
  0
VERTEX
  8
PLAN_1
 62
     2
  6
CONTINUOUS
 10
-0.767520
 20
3.747583
  0
VERTEX
  8
PLAN_1
 62
     2
  6
CONTINUOUS
 10
-0.768996
 20
3.745614
  0
VERTEX
  8
PLAN_1
 62
     2
  6
CONTINUOUS
 10
-0.770472
 20
3.744138
  0
VERTEX
  8
PLAN_1
 62
     2
  6
CONTINUOUS
 10
-0.771949
 20
3.743154
  0
VERTEX
  8
PLAN_1
 62
     2
  6
CONTINUOUS
 10
-0.773425
 20
3.742169
  0
VERTEX
  8
PLAN_1
 62
     2
  6
CONTINUOUS
 10
-0.774898
 20
3.741189
  0
SEQEND
  8
0
  0
POLYLINE
  8
PLAN_1
 62
     2
  6
CONTINUOUS
 66
     1
 40
0.003000
 41
0.003000
  0
VERTEX
  8
PLAN_1
 62
     2
  6
CONTINUOUS
 10
-0.802933
 20
3.722988
  0
VERTEX
  8
PLAN_1
 62
     2
  6
CONTINUOUS
 10
-0.802933
 20
3.721024
  0
VERTEX
  8
PLAN_1
 62
     2
  6
CONTINUOUS
 10
-0.802441
 20
3.718563
  0
VERTEX
  8
PLAN_1
 62
     2
  6
CONTINUOUS
 10
-0.801457
 20
3.716102
  0
VERTEX
  8
PLAN_1
 62
     2
  6
CONTINUOUS
 10
-0.799980
 20
3.713646
  0
VERTEX
  8
PLAN_1
 62
     2
  6
CONTINUOUS
 10
-0.798016
 20
3.711677
  0
VERTEX
  8
PLAN_1
 62
     2
  6
CONTINUOUS
 10
-0.795063
 20
3.710201
  0
VERTEX
  8
PLAN_1
 62
     2
  6
CONTINUOUS
 10
-0.791622
 20
3.709217
  0
VERTEX
  8
PLAN_1
 62
     2
  6
CONTINUOUS
 10
-0.787193
 20
3.708728
  0
VERTEX
  8
PLAN_1
 62
     2
  6
CONTINUOUS
 10
-0.784736
 20
3.708728
  0
VERTEX
  8
PLAN_1
 62
     2
  6
CONTINUOUS
 10
-0.782276
 20
3.709217
  0
VERTEX
  8
PLAN_1
 62
     2
  6
CONTINUOUS
 10
-0.779819
 20
3.710201
  0
VERTEX
  8
PLAN_1
 62
     2
  6
CONTINUOUS
 10
-0.777358
 20
3.711185
  0
VERTEX
  8
PLAN_1
 62
     2
  6
CONTINUOUS
 10
-0.775390
 20
3.713154
  0
VERTEX
  8
PLAN_1
 62
     2
  6
CONTINUOUS
 10
-0.773913
 20
3.715610
  0
VERTEX
  8
PLAN_1
 62
     2
  6
CONTINUOUS
 10
-0.772933
 20
3.718563
  0
VERTEX
  8
PLAN_1
 62
     2
  6
CONTINUOUS
 10
-0.772933
 20
3.722496
  0
VERTEX
  8
PLAN_1
 62
     2
  6
CONTINUOUS
 10
-0.772933
 20
3.725941
  0
VERTEX
  8
PLAN_1
 62
     2
  6
CONTINUOUS
 10
-0.773913
 20
3.728890
  0
VERTEX
  8
PLAN_1
 62
     2
  6
CONTINUOUS
 10
-0.775390
 20
3.731350
  0
VERTEX
  8
PLAN_1
 62
     2
  6
CONTINUOUS
 10
-0.777358
 20
3.733319
  0
VERTEX
  8
PLAN_1
 62
     2
  6
CONTINUOUS
 10
-0.779327
 20
3.734795
  0
VERTEX
  8
PLAN_1
 62
     2
  6
CONTINUOUS
 10
-0.781783
 20
3.735776
  0
VERTEX
  8
PLAN_1
 62
     2
  6
CONTINUOUS
 10
-0.784736
 20
3.736760
  0
VERTEX
  8
PLAN_1
 62
     2
  6
CONTINUOUS
 10
-0.787685
 20
3.736760
  0
VERTEX
  8
PLAN_1
 62
     2
  6
CONTINUOUS
 10
-0.791622
 20
3.736268
  0
VERTEX
  8
PLAN_1
 62
     2
  6
CONTINUOUS
 10
-0.794571
 20
3.735776
  0
VERTEX
  8
PLAN_1
 62
     2
  6
CONTINUOUS
 10
-0.797031
 20
3.734303
  0
VERTEX
  8
PLAN_1
 62
     2
  6
CONTINUOUS
 10
-0.799492
 20
3.732335
  0
VERTEX
  8
PLAN_1
 62
     2
  6
CONTINUOUS
 10
-0.800965
 20
3.730366
  0
VERTEX
  8
PLAN_1
 62
     2
  6
CONTINUOUS
 10
-0.801949
 20
3.728402
  0
VERTEX
  8
PLAN_1
 62
     2
  6
CONTINUOUS
 10
-0.802933
 20
3.725941
  0
VERTEX
  8
PLAN_1
 62
     2
  6
CONTINUOUS
 10
-0.802933
 20
3.722988
  0
SEQEND
  8
0
  0
POLYLINE
  8
PLAN_1
 62
     2
  6
CONTINUOUS
 66
     1
 40
0.003000
 41
0.003000
  0
VERTEX
  8
PLAN_1
 62
     2
  6
CONTINUOUS
 10
-0.774898
 20
3.756433
  0
VERTEX
  8
PLAN_1
 62
     2
  6
CONTINUOUS
 10
-0.775390
 20
3.758402
  0
VERTEX
  8
PLAN_1
 62
     2
  6
CONTINUOUS
 10
-0.775390
 20
3.759878
  0
VERTEX
  8
PLAN_1
 62
     2
  6
CONTINUOUS
 10
-0.776374
 20
3.761843
  0
VERTEX
  8
PLAN_1
 62
     2
  6
CONTINUOUS
 10
-0.777850
 20
3.763319
  0
VERTEX
  8
PLAN_1
 62
     2
  6
CONTINUOUS
 10
-0.779819
 20
3.765287
  0
VERTEX
  8
PLAN_1
 62
     2
  6
CONTINUOUS
 10
-0.781783
 20
3.766272
  0
VERTEX
  8
PLAN_1
 62
     2
  6
CONTINUOUS
 10
-0.784736
 20
3.767256
  0
VERTEX
  8
PLAN_1
 62
     2
  6
CONTINUOUS
 10
-0.788669
 20
3.767256
  0
VERTEX
  8
PLAN_1
 62
     2
  6
CONTINUOUS
 10
-0.792114
 20
3.767256
  0
VERTEX
  8
PLAN_1
 62
     2
  6
CONTINUOUS
 10
-0.794571
 20
3.766272
  0
VERTEX
  8
PLAN_1
 62
     2
  6
CONTINUOUS
 10
-0.797031
 20
3.764795
  0
VERTEX
  8
PLAN_1
 62
     2
  6
CONTINUOUS
 10
-0.798508
 20
3.763319
  0
VERTEX
  8
PLAN_1
 62
     2
  6
CONTINUOUS
 10
-0.799492
 20
3.761350
  0
VERTEX
  8
PLAN_1
 62
     2
  6
CONTINUOUS
 10
-0.800472
 20
3.759878
  0
VERTEX
  8
PLAN_1
 62
     2
  6
CONTINUOUS
 10
-0.800472
 20
3.757909
  0
VERTEX
  8
PLAN_1
 62
     2
  6
CONTINUOUS
 10
-0.800965
 20
3.755941
  0
VERTEX
  8
PLAN_1
 62
     2
  6
CONTINUOUS
 10
-0.800472
 20
3.753484
  0
VERTEX
  8
PLAN_1
 62
     2
  6
CONTINUOUS
 10
-0.799980
 20
3.751024
  0
VERTEX
  8
PLAN_1
 62
     2
  6
CONTINUOUS
 10
-0.798508
 20
3.749055
  0
VERTEX
  8
PLAN_1
 62
     2
  6
CONTINUOUS
 10
-0.797031
 20
3.747583
  0
VERTEX
  8
PLAN_1
 62
     2
  6
CONTINUOUS
 10
-0.795063
 20
3.746598
  0
VERTEX
  8
PLAN_1
 62
     2
  6
CONTINUOUS
 10
-0.792606
 20
3.745614
  0
VERTEX
  8
PLAN_1
 62
     2
  6
CONTINUOUS
 10
-0.790638
 20
3.744630
  0
VERTEX
  8
PLAN_1
 62
     2
  6
CONTINUOUS
 10
-0.788177
 20
3.744630
  0
VERTEX
  8
PLAN_1
 62
     2
  6
CONTINUOUS
 10
-0.785228
 20
3.745122
  0
VERTEX
  8
PLAN_1
 62
     2
  6
CONTINUOUS
 10
-0.782768
 20
3.745614
  0
VERTEX
  8
PLAN_1
 62
     2
  6
CONTINUOUS
 10
-0.780311
 20
3.746598
  0
VERTEX
  8
PLAN_1
 62
     2
  6
CONTINUOUS
 10
-0.778343
 20
3.748071
  0
VERTEX
  8
PLAN_1
 62
     2
  6
CONTINUOUS
 10
-0.776866
 20
3.749547
  0
VERTEX
  8
PLAN_1
 62
     2
  6
CONTINUOUS
 10
-0.775882
 20
3.752008
  0
VERTEX
  8
PLAN_1
 62
     2
  6
CONTINUOUS
 10
-0.775390
 20
3.753976
  0
VERTEX
  8
PLAN_1
 62
     2
  6
CONTINUOUS
 10
-0.774898
 20
3.756433
  0
SEQEND
  8
0
  0
POLYLINE
  8
PLAN_1
 62
     2
  6
CONTINUOUS
 66
     1
 40
0.003933
 41
0.003933
  0
VERTEX
  8
PLAN_1
 62
     2
  6
CONTINUOUS
 10
-2.149067
 20
3.859717
  0
VERTEX
  8
PLAN_1
 62
     2
  6
CONTINUOUS
 10
-2.149067
 20
0.976134
  0
SEQEND
  8
0
  0
POLYLINE
  8
PLAN_1
 62
     2
  6
CONTINUOUS
 66
     1
 40
0.003933
 41
0.003933
  0
VERTEX
  8
PLAN_1
 62
     2
  6
CONTINUOUS
 10
-1.812165
 20
3.702335
  0
VERTEX
  8
PLAN_1
 62
     2
  6
CONTINUOUS
 10
-1.812165
 20
3.512488
  0
SEQEND
  8
0
  0
POLYLINE
  8
PLAN_1
 62
     2
  6
CONTINUOUS
 66
     1
 40
0.003933
 41
0.003933
  0
VERTEX
  8
PLAN_1
 62
     2
  6
CONTINUOUS
 10
0.178756
 20
0.118386
  0
VERTEX
  8
PLAN_1
 62
     2
  6
CONTINUOUS
 10
0.178756
 20
3.859717
  0
SEQEND
  8
0
  0
ENDSEC
  0
EOF
