  0
SECTION
  2
HEADER
  9
$ACADVER
  1
AC1006
  9
$EXTMIN
 10
-1.937736
 20
-3.504091
  9
$EXTMAX
 10
1.931000
 20
3.501000
  9
$LTSCALE
 40
0.000394
  9
$PDMODE
 70
    35
  9
$PDSIZE
 40
0.000315
  0
ENDSEC
  0
SECTION
  2
TABLES
  0
TABLE
  2
LTYPE
 70
     9
  0
LTYPE
  2
CONTINUOUS
 70
    64
  3
Solid line
 72
    65
 73
     0
 40
0.000000
  0
LTYPE
  2
DASHED
 70
    64
  3
__ __ __ __ __ __ __ __ __ __ __ __ __ __ __
 72
    65
 73
     2
 40
0.000003
 49
0.000002
 49
-0.000001
  0
LTYPE
  2
HIDDEN
 70
    64
  3
 _ _ _ _ _ _ _ _ _ _ _ _ _ _ _ _ _ _ _ _ _ _
 72
    65
 73
     2
 40
0.000001
 49
0.000001
 49
-0.000000
  0
LTYPE
  2
CENTER
 70
    64
  3
____ _ ____ _ ____ _ ____ _ ____ _ ____ _ ____
 72
    65
 73
     4
 40
0.000008
 49
0.000005
 49
-0.000001
 49
0.000001
 49
-0.000001
  0
LTYPE
  2
PHANTOM
 70
    64
  3
_____ _ _ _____ _ _ _____ _ _ _____ _ _ ____
 72
    65
 73
     6
 40
0.000010
 49
0.000005
 49
-0.000001
 49
0.000001
 49
-0.000001
 49
0.000001
 49
-0.000001
  0
LTYPE
  2
DOT
 70
    64
  3
...............................................
 72
    65
 73
     2
 40
0.000001
 49
0.000000
 49
-0.000001
  0
LTYPE
  2
DASHDOT
 70
    64
  3
__ . __ . __ . __ . __ . __ . __ . __ . __ . __
 72
    65
 73
     4
 40
0.000004
 49
0.000002
 49
-0.000001
 49
0.000000
 49
-0.000001
  0
LTYPE
  2
BORDER
 70
    64
  3
__ __ . __ __ . __ __ . __ __ . __ __ . __ __
 72
    65
 73
     6
 40
0.000007
 49
0.000002
 49
-0.000001
 49
0.000002
 49
-0.000001
 49
0.000000
 49
-0.000001
  0
LTYPE
  2
DIVIDE
 70
    64
  3
__ . . __ . . __ . . __ . . __ . . __ . . __
 72
    65
 73
     6
 40
0.000005
 49
0.000002
 49
-0.000001
 49
0.000000
 49
-0.000001
 49
0.000000
 49
-0.000001
  0
LTYPE
  2
DOTDOT
 70
    64
  3
 . .  . .  . .  . .  . .  . . 
 72
    65
 73
     5
 40
0.000002
 49
-0.000001
 49
0.000000
 49
-0.000001
 49
0.000000
 49
-0.000001
  0
ENDTAB
  0
TABLE
  2
STYLE
 70
     0
  0
ENDTAB
  0
TABLE
  2
LAYER
 70
     3
  0
LAYER
  2
FOREGROUND
 70
    64
 62
     7
  6
CONTINUOUS
  0
LAYER
  2
BACKGROUND
 70
    65
 62
    -7
  6
CONTINUOUS
  0
LAYER
  2
PLAN_1
 70
    64
 62
     7
  6
CONTINUOUS
  0
ENDTAB
  0
ENDSEC
  0
SECTION
  2
ENTITIES
  0
POLYLINE
  8
PLAN_1
  6
CONTINUOUS
 66
     1
 40
0.003000
 41
0.003000
  0
VERTEX
  8
PLAN_1
  6
CONTINUOUS
 10
0.142949
 20
-3.498839
  0
VERTEX
  8
PLAN_1
  6
CONTINUOUS
 10
-0.014228
 20
-3.498839
  0
VERTEX
  8
PLAN_1
  6
CONTINUOUS
 10
-0.014228
 20
-3.476508
  0
VERTEX
  8
PLAN_1
  6
CONTINUOUS
 10
0.107925
 20
-3.323272
  0
VERTEX
  8
PLAN_1
  6
CONTINUOUS
 10
-0.005031
 20
-3.323272
  0
VERTEX
  8
PLAN_1
  6
CONTINUOUS
 10
-0.005031
 20
-3.299630
  0
VERTEX
  8
PLAN_1
  6
CONTINUOUS
 10
0.142949
 20
-3.299630
  0
VERTEX
  8
PLAN_1
  6
CONTINUOUS
 10
0.142949
 20
-3.322835
  0
VERTEX
  8
PLAN_1
  6
CONTINUOUS
 10
0.019925
 20
-3.474760
  0
VERTEX
  8
PLAN_1
  6
CONTINUOUS
 10
0.142949
 20
-3.474760
  0
VERTEX
  8
PLAN_1
  6
CONTINUOUS
 10
0.142949
 20
-3.498839
  0
SEQEND
  8
0
  0
POLYLINE
  8
PLAN_1
  6
CONTINUOUS
 66
     1
 40
0.003000
 41
0.003000
  0
VERTEX
  8
PLAN_1
  6
CONTINUOUS
 10
0.310197
 20
-3.359610
  0
VERTEX
  8
PLAN_1
  6
CONTINUOUS
 10
0.308445
 20
-3.353043
  0
VERTEX
  8
PLAN_1
  6
CONTINUOUS
 10
0.306256
 20
-3.347791
  0
VERTEX
  8
PLAN_1
  6
CONTINUOUS
 10
0.304067
 20
-3.342535
  0
VERTEX
  8
PLAN_1
  6
CONTINUOUS
 10
0.301004
 20
-3.338157
  0
VERTEX
  8
PLAN_1
  6
CONTINUOUS
 10
0.297937
 20
-3.334220
  0
VERTEX
  8
PLAN_1
  6
CONTINUOUS
 10
0.294437
 20
-3.331154
  0
VERTEX
  8
PLAN_1
  6
CONTINUOUS
 10
0.290496
 20
-3.328091
  0
VERTEX
  8
PLAN_1
  6
CONTINUOUS
 10
0.286555
 20
-3.325902
  0
VERTEX
  8
PLAN_1
  6
CONTINUOUS
 10
0.282614
 20
-3.323713
  0
VERTEX
  8
PLAN_1
  6
CONTINUOUS
 10
0.278673
 20
-3.321961
  0
VERTEX
  8
PLAN_1
  6
CONTINUOUS
 10
0.274295
 20
-3.320646
  0
VERTEX
  8
PLAN_1
  6
CONTINUOUS
 10
0.270354
 20
-3.319772
  0
VERTEX
  8
PLAN_1
  6
CONTINUOUS
 10
0.262035
 20
-3.318457
  0
VERTEX
  8
PLAN_1
  6
CONTINUOUS
 10
0.254594
 20
-3.318020
  0
VERTEX
  8
PLAN_1
  6
CONTINUOUS
 10
0.247591
 20
-3.318457
  0
VERTEX
  8
PLAN_1
  6
CONTINUOUS
 10
0.241461
 20
-3.319335
  0
VERTEX
  8
PLAN_1
  6
CONTINUOUS
 10
0.234894
 20
-3.321083
  0
VERTEX
  8
PLAN_1
  6
CONTINUOUS
 10
0.229201
 20
-3.323272
  0
VERTEX
  8
PLAN_1
  6
CONTINUOUS
 10
0.223508
 20
-3.325902
  0
VERTEX
  8
PLAN_1
  6
CONTINUOUS
 10
0.217819
 20
-3.329402
  0
VERTEX
  8
PLAN_1
  6
CONTINUOUS
 10
0.213000
 20
-3.333343
  0
VERTEX
  8
PLAN_1
  6
CONTINUOUS
 10
0.208185
 20
-3.338157
  0
VERTEX
  8
PLAN_1
  6
CONTINUOUS
 10
0.204244
 20
-3.343413
  0
VERTEX
  8
PLAN_1
  6
CONTINUOUS
 10
0.200303
 20
-3.349106
  0
VERTEX
  8
PLAN_1
  6
CONTINUOUS
 10
0.197240
 20
-3.355673
  0
VERTEX
  8
PLAN_1
  6
CONTINUOUS
 10
0.194173
 20
-3.362677
  0
VERTEX
  8
PLAN_1
  6
CONTINUOUS
 10
0.191984
 20
-3.370559
  0
VERTEX
  8
PLAN_1
  6
CONTINUOUS
 10
0.190673
 20
-3.378878
  0
VERTEX
  8
PLAN_1
  6
CONTINUOUS
 10
0.189358
 20
-3.387634
  0
VERTEX
  8
PLAN_1
  6
CONTINUOUS
 10
0.189358
 20
-3.397264
  0
VERTEX
  8
PLAN_1
  6
CONTINUOUS
 10
0.189358
 20
-3.406020
  0
VERTEX
  8
PLAN_1
  6
CONTINUOUS
 10
0.190236
 20
-3.414339
  0
VERTEX
  8
PLAN_1
  6
CONTINUOUS
 10
0.191110
 20
-3.422220
  0
VERTEX
  8
PLAN_1
  6
CONTINUOUS
 10
0.192425
 20
-3.430102
  0
VERTEX
  8
PLAN_1
  6
CONTINUOUS
 10
0.194614
 20
-3.437106
  0
VERTEX
  8
PLAN_1
  6
CONTINUOUS
 10
0.197240
 20
-3.444110
  0
VERTEX
  8
PLAN_1
  6
CONTINUOUS
 10
0.200303
 20
-3.450677
  0
VERTEX
  8
PLAN_1
  6
CONTINUOUS
 10
0.203807
 20
-3.456370
  0
VERTEX
  8
PLAN_1
  6
CONTINUOUS
 10
0.207748
 20
-3.461622
  0
VERTEX
  8
PLAN_1
  6
CONTINUOUS
 10
0.212563
 20
-3.466441
  0
VERTEX
  8
PLAN_1
  6
CONTINUOUS
 10
0.215189
 20
-3.468630
  0
VERTEX
  8
PLAN_1
  6
CONTINUOUS
 10
0.218256
 20
-3.470382
  0
VERTEX
  8
PLAN_1
  6
CONTINUOUS
 10
0.220882
 20
-3.472130
  0
VERTEX
  8
PLAN_1
  6
CONTINUOUS
 10
0.223945
 20
-3.473882
  0
VERTEX
  8
PLAN_1
  6
CONTINUOUS
 10
0.227449
 20
-3.475197
  0
VERTEX
  8
PLAN_1
  6
CONTINUOUS
 10
0.230953
 20
-3.476508
  0
VERTEX
  8
PLAN_1
  6
CONTINUOUS
 10
0.234453
 20
-3.477823
  0
VERTEX
  8
PLAN_1
  6
CONTINUOUS
 10
0.238394
 20
-3.478697
  0
VERTEX
  8
PLAN_1
  6
CONTINUOUS
 10
0.242335
 20
-3.479138
  0
VERTEX
  8
PLAN_1
  6
CONTINUOUS
 10
0.246276
 20
-3.480012
  0
VERTEX
  8
PLAN_1
  6
CONTINUOUS
 10
0.250654
 20
-3.480012
  0
VERTEX
  8
PLAN_1
  6
CONTINUOUS
 10
0.255469
 20
-3.480012
  0
VERTEX
  8
PLAN_1
  6
CONTINUOUS
 10
0.258535
 20
-3.480012
  0
VERTEX
  8
PLAN_1
  6
CONTINUOUS
 10
0.262476
 20
-3.479575
  0
VERTEX
  8
PLAN_1
  6
CONTINUOUS
 10
0.266413
 20
-3.479138
  0
VERTEX
  8
PLAN_1
  6
CONTINUOUS
 10
0.270354
 20
-3.478260
  0
VERTEX
  8
PLAN_1
  6
CONTINUOUS
 10
0.274295
 20
-3.476949
  0
VERTEX
  8
PLAN_1
  6
CONTINUOUS
 10
0.278673
 20
-3.475197
  0
VERTEX
  8
PLAN_1
  6
CONTINUOUS
 10
0.282614
 20
-3.473008
  0
VERTEX
  8
PLAN_1
  6
CONTINUOUS
 10
0.286992
 20
-3.470382
  0
VERTEX
  8
PLAN_1
  6
CONTINUOUS
 10
0.290933
 20
-3.466878
  0
VERTEX
  8
PLAN_1
  6
CONTINUOUS
 10
0.294874
 20
-3.463374
  0
VERTEX
  8
PLAN_1
  6
CONTINUOUS
 10
0.298374
 20
-3.458559
  0
VERTEX
  8
PLAN_1
  6
CONTINUOUS
 10
0.301878
 20
-3.453744
  0
VERTEX
  8
PLAN_1
  6
CONTINUOUS
 10
0.304945
 20
-3.447614
  0
VERTEX
  8
PLAN_1
  6
CONTINUOUS
 10
0.308008
 20
-3.441047
  0
VERTEX
  8
PLAN_1
  6
CONTINUOUS
 10
0.310197
 20
-3.433602
  0
VERTEX
  8
PLAN_1
  6
CONTINUOUS
 10
0.311949
 20
-3.425724
  0
VERTEX
  8
PLAN_1
  6
CONTINUOUS
 10
0.338217
 20
-3.425724
  0
VERTEX
  8
PLAN_1
  6
CONTINUOUS
 10
0.336906
 20
-3.432291
  0
VERTEX
  8
PLAN_1
  6
CONTINUOUS
 10
0.335591
 20
-3.438858
  0
VERTEX
  8
PLAN_1
  6
CONTINUOUS
 10
0.333839
 20
-3.444988
  0
VERTEX
  8
PLAN_1
  6
CONTINUOUS
 10
0.332087
 20
-3.450677
  0
VERTEX
  8
PLAN_1
  6
CONTINUOUS
 10
0.329898
 20
-3.455933
  0
VERTEX
  8
PLAN_1
  6
CONTINUOUS
 10
0.327272
 20
-3.460748
  0
VERTEX
  8
PLAN_1
  6
CONTINUOUS
 10
0.324646
 20
-3.465126
  0
VERTEX
  8
PLAN_1
  6
CONTINUOUS
 10
0.322020
 20
-3.469504
  0
VERTEX
  8
PLAN_1
  6
CONTINUOUS
 10
0.318953
 20
-3.473445
  0
VERTEX
  8
PLAN_1
  6
CONTINUOUS
 10
0.316327
 20
-3.476949
  0
VERTEX
  8
PLAN_1
  6
CONTINUOUS
 10
0.312823
 20
-3.480449
  0
VERTEX
  8
PLAN_1
  6
CONTINUOUS
 10
0.309760
 20
-3.483516
  0
VERTEX
  8
PLAN_1
  6
CONTINUOUS
 10
0.306256
 20
-3.486142
  0
VERTEX
  8
PLAN_1
  6
CONTINUOUS
 10
0.303193
 20
-3.488768
  0
VERTEX
  8
PLAN_1
  6
CONTINUOUS
 10
0.299689
 20
-3.490957
  0
VERTEX
  8
PLAN_1
  6
CONTINUOUS
 10
0.296185
 20
-3.493146
  0
VERTEX
  8
PLAN_1
  6
CONTINUOUS
 10
0.289181
 20
-3.496650
  0
VERTEX
  8
PLAN_1
  6
CONTINUOUS
 10
0.282177
 20
-3.499276
  0
VERTEX
  8
PLAN_1
  6
CONTINUOUS
 10
0.275610
 20
-3.501028
  0
VERTEX
  8
PLAN_1
  6
CONTINUOUS
 10
0.269480
 20
-3.502343
  0
VERTEX
  8
PLAN_1
  6
CONTINUOUS
 10
0.258535
 20
-3.503654
  0
VERTEX
  8
PLAN_1
  6
CONTINUOUS
 10
0.251091
 20
-3.504091
  0
VERTEX
  8
PLAN_1
  6
CONTINUOUS
 10
0.242772
 20
-3.503654
  0
VERTEX
  8
PLAN_1
  6
CONTINUOUS
 10
0.234453
 20
-3.502780
  0
VERTEX
  8
PLAN_1
  6
CONTINUOUS
 10
0.226134
 20
-3.501028
  0
VERTEX
  8
PLAN_1
  6
CONTINUOUS
 10
0.217819
 20
-3.498402
  0
VERTEX
  8
PLAN_1
  6
CONTINUOUS
 10
0.213878
 20
-3.496650
  0
VERTEX
  8
PLAN_1
  6
CONTINUOUS
 10
0.210374
 20
-3.494898
  0
VERTEX
  8
PLAN_1
  6
CONTINUOUS
 10
0.206433
 20
-3.493146
  0
VERTEX
  8
PLAN_1
  6
CONTINUOUS
 10
0.202933
 20
-3.490957
  0
VERTEX
  8
PLAN_1
  6
CONTINUOUS
 10
0.199429
 20
-3.488331
  0
VERTEX
  8
PLAN_1
  6
CONTINUOUS
 10
0.195925
 20
-3.485705
  0
VERTEX
  8
PLAN_1
  6
CONTINUOUS
 10
0.192425
 20
-3.483079
  0
VERTEX
  8
PLAN_1
  6
CONTINUOUS
 10
0.189358
 20
-3.480012
  0
VERTEX
  8
PLAN_1
  6
CONTINUOUS
 10
0.186295
 20
-3.476508
  0
VERTEX
  8
PLAN_1
  6
CONTINUOUS
 10
0.183228
 20
-3.473008
  0
VERTEX
  8
PLAN_1
  6
CONTINUOUS
 10
0.180602
 20
-3.469067
  0
VERTEX
  8
PLAN_1
  6
CONTINUOUS
 10
0.177976
 20
-3.465126
  0
VERTEX
  8
PLAN_1
  6
CONTINUOUS
 10
0.175350
 20
-3.461185
  0
VERTEX
  8
PLAN_1
  6
CONTINUOUS
 10
0.173161
 20
-3.456807
  0
VERTEX
  8
PLAN_1
  6
CONTINUOUS
 10
0.170972
 20
-3.451992
  0
VERTEX
  8
PLAN_1
  6
CONTINUOUS
 10
0.169220
 20
-3.446736
  0
VERTEX
  8
PLAN_1
  6
CONTINUOUS
 10
0.167469
 20
-3.441921
  0
VERTEX
  8
PLAN_1
  6
CONTINUOUS
 10
0.165717
 20
-3.436232
  0
VERTEX
  8
PLAN_1
  6
CONTINUOUS
 10
0.164402
 20
-3.430539
  0
VERTEX
  8
PLAN_1
  6
CONTINUOUS
 10
0.163528
 20
-3.424409
  0
VERTEX
  8
PLAN_1
  6
CONTINUOUS
 10
0.162654
 20
-3.418280
  0
VERTEX
  8
PLAN_1
  6
CONTINUOUS
 10
0.161776
 20
-3.411713
  0
VERTEX
  8
PLAN_1
  6
CONTINUOUS
 10
0.161776
 20
-3.405146
  0
VERTEX
  8
PLAN_1
  6
CONTINUOUS
 10
0.161339
 20
-3.398142
  0
VERTEX
  8
PLAN_1
  6
CONTINUOUS
 10
0.161776
 20
-3.386756
  0
VERTEX
  8
PLAN_1
  6
CONTINUOUS
 10
0.163091
 20
-3.375811
  0
VERTEX
  8
PLAN_1
  6
CONTINUOUS
 10
0.163965
 20
-3.370996
  0
VERTEX
  8
PLAN_1
  6
CONTINUOUS
 10
0.164843
 20
-3.365740
  0
VERTEX
  8
PLAN_1
  6
CONTINUOUS
 10
0.166154
 20
-3.360925
  0
VERTEX
  8
PLAN_1
  6
CONTINUOUS
 10
0.167906
 20
-3.356110
  0
VERTEX
  8
PLAN_1
  6
CONTINUOUS
 10
0.169657
 20
-3.351295
  0
VERTEX
  8
PLAN_1
  6
CONTINUOUS
 10
0.171409
 20
-3.346917
  0
VERTEX
  8
PLAN_1
  6
CONTINUOUS
 10
0.173161
 20
-3.342535
  0
VERTEX
  8
PLAN_1
  6
CONTINUOUS
 10
0.175350
 20
-3.338157
  0
VERTEX
  8
PLAN_1
  6
CONTINUOUS
 10
0.177976
 20
-3.334220
  0
VERTEX
  8
PLAN_1
  6
CONTINUOUS
 10
0.180602
 20
-3.330280
  0
VERTEX
  8
PLAN_1
  6
CONTINUOUS
 10
0.183228
 20
-3.326776
  0
VERTEX
  8
PLAN_1
  6
CONTINUOUS
 10
0.186295
 20
-3.323272
  0
VERTEX
  8
PLAN_1
  6
CONTINUOUS
 10
0.189358
 20
-3.319772
  0
VERTEX
  8
PLAN_1
  6
CONTINUOUS
 10
0.192425
 20
-3.316705
  0
VERTEX
  8
PLAN_1
  6
CONTINUOUS
 10
0.195925
 20
-3.313642
  0
VERTEX
  8
PLAN_1
  6
CONTINUOUS
 10
0.199429
 20
-3.311016
  0
VERTEX
  8
PLAN_1
  6
CONTINUOUS
 10
0.203370
 20
-3.308386
  0
VERTEX
  8
PLAN_1
  6
CONTINUOUS
 10
0.207311
 20
-3.306197
  0
VERTEX
  8
PLAN_1
  6
CONTINUOUS
 10
0.211248
 20
-3.304008
  0
VERTEX
  8
PLAN_1
  6
CONTINUOUS
 10
0.215630
 20
-3.301819
  0
VERTEX
  8
PLAN_1
  6
CONTINUOUS
 10
0.219567
 20
-3.300071
  0
VERTEX
  8
PLAN_1
  6
CONTINUOUS
 10
0.224386
 20
-3.298756
  0
VERTEX
  8
PLAN_1
  6
CONTINUOUS
 10
0.228764
 20
-3.297441
  0
VERTEX
  8
PLAN_1
  6
CONTINUOUS
 10
0.233579
 20
-3.296130
  0
VERTEX
  8
PLAN_1
  6
CONTINUOUS
 10
0.238831
 20
-3.295252
  0
VERTEX
  8
PLAN_1
  6
CONTINUOUS
 10
0.243650
 20
-3.294815
  0
VERTEX
  8
PLAN_1
  6
CONTINUOUS
 10
0.248902
 20
-3.294378
  0
VERTEX
  8
PLAN_1
  6
CONTINUOUS
 10
0.254594
 20
-3.294378
  0
VERTEX
  8
PLAN_1
  6
CONTINUOUS
 10
0.263787
 20
-3.294815
  0
VERTEX
  8
PLAN_1
  6
CONTINUOUS
 10
0.272543
 20
-3.295689
  0
VERTEX
  8
PLAN_1
  6
CONTINUOUS
 10
0.280862
 20
-3.297441
  0
VERTEX
  8
PLAN_1
  6
CONTINUOUS
 10
0.288307
 20
-3.299630
  0
VERTEX
  8
PLAN_1
  6
CONTINUOUS
 10
0.295311
 20
-3.302697
  0
VERTEX
  8
PLAN_1
  6
CONTINUOUS
 10
0.301878
 20
-3.306197
  0
VERTEX
  8
PLAN_1
  6
CONTINUOUS
 10
0.308008
 20
-3.310138
  0
VERTEX
  8
PLAN_1
  6
CONTINUOUS
 10
0.313260
 20
-3.314516
  0
VERTEX
  8
PLAN_1
  6
CONTINUOUS
 10
0.318079
 20
-3.319335
  0
VERTEX
  8
PLAN_1
  6
CONTINUOUS
 10
0.322020
 20
-3.324150
  0
VERTEX
  8
PLAN_1
  6
CONTINUOUS
 10
0.325957
 20
-3.329402
  0
VERTEX
  8
PLAN_1
  6
CONTINUOUS
 10
0.329024
 20
-3.335094
  0
VERTEX
  8
PLAN_1
  6
CONTINUOUS
 10
0.331650
 20
-3.341224
  0
VERTEX
  8
PLAN_1
  6
CONTINUOUS
 10
0.333839
 20
-3.346917
  0
VERTEX
  8
PLAN_1
  6
CONTINUOUS
 10
0.335154
 20
-3.353484
  0
VERTEX
  8
PLAN_1
  6
CONTINUOUS
 10
0.336465
 20
-3.359610
  0
VERTEX
  8
PLAN_1
  6
CONTINUOUS
 10
0.310197
 20
-3.359610
  0
SEQEND
  8
0
  0
POLYLINE
  8
PLAN_1
  6
CONTINUOUS
 66
     1
 40
0.003000
 41
0.003000
  0
VERTEX
  8
PLAN_1
  6
CONTINUOUS
 10
0.397760
 20
-3.498839
  0
VERTEX
  8
PLAN_1
  6
CONTINUOUS
 10
0.370614
 20
-3.498839
  0
VERTEX
  8
PLAN_1
  6
CONTINUOUS
 10
0.370614
 20
-3.299630
  0
VERTEX
  8
PLAN_1
  6
CONTINUOUS
 10
0.397760
 20
-3.299630
  0
VERTEX
  8
PLAN_1
  6
CONTINUOUS
 10
0.397760
 20
-3.395953
  0
VERTEX
  8
PLAN_1
  6
CONTINUOUS
 10
0.494520
 20
-3.299630
  0
VERTEX
  8
PLAN_1
  6
CONTINUOUS
 10
0.531295
 20
-3.299630
  0
VERTEX
  8
PLAN_1
  6
CONTINUOUS
 10
0.448547
 20
-3.380189
  0
VERTEX
  8
PLAN_1
  6
CONTINUOUS
 10
0.533921
 20
-3.498839
  0
VERTEX
  8
PLAN_1
  6
CONTINUOUS
 10
0.498898
 20
-3.498839
  0
VERTEX
  8
PLAN_1
  6
CONTINUOUS
 10
0.429283
 20
-3.399016
  0
VERTEX
  8
PLAN_1
  6
CONTINUOUS
 10
0.397760
 20
-3.428787
  0
VERTEX
  8
PLAN_1
  6
CONTINUOUS
 10
0.397760
 20
-3.498839
  0
SEQEND
  8
0
  0
POLYLINE
  8
PLAN_1
  6
CONTINUOUS
 66
     1
 40
0.003000
 41
0.003000
  0
VERTEX
  8
PLAN_1
  6
CONTINUOUS
 10
0.705984
 20
-3.498839
  0
VERTEX
  8
PLAN_1
  6
CONTINUOUS
 10
0.558878
 20
-3.498839
  0
VERTEX
  8
PLAN_1
  6
CONTINUOUS
 10
0.558878
 20
-3.299630
  0
VERTEX
  8
PLAN_1
  6
CONTINUOUS
 10
0.703795
 20
-3.299630
  0
VERTEX
  8
PLAN_1
  6
CONTINUOUS
 10
0.703795
 20
-3.323272
  0
VERTEX
  8
PLAN_1
  6
CONTINUOUS
 10
0.585583
 20
-3.323272
  0
VERTEX
  8
PLAN_1
  6
CONTINUOUS
 10
0.585583
 20
-3.384567
  0
VERTEX
  8
PLAN_1
  6
CONTINUOUS
 10
0.694602
 20
-3.384567
  0
VERTEX
  8
PLAN_1
  6
CONTINUOUS
 10
0.694602
 20
-3.408209
  0
VERTEX
  8
PLAN_1
  6
CONTINUOUS
 10
0.585583
 20
-3.408209
  0
VERTEX
  8
PLAN_1
  6
CONTINUOUS
 10
0.585583
 20
-3.474760
  0
VERTEX
  8
PLAN_1
  6
CONTINUOUS
 10
0.705984
 20
-3.474760
  0
VERTEX
  8
PLAN_1
  6
CONTINUOUS
 10
0.705984
 20
-3.498839
  0
SEQEND
  8
0
  0
POLYLINE
  8
PLAN_1
  6
CONTINUOUS
 66
     1
 40
0.003000
 41
0.003000
  0
VERTEX
  8
PLAN_1
  6
CONTINUOUS
 10
0.836016
 20
-3.355673
  0
VERTEX
  8
PLAN_1
  6
CONTINUOUS
 10
0.834264
 20
-3.349543
  0
VERTEX
  8
PLAN_1
  6
CONTINUOUS
 10
0.832516
 20
-3.343850
  0
VERTEX
  8
PLAN_1
  6
CONTINUOUS
 10
0.831201
 20
-3.341224
  0
VERTEX
  8
PLAN_1
  6
CONTINUOUS
 10
0.829449
 20
-3.338598
  0
VERTEX
  8
PLAN_1
  6
CONTINUOUS
 10
0.827697
 20
-3.336409
  0
VERTEX
  8
PLAN_1
  6
CONTINUOUS
 10
0.825945
 20
-3.334220
  0
VERTEX
  8
PLAN_1
  6
CONTINUOUS
 10
0.823756
 20
-3.332469
  0
VERTEX
  8
PLAN_1
  6
CONTINUOUS
 10
0.821567
 20
-3.330717
  0
VERTEX
  8
PLAN_1
  6
CONTINUOUS
 10
0.818941
 20
-3.328965
  0
VERTEX
  8
PLAN_1
  6
CONTINUOUS
 10
0.815878
 20
-3.328091
  0
VERTEX
  8
PLAN_1
  6
CONTINUOUS
 10
0.812811
 20
-3.326776
  0
VERTEX
  8
PLAN_1
  6
CONTINUOUS
 10
0.809748
 20
-3.326339
  0
VERTEX
  8
PLAN_1
  6
CONTINUOUS
 10
0.806244
 20
-3.325902
  0
VERTEX
  8
PLAN_1
  6
CONTINUOUS
 10
0.802303
 20
-3.325461
  0
VERTEX
  8
PLAN_1
  6
CONTINUOUS
 10
0.798803
 20
-3.325902
  0
VERTEX
  8
PLAN_1
  6
CONTINUOUS
 10
0.795299
 20
-3.326339
  0
VERTEX
  8
PLAN_1
  6
CONTINUOUS
 10
0.792236
 20
-3.326776
  0
VERTEX
  8
PLAN_1
  6
CONTINUOUS
 10
0.789169
 20
-3.328091
  0
VERTEX
  8
PLAN_1
  6
CONTINUOUS
 10
0.786543
 20
-3.328965
  0
VERTEX
  8
PLAN_1
  6
CONTINUOUS
 10
0.783917
 20
-3.330717
  0
VERTEX
  8
PLAN_1
  6
CONTINUOUS
 10
0.781287
 20
-3.332031
  0
VERTEX
  8
PLAN_1
  6
CONTINUOUS
 10
0.779098
 20
-3.334220
  0
VERTEX
  8
PLAN_1
  6
CONTINUOUS
 10
0.774720
 20
-3.338157
  0
VERTEX
  8
PLAN_1
  6
CONTINUOUS
 10
0.770783
 20
-3.342976
  0
VERTEX
  8
PLAN_1
  6
CONTINUOUS
 10
0.767717
 20
-3.348228
  0
VERTEX
  8
PLAN_1
  6
CONTINUOUS
 10
0.764654
 20
-3.353921
  0
VERTEX
  8
PLAN_1
  6
CONTINUOUS
 10
0.762465
 20
-3.360051
  0
VERTEX
  8
PLAN_1
  6
CONTINUOUS
 10
0.760713
 20
-3.365740
  0
VERTEX
  8
PLAN_1
  6
CONTINUOUS
 10
0.758961
 20
-3.371870
  0
VERTEX
  8
PLAN_1
  6
CONTINUOUS
 10
0.757646
 20
-3.378000
  0
VERTEX
  8
PLAN_1
  6
CONTINUOUS
 10
0.756335
 20
-3.388945
  0
VERTEX
  8
PLAN_1
  6
CONTINUOUS
 10
0.755898
 20
-3.397701
  0
VERTEX
  8
PLAN_1
  6
CONTINUOUS
 10
0.756335
 20
-3.398142
  0
VERTEX
  8
PLAN_1
  6
CONTINUOUS
 10
0.759398
 20
-3.394201
  0
VERTEX
  8
PLAN_1
  6
CONTINUOUS
 10
0.762465
 20
-3.390260
  0
VERTEX
  8
PLAN_1
  6
CONTINUOUS
 10
0.766843
 20
-3.386319
  0
VERTEX
  8
PLAN_1
  6
CONTINUOUS
 10
0.772094
 20
-3.382378
  0
VERTEX
  8
PLAN_1
  6
CONTINUOUS
 10
0.774720
 20
-3.380626
  0
VERTEX
  8
PLAN_1
  6
CONTINUOUS
 10
0.778224
 20
-3.379315
  0
VERTEX
  8
PLAN_1
  6
CONTINUOUS
 10
0.781728
 20
-3.378000
  0
VERTEX
  8
PLAN_1
  6
CONTINUOUS
 10
0.785228
 20
-3.376689
  0
VERTEX
  8
PLAN_1
  6
CONTINUOUS
 10
0.789169
 20
-3.375811
  0
VERTEX
  8
PLAN_1
  6
CONTINUOUS
 10
0.793547
 20
-3.374937
  0
VERTEX
  8
PLAN_1
  6
CONTINUOUS
 10
0.797925
 20
-3.374496
  0
VERTEX
  8
PLAN_1
  6
CONTINUOUS
 10
0.802744
 20
-3.374496
  0
VERTEX
  8
PLAN_1
  6
CONTINUOUS
 10
0.807559
 20
-3.374496
  0
VERTEX
  8
PLAN_1
  6
CONTINUOUS
 10
0.812374
 20
-3.375374
  0
VERTEX
  8
PLAN_1
  6
CONTINUOUS
 10
0.817189
 20
-3.376248
  0
VERTEX
  8
PLAN_1
  6
CONTINUOUS
 10
0.822445
 20
-3.377563
  0
VERTEX
  8
PLAN_1
  6
CONTINUOUS
 10
0.827697
 20
-3.379315
  0
VERTEX
  8
PLAN_1
  6
CONTINUOUS
 10
0.832516
 20
-3.381941
  0
VERTEX
  8
PLAN_1
  6
CONTINUOUS
 10
0.837768
 20
-3.384567
  0
VERTEX
  8
PLAN_1
  6
CONTINUOUS
 10
0.842146
 20
-3.388071
  0
VERTEX
  8
PLAN_1
  6
CONTINUOUS
 10
0.846961
 20
-3.392012
  0
VERTEX
  8
PLAN_1
  6
CONTINUOUS
 10
0.850902
 20
-3.396390
  0
VERTEX
  8
PLAN_1
  6
CONTINUOUS
 10
0.854406
 20
-3.401205
  0
VERTEX
  8
PLAN_1
  6
CONTINUOUS
 10
0.857906
 20
-3.406898
  0
VERTEX
  8
PLAN_1
  6
CONTINUOUS
 10
0.860535
 20
-3.413465
  0
VERTEX
  8
PLAN_1
  6
CONTINUOUS
 10
0.862287
 20
-3.420469
  0
VERTEX
  8
PLAN_1
  6
CONTINUOUS
 10
0.863598
 20
-3.427913
  0
VERTEX
  8
PLAN_1
  6
CONTINUOUS
 10
0.864035
 20
-3.436232
  0
VERTEX
  8
PLAN_1
  6
CONTINUOUS
 10
0.863598
 20
-3.443673
  0
VERTEX
  8
PLAN_1
  6
CONTINUOUS
 10
0.862724
 20
-3.450240
  0
VERTEX
  8
PLAN_1
  6
CONTINUOUS
 10
0.861409
 20
-3.456807
  0
VERTEX
  8
PLAN_1
  6
CONTINUOUS
 10
0.859657
 20
-3.462937
  0
VERTEX
  8
PLAN_1
  6
CONTINUOUS
 10
0.857031
 20
-3.468630
  0
VERTEX
  8
PLAN_1
  6
CONTINUOUS
 10
0.853969
 20
-3.474319
  0
VERTEX
  8
PLAN_1
  6
CONTINUOUS
 10
0.850028
 20
-3.480012
  0
VERTEX
  8
PLAN_1
  6
CONTINUOUS
 10
0.845213
 20
-3.485268
  0
VERTEX
  8
PLAN_1
  6
CONTINUOUS
 10
0.841272
 20
-3.489205
  0
VERTEX
  8
PLAN_1
  6
CONTINUOUS
 10
0.837331
 20
-3.493146
  0
VERTEX
  8
PLAN_1
  6
CONTINUOUS
 10
0.832516
 20
-3.496213
  0
VERTEX
  8
PLAN_1
  6
CONTINUOUS
 10
0.827260
 20
-3.498839
  0
VERTEX
  8
PLAN_1
  6
CONTINUOUS
 10
0.821130
 20
-3.501028
  0
VERTEX
  8
PLAN_1
  6
CONTINUOUS
 10
0.813689
 20
-3.502780
  0
VERTEX
  8
PLAN_1
  6
CONTINUOUS
 10
0.805370
 20
-3.503654
  0
VERTEX
  8
PLAN_1
  6
CONTINUOUS
 10
0.795736
 20
-3.504091
  0
VERTEX
  8
PLAN_1
  6
CONTINUOUS
 10
0.790047
 20
-3.503654
  0
VERTEX
  8
PLAN_1
  6
CONTINUOUS
 10
0.783917
 20
-3.502780
  0
VERTEX
  8
PLAN_1
  6
CONTINUOUS
 10
0.776909
 20
-3.501028
  0
VERTEX
  8
PLAN_1
  6
CONTINUOUS
 10
0.770343
 20
-3.497965
  0
VERTEX
  8
PLAN_1
  6
CONTINUOUS
 10
0.766843
 20
-3.496213
  0
VERTEX
  8
PLAN_1
  6
CONTINUOUS
 10
0.763776
 20
-3.494461
  0
VERTEX
  8
PLAN_1
  6
CONTINUOUS
 10
0.760276
 20
-3.491835
  0
VERTEX
  8
PLAN_1
  6
CONTINUOUS
 10
0.757209
 20
-3.489205
  0
VERTEX
  8
PLAN_1
  6
CONTINUOUS
 10
0.754146
 20
-3.486579
  0
VERTEX
  8
PLAN_1
  6
CONTINUOUS
 10
0.751079
 20
-3.483079
  0
VERTEX
  8
PLAN_1
  6
CONTINUOUS
 10
0.748453
 20
-3.479575
  0
VERTEX
  8
PLAN_1
  6
CONTINUOUS
 10
0.745827
 20
-3.475634
  0
VERTEX
  8
PLAN_1
  6
CONTINUOUS
 10
0.741886
 20
-3.468630
  0
VERTEX
  8
PLAN_1
  6
CONTINUOUS
 10
0.738382
 20
-3.461185
  0
VERTEX
  8
PLAN_1
  6
CONTINUOUS
 10
0.735756
 20
-3.452866
  0
VERTEX
  8
PLAN_1
  6
CONTINUOUS
 10
0.734004
 20
-3.444547
  0
VERTEX
  8
PLAN_1
  6
CONTINUOUS
 10
0.732252
 20
-3.435791
  0
VERTEX
  8
PLAN_1
  6
CONTINUOUS
 10
0.731378
 20
-3.427035
  0
VERTEX
  8
PLAN_1
  6
CONTINUOUS
 10
0.730941
 20
-3.417406
  0
VERTEX
  8
PLAN_1
  6
CONTINUOUS
 10
0.730504
 20
-3.408209
  0
VERTEX
  8
PLAN_1
  6
CONTINUOUS
 10
0.730941
 20
-3.399890
  0
VERTEX
  8
PLAN_1
  6
CONTINUOUS
 10
0.731378
 20
-3.391134
  0
VERTEX
  8
PLAN_1
  6
CONTINUOUS
 10
0.732252
 20
-3.382378
  0
VERTEX
  8
PLAN_1
  6
CONTINUOUS
 10
0.734004
 20
-3.373622
  0
VERTEX
  8
PLAN_1
  6
CONTINUOUS
 10
0.735756
 20
-3.364866
  0
VERTEX
  8
PLAN_1
  6
CONTINUOUS
 10
0.738382
 20
-3.356110
  0
VERTEX
  8
PLAN_1
  6
CONTINUOUS
 10
0.741449
 20
-3.347791
  0
VERTEX
  8
PLAN_1
  6
CONTINUOUS
 10
0.744949
 20
-3.339909
  0
VERTEX
  8
PLAN_1
  6
CONTINUOUS
 10
0.747138
 20
-3.335969
  0
VERTEX
  8
PLAN_1
  6
CONTINUOUS
 10
0.749327
 20
-3.332469
  0
VERTEX
  8
PLAN_1
  6
CONTINUOUS
 10
0.751957
 20
-3.328965
  0
VERTEX
  8
PLAN_1
  6
CONTINUOUS
 10
0.754583
 20
-3.325461
  0
VERTEX
  8
PLAN_1
  6
CONTINUOUS
 10
0.757209
 20
-3.322398
  0
VERTEX
  8
PLAN_1
  6
CONTINUOUS
 10
0.760276
 20
-3.319335
  0
VERTEX
  8
PLAN_1
  6
CONTINUOUS
 10
0.763339
 20
-3.316705
  0
VERTEX
  8
PLAN_1
  6
CONTINUOUS
 10
0.766843
 20
-3.314079
  0
VERTEX
  8
PLAN_1
  6
CONTINUOUS
 10
0.770783
 20
-3.311890
  0
VERTEX
  8
PLAN_1
  6
CONTINUOUS
 10
0.774720
 20
-3.309701
  0
VERTEX
  8
PLAN_1
  6
CONTINUOUS
 10
0.778661
 20
-3.307949
  0
VERTEX
  8
PLAN_1
  6
CONTINUOUS
 10
0.783039
 20
-3.306638
  0
VERTEX
  8
PLAN_1
  6
CONTINUOUS
 10
0.787417
 20
-3.305323
  0
VERTEX
  8
PLAN_1
  6
CONTINUOUS
 10
0.792673
 20
-3.304449
  0
VERTEX
  8
PLAN_1
  6
CONTINUOUS
 10
0.797488
 20
-3.304008
  0
VERTEX
  8
PLAN_1
  6
CONTINUOUS
 10
0.802744
 20
-3.303571
  0
VERTEX
  8
PLAN_1
  6
CONTINUOUS
 10
0.807122
 20
-3.304008
  0
VERTEX
  8
PLAN_1
  6
CONTINUOUS
 10
0.811500
 20
-3.304449
  0
VERTEX
  8
PLAN_1
  6
CONTINUOUS
 10
0.816315
 20
-3.304886
  0
VERTEX
  8
PLAN_1
  6
CONTINUOUS
 10
0.820693
 20
-3.306197
  0
VERTEX
  8
PLAN_1
  6
CONTINUOUS
 10
0.825508
 20
-3.307949
  0
VERTEX
  8
PLAN_1
  6
CONTINUOUS
 10
0.829886
 20
-3.309701
  0
VERTEX
  8
PLAN_1
  6
CONTINUOUS
 10
0.834705
 20
-3.311890
  0
VERTEX
  8
PLAN_1
  6
CONTINUOUS
 10
0.838642
 20
-3.314957
  0
VERTEX
  8
PLAN_1
  6
CONTINUOUS
 10
0.843020
 20
-3.318020
  0
VERTEX
  8
PLAN_1
  6
CONTINUOUS
 10
0.846524
 20
-3.321524
  0
VERTEX
  8
PLAN_1
  6
CONTINUOUS
 10
0.850028
 20
-3.325902
  0
VERTEX
  8
PLAN_1
  6
CONTINUOUS
 10
0.853091
 20
-3.330717
  0
VERTEX
  8
PLAN_1
  6
CONTINUOUS
 10
0.855717
 20
-3.335969
  0
VERTEX
  8
PLAN_1
  6
CONTINUOUS
 10
0.857469
 20
-3.342098
  0
VERTEX
  8
PLAN_1
  6
CONTINUOUS
 10
0.858783
 20
-3.348665
  0
VERTEX
  8
PLAN_1
  6
CONTINUOUS
 10
0.859657
 20
-3.355673
  0
VERTEX
  8
PLAN_1
  6
CONTINUOUS
 10
0.836016
 20
-3.355673
  0
SEQEND
  8
0
  0
POLYLINE
  8
PLAN_1
  6
CONTINUOUS
 66
     1
 40
0.003000
 41
0.003000
  0
VERTEX
  8
PLAN_1
  6
CONTINUOUS
 10
0.800555
 20
-3.482201
  0
VERTEX
  8
PLAN_1
  6
CONTINUOUS
 10
0.804492
 20
-3.481764
  0
VERTEX
  8
PLAN_1
  6
CONTINUOUS
 10
0.808870
 20
-3.481327
  0
VERTEX
  8
PLAN_1
  6
CONTINUOUS
 10
0.812374
 20
-3.480449
  0
VERTEX
  8
PLAN_1
  6
CONTINUOUS
 10
0.816315
 20
-3.478697
  0
VERTEX
  8
PLAN_1
  6
CONTINUOUS
 10
0.819378
 20
-3.476949
  0
VERTEX
  8
PLAN_1
  6
CONTINUOUS
 10
0.822882
 20
-3.475197
  0
VERTEX
  8
PLAN_1
  6
CONTINUOUS
 10
0.825508
 20
-3.472571
  0
VERTEX
  8
PLAN_1
  6
CONTINUOUS
 10
0.828134
 20
-3.469504
  0
VERTEX
  8
PLAN_1
  6
CONTINUOUS
 10
0.830764
 20
-3.466441
  0
VERTEX
  8
PLAN_1
  6
CONTINUOUS
 10
0.832516
 20
-3.463374
  0
VERTEX
  8
PLAN_1
  6
CONTINUOUS
 10
0.834705
 20
-3.459433
  0
VERTEX
  8
PLAN_1
  6
CONTINUOUS
 10
0.836016
 20
-3.455496
  0
VERTEX
  8
PLAN_1
  6
CONTINUOUS
 10
0.837331
 20
-3.451555
  0
VERTEX
  8
PLAN_1
  6
CONTINUOUS
 10
0.838205
 20
-3.447177
  0
VERTEX
  8
PLAN_1
  6
CONTINUOUS
 10
0.838642
 20
-3.442358
  0
VERTEX
  8
PLAN_1
  6
CONTINUOUS
 10
0.838642
 20
-3.437543
  0
VERTEX
  8
PLAN_1
  6
CONTINUOUS
 10
0.838642
 20
-3.434039
  0
VERTEX
  8
PLAN_1
  6
CONTINUOUS
 10
0.838205
 20
-3.430976
  0
VERTEX
  8
PLAN_1
  6
CONTINUOUS
 10
0.837768
 20
-3.427472
  0
VERTEX
  8
PLAN_1
  6
CONTINUOUS
 10
0.836894
 20
-3.423972
  0
VERTEX
  8
PLAN_1
  6
CONTINUOUS
 10
0.835579
 20
-3.420469
  0
VERTEX
  8
PLAN_1
  6
CONTINUOUS
 10
0.834264
 20
-3.416965
  0
VERTEX
  8
PLAN_1
  6
CONTINUOUS
 10
0.832516
 20
-3.413465
  0
VERTEX
  8
PLAN_1
  6
CONTINUOUS
 10
0.830327
 20
-3.410398
  0
VERTEX
  8
PLAN_1
  6
CONTINUOUS
 10
0.827697
 20
-3.407772
  0
VERTEX
  8
PLAN_1
  6
CONTINUOUS
 10
0.825071
 20
-3.404709
  0
VERTEX
  8
PLAN_1
  6
CONTINUOUS
 10
0.822008
 20
-3.402520
  0
VERTEX
  8
PLAN_1
  6
CONTINUOUS
 10
0.818067
 20
-3.400331
  0
VERTEX
  8
PLAN_1
  6
CONTINUOUS
 10
0.814126
 20
-3.398579
  0
VERTEX
  8
PLAN_1
  6
CONTINUOUS
 10
0.809748
 20
-3.397264
  0
VERTEX
  8
PLAN_1
  6
CONTINUOUS
 10
0.804492
 20
-3.396827
  0
VERTEX
  8
PLAN_1
  6
CONTINUOUS
 10
0.799240
 20
-3.396390
  0
VERTEX
  8
PLAN_1
  6
CONTINUOUS
 10
0.794425
 20
-3.396827
  0
VERTEX
  8
PLAN_1
  6
CONTINUOUS
 10
0.789606
 20
-3.397264
  0
VERTEX
  8
PLAN_1
  6
CONTINUOUS
 10
0.785669
 20
-3.398142
  0
VERTEX
  8
PLAN_1
  6
CONTINUOUS
 10
0.781728
 20
-3.399890
  0
VERTEX
  8
PLAN_1
  6
CONTINUOUS
 10
0.778224
 20
-3.401642
  0
VERTEX
  8
PLAN_1
  6
CONTINUOUS
 10
0.774720
 20
-3.403831
  0
VERTEX
  8
PLAN_1
  6
CONTINUOUS
 10
0.771657
 20
-3.406020
  0
VERTEX
  8
PLAN_1
  6
CONTINUOUS
 10
0.769031
 20
-3.409087
  0
VERTEX
  8
PLAN_1
  6
CONTINUOUS
 10
0.766843
 20
-3.412150
  0
VERTEX
  8
PLAN_1
  6
CONTINUOUS
 10
0.764654
 20
-3.415217
  0
VERTEX
  8
PLAN_1
  6
CONTINUOUS
 10
0.763339
 20
-3.418717
  0
VERTEX
  8
PLAN_1
  6
CONTINUOUS
 10
0.761587
 20
-3.422657
  0
VERTEX
  8
PLAN_1
  6
CONTINUOUS
 10
0.760713
 20
-3.426598
  0
VERTEX
  8
PLAN_1
  6
CONTINUOUS
 10
0.759835
 20
-3.430539
  0
VERTEX
  8
PLAN_1
  6
CONTINUOUS
 10
0.759398
 20
-3.434480
  0
VERTEX
  8
PLAN_1
  6
CONTINUOUS
 10
0.759398
 20
-3.438858
  0
VERTEX
  8
PLAN_1
  6
CONTINUOUS
 10
0.759398
 20
-3.442799
  0
VERTEX
  8
PLAN_1
  6
CONTINUOUS
 10
0.759835
 20
-3.446736
  0
VERTEX
  8
PLAN_1
  6
CONTINUOUS
 10
0.760713
 20
-3.450677
  0
VERTEX
  8
PLAN_1
  6
CONTINUOUS
 10
0.761587
 20
-3.454618
  0
VERTEX
  8
PLAN_1
  6
CONTINUOUS
 10
0.762902
 20
-3.458122
  0
VERTEX
  8
PLAN_1
  6
CONTINUOUS
 10
0.764654
 20
-3.461622
  0
VERTEX
  8
PLAN_1
  6
CONTINUOUS
 10
0.766843
 20
-3.465126
  0
VERTEX
  8
PLAN_1
  6
CONTINUOUS
 10
0.769031
 20
-3.468193
  0
VERTEX
  8
PLAN_1
  6
CONTINUOUS
 10
0.771657
 20
-3.471256
  0
VERTEX
  8
PLAN_1
  6
CONTINUOUS
 10
0.774720
 20
-3.473882
  0
VERTEX
  8
PLAN_1
  6
CONTINUOUS
 10
0.778224
 20
-3.476508
  0
VERTEX
  8
PLAN_1
  6
CONTINUOUS
 10
0.781728
 20
-3.478260
  0
VERTEX
  8
PLAN_1
  6
CONTINUOUS
 10
0.786106
 20
-3.480012
  0
VERTEX
  8
PLAN_1
  6
CONTINUOUS
 10
0.790484
 20
-3.481327
  0
VERTEX
  8
PLAN_1
  6
CONTINUOUS
 10
0.795299
 20
-3.481764
  0
VERTEX
  8
PLAN_1
  6
CONTINUOUS
 10
0.800555
 20
-3.482201
  0
SEQEND
  8
0
  0
POLYLINE
  8
PLAN_1
  6
CONTINUOUS
 66
     1
 40
0.003000
 41
0.003000
  0
VERTEX
  8
PLAN_1
  6
CONTINUOUS
 10
0.974366
 20
-3.498839
  0
VERTEX
  8
PLAN_1
  6
CONTINUOUS
 10
0.948098
 20
-3.498839
  0
VERTEX
  8
PLAN_1
  6
CONTINUOUS
 10
0.948098
 20
-3.360488
  0
VERTEX
  8
PLAN_1
  6
CONTINUOUS
 10
0.902563
 20
-3.360488
  0
VERTEX
  8
PLAN_1
  6
CONTINUOUS
 10
0.902563
 20
-3.340787
  0
VERTEX
  8
PLAN_1
  6
CONTINUOUS
 10
0.913512
 20
-3.339909
  0
VERTEX
  8
PLAN_1
  6
CONTINUOUS
 10
0.923142
 20
-3.338598
  0
VERTEX
  8
PLAN_1
  6
CONTINUOUS
 10
0.927083
 20
-3.337720
  0
VERTEX
  8
PLAN_1
  6
CONTINUOUS
 10
0.931024
 20
-3.336409
  0
VERTEX
  8
PLAN_1
  6
CONTINUOUS
 10
0.934528
 20
-3.335094
  0
VERTEX
  8
PLAN_1
  6
CONTINUOUS
 10
0.937591
 20
-3.333343
  0
VERTEX
  8
PLAN_1
  6
CONTINUOUS
 10
0.940654
 20
-3.331154
  0
VERTEX
  8
PLAN_1
  6
CONTINUOUS
 10
0.943283
 20
-3.328965
  0
VERTEX
  8
PLAN_1
  6
CONTINUOUS
 10
0.945909
 20
-3.325902
  0
VERTEX
  8
PLAN_1
  6
CONTINUOUS
 10
0.948098
 20
-3.322835
  0
VERTEX
  8
PLAN_1
  6
CONTINUOUS
 10
0.949850
 20
-3.318894
  0
VERTEX
  8
PLAN_1
  6
CONTINUOUS
 10
0.952039
 20
-3.314516
  0
VERTEX
  8
PLAN_1
  6
CONTINUOUS
 10
0.953350
 20
-3.309264
  0
VERTEX
  8
PLAN_1
  6
CONTINUOUS
 10
0.955102
 20
-3.303571
  0
VERTEX
  8
PLAN_1
  6
CONTINUOUS
 10
0.974366
 20
-3.303571
  0
VERTEX
  8
PLAN_1
  6
CONTINUOUS
 10
0.974366
 20
-3.498839
  0
SEQEND
  8
0
  0
POLYLINE
  8
PLAN_1
  6
CONTINUOUS
 66
     1
 40
0.003000
 41
0.003000
  0
VERTEX
  8
PLAN_1
  6
CONTINUOUS
 10
1.040476
 20
-3.370559
  0
VERTEX
  8
PLAN_1
  6
CONTINUOUS
 10
1.040917
 20
-3.363992
  0
VERTEX
  8
PLAN_1
  6
CONTINUOUS
 10
1.041791
 20
-3.357421
  0
VERTEX
  8
PLAN_1
  6
CONTINUOUS
 10
1.042665
 20
-3.351295
  0
VERTEX
  8
PLAN_1
  6
CONTINUOUS
 10
1.044417
 20
-3.345165
  0
VERTEX
  8
PLAN_1
  6
CONTINUOUS
 10
1.047043
 20
-3.339472
  0
VERTEX
  8
PLAN_1
  6
CONTINUOUS
 10
1.049673
 20
-3.333780
  0
VERTEX
  8
PLAN_1
  6
CONTINUOUS
 10
1.052736
 20
-3.328528
  0
VERTEX
  8
PLAN_1
  6
CONTINUOUS
 10
1.056677
 20
-3.323713
  0
VERTEX
  8
PLAN_1
  6
CONTINUOUS
 10
1.060618
 20
-3.319335
  0
VERTEX
  8
PLAN_1
  6
CONTINUOUS
 10
1.065433
 20
-3.315394
  0
VERTEX
  8
PLAN_1
  6
CONTINUOUS
 10
1.070689
 20
-3.311890
  0
VERTEX
  8
PLAN_1
  6
CONTINUOUS
 10
1.076378
 20
-3.309264
  0
VERTEX
  8
PLAN_1
  6
CONTINUOUS
 10
1.082071
 20
-3.306638
  0
VERTEX
  8
PLAN_1
  6
CONTINUOUS
 10
1.088638
 20
-3.305323
  0
VERTEX
  8
PLAN_1
  6
CONTINUOUS
 10
1.095642
 20
-3.304008
  0
VERTEX
  8
PLAN_1
  6
CONTINUOUS
 10
1.103524
 20
-3.303571
  0
VERTEX
  8
PLAN_1
  6
CONTINUOUS
 10
1.108776
 20
-3.304008
  0
VERTEX
  8
PLAN_1
  6
CONTINUOUS
 10
1.114469
 20
-3.304449
  0
VERTEX
  8
PLAN_1
  6
CONTINUOUS
 10
1.119283
 20
-3.305323
  0
VERTEX
  8
PLAN_1
  6
CONTINUOUS
 10
1.124102
 20
-3.306197
  0
VERTEX
  8
PLAN_1
  6
CONTINUOUS
 10
1.128480
 20
-3.307512
  0
VERTEX
  8
PLAN_1
  6
CONTINUOUS
 10
1.132858
 20
-3.309264
  0
VERTEX
  8
PLAN_1
  6
CONTINUOUS
 10
1.136799
 20
-3.311453
  0
VERTEX
  8
PLAN_1
  6
CONTINUOUS
 10
1.140299
 20
-3.313205
  0
VERTEX
  8
PLAN_1
  6
CONTINUOUS
 10
1.143366
 20
-3.315831
  0
VERTEX
  8
PLAN_1
  6
CONTINUOUS
 10
1.146866
 20
-3.318457
  0
VERTEX
  8
PLAN_1
  6
CONTINUOUS
 10
1.149496
 20
-3.321083
  0
VERTEX
  8
PLAN_1
  6
CONTINUOUS
 10
1.152122
 20
-3.324150
  0
VERTEX
  8
PLAN_1
  6
CONTINUOUS
 10
1.154748
 20
-3.327213
  0
VERTEX
  8
PLAN_1
  6
CONTINUOUS
 10
1.156937
 20
-3.330280
  0
VERTEX
  8
PLAN_1
  6
CONTINUOUS
 10
1.159126
 20
-3.333780
  0
VERTEX
  8
PLAN_1
  6
CONTINUOUS
 10
1.160878
 20
-3.337283
  0
VERTEX
  8
PLAN_1
  6
CONTINUOUS
 10
1.163941
 20
-3.344287
  0
VERTEX
  8
PLAN_1
  6
CONTINUOUS
 10
1.166571
 20
-3.351732
  0
VERTEX
  8
PLAN_1
  6
CONTINUOUS
 10
1.168319
 20
-3.359173
  0
VERTEX
  8
PLAN_1
  6
CONTINUOUS
 10
1.169634
 20
-3.366618
  0
VERTEX
  8
PLAN_1
  6
CONTINUOUS
 10
1.170508
 20
-3.374059
  0
VERTEX
  8
PLAN_1
  6
CONTINUOUS
 10
1.171386
 20
-3.381067
  0
VERTEX
  8
PLAN_1
  6
CONTINUOUS
 10
1.171386
 20
-3.388071
  0
VERTEX
  8
PLAN_1
  6
CONTINUOUS
 10
1.171386
 20
-3.394201
  0
VERTEX
  8
PLAN_1
  6
CONTINUOUS
 10
1.171386
 20
-3.404709
  0
VERTEX
  8
PLAN_1
  6
CONTINUOUS
 10
1.170071
 20
-3.420031
  0
VERTEX
  8
PLAN_1
  6
CONTINUOUS
 10
1.168760
 20
-3.428787
  0
VERTEX
  8
PLAN_1
  6
CONTINUOUS
 10
1.167008
 20
-3.437980
  0
VERTEX
  8
PLAN_1
  6
CONTINUOUS
 10
1.164382
 20
-3.447614
  0
VERTEX
  8
PLAN_1
  6
CONTINUOUS
 10
1.161315
 20
-3.456807
  0
VERTEX
  8
PLAN_1
  6
CONTINUOUS
 10
1.159563
 20
-3.461622
  0
VERTEX
  8
PLAN_1
  6
CONTINUOUS
 10
1.157374
 20
-3.466004
  0
VERTEX
  8
PLAN_1
  6
CONTINUOUS
 10
1.155185
 20
-3.470382
  0
VERTEX
  8
PLAN_1
  6
CONTINUOUS
 10
1.152559
 20
-3.474760
  0
VERTEX
  8
PLAN_1
  6
CONTINUOUS
 10
1.149933
 20
-3.478697
  0
VERTEX
  8
PLAN_1
  6
CONTINUOUS
 10
1.146866
 20
-3.482638
  0
VERTEX
  8
PLAN_1
  6
CONTINUOUS
 10
1.143803
 20
-3.486579
  0
VERTEX
  8
PLAN_1
  6
CONTINUOUS
 10
1.140299
 20
-3.489646
  0
VERTEX
  8
PLAN_1
  6
CONTINUOUS
 10
1.136358
 20
-3.493146
  0
VERTEX
  8
PLAN_1
  6
CONTINUOUS
 10
1.132421
 20
-3.495776
  0
VERTEX
  8
PLAN_1
  6
CONTINUOUS
 10
1.128039
 20
-3.497965
  0
VERTEX
  8
PLAN_1
  6
CONTINUOUS
 10
1.123224
 20
-3.500154
  0
VERTEX
  8
PLAN_1
  6
CONTINUOUS
 10
1.117972
 20
-3.501902
  0
VERTEX
  8
PLAN_1
  6
CONTINUOUS
 10
1.112717
 20
-3.503217
  0
VERTEX
  8
PLAN_1
  6
CONTINUOUS
 10
1.107028
 20
-3.503654
  0
VERTEX
  8
PLAN_1
  6
CONTINUOUS
 10
1.100898
 20
-3.504091
  0
VERTEX
  8
PLAN_1
  6
CONTINUOUS
 10
1.092579
 20
-3.503654
  0
VERTEX
  8
PLAN_1
  6
CONTINUOUS
 10
1.085134
 20
-3.502780
  0
VERTEX
  8
PLAN_1
  6
CONTINUOUS
 10
1.078567
 20
-3.501028
  0
VERTEX
  8
PLAN_1
  6
CONTINUOUS
 10
1.072437
 20
-3.498402
  0
VERTEX
  8
PLAN_1
  6
CONTINUOUS
 10
1.067185
 20
-3.495776
  0
VERTEX
  8
PLAN_1
  6
CONTINUOUS
 10
1.062370
 20
-3.492709
  0
VERTEX
  8
PLAN_1
  6
CONTINUOUS
 10
1.057992
 20
-3.488768
  0
VERTEX
  8
PLAN_1
  6
CONTINUOUS
 10
1.054488
 20
-3.485268
  0
VERTEX
  8
PLAN_1
  6
CONTINUOUS
 10
1.051421
 20
-3.480890
  0
VERTEX
  8
PLAN_1
  6
CONTINUOUS
 10
1.049232
 20
-3.476508
  0
VERTEX
  8
PLAN_1
  6
CONTINUOUS
 10
1.047043
 20
-3.472571
  0
VERTEX
  8
PLAN_1
  6
CONTINUOUS
 10
1.045295
 20
-3.468193
  0
VERTEX
  8
PLAN_1
  6
CONTINUOUS
 10
1.044417
 20
-3.463811
  0
VERTEX
  8
PLAN_1
  6
CONTINUOUS
 10
1.043543
 20
-3.459433
  0
VERTEX
  8
PLAN_1
  6
CONTINUOUS
 10
1.043106
 20
-3.455496
  0
VERTEX
  8
PLAN_1
  6
CONTINUOUS
 10
1.042665
 20
-3.451992
  0
VERTEX
  8
PLAN_1
  6
CONTINUOUS
 10
1.067185
 20
-3.451992
  0
VERTEX
  8
PLAN_1
  6
CONTINUOUS
 10
1.067622
 20
-3.455496
  0
VERTEX
  8
PLAN_1
  6
CONTINUOUS
 10
1.068059
 20
-3.458996
  0
VERTEX
  8
PLAN_1
  6
CONTINUOUS
 10
1.068937
 20
-3.462063
  0
VERTEX
  8
PLAN_1
  6
CONTINUOUS
 10
1.070248
 20
-3.465126
  0
VERTEX
  8
PLAN_1
  6
CONTINUOUS
 10
1.071563
 20
-3.468193
  0
VERTEX
  8
PLAN_1
  6
CONTINUOUS
 10
1.072878
 20
-3.470819
  0
VERTEX
  8
PLAN_1
  6
CONTINUOUS
 10
1.074626
 20
-3.473008
  0
VERTEX
  8
PLAN_1
  6
CONTINUOUS
 10
1.076815
 20
-3.475197
  0
VERTEX
  8
PLAN_1
  6
CONTINUOUS
 10
1.079004
 20
-3.477386
  0
VERTEX
  8
PLAN_1
  6
CONTINUOUS
 10
1.081193
 20
-3.479138
  0
VERTEX
  8
PLAN_1
  6
CONTINUOUS
 10
1.083823
 20
-3.480449
  0
VERTEX
  8
PLAN_1
  6
CONTINUOUS
 10
1.086886
 20
-3.481764
  0
VERTEX
  8
PLAN_1
  6
CONTINUOUS
 10
1.089953
 20
-3.482638
  0
VERTEX
  8
PLAN_1
  6
CONTINUOUS
 10
1.093016
 20
-3.483079
  0
VERTEX
  8
PLAN_1
  6
CONTINUOUS
 10
1.096520
 20
-3.483516
  0
VERTEX
  8
PLAN_1
  6
CONTINUOUS
 10
1.100461
 20
-3.483953
  0
VERTEX
  8
PLAN_1
  6
CONTINUOUS
 10
1.105276
 20
-3.483516
  0
VERTEX
  8
PLAN_1
  6
CONTINUOUS
 10
1.109654
 20
-3.482638
  0
VERTEX
  8
PLAN_1
  6
CONTINUOUS
 10
1.114031
 20
-3.481327
  0
VERTEX
  8
PLAN_1
  6
CONTINUOUS
 10
1.117972
 20
-3.479575
  0
VERTEX
  8
PLAN_1
  6
CONTINUOUS
 10
1.121913
 20
-3.476949
  0
VERTEX
  8
PLAN_1
  6
CONTINUOUS
 10
1.124976
 20
-3.473882
  0
VERTEX
  8
PLAN_1
  6
CONTINUOUS
 10
1.128480
 20
-3.470382
  0
VERTEX
  8
PLAN_1
  6
CONTINUOUS
 10
1.131543
 20
-3.466441
  0
VERTEX
  8
PLAN_1
  6
CONTINUOUS
 10
1.134169
 20
-3.461622
  0
VERTEX
  8
PLAN_1
  6
CONTINUOUS
 10
1.136799
 20
-3.455933
  0
VERTEX
  8
PLAN_1
  6
CONTINUOUS
 10
1.138988
 20
-3.450240
  0
VERTEX
  8
PLAN_1
  6
CONTINUOUS
 10
1.141177
 20
-3.443673
  0
VERTEX
  8
PLAN_1
  6
CONTINUOUS
 10
1.142925
 20
-3.436232
  0
VERTEX
  8
PLAN_1
  6
CONTINUOUS
 10
1.144677
 20
-3.428350
  0
VERTEX
  8
PLAN_1
  6
CONTINUOUS
 10
1.145992
 20
-3.420031
  0
VERTEX
  8
PLAN_1
  6
CONTINUOUS
 10
1.147307
 20
-3.410839
  0
VERTEX
  8
PLAN_1
  6
CONTINUOUS
 10
1.146429
 20
-3.410398
  0
VERTEX
  8
PLAN_1
  6
CONTINUOUS
 10
1.145118
 20
-3.413028
  0
VERTEX
  8
PLAN_1
  6
CONTINUOUS
 10
1.143366
 20
-3.415654
  0
VERTEX
  8
PLAN_1
  6
CONTINUOUS
 10
1.141177
 20
-3.417843
  0
VERTEX
  8
PLAN_1
  6
CONTINUOUS
 10
1.138988
 20
-3.420031
  0
VERTEX
  8
PLAN_1
  6
CONTINUOUS
 10
1.136799
 20
-3.422220
  0
VERTEX
  8
PLAN_1
  6
CONTINUOUS
 10
1.134169
 20
-3.424409
  0
VERTEX
  8
PLAN_1
  6
CONTINUOUS
 10
1.131106
 20
-3.426161
  0
VERTEX
  8
PLAN_1
  6
CONTINUOUS
 10
1.128480
 20
-3.427472
  0
VERTEX
  8
PLAN_1
  6
CONTINUOUS
 10
1.121913
 20
-3.430102
  0
VERTEX
  8
PLAN_1
  6
CONTINUOUS
 10
1.115346
 20
-3.431850
  0
VERTEX
  8
PLAN_1
  6
CONTINUOUS
 10
1.108776
 20
-3.433165
  0
VERTEX
  8
PLAN_1
  6
CONTINUOUS
 10
1.101772
 20
-3.433602
  0
VERTEX
  8
PLAN_1
  6
CONTINUOUS
 10
1.095205
 20
-3.433165
  0
VERTEX
  8
PLAN_1
  6
CONTINUOUS
 10
1.089075
 20
-3.432291
  0
VERTEX
  8
PLAN_1
  6
CONTINUOUS
 10
1.082945
 20
-3.430976
  0
VERTEX
  8
PLAN_1
  6
CONTINUOUS
 10
1.077256
 20
-3.429224
  0
VERTEX
  8
PLAN_1
  6
CONTINUOUS
 10
1.071563
 20
-3.426598
  0
VERTEX
  8
PLAN_1
  6
CONTINUOUS
 10
1.066748
 20
-3.423972
  0
VERTEX
  8
PLAN_1
  6
CONTINUOUS
 10
1.061929
 20
-3.420469
  0
VERTEX
  8
PLAN_1
  6
CONTINUOUS
 10
1.057551
 20
-3.416528
  0
VERTEX
  8
PLAN_1
  6
CONTINUOUS
 10
1.054051
 20
-3.412150
  0
VERTEX
  8
PLAN_1
  6
CONTINUOUS
 10
1.050547
 20
-3.407772
  0
VERTEX
  8
PLAN_1
  6
CONTINUOUS
 10
1.047484
 20
-3.402520
  0
VERTEX
  8
PLAN_1
  6
CONTINUOUS
 10
1.045295
 20
-3.396827
  0
VERTEX
  8
PLAN_1
  6
CONTINUOUS
 10
1.043106
 20
-3.390697
  0
VERTEX
  8
PLAN_1
  6
CONTINUOUS
 10
1.041791
 20
-3.384567
  0
VERTEX
  8
PLAN_1
  6
CONTINUOUS
 10
1.040917
 20
-3.377563
  0
VERTEX
  8
PLAN_1
  6
CONTINUOUS
 10
1.040476
 20
-3.370559
  0
SEQEND
  8
0
  0
POLYLINE
  8
PLAN_1
  6
CONTINUOUS
 66
     1
 40
0.003000
 41
0.003000
  0
VERTEX
  8
PLAN_1
  6
CONTINUOUS
 10
1.142925
 20
-3.367055
  0
VERTEX
  8
PLAN_1
  6
CONTINUOUS
 10
1.142925
 20
-3.363114
  0
VERTEX
  8
PLAN_1
  6
CONTINUOUS
 10
1.142488
 20
-3.359173
  0
VERTEX
  8
PLAN_1
  6
CONTINUOUS
 10
1.141614
 20
-3.355232
  0
VERTEX
  8
PLAN_1
  6
CONTINUOUS
 10
1.140736
 20
-3.351295
  0
VERTEX
  8
PLAN_1
  6
CONTINUOUS
 10
1.139425
 20
-3.347791
  0
VERTEX
  8
PLAN_1
  6
CONTINUOUS
 10
1.138110
 20
-3.344287
  0
VERTEX
  8
PLAN_1
  6
CONTINUOUS
 10
1.135921
 20
-3.341224
  0
VERTEX
  8
PLAN_1
  6
CONTINUOUS
 10
1.133732
 20
-3.338157
  0
VERTEX
  8
PLAN_1
  6
CONTINUOUS
 10
1.131106
 20
-3.335531
  0
VERTEX
  8
PLAN_1
  6
CONTINUOUS
 10
1.128480
 20
-3.332906
  0
VERTEX
  8
PLAN_1
  6
CONTINUOUS
 10
1.124976
 20
-3.330717
  0
VERTEX
  8
PLAN_1
  6
CONTINUOUS
 10
1.121472
 20
-3.328965
  0
VERTEX
  8
PLAN_1
  6
CONTINUOUS
 10
1.117535
 20
-3.327650
  0
VERTEX
  8
PLAN_1
  6
CONTINUOUS
 10
1.113154
 20
-3.326339
  0
VERTEX
  8
PLAN_1
  6
CONTINUOUS
 10
1.108776
 20
-3.325902
  0
VERTEX
  8
PLAN_1
  6
CONTINUOUS
 10
1.103524
 20
-3.325461
  0
VERTEX
  8
PLAN_1
  6
CONTINUOUS
 10
1.099583
 20
-3.325902
  0
VERTEX
  8
PLAN_1
  6
CONTINUOUS
 10
1.095642
 20
-3.326339
  0
VERTEX
  8
PLAN_1
  6
CONTINUOUS
 10
1.091701
 20
-3.327650
  0
VERTEX
  8
PLAN_1
  6
CONTINUOUS
 10
1.088201
 20
-3.328965
  0
VERTEX
  8
PLAN_1
  6
CONTINUOUS
 10
1.084697
 20
-3.330717
  0
VERTEX
  8
PLAN_1
  6
CONTINUOUS
 10
1.081634
 20
-3.332469
  0
VERTEX
  8
PLAN_1
  6
CONTINUOUS
 10
1.078567
 20
-3.335094
  0
VERTEX
  8
PLAN_1
  6
CONTINUOUS
 10
1.076378
 20
-3.337720
  0
VERTEX
  8
PLAN_1
  6
CONTINUOUS
 10
1.073752
 20
-3.340787
  0
VERTEX
  8
PLAN_1
  6
CONTINUOUS
 10
1.071563
 20
-3.344287
  0
VERTEX
  8
PLAN_1
  6
CONTINUOUS
 10
1.069811
 20
-3.347791
  0
VERTEX
  8
PLAN_1
  6
CONTINUOUS
 10
1.068496
 20
-3.351732
  0
VERTEX
  8
PLAN_1
  6
CONTINUOUS
 10
1.067185
 20
-3.355673
  0
VERTEX
  8
PLAN_1
  6
CONTINUOUS
 10
1.066748
 20
-3.360051
  0
VERTEX
  8
PLAN_1
  6
CONTINUOUS
 10
1.065870
 20
-3.364866
  0
VERTEX
  8
PLAN_1
  6
CONTINUOUS
 10
1.065870
 20
-3.369681
  0
VERTEX
  8
PLAN_1
  6
CONTINUOUS
 10
1.066307
 20
-3.376248
  0
VERTEX
  8
PLAN_1
  6
CONTINUOUS
 10
1.066748
 20
-3.381941
  0
VERTEX
  8
PLAN_1
  6
CONTINUOUS
 10
1.068059
 20
-3.387193
  0
VERTEX
  8
PLAN_1
  6
CONTINUOUS
 10
1.069811
 20
-3.392012
  0
VERTEX
  8
PLAN_1
  6
CONTINUOUS
 10
1.071563
 20
-3.395953
  0
VERTEX
  8
PLAN_1
  6
CONTINUOUS
 10
1.074189
 20
-3.399453
  0
VERTEX
  8
PLAN_1
  6
CONTINUOUS
 10
1.076815
 20
-3.402079
  0
VERTEX
  8
PLAN_1
  6
CONTINUOUS
 10
1.079445
 20
-3.404709
  0
VERTEX
  8
PLAN_1
  6
CONTINUOUS
 10
1.082508
 20
-3.406461
  0
VERTEX
  8
PLAN_1
  6
CONTINUOUS
 10
1.085575
 20
-3.408209
  0
VERTEX
  8
PLAN_1
  6
CONTINUOUS
 10
1.089075
 20
-3.409524
  0
VERTEX
  8
PLAN_1
  6
CONTINUOUS
 10
1.092579
 20
-3.410398
  0
VERTEX
  8
PLAN_1
  6
CONTINUOUS
 10
1.099146
 20
-3.411276
  0
VERTEX
  8
PLAN_1
  6
CONTINUOUS
 10
1.105713
 20
-3.411713
  0
VERTEX
  8
PLAN_1
  6
CONTINUOUS
 10
1.110965
 20
-3.411276
  0
VERTEX
  8
PLAN_1
  6
CONTINUOUS
 10
1.116657
 20
-3.409961
  0
VERTEX
  8
PLAN_1
  6
CONTINUOUS
 10
1.119724
 20
-3.409087
  0
VERTEX
  8
PLAN_1
  6
CONTINUOUS
 10
1.122787
 20
-3.407772
  0
VERTEX
  8
PLAN_1
  6
CONTINUOUS
 10
1.125850
 20
-3.406020
  0
VERTEX
  8
PLAN_1
  6
CONTINUOUS
 10
1.128917
 20
-3.403831
  0
VERTEX
  8
PLAN_1
  6
CONTINUOUS
 10
1.131980
 20
-3.401205
  0
VERTEX
  8
PLAN_1
  6
CONTINUOUS
 10
1.134610
 20
-3.398142
  0
VERTEX
  8
PLAN_1
  6
CONTINUOUS
 10
1.136799
 20
-3.394638
  0
VERTEX
  8
PLAN_1
  6
CONTINUOUS
 10
1.138988
 20
-3.390260
  0
VERTEX
  8
PLAN_1
  6
CONTINUOUS
 10
1.140736
 20
-3.385882
  0
VERTEX
  8
PLAN_1
  6
CONTINUOUS
 10
1.142051
 20
-3.380189
  0
VERTEX
  8
PLAN_1
  6
CONTINUOUS
 10
1.142925
 20
-3.374059
  0
VERTEX
  8
PLAN_1
  6
CONTINUOUS
 10
1.142925
 20
-3.367055
  0
SEQEND
  8
0
  0
POLYLINE
  8
PLAN_1
  6
CONTINUOUS
 66
     1
 40
0.003000
 41
0.003000
  0
VERTEX
  8
PLAN_1
  6
CONTINUOUS
 10
1.233992
 20
-3.498839
  0
VERTEX
  8
PLAN_1
  6
CONTINUOUS
 10
1.207287
 20
-3.498839
  0
VERTEX
  8
PLAN_1
  6
CONTINUOUS
 10
1.207287
 20
-3.299630
  0
VERTEX
  8
PLAN_1
  6
CONTINUOUS
 10
1.345201
 20
-3.299630
  0
VERTEX
  8
PLAN_1
  6
CONTINUOUS
 10
1.345201
 20
-3.323272
  0
VERTEX
  8
PLAN_1
  6
CONTINUOUS
 10
1.233992
 20
-3.323272
  0
VERTEX
  8
PLAN_1
  6
CONTINUOUS
 10
1.233992
 20
-3.384567
  0
VERTEX
  8
PLAN_1
  6
CONTINUOUS
 10
1.331626
 20
-3.384567
  0
VERTEX
  8
PLAN_1
  6
CONTINUOUS
 10
1.331626
 20
-3.408209
  0
VERTEX
  8
PLAN_1
  6
CONTINUOUS
 10
1.233992
 20
-3.408209
  0
VERTEX
  8
PLAN_1
  6
CONTINUOUS
 10
1.233992
 20
-3.498839
  0
SEQEND
  8
0
  0
SOLID
  8
PLAN_1
 10
1.364465
 20
-3.498839
 11
1.335567
 21
-3.498839
 12
1.364465
 22
-3.469504
 13
1.335567
 23
-3.469504
  0
POLYLINE
  8
PLAN_1
  6
CONTINUOUS
 66
     1
 40
0.003000
 41
0.003000
  0
VERTEX
  8
PLAN_1
  6
CONTINUOUS
 10
1.364465
 20
-3.498839
  0
VERTEX
  8
PLAN_1
  6
CONTINUOUS
 10
1.335567
 20
-3.498839
  0
VERTEX
  8
PLAN_1
  6
CONTINUOUS
 10
1.335567
 20
-3.469504
  0
VERTEX
  8
PLAN_1
  6
CONTINUOUS
 10
1.364465
 20
-3.469504
  0
VERTEX
  8
PLAN_1
  6
CONTINUOUS
 10
1.364465
 20
-3.498839
  0
SEQEND
  8
0
  0
POLYLINE
  8
PLAN_1
  6
CONTINUOUS
 66
     1
 40
0.003000
 41
0.003000
  0
VERTEX
  8
PLAN_1
  6
CONTINUOUS
 10
1.559291
 20
-3.498839
  0
VERTEX
  8
PLAN_1
  6
CONTINUOUS
 10
1.412185
 20
-3.498839
  0
VERTEX
  8
PLAN_1
  6
CONTINUOUS
 10
1.412185
 20
-3.299630
  0
VERTEX
  8
PLAN_1
  6
CONTINUOUS
 10
1.557539
 20
-3.299630
  0
VERTEX
  8
PLAN_1
  6
CONTINUOUS
 10
1.557539
 20
-3.323272
  0
VERTEX
  8
PLAN_1
  6
CONTINUOUS
 10
1.439331
 20
-3.323272
  0
VERTEX
  8
PLAN_1
  6
CONTINUOUS
 10
1.439331
 20
-3.384567
  0
VERTEX
  8
PLAN_1
  6
CONTINUOUS
 10
1.548346
 20
-3.384567
  0
VERTEX
  8
PLAN_1
  6
CONTINUOUS
 10
1.548346
 20
-3.408209
  0
VERTEX
  8
PLAN_1
  6
CONTINUOUS
 10
1.439331
 20
-3.408209
  0
VERTEX
  8
PLAN_1
  6
CONTINUOUS
 10
1.439331
 20
-3.474760
  0
VERTEX
  8
PLAN_1
  6
CONTINUOUS
 10
1.559291
 20
-3.474760
  0
VERTEX
  8
PLAN_1
  6
CONTINUOUS
 10
1.559291
 20
-3.498839
  0
SEQEND
  8
0
  0
POLYLINE
  8
PLAN_1
  6
CONTINUOUS
 66
     1
 40
0.003000
 41
0.003000
  0
VERTEX
  8
PLAN_1
  6
CONTINUOUS
 10
1.624528
 20
-3.498839
  0
VERTEX
  8
PLAN_1
  6
CONTINUOUS
 10
1.597382
 20
-3.498839
  0
VERTEX
  8
PLAN_1
  6
CONTINUOUS
 10
1.597382
 20
-3.299630
  0
VERTEX
  8
PLAN_1
  6
CONTINUOUS
 10
1.687134
 20
-3.299630
  0
VERTEX
  8
PLAN_1
  6
CONTINUOUS
 10
1.694142
 20
-3.299630
  0
VERTEX
  8
PLAN_1
  6
CONTINUOUS
 10
1.700272
 20
-3.300508
  0
VERTEX
  8
PLAN_1
  6
CONTINUOUS
 10
1.706398
 20
-3.301819
  0
VERTEX
  8
PLAN_1
  6
CONTINUOUS
 10
1.712091
 20
-3.303571
  0
VERTEX
  8
PLAN_1
  6
CONTINUOUS
 10
1.717346
 20
-3.306197
  0
VERTEX
  8
PLAN_1
  6
CONTINUOUS
 10
1.722161
 20
-3.308827
  0
VERTEX
  8
PLAN_1
  6
CONTINUOUS
 10
1.726539
 20
-3.311890
  0
VERTEX
  8
PLAN_1
  6
CONTINUOUS
 10
1.730480
 20
-3.315394
  0
VERTEX
  8
PLAN_1
  6
CONTINUOUS
 10
1.733980
 20
-3.319335
  0
VERTEX
  8
PLAN_1
  6
CONTINUOUS
 10
1.737484
 20
-3.323713
  0
VERTEX
  8
PLAN_1
  6
CONTINUOUS
 10
1.740110
 20
-3.328528
  0
VERTEX
  8
PLAN_1
  6
CONTINUOUS
 10
1.742299
 20
-3.333343
  0
VERTEX
  8
PLAN_1
  6
CONTINUOUS
 10
1.744051
 20
-3.338598
  0
VERTEX
  8
PLAN_1
  6
CONTINUOUS
 10
1.745366
 20
-3.343850
  0
VERTEX
  8
PLAN_1
  6
CONTINUOUS
 10
1.746240
 20
-3.349543
  0
VERTEX
  8
PLAN_1
  6
CONTINUOUS
 10
1.746240
 20
-3.355673
  0
VERTEX
  8
PLAN_1
  6
CONTINUOUS
 10
1.746240
 20
-3.360925
  0
VERTEX
  8
PLAN_1
  6
CONTINUOUS
 10
1.745366
 20
-3.366181
  0
VERTEX
  8
PLAN_1
  6
CONTINUOUS
 10
1.744488
 20
-3.371433
  0
VERTEX
  8
PLAN_1
  6
CONTINUOUS
 10
1.743177
 20
-3.376689
  0
VERTEX
  8
PLAN_1
  6
CONTINUOUS
 10
1.741425
 20
-3.381504
  0
VERTEX
  8
PLAN_1
  6
CONTINUOUS
 10
1.739236
 20
-3.386319
  0
VERTEX
  8
PLAN_1
  6
CONTINUOUS
 10
1.736169
 20
-3.391134
  0
VERTEX
  8
PLAN_1
  6
CONTINUOUS
 10
1.733106
 20
-3.395512
  0
VERTEX
  8
PLAN_1
  6
CONTINUOUS
 10
1.729165
 20
-3.399453
  0
VERTEX
  8
PLAN_1
  6
CONTINUOUS
 10
1.724787
 20
-3.403394
  0
VERTEX
  8
PLAN_1
  6
CONTINUOUS
 10
1.719972
 20
-3.406461
  0
VERTEX
  8
PLAN_1
  6
CONTINUOUS
 10
1.714717
 20
-3.409524
  0
VERTEX
  8
PLAN_1
  6
CONTINUOUS
 10
1.708587
 20
-3.411713
  0
VERTEX
  8
PLAN_1
  6
CONTINUOUS
 10
1.702020
 20
-3.413465
  0
VERTEX
  8
PLAN_1
  6
CONTINUOUS
 10
1.695016
 20
-3.414339
  0
VERTEX
  8
PLAN_1
  6
CONTINUOUS
 10
1.687134
 20
-3.414776
  0
VERTEX
  8
PLAN_1
  6
CONTINUOUS
 10
1.624528
 20
-3.414776
  0
VERTEX
  8
PLAN_1
  6
CONTINUOUS
 10
1.624528
 20
-3.498839
  0
SEQEND
  8
0
  0
POLYLINE
  8
PLAN_1
  6
CONTINUOUS
 66
     1
 40
0.003000
 41
0.003000
  0
VERTEX
  8
PLAN_1
  6
CONTINUOUS
 10
1.624528
 20
-3.391575
  0
VERTEX
  8
PLAN_1
  6
CONTINUOUS
 10
1.677941
 20
-3.391575
  0
VERTEX
  8
PLAN_1
  6
CONTINUOUS
 10
1.682319
 20
-3.391575
  0
VERTEX
  8
PLAN_1
  6
CONTINUOUS
 10
1.686697
 20
-3.391134
  0
VERTEX
  8
PLAN_1
  6
CONTINUOUS
 10
1.690638
 20
-3.390697
  0
VERTEX
  8
PLAN_1
  6
CONTINUOUS
 10
1.694579
 20
-3.389823
  0
VERTEX
  8
PLAN_1
  6
CONTINUOUS
 10
1.698079
 20
-3.388945
  0
VERTEX
  8
PLAN_1
  6
CONTINUOUS
 10
1.701583
 20
-3.387634
  0
VERTEX
  8
PLAN_1
  6
CONTINUOUS
 10
1.704650
 20
-3.385882
  0
VERTEX
  8
PLAN_1
  6
CONTINUOUS
 10
1.707276
 20
-3.383693
  0
VERTEX
  8
PLAN_1
  6
CONTINUOUS
 10
1.709902
 20
-3.381504
  0
VERTEX
  8
PLAN_1
  6
CONTINUOUS
 10
1.712091
 20
-3.378878
  0
VERTEX
  8
PLAN_1
  6
CONTINUOUS
 10
1.713843
 20
-3.376248
  0
VERTEX
  8
PLAN_1
  6
CONTINUOUS
 10
1.715594
 20
-3.372748
  0
VERTEX
  8
PLAN_1
  6
CONTINUOUS
 10
1.716906
 20
-3.369244
  0
VERTEX
  8
PLAN_1
  6
CONTINUOUS
 10
1.717783
 20
-3.365303
  0
VERTEX
  8
PLAN_1
  6
CONTINUOUS
 10
1.718220
 20
-3.360925
  0
VERTEX
  8
PLAN_1
  6
CONTINUOUS
 10
1.718657
 20
-3.355673
  0
VERTEX
  8
PLAN_1
  6
CONTINUOUS
 10
1.718220
 20
-3.351295
  0
VERTEX
  8
PLAN_1
  6
CONTINUOUS
 10
1.717783
 20
-3.347354
  0
VERTEX
  8
PLAN_1
  6
CONTINUOUS
 10
1.716906
 20
-3.343413
  0
VERTEX
  8
PLAN_1
  6
CONTINUOUS
 10
1.715594
 20
-3.339909
  0
VERTEX
  8
PLAN_1
  6
CONTINUOUS
 10
1.713843
 20
-3.336846
  0
VERTEX
  8
PLAN_1
  6
CONTINUOUS
 10
1.712091
 20
-3.334220
  0
VERTEX
  8
PLAN_1
  6
CONTINUOUS
 10
1.709902
 20
-3.332031
  0
VERTEX
  8
PLAN_1
  6
CONTINUOUS
 10
1.707276
 20
-3.329843
  0
VERTEX
  8
PLAN_1
  6
CONTINUOUS
 10
1.704209
 20
-3.328091
  0
VERTEX
  8
PLAN_1
  6
CONTINUOUS
 10
1.701583
 20
-3.326339
  0
VERTEX
  8
PLAN_1
  6
CONTINUOUS
 10
1.698079
 20
-3.325024
  0
VERTEX
  8
PLAN_1
  6
CONTINUOUS
 10
1.694579
 20
-3.324150
  0
VERTEX
  8
PLAN_1
  6
CONTINUOUS
 10
1.691075
 20
-3.323272
  0
VERTEX
  8
PLAN_1
  6
CONTINUOUS
 10
1.687134
 20
-3.322835
  0
VERTEX
  8
PLAN_1
  6
CONTINUOUS
 10
1.683193
 20
-3.322835
  0
VERTEX
  8
PLAN_1
  6
CONTINUOUS
 10
1.679256
 20
-3.322398
  0
VERTEX
  8
PLAN_1
  6
CONTINUOUS
 10
1.624528
 20
-3.322398
  0
VERTEX
  8
PLAN_1
  6
CONTINUOUS
 10
1.624528
 20
-3.391575
  0
SEQEND
  8
0
  0
POLYLINE
  8
PLAN_1
  6
CONTINUOUS
 66
     1
 40
0.003000
 41
0.003000
  0
VERTEX
  8
PLAN_1
  6
CONTINUOUS
 10
1.900354
 20
-3.357862
  0
VERTEX
  8
PLAN_1
  6
CONTINUOUS
 10
1.899476
 20
-3.352169
  0
VERTEX
  8
PLAN_1
  6
CONTINUOUS
 10
1.898602
 20
-3.347354
  0
VERTEX
  8
PLAN_1
  6
CONTINUOUS
 10
1.896850
 20
-3.342535
  0
VERTEX
  8
PLAN_1
  6
CONTINUOUS
 10
1.895098
 20
-3.338598
  0
VERTEX
  8
PLAN_1
  6
CONTINUOUS
 10
1.892472
 20
-3.334657
  0
VERTEX
  8
PLAN_1
  6
CONTINUOUS
 10
1.889846
 20
-3.331591
  0
VERTEX
  8
PLAN_1
  6
CONTINUOUS
 10
1.886780
 20
-3.328528
  0
VERTEX
  8
PLAN_1
  6
CONTINUOUS
 10
1.883280
 20
-3.325902
  0
VERTEX
  8
PLAN_1
  6
CONTINUOUS
 10
1.879776
 20
-3.323713
  0
VERTEX
  8
PLAN_1
  6
CONTINUOUS
 10
1.875835
 20
-3.321961
  0
VERTEX
  8
PLAN_1
  6
CONTINUOUS
 10
1.871894
 20
-3.320646
  0
VERTEX
  8
PLAN_1
  6
CONTINUOUS
 10
1.867953
 20
-3.319335
  0
VERTEX
  8
PLAN_1
  6
CONTINUOUS
 10
1.863575
 20
-3.318457
  0
VERTEX
  8
PLAN_1
  6
CONTINUOUS
 10
1.859197
 20
-3.317583
  0
VERTEX
  8
PLAN_1
  6
CONTINUOUS
 10
1.854819
 20
-3.317583
  0
VERTEX
  8
PLAN_1
  6
CONTINUOUS
 10
1.850878
 20
-3.317146
  0
VERTEX
  8
PLAN_1
  6
CONTINUOUS
 10
1.843874
 20
-3.317583
  0
VERTEX
  8
PLAN_1
  6
CONTINUOUS
 10
1.836433
 20
-3.318457
  0
VERTEX
  8
PLAN_1
  6
CONTINUOUS
 10
1.832929
 20
-3.319335
  0
VERTEX
  8
PLAN_1
  6
CONTINUOUS
 10
1.828988
 20
-3.320209
  0
VERTEX
  8
PLAN_1
  6
CONTINUOUS
 10
1.825047
 20
-3.321961
  0
VERTEX
  8
PLAN_1
  6
CONTINUOUS
 10
1.821547
 20
-3.323272
  0
VERTEX
  8
PLAN_1
  6
CONTINUOUS
 10
1.818480
 20
-3.325461
  0
VERTEX
  8
PLAN_1
  6
CONTINUOUS
 10
1.815417
 20
-3.328091
  0
VERTEX
  8
PLAN_1
  6
CONTINUOUS
 10
1.812350
 20
-3.330717
  0
VERTEX
  8
PLAN_1
  6
CONTINUOUS
 10
1.810161
 20
-3.334220
  0
VERTEX
  8
PLAN_1
  6
CONTINUOUS
 10
1.807972
 20
-3.337720
  0
VERTEX
  8
PLAN_1
  6
CONTINUOUS
 10
1.806661
 20
-3.342098
  0
VERTEX
  8
PLAN_1
  6
CONTINUOUS
 10
1.805783
 20
-3.346917
  0
VERTEX
  8
PLAN_1
  6
CONTINUOUS
 10
1.805346
 20
-3.352169
  0
VERTEX
  8
PLAN_1
  6
CONTINUOUS
 10
1.805346
 20
-3.355232
  0
VERTEX
  8
PLAN_1
  6
CONTINUOUS
 10
1.805783
 20
-3.358299
  0
VERTEX
  8
PLAN_1
  6
CONTINUOUS
 10
1.806661
 20
-3.360488
  0
VERTEX
  8
PLAN_1
  6
CONTINUOUS
 10
1.807098
 20
-3.363114
  0
VERTEX
  8
PLAN_1
  6
CONTINUOUS
 10
1.808409
 20
-3.364866
  0
VERTEX
  8
PLAN_1
  6
CONTINUOUS
 10
1.809724
 20
-3.367055
  0
VERTEX
  8
PLAN_1
  6
CONTINUOUS
 10
1.811039
 20
-3.368807
  0
VERTEX
  8
PLAN_1
  6
CONTINUOUS
 10
1.812787
 20
-3.370118
  0
VERTEX
  8
PLAN_1
  6
CONTINUOUS
 10
1.816291
 20
-3.372748
  0
VERTEX
  8
PLAN_1
  6
CONTINUOUS
 10
1.820232
 20
-3.374937
  0
VERTEX
  8
PLAN_1
  6
CONTINUOUS
 10
1.824610
 20
-3.376248
  0
VERTEX
  8
PLAN_1
  6
CONTINUOUS
 10
1.828988
 20
-3.377563
  0
VERTEX
  8
PLAN_1
  6
CONTINUOUS
 10
1.885906
 20
-3.390697
  0
VERTEX
  8
PLAN_1
  6
CONTINUOUS
 10
1.890720
 20
-3.392012
  0
VERTEX
  8
PLAN_1
  6
CONTINUOUS
 10
1.895098
 20
-3.393323
  0
VERTEX
  8
PLAN_1
  6
CONTINUOUS
 10
1.899476
 20
-3.395075
  0
VERTEX
  8
PLAN_1
  6
CONTINUOUS
 10
1.903854
 20
-3.396827
  0
VERTEX
  8
PLAN_1
  6
CONTINUOUS
 10
1.907795
 20
-3.399453
  0
VERTEX
  8
PLAN_1
  6
CONTINUOUS
 10
1.911299
 20
-3.401642
  0
VERTEX
  8
PLAN_1
  6
CONTINUOUS
 10
1.914799
 20
-3.404709
  0
VERTEX
  8
PLAN_1
  6
CONTINUOUS
 10
1.917866
 20
-3.407772
  0
VERTEX
  8
PLAN_1
  6
CONTINUOUS
 10
1.920929
 20
-3.410839
  0
VERTEX
  8
PLAN_1
  6
CONTINUOUS
 10
1.923559
 20
-3.414776
  0
VERTEX
  8
PLAN_1
  6
CONTINUOUS
 10
1.925748
 20
-3.418717
  0
VERTEX
  8
PLAN_1
  6
CONTINUOUS
 10
1.927496
 20
-3.423094
  0
VERTEX
  8
PLAN_1
  6
CONTINUOUS
 10
1.929248
 20
-3.427913
  0
VERTEX
  8
PLAN_1
  6
CONTINUOUS
 10
1.930126
 20
-3.432728
  0
VERTEX
  8
PLAN_1
  6
CONTINUOUS
 10
1.930563
 20
-3.437980
  0
VERTEX
  8
PLAN_1
  6
CONTINUOUS
 10
1.931000
 20
-3.443673
  0
VERTEX
  8
PLAN_1
  6
CONTINUOUS
 10
1.931000
 20
-3.448051
  0
VERTEX
  8
PLAN_1
  6
CONTINUOUS
 10
1.930563
 20
-3.452429
  0
VERTEX
  8
PLAN_1
  6
CONTINUOUS
 10
1.929685
 20
-3.456370
  0
VERTEX
  8
PLAN_1
  6
CONTINUOUS
 10
1.929248
 20
-3.459874
  0
VERTEX
  8
PLAN_1
  6
CONTINUOUS
 10
1.927937
 20
-3.463374
  0
VERTEX
  8
PLAN_1
  6
CONTINUOUS
 10
1.926622
 20
-3.466878
  0
VERTEX
  8
PLAN_1
  6
CONTINUOUS
 10
1.925307
 20
-3.469941
  0
VERTEX
  8
PLAN_1
  6
CONTINUOUS
 10
1.923559
 20
-3.473008
  0
VERTEX
  8
PLAN_1
  6
CONTINUOUS
 10
1.921807
 20
-3.476071
  0
VERTEX
  8
PLAN_1
  6
CONTINUOUS
 10
1.919618
 20
-3.478697
  0
VERTEX
  8
PLAN_1
  6
CONTINUOUS
 10
1.917429
 20
-3.481327
  0
VERTEX
  8
PLAN_1
  6
CONTINUOUS
 10
1.915240
 20
-3.483516
  0
VERTEX
  8
PLAN_1
  6
CONTINUOUS
 10
1.910421
 20
-3.487894
  0
VERTEX
  8
PLAN_1
  6
CONTINUOUS
 10
1.904732
 20
-3.491835
  0
VERTEX
  8
PLAN_1
  6
CONTINUOUS
 10
1.899039
 20
-3.494898
  0
VERTEX
  8
PLAN_1
  6
CONTINUOUS
 10
1.892472
 20
-3.497524
  0
VERTEX
  8
PLAN_1
  6
CONTINUOUS
 10
1.886343
 20
-3.499713
  0
VERTEX
  8
PLAN_1
  6
CONTINUOUS
 10
1.879776
 20
-3.501465
  0
VERTEX
  8
PLAN_1
  6
CONTINUOUS
 10
1.872772
 20
-3.502780
  0
VERTEX
  8
PLAN_1
  6
CONTINUOUS
 10
1.866205
 20
-3.503654
  0
VERTEX
  8
PLAN_1
  6
CONTINUOUS
 10
1.859634
 20
-3.504091
  0
VERTEX
  8
PLAN_1
  6
CONTINUOUS
 10
1.853067
 20
-3.504091
  0
VERTEX
  8
PLAN_1
  6
CONTINUOUS
 10
1.846500
 20
-3.504091
  0
VERTEX
  8
PLAN_1
  6
CONTINUOUS
 10
1.840370
 20
-3.503654
  0
VERTEX
  8
PLAN_1
  6
CONTINUOUS
 10
1.834681
 20
-3.503217
  0
VERTEX
  8
PLAN_1
  6
CONTINUOUS
 10
1.829425
 20
-3.502343
  0
VERTEX
  8
PLAN_1
  6
CONTINUOUS
 10
1.824610
 20
-3.501465
  0
VERTEX
  8
PLAN_1
  6
CONTINUOUS
 10
1.820232
 20
-3.500154
  0
VERTEX
  8
PLAN_1
  6
CONTINUOUS
 10
1.815854
 20
-3.498839
  0
VERTEX
  8
PLAN_1
  6
CONTINUOUS
 10
1.812350
 20
-3.497524
  0
VERTEX
  8
PLAN_1
  6
CONTINUOUS
 10
1.805783
 20
-3.494461
  0
VERTEX
  8
PLAN_1
  6
CONTINUOUS
 10
1.800531
 20
-3.491394
  0
VERTEX
  8
PLAN_1
  6
CONTINUOUS
 10
1.796591
 20
-3.487894
  0
VERTEX
  8
PLAN_1
  6
CONTINUOUS
 10
1.792650
 20
-3.484827
  0
VERTEX
  8
PLAN_1
  6
CONTINUOUS
 10
1.789587
 20
-3.482201
  0
VERTEX
  8
PLAN_1
  6
CONTINUOUS
 10
1.786957
 20
-3.479138
  0
VERTEX
  8
PLAN_1
  6
CONTINUOUS
 10
1.784768
 20
-3.476071
  0
VERTEX
  8
PLAN_1
  6
CONTINUOUS
 10
1.782579
 20
-3.473445
  0
VERTEX
  8
PLAN_1
  6
CONTINUOUS
 10
1.780390
 20
-3.470382
  0
VERTEX
  8
PLAN_1
  6
CONTINUOUS
 10
1.779079
 20
-3.467315
  0
VERTEX
  8
PLAN_1
  6
CONTINUOUS
 10
1.777327
 20
-3.464252
  0
VERTEX
  8
PLAN_1
  6
CONTINUOUS
 10
1.776449
 20
-3.460748
  0
VERTEX
  8
PLAN_1
  6
CONTINUOUS
 10
1.774260
 20
-3.454618
  0
VERTEX
  8
PLAN_1
  6
CONTINUOUS
 10
1.773386
 20
-3.448051
  0
VERTEX
  8
PLAN_1
  6
CONTINUOUS
 10
1.772508
 20
-3.441484
  0
VERTEX
  8
PLAN_1
  6
CONTINUOUS
 10
1.772508
 20
-3.434480
  0
VERTEX
  8
PLAN_1
  6
CONTINUOUS
 10
1.797902
 20
-3.434480
  0
VERTEX
  8
PLAN_1
  6
CONTINUOUS
 10
1.797902
 20
-3.441047
  0
VERTEX
  8
PLAN_1
  6
CONTINUOUS
 10
1.799217
 20
-3.446736
  0
VERTEX
  8
PLAN_1
  6
CONTINUOUS
 10
1.800531
 20
-3.451992
  0
VERTEX
  8
PLAN_1
  6
CONTINUOUS
 10
1.802720
 20
-3.456807
  0
VERTEX
  8
PLAN_1
  6
CONTINUOUS
 10
1.805346
 20
-3.461185
  0
VERTEX
  8
PLAN_1
  6
CONTINUOUS
 10
1.808409
 20
-3.465126
  0
VERTEX
  8
PLAN_1
  6
CONTINUOUS
 10
1.811913
 20
-3.468193
  0
VERTEX
  8
PLAN_1
  6
CONTINUOUS
 10
1.815854
 20
-3.471256
  0
VERTEX
  8
PLAN_1
  6
CONTINUOUS
 10
1.819795
 20
-3.473882
  0
VERTEX
  8
PLAN_1
  6
CONTINUOUS
 10
1.824173
 20
-3.475634
  0
VERTEX
  8
PLAN_1
  6
CONTINUOUS
 10
1.828551
 20
-3.477386
  0
VERTEX
  8
PLAN_1
  6
CONTINUOUS
 10
1.833366
 20
-3.478697
  0
VERTEX
  8
PLAN_1
  6
CONTINUOUS
 10
1.838181
 20
-3.480012
  0
VERTEX
  8
PLAN_1
  6
CONTINUOUS
 10
1.843000
 20
-3.480449
  0
VERTEX
  8
PLAN_1
  6
CONTINUOUS
 10
1.847815
 20
-3.480890
  0
VERTEX
  8
PLAN_1
  6
CONTINUOUS
 10
1.852630
 20
-3.480890
  0
VERTEX
  8
PLAN_1
  6
CONTINUOUS
 10
1.860512
 20
-3.480890
  0
VERTEX
  8
PLAN_1
  6
CONTINUOUS
 10
1.869268
 20
-3.480012
  0
VERTEX
  8
PLAN_1
  6
CONTINUOUS
 10
1.873646
 20
-3.479138
  0
VERTEX
  8
PLAN_1
  6
CONTINUOUS
 10
1.877587
 20
-3.477823
  0
VERTEX
  8
PLAN_1
  6
CONTINUOUS
 10
1.881965
 20
-3.476508
  0
VERTEX
  8
PLAN_1
  6
CONTINUOUS
 10
1.885906
 20
-3.475197
  0
VERTEX
  8
PLAN_1
  6
CONTINUOUS
 10
1.889846
 20
-3.473008
  0
VERTEX
  8
PLAN_1
  6
CONTINUOUS
 10
1.893346
 20
-3.470819
  0
VERTEX
  8
PLAN_1
  6
CONTINUOUS
 10
1.896850
 20
-3.467752
  0
VERTEX
  8
PLAN_1
  6
CONTINUOUS
 10
1.899476
 20
-3.464689
  0
VERTEX
  8
PLAN_1
  6
CONTINUOUS
 10
1.901665
 20
-3.461185
  0
VERTEX
  8
PLAN_1
  6
CONTINUOUS
 10
1.903417
 20
-3.457244
  0
VERTEX
  8
PLAN_1
  6
CONTINUOUS
 10
1.904732
 20
-3.452429
  0
VERTEX
  8
PLAN_1
  6
CONTINUOUS
 10
1.904732
 20
-3.447614
  0
VERTEX
  8
PLAN_1
  6
CONTINUOUS
 10
1.904732
 20
-3.443673
  0
VERTEX
  8
PLAN_1
  6
CONTINUOUS
 10
1.904291
 20
-3.440169
  0
VERTEX
  8
PLAN_1
  6
CONTINUOUS
 10
1.903854
 20
-3.437106
  0
VERTEX
  8
PLAN_1
  6
CONTINUOUS
 10
1.902980
 20
-3.434480
  0
VERTEX
  8
PLAN_1
  6
CONTINUOUS
 10
1.901665
 20
-3.431850
  0
VERTEX
  8
PLAN_1
  6
CONTINUOUS
 10
1.899913
 20
-3.429224
  0
VERTEX
  8
PLAN_1
  6
CONTINUOUS
 10
1.898165
 20
-3.427035
  0
VERTEX
  8
PLAN_1
  6
CONTINUOUS
 10
1.895976
 20
-3.424846
  0
VERTEX
  8
PLAN_1
  6
CONTINUOUS
 10
1.893346
 20
-3.423094
  0
VERTEX
  8
PLAN_1
  6
CONTINUOUS
 10
1.890283
 20
-3.421346
  0
VERTEX
  8
PLAN_1
  6
CONTINUOUS
 10
1.886780
 20
-3.419594
  0
VERTEX
  8
PLAN_1
  6
CONTINUOUS
 10
1.882839
 20
-3.418280
  0
VERTEX
  8
PLAN_1
  6
CONTINUOUS
 10
1.873646
 20
-3.415217
  0
VERTEX
  8
PLAN_1
  6
CONTINUOUS
 10
1.862264
 20
-3.412150
  0
VERTEX
  8
PLAN_1
  6
CONTINUOUS
 10
1.821547
 20
-3.402957
  0
VERTEX
  8
PLAN_1
  6
CONTINUOUS
 10
1.815854
 20
-3.401205
  0
VERTEX
  8
PLAN_1
  6
CONTINUOUS
 10
1.809287
 20
-3.399016
  0
VERTEX
  8
PLAN_1
  6
CONTINUOUS
 10
1.806220
 20
-3.397701
  0
VERTEX
  8
PLAN_1
  6
CONTINUOUS
 10
1.802280
 20
-3.395953
  0
VERTEX
  8
PLAN_1
  6
CONTINUOUS
 10
1.798780
 20
-3.393764
  0
VERTEX
  8
PLAN_1
  6
CONTINUOUS
 10
1.795713
 20
-3.391134
  0
VERTEX
  8
PLAN_1
  6
CONTINUOUS
 10
1.792213
 20
-3.388508
  0
VERTEX
  8
PLAN_1
  6
CONTINUOUS
 10
1.789146
 20
-3.385004
  0
VERTEX
  8
PLAN_1
  6
CONTINUOUS
 10
1.786520
 20
-3.381504
  0
VERTEX
  8
PLAN_1
  6
CONTINUOUS
 10
1.783894
 20
-3.377563
  0
VERTEX
  8
PLAN_1
  6
CONTINUOUS
 10
1.782142
 20
-3.372748
  0
VERTEX
  8
PLAN_1
  6
CONTINUOUS
 10
1.780390
 20
-3.367929
  0
VERTEX
  8
PLAN_1
  6
CONTINUOUS
 10
1.779516
 20
-3.362240
  0
VERTEX
  8
PLAN_1
  6
CONTINUOUS
 10
1.779079
 20
-3.355673
  0
VERTEX
  8
PLAN_1
  6
CONTINUOUS
 10
1.779516
 20
-3.349980
  0
VERTEX
  8
PLAN_1
  6
CONTINUOUS
 10
1.779953
 20
-3.344287
  0
VERTEX
  8
PLAN_1
  6
CONTINUOUS
 10
1.781268
 20
-3.338598
  0
VERTEX
  8
PLAN_1
  6
CONTINUOUS
 10
1.783016
 20
-3.333343
  0
VERTEX
  8
PLAN_1
  6
CONTINUOUS
 10
1.785205
 20
-3.327650
  0
VERTEX
  8
PLAN_1
  6
CONTINUOUS
 10
1.788272
 20
-3.322835
  0
VERTEX
  8
PLAN_1
  6
CONTINUOUS
 10
1.791335
 20
-3.318020
  0
VERTEX
  8
PLAN_1
  6
CONTINUOUS
 10
1.795276
 20
-3.313205
  0
VERTEX
  8
PLAN_1
  6
CONTINUOUS
 10
1.799654
 20
-3.309264
  0
VERTEX
  8
PLAN_1
  6
CONTINUOUS
 10
1.804909
 20
-3.305760
  0
VERTEX
  8
PLAN_1
  6
CONTINUOUS
 10
1.810598
 20
-3.302260
  0
VERTEX
  8
PLAN_1
  6
CONTINUOUS
 10
1.816728
 20
-3.299630
  0
VERTEX
  8
PLAN_1
  6
CONTINUOUS
 10
1.823295
 20
-3.297441
  0
VERTEX
  8
PLAN_1
  6
CONTINUOUS
 10
1.830740
 20
-3.295689
  0
VERTEX
  8
PLAN_1
  6
CONTINUOUS
 10
1.839059
 20
-3.294815
  0
VERTEX
  8
PLAN_1
  6
CONTINUOUS
 10
1.847815
 20
-3.294378
  0
VERTEX
  8
PLAN_1
  6
CONTINUOUS
 10
1.853945
 20
-3.294378
  0
VERTEX
  8
PLAN_1
  6
CONTINUOUS
 10
1.860075
 20
-3.294815
  0
VERTEX
  8
PLAN_1
  6
CONTINUOUS
 10
1.865764
 20
-3.295252
  0
VERTEX
  8
PLAN_1
  6
CONTINUOUS
 10
1.871020
 20
-3.296130
  0
VERTEX
  8
PLAN_1
  6
CONTINUOUS
 10
1.875835
 20
-3.297004
  0
VERTEX
  8
PLAN_1
  6
CONTINUOUS
 10
1.880650
 20
-3.298319
  0
VERTEX
  8
PLAN_1
  6
CONTINUOUS
 10
1.885028
 20
-3.299630
  0
VERTEX
  8
PLAN_1
  6
CONTINUOUS
 10
1.888969
 20
-3.300945
  0
VERTEX
  8
PLAN_1
  6
CONTINUOUS
 10
1.892909
 20
-3.302697
  0
VERTEX
  8
PLAN_1
  6
CONTINUOUS
 10
1.896413
 20
-3.304449
  0
VERTEX
  8
PLAN_1
  6
CONTINUOUS
 10
1.899476
 20
-3.306638
  0
VERTEX
  8
PLAN_1
  6
CONTINUOUS
 10
1.902543
 20
-3.308386
  0
VERTEX
  8
PLAN_1
  6
CONTINUOUS
 10
1.907795
 20
-3.313205
  0
VERTEX
  8
PLAN_1
  6
CONTINUOUS
 10
1.912173
 20
-3.318020
  0
VERTEX
  8
PLAN_1
  6
CONTINUOUS
 10
1.915677
 20
-3.322835
  0
VERTEX
  8
PLAN_1
  6
CONTINUOUS
 10
1.918740
 20
-3.328091
  0
VERTEX
  8
PLAN_1
  6
CONTINUOUS
 10
1.920929
 20
-3.333343
  0
VERTEX
  8
PLAN_1
  6
CONTINUOUS
 10
1.922681
 20
-3.338598
  0
VERTEX
  8
PLAN_1
  6
CONTINUOUS
 10
1.923996
 20
-3.343850
  0
VERTEX
  8
PLAN_1
  6
CONTINUOUS
 10
1.924433
 20
-3.348665
  0
VERTEX
  8
PLAN_1
  6
CONTINUOUS
 10
1.925307
 20
-3.353484
  0
VERTEX
  8
PLAN_1
  6
CONTINUOUS
 10
1.925307
 20
-3.357862
  0
VERTEX
  8
PLAN_1
  6
CONTINUOUS
 10
1.900354
 20
-3.357862
  0
SEQEND
  8
0
  0
POLYLINE
  8
PLAN_1
 62
     5
  6
CONTINUOUS
 66
     1
 40
0.003000
 41
0.003000
  0
VERTEX
  8
PLAN_1
 62
     5
  6
CONTINUOUS
 10
-1.935811
 20
0.781713
  0
VERTEX
  8
PLAN_1
 62
     5
  6
CONTINUOUS
 10
-1.935811
 20
0.790028
  0
SEQEND
  8
0
  0
POLYLINE
  8
PLAN_1
 62
     5
  6
CONTINUOUS
 66
     1
 40
0.003000
 41
0.003000
  0
VERTEX
  8
PLAN_1
 62
     5
  6
CONTINUOUS
 10
-1.935811
 20
0.798346
  0
VERTEX
  8
PLAN_1
 62
     5
  6
CONTINUOUS
 10
-1.935811
 20
0.806665
  0
SEQEND
  8
0
  0
POLYLINE
  8
PLAN_1
 62
     5
  6
CONTINUOUS
 66
     1
 40
0.003000
 41
0.003000
  0
VERTEX
  8
PLAN_1
 62
     5
  6
CONTINUOUS
 10
-1.935811
 20
0.814984
  0
VERTEX
  8
PLAN_1
 62
     5
  6
CONTINUOUS
 10
-1.935811
 20
0.823303
  0
SEQEND
  8
0
  0
POLYLINE
  8
PLAN_1
 62
     5
  6
CONTINUOUS
 66
     1
 40
0.003000
 41
0.003000
  0
VERTEX
  8
PLAN_1
 62
     5
  6
CONTINUOUS
 10
-1.935811
 20
0.831622
  0
VERTEX
  8
PLAN_1
 62
     5
  6
CONTINUOUS
 10
-1.935811
 20
0.839941
  0
SEQEND
  8
0
  0
POLYLINE
  8
PLAN_1
 62
     5
  6
CONTINUOUS
 66
     1
 40
0.003000
 41
0.003000
  0
VERTEX
  8
PLAN_1
 62
     5
  6
CONTINUOUS
 10
-1.935811
 20
0.848260
  0
VERTEX
  8
PLAN_1
 62
     5
  6
CONTINUOUS
 10
-1.935811
 20
0.856579
  0
SEQEND
  8
0
  0
POLYLINE
  8
PLAN_1
 62
     5
  6
CONTINUOUS
 66
     1
 40
0.003000
 41
0.003000
  0
VERTEX
  8
PLAN_1
 62
     5
  6
CONTINUOUS
 10
-1.935811
 20
0.864898
  0
VERTEX
  8
PLAN_1
 62
     5
  6
CONTINUOUS
 10
-1.935811
 20
0.873217
  0
SEQEND
  8
0
  0
POLYLINE
  8
PLAN_1
 62
     5
  6
CONTINUOUS
 66
     1
 40
0.003000
 41
0.003000
  0
VERTEX
  8
PLAN_1
 62
     5
  6
CONTINUOUS
 10
-1.935811
 20
0.881531
  0
VERTEX
  8
PLAN_1
 62
     5
  6
CONTINUOUS
 10
-1.935811
 20
0.889850
  0
SEQEND
  8
0
  0
POLYLINE
  8
PLAN_1
 62
     5
  6
CONTINUOUS
 66
     1
 40
0.003000
 41
0.003000
  0
VERTEX
  8
PLAN_1
 62
     5
  6
CONTINUOUS
 10
-1.935811
 20
0.898169
  0
VERTEX
  8
PLAN_1
 62
     5
  6
CONTINUOUS
 10
-1.935811
 20
0.906488
  0
SEQEND
  8
0
  0
POLYLINE
  8
PLAN_1
 62
     5
  6
CONTINUOUS
 66
     1
 40
0.003000
 41
0.003000
  0
VERTEX
  8
PLAN_1
 62
     5
  6
CONTINUOUS
 10
-1.935811
 20
0.914807
  0
VERTEX
  8
PLAN_1
 62
     5
  6
CONTINUOUS
 10
-1.935811
 20
0.923126
  0
SEQEND
  8
0
  0
POLYLINE
  8
PLAN_1
 62
     5
  6
CONTINUOUS
 66
     1
 40
0.003000
 41
0.003000
  0
VERTEX
  8
PLAN_1
 62
     5
  6
CONTINUOUS
 10
-1.935811
 20
0.931445
  0
VERTEX
  8
PLAN_1
 62
     5
  6
CONTINUOUS
 10
-1.935811
 20
0.939764
  0
SEQEND
  8
0
  0
POLYLINE
  8
PLAN_1
 62
     5
  6
CONTINUOUS
 66
     1
 40
0.003000
 41
0.003000
  0
VERTEX
  8
PLAN_1
 62
     5
  6
CONTINUOUS
 10
-1.935811
 20
0.948083
  0
VERTEX
  8
PLAN_1
 62
     5
  6
CONTINUOUS
 10
-1.935811
 20
0.956402
  0
SEQEND
  8
0
  0
POLYLINE
  8
PLAN_1
 62
     5
  6
CONTINUOUS
 66
     1
 40
0.003000
 41
0.003000
  0
VERTEX
  8
PLAN_1
 62
     5
  6
CONTINUOUS
 10
-1.935811
 20
0.964720
  0
VERTEX
  8
PLAN_1
 62
     5
  6
CONTINUOUS
 10
-1.935811
 20
0.973035
  0
SEQEND
  8
0
  0
POLYLINE
  8
PLAN_1
 62
     5
  6
CONTINUOUS
 66
     1
 40
0.003000
 41
0.003000
  0
VERTEX
  8
PLAN_1
 62
     5
  6
CONTINUOUS
 10
-1.935811
 20
0.981354
  0
VERTEX
  8
PLAN_1
 62
     5
  6
CONTINUOUS
 10
-1.935811
 20
0.989673
  0
SEQEND
  8
0
  0
POLYLINE
  8
PLAN_1
 62
     5
  6
CONTINUOUS
 66
     1
 40
0.003000
 41
0.003000
  0
VERTEX
  8
PLAN_1
 62
     5
  6
CONTINUOUS
 10
-1.935811
 20
0.997992
  0
VERTEX
  8
PLAN_1
 62
     5
  6
CONTINUOUS
 10
-1.935811
 20
1.006311
  0
SEQEND
  8
0
  0
POLYLINE
  8
PLAN_1
 62
     5
  6
CONTINUOUS
 66
     1
 40
0.003000
 41
0.003000
  0
VERTEX
  8
PLAN_1
 62
     5
  6
CONTINUOUS
 10
-1.935811
 20
1.014630
  0
VERTEX
  8
PLAN_1
 62
     5
  6
CONTINUOUS
 10
-1.935811
 20
1.022949
  0
SEQEND
  8
0
  0
POLYLINE
  8
PLAN_1
 62
     5
  6
CONTINUOUS
 66
     1
 40
0.003000
 41
0.003000
  0
VERTEX
  8
PLAN_1
 62
     5
  6
CONTINUOUS
 10
-1.935811
 20
1.031268
  0
VERTEX
  8
PLAN_1
 62
     5
  6
CONTINUOUS
 10
-1.935811
 20
1.039587
  0
SEQEND
  8
0
  0
POLYLINE
  8
PLAN_1
 62
     5
  6
CONTINUOUS
 66
     1
 40
0.003000
 41
0.003000
  0
VERTEX
  8
PLAN_1
 62
     5
  6
CONTINUOUS
 10
-1.935811
 20
1.047906
  0
VERTEX
  8
PLAN_1
 62
     5
  6
CONTINUOUS
 10
-1.935811
 20
1.056224
  0
SEQEND
  8
0
  0
POLYLINE
  8
PLAN_1
 62
     5
  6
CONTINUOUS
 66
     1
 40
0.003000
 41
0.003000
  0
VERTEX
  8
PLAN_1
 62
     5
  6
CONTINUOUS
 10
-1.935811
 20
1.064543
  0
VERTEX
  8
PLAN_1
 62
     5
  6
CONTINUOUS
 10
-1.935811
 20
1.072858
  0
SEQEND
  8
0
  0
POLYLINE
  8
PLAN_1
 62
     5
  6
CONTINUOUS
 66
     1
 40
0.003000
 41
0.003000
  0
VERTEX
  8
PLAN_1
 62
     5
  6
CONTINUOUS
 10
-1.935811
 20
1.081177
  0
VERTEX
  8
PLAN_1
 62
     5
  6
CONTINUOUS
 10
-1.935811
 20
1.089496
  0
SEQEND
  8
0
  0
POLYLINE
  8
PLAN_1
 62
     5
  6
CONTINUOUS
 66
     1
 40
0.003000
 41
0.003000
  0
VERTEX
  8
PLAN_1
 62
     5
  6
CONTINUOUS
 10
-1.935811
 20
1.097815
  0
VERTEX
  8
PLAN_1
 62
     5
  6
CONTINUOUS
 10
-1.935811
 20
1.106571
  0
SEQEND
  8
0
  0
POLYLINE
  8
PLAN_1
 62
     5
  6
CONTINUOUS
 66
     1
 40
0.003000
 41
0.003000
  0
VERTEX
  8
PLAN_1
 62
     5
  6
CONTINUOUS
 10
-1.935811
 20
1.114890
  0
VERTEX
  8
PLAN_1
 62
     5
  6
CONTINUOUS
 10
-1.935811
 20
1.123209
  0
SEQEND
  8
0
  0
POLYLINE
  8
PLAN_1
 62
     5
  6
CONTINUOUS
 66
     1
 40
0.003000
 41
0.003000
  0
VERTEX
  8
PLAN_1
 62
     5
  6
CONTINUOUS
 10
-1.935811
 20
1.131528
  0
VERTEX
  8
PLAN_1
 62
     5
  6
CONTINUOUS
 10
-1.935811
 20
1.139846
  0
SEQEND
  8
0
  0
POLYLINE
  8
PLAN_1
 62
     5
  6
CONTINUOUS
 66
     1
 40
0.003000
 41
0.003000
  0
VERTEX
  8
PLAN_1
 62
     5
  6
CONTINUOUS
 10
-1.935811
 20
1.148165
  0
VERTEX
  8
PLAN_1
 62
     5
  6
CONTINUOUS
 10
-1.935811
 20
1.156484
  0
SEQEND
  8
0
  0
POLYLINE
  8
PLAN_1
 62
     5
  6
CONTINUOUS
 66
     1
 40
0.003000
 41
0.003000
  0
VERTEX
  8
PLAN_1
 62
     5
  6
CONTINUOUS
 10
-1.935811
 20
1.164803
  0
VERTEX
  8
PLAN_1
 62
     5
  6
CONTINUOUS
 10
-1.935811
 20
1.173122
  0
SEQEND
  8
0
  0
POLYLINE
  8
PLAN_1
 62
     5
  6
CONTINUOUS
 66
     1
 40
0.003000
 41
0.003000
  0
VERTEX
  8
PLAN_1
 62
     5
  6
CONTINUOUS
 10
-1.935811
 20
1.181437
  0
VERTEX
  8
PLAN_1
 62
     5
  6
CONTINUOUS
 10
-1.935811
 20
1.189756
  0
SEQEND
  8
0
  0
POLYLINE
  8
PLAN_1
 62
     5
  6
CONTINUOUS
 66
     1
 40
0.003000
 41
0.003000
  0
VERTEX
  8
PLAN_1
 62
     5
  6
CONTINUOUS
 10
-1.935811
 20
1.198075
  0
VERTEX
  8
PLAN_1
 62
     5
  6
CONTINUOUS
 10
-1.935811
 20
1.206394
  0
SEQEND
  8
0
  0
POLYLINE
  8
PLAN_1
 62
     5
  6
CONTINUOUS
 66
     1
 40
0.003000
 41
0.003000
  0
VERTEX
  8
PLAN_1
 62
     5
  6
CONTINUOUS
 10
-1.935811
 20
1.214713
  0
VERTEX
  8
PLAN_1
 62
     5
  6
CONTINUOUS
 10
-1.935811
 20
1.223031
  0
SEQEND
  8
0
  0
POLYLINE
  8
PLAN_1
 62
     5
  6
CONTINUOUS
 66
     1
 40
0.003000
 41
0.003000
  0
VERTEX
  8
PLAN_1
 62
     5
  6
CONTINUOUS
 10
-1.935811
 20
1.231350
  0
VERTEX
  8
PLAN_1
 62
     5
  6
CONTINUOUS
 10
-1.935811
 20
1.239669
  0
SEQEND
  8
0
  0
POLYLINE
  8
PLAN_1
 62
     5
  6
CONTINUOUS
 66
     1
 40
0.003000
 41
0.003000
  0
VERTEX
  8
PLAN_1
 62
     5
  6
CONTINUOUS
 10
-1.935811
 20
1.247988
  0
VERTEX
  8
PLAN_1
 62
     5
  6
CONTINUOUS
 10
-1.935811
 20
1.256307
  0
SEQEND
  8
0
  0
POLYLINE
  8
PLAN_1
 62
     5
  6
CONTINUOUS
 66
     1
 40
0.003000
 41
0.003000
  0
VERTEX
  8
PLAN_1
 62
     5
  6
CONTINUOUS
 10
-1.935811
 20
1.264626
  0
VERTEX
  8
PLAN_1
 62
     5
  6
CONTINUOUS
 10
-1.935811
 20
1.272941
  0
SEQEND
  8
0
  0
POLYLINE
  8
PLAN_1
 62
     5
  6
CONTINUOUS
 66
     1
 40
0.003000
 41
0.003000
  0
VERTEX
  8
PLAN_1
 62
     5
  6
CONTINUOUS
 10
-1.935811
 20
1.281260
  0
VERTEX
  8
PLAN_1
 62
     5
  6
CONTINUOUS
 10
-1.935811
 20
1.289579
  0
SEQEND
  8
0
  0
POLYLINE
  8
PLAN_1
 62
     5
  6
CONTINUOUS
 66
     1
 40
0.003000
 41
0.003000
  0
VERTEX
  8
PLAN_1
 62
     5
  6
CONTINUOUS
 10
-1.935811
 20
1.297898
  0
VERTEX
  8
PLAN_1
 62
     5
  6
CONTINUOUS
 10
-1.935811
 20
1.306217
  0
SEQEND
  8
0
  0
POLYLINE
  8
PLAN_1
 62
     5
  6
CONTINUOUS
 66
     1
 40
0.003000
 41
0.003000
  0
VERTEX
  8
PLAN_1
 62
     5
  6
CONTINUOUS
 10
-1.935811
 20
1.314535
  0
VERTEX
  8
PLAN_1
 62
     5
  6
CONTINUOUS
 10
-1.935811
 20
1.322854
  0
SEQEND
  8
0
  0
POLYLINE
  8
PLAN_1
 62
     5
  6
CONTINUOUS
 66
     1
 40
0.003000
 41
0.003000
  0
VERTEX
  8
PLAN_1
 62
     5
  6
CONTINUOUS
 10
-1.935811
 20
1.331173
  0
VERTEX
  8
PLAN_1
 62
     5
  6
CONTINUOUS
 10
-1.935811
 20
1.339492
  0
SEQEND
  8
0
  0
POLYLINE
  8
PLAN_1
 62
     5
  6
CONTINUOUS
 66
     1
 40
0.003000
 41
0.003000
  0
VERTEX
  8
PLAN_1
 62
     5
  6
CONTINUOUS
 10
-1.935811
 20
1.347811
  0
VERTEX
  8
PLAN_1
 62
     5
  6
CONTINUOUS
 10
-1.935811
 20
1.356130
  0
SEQEND
  8
0
  0
POLYLINE
  8
PLAN_1
 62
     5
  6
CONTINUOUS
 66
     1
 40
0.003000
 41
0.003000
  0
VERTEX
  8
PLAN_1
 62
     5
  6
CONTINUOUS
 10
-1.935811
 20
1.364449
  0
VERTEX
  8
PLAN_1
 62
     5
  6
CONTINUOUS
 10
-1.935811
 20
1.372764
  0
SEQEND
  8
0
  0
POLYLINE
  8
PLAN_1
 62
     5
  6
CONTINUOUS
 66
     1
 40
0.003000
 41
0.003000
  0
VERTEX
  8
PLAN_1
 62
     5
  6
CONTINUOUS
 10
-1.935811
 20
1.381083
  0
VERTEX
  8
PLAN_1
 62
     5
  6
CONTINUOUS
 10
-1.935811
 20
1.389402
  0
SEQEND
  8
0
  0
POLYLINE
  8
PLAN_1
 62
     5
  6
CONTINUOUS
 66
     1
 40
0.003000
 41
0.003000
  0
VERTEX
  8
PLAN_1
 62
     5
  6
CONTINUOUS
 10
-1.935811
 20
1.397720
  0
VERTEX
  8
PLAN_1
 62
     5
  6
CONTINUOUS
 10
-1.935811
 20
1.406039
  0
SEQEND
  8
0
  0
POLYLINE
  8
PLAN_1
 62
     5
  6
CONTINUOUS
 66
     1
 40
0.003000
 41
0.003000
  0
VERTEX
  8
PLAN_1
 62
     5
  6
CONTINUOUS
 10
-1.935811
 20
1.414358
  0
VERTEX
  8
PLAN_1
 62
     5
  6
CONTINUOUS
 10
-1.935811
 20
1.422677
  0
SEQEND
  8
0
  0
POLYLINE
  8
PLAN_1
 62
     5
  6
CONTINUOUS
 66
     1
 40
0.003000
 41
0.003000
  0
VERTEX
  8
PLAN_1
 62
     5
  6
CONTINUOUS
 10
-1.935811
 20
1.430996
  0
VERTEX
  8
PLAN_1
 62
     5
  6
CONTINUOUS
 10
-1.935811
 20
1.439315
  0
SEQEND
  8
0
  0
POLYLINE
  8
PLAN_1
 62
     5
  6
CONTINUOUS
 66
     1
 40
0.003000
 41
0.003000
  0
VERTEX
  8
PLAN_1
 62
     5
  6
CONTINUOUS
 10
-1.935811
 20
1.447634
  0
VERTEX
  8
PLAN_1
 62
     5
  6
CONTINUOUS
 10
-1.935811
 20
1.455953
  0
SEQEND
  8
0
  0
POLYLINE
  8
PLAN_1
 62
     5
  6
CONTINUOUS
 66
     1
 40
0.003000
 41
0.003000
  0
VERTEX
  8
PLAN_1
 62
     5
  6
CONTINUOUS
 10
-1.935811
 20
1.464268
  0
VERTEX
  8
PLAN_1
 62
     5
  6
CONTINUOUS
 10
-1.935811
 20
1.473028
  0
SEQEND
  8
0
  0
POLYLINE
  8
PLAN_1
 62
     5
  6
CONTINUOUS
 66
     1
 40
0.003000
 41
0.003000
  0
VERTEX
  8
PLAN_1
 62
     5
  6
CONTINUOUS
 10
-1.935811
 20
1.481343
  0
VERTEX
  8
PLAN_1
 62
     5
  6
CONTINUOUS
 10
-1.935811
 20
1.489661
  0
SEQEND
  8
0
  0
POLYLINE
  8
PLAN_1
 62
     5
  6
CONTINUOUS
 66
     1
 40
0.003000
 41
0.003000
  0
VERTEX
  8
PLAN_1
 62
     5
  6
CONTINUOUS
 10
-1.935811
 20
1.491850
  0
VERTEX
  8
PLAN_1
 62
     5
  6
CONTINUOUS
 10
-1.936248
 20
1.496228
  0
VERTEX
  8
PLAN_1
 62
     5
  6
CONTINUOUS
 10
-1.935811
 20
1.500169
  0
SEQEND
  8
0
  0
POLYLINE
  8
PLAN_1
 62
     5
  6
CONTINUOUS
 66
     1
 40
0.003000
 41
0.003000
  0
VERTEX
  8
PLAN_1
 62
     5
  6
CONTINUOUS
 10
-1.934059
 20
1.508488
  0
VERTEX
  8
PLAN_1
 62
     5
  6
CONTINUOUS
 10
-1.933185
 20
1.510677
  0
VERTEX
  8
PLAN_1
 62
     5
  6
CONTINUOUS
 10
-1.931433
 20
1.513744
  0
VERTEX
  8
PLAN_1
 62
     5
  6
CONTINUOUS
 10
-1.930118
 20
1.515933
  0
SEQEND
  8
0
  0
POLYLINE
  8
PLAN_1
 62
     5
  6
CONTINUOUS
 66
     1
 40
0.003000
 41
0.003000
  0
VERTEX
  8
PLAN_1
 62
     5
  6
CONTINUOUS
 10
-1.924429
 20
1.522063
  0
VERTEX
  8
PLAN_1
 62
     5
  6
CONTINUOUS
 10
-1.921362
 20
1.524252
  0
VERTEX
  8
PLAN_1
 62
     5
  6
CONTINUOUS
 10
-1.918299
 20
1.526000
  0
VERTEX
  8
PLAN_1
 62
     5
  6
CONTINUOUS
 10
-1.917421
 20
1.526441
  0
SEQEND
  8
0
  0
POLYLINE
  8
PLAN_1
 62
     5
  6
CONTINUOUS
 66
     1
 40
0.003000
 41
0.003000
  0
VERTEX
  8
PLAN_1
 62
     5
  6
CONTINUOUS
 10
-1.909543
 20
1.529504
  0
VERTEX
  8
PLAN_1
 62
     5
  6
CONTINUOUS
 10
-1.907791
 20
1.529941
  0
VERTEX
  8
PLAN_1
 62
     5
  6
CONTINUOUS
 10
-1.904287
 20
1.530382
  0
VERTEX
  8
PLAN_1
 62
     5
  6
CONTINUOUS
 10
-1.901224
 20
1.530382
  0
SEQEND
  8
0
  0
POLYLINE
  8
PLAN_1
 62
     5
  6
CONTINUOUS
 66
     1
 40
0.003000
 41
0.003000
  0
VERTEX
  8
PLAN_1
 62
     5
  6
CONTINUOUS
 10
-1.900346
 20
1.530382
  0
VERTEX
  8
PLAN_1
 62
     5
  6
CONTINUOUS
 10
-1.892028
 20
1.530382
  0
SEQEND
  8
0
  0
POLYLINE
  8
PLAN_1
 62
     5
  6
CONTINUOUS
 66
     1
 40
0.003000
 41
0.003000
  0
VERTEX
  8
PLAN_1
 62
     5
  6
CONTINUOUS
 10
-1.883709
 20
1.530382
  0
VERTEX
  8
PLAN_1
 62
     5
  6
CONTINUOUS
 10
-1.875394
 20
1.530382
  0
SEQEND
  8
0
  0
POLYLINE
  8
PLAN_1
 62
     5
  6
CONTINUOUS
 66
     1
 40
0.003000
 41
0.003000
  0
VERTEX
  8
PLAN_1
 62
     5
  6
CONTINUOUS
 10
-1.867075
 20
1.530382
  0
VERTEX
  8
PLAN_1
 62
     5
  6
CONTINUOUS
 10
-1.858756
 20
1.530382
  0
SEQEND
  8
0
  0
POLYLINE
  8
PLAN_1
 62
     5
  6
CONTINUOUS
 66
     1
 40
0.003000
 41
0.003000
  0
VERTEX
  8
PLAN_1
 62
     5
  6
CONTINUOUS
 10
-1.850437
 20
1.530382
  0
VERTEX
  8
PLAN_1
 62
     5
  6
CONTINUOUS
 10
-1.842118
 20
1.530382
  0
SEQEND
  8
0
  0
POLYLINE
  8
PLAN_1
 62
     5
  6
CONTINUOUS
 66
     1
 40
0.003000
 41
0.003000
  0
VERTEX
  8
PLAN_1
 62
     5
  6
CONTINUOUS
 10
-1.833799
 20
1.530382
  0
VERTEX
  8
PLAN_1
 62
     5
  6
CONTINUOUS
 10
-1.825480
 20
1.530382
  0
SEQEND
  8
0
  0
POLYLINE
  8
PLAN_1
 62
     5
  6
CONTINUOUS
 66
     1
 40
0.003000
 41
0.003000
  0
VERTEX
  8
PLAN_1
 62
     5
  6
CONTINUOUS
 10
-1.817161
 20
1.530382
  0
VERTEX
  8
PLAN_1
 62
     5
  6
CONTINUOUS
 10
-1.808843
 20
1.530382
  0
SEQEND
  8
0
  0
POLYLINE
  8
PLAN_1
 62
     5
  6
CONTINUOUS
 66
     1
 40
0.003000
 41
0.003000
  0
VERTEX
  8
PLAN_1
 62
     5
  6
CONTINUOUS
 10
-1.800087
 20
1.530382
  0
VERTEX
  8
PLAN_1
 62
     5
  6
CONTINUOUS
 10
-1.791768
 20
1.530382
  0
SEQEND
  8
0
  0
POLYLINE
  8
PLAN_1
 62
     5
  6
CONTINUOUS
 66
     1
 40
0.003000
 41
0.003000
  0
VERTEX
  8
PLAN_1
 62
     5
  6
CONTINUOUS
 10
-1.783449
 20
1.530382
  0
VERTEX
  8
PLAN_1
 62
     5
  6
CONTINUOUS
 10
-1.775130
 20
1.530382
  0
SEQEND
  8
0
  0
POLYLINE
  8
PLAN_1
 62
     5
  6
CONTINUOUS
 66
     1
 40
0.003000
 41
0.003000
  0
VERTEX
  8
PLAN_1
 62
     5
  6
CONTINUOUS
 10
-1.766815
 20
1.530382
  0
VERTEX
  8
PLAN_1
 62
     5
  6
CONTINUOUS
 10
-1.758496
 20
1.530382
  0
SEQEND
  8
0
  0
POLYLINE
  8
PLAN_1
 62
     5
  6
CONTINUOUS
 66
     1
 40
0.003000
 41
0.003000
  0
VERTEX
  8
PLAN_1
 62
     5
  6
CONTINUOUS
 10
-1.750177
 20
1.530382
  0
VERTEX
  8
PLAN_1
 62
     5
  6
CONTINUOUS
 10
-1.741858
 20
1.530382
  0
SEQEND
  8
0
  0
POLYLINE
  8
PLAN_1
 62
     5
  6
CONTINUOUS
 66
     1
 40
0.003000
 41
0.003000
  0
VERTEX
  8
PLAN_1
 62
     5
  6
CONTINUOUS
 10
-1.733539
 20
1.530382
  0
VERTEX
  8
PLAN_1
 62
     5
  6
CONTINUOUS
 10
-1.725220
 20
1.530382
  0
SEQEND
  8
0
  0
POLYLINE
  8
PLAN_1
 62
     5
  6
CONTINUOUS
 66
     1
 40
0.003000
 41
0.003000
  0
VERTEX
  8
PLAN_1
 62
     5
  6
CONTINUOUS
 10
-1.716902
 20
1.530382
  0
VERTEX
  8
PLAN_1
 62
     5
  6
CONTINUOUS
 10
-1.708583
 20
1.530382
  0
SEQEND
  8
0
  0
POLYLINE
  8
PLAN_1
 62
     5
  6
CONTINUOUS
 66
     1
 40
0.003000
 41
0.003000
  0
VERTEX
  8
PLAN_1
 62
     5
  6
CONTINUOUS
 10
-1.700264
 20
1.530382
  0
VERTEX
  8
PLAN_1
 62
     5
  6
CONTINUOUS
 10
-1.691945
 20
1.530382
  0
SEQEND
  8
0
  0
POLYLINE
  8
PLAN_1
 62
     5
  6
CONTINUOUS
 66
     1
 40
0.003000
 41
0.003000
  0
VERTEX
  8
PLAN_1
 62
     5
  6
CONTINUOUS
 10
-1.683626
 20
1.530382
  0
VERTEX
  8
PLAN_1
 62
     5
  6
CONTINUOUS
 10
-1.675307
 20
1.530382
  0
SEQEND
  8
0
  0
POLYLINE
  8
PLAN_1
 62
     5
  6
CONTINUOUS
 66
     1
 40
0.003000
 41
0.003000
  0
VERTEX
  8
PLAN_1
 62
     5
  6
CONTINUOUS
 10
-1.666992
 20
1.530382
  0
VERTEX
  8
PLAN_1
 62
     5
  6
CONTINUOUS
 10
-1.658673
 20
1.530382
  0
SEQEND
  8
0
  0
POLYLINE
  8
PLAN_1
 62
     5
  6
CONTINUOUS
 66
     1
 40
0.003000
 41
0.003000
  0
VERTEX
  8
PLAN_1
 62
     5
  6
CONTINUOUS
 10
-1.650354
 20
1.530382
  0
VERTEX
  8
PLAN_1
 62
     5
  6
CONTINUOUS
 10
-1.642035
 20
1.530382
  0
SEQEND
  8
0
  0
POLYLINE
  8
PLAN_1
 62
     5
  6
CONTINUOUS
 66
     1
 40
0.003000
 41
0.003000
  0
VERTEX
  8
PLAN_1
 62
     5
  6
CONTINUOUS
 10
-1.633717
 20
1.530382
  0
VERTEX
  8
PLAN_1
 62
     5
  6
CONTINUOUS
 10
-1.625398
 20
1.530382
  0
SEQEND
  8
0
  0
POLYLINE
  8
PLAN_1
 62
     5
  6
CONTINUOUS
 66
     1
 40
0.003000
 41
0.003000
  0
VERTEX
  8
PLAN_1
 62
     5
  6
CONTINUOUS
 10
-1.617079
 20
1.530382
  0
VERTEX
  8
PLAN_1
 62
     5
  6
CONTINUOUS
 10
-1.608760
 20
1.530382
  0
SEQEND
  8
0
  0
POLYLINE
  8
PLAN_1
 62
     5
  6
CONTINUOUS
 66
     1
 40
0.003000
 41
0.003000
  0
VERTEX
  8
PLAN_1
 62
     5
  6
CONTINUOUS
 10
-1.600441
 20
1.530382
  0
VERTEX
  8
PLAN_1
 62
     5
  6
CONTINUOUS
 10
-1.592122
 20
1.530382
  0
SEQEND
  8
0
  0
POLYLINE
  8
PLAN_1
 62
     5
  6
CONTINUOUS
 66
     1
 40
0.003000
 41
0.003000
  0
VERTEX
  8
PLAN_1
 62
     5
  6
CONTINUOUS
 10
-1.583803
 20
1.530382
  0
VERTEX
  8
PLAN_1
 62
     5
  6
CONTINUOUS
 10
-1.575488
 20
1.530382
  0
SEQEND
  8
0
  0
POLYLINE
  8
PLAN_1
 62
     5
  6
CONTINUOUS
 66
     1
 40
0.003000
 41
0.003000
  0
VERTEX
  8
PLAN_1
 62
     5
  6
CONTINUOUS
 10
-1.567169
 20
1.530382
  0
VERTEX
  8
PLAN_1
 62
     5
  6
CONTINUOUS
 10
-1.558850
 20
1.530382
  0
SEQEND
  8
0
  0
POLYLINE
  8
PLAN_1
 62
     5
  6
CONTINUOUS
 66
     1
 40
0.003000
 41
0.003000
  0
VERTEX
  8
PLAN_1
 62
     5
  6
CONTINUOUS
 10
-1.550531
 20
1.530382
  0
VERTEX
  8
PLAN_1
 62
     5
  6
CONTINUOUS
 10
-1.542213
 20
1.530382
  0
SEQEND
  8
0
  0
POLYLINE
  8
PLAN_1
 62
     5
  6
CONTINUOUS
 66
     1
 40
0.003000
 41
0.003000
  0
VERTEX
  8
PLAN_1
 62
     5
  6
CONTINUOUS
 10
-1.533894
 20
1.530382
  0
VERTEX
  8
PLAN_1
 62
     5
  6
CONTINUOUS
 10
-1.525575
 20
1.530382
  0
SEQEND
  8
0
  0
POLYLINE
  8
PLAN_1
 62
     5
  6
CONTINUOUS
 66
     1
 40
0.003000
 41
0.003000
  0
VERTEX
  8
PLAN_1
 62
     5
  6
CONTINUOUS
 10
-1.517256
 20
1.530382
  0
VERTEX
  8
PLAN_1
 62
     5
  6
CONTINUOUS
 10
-1.508937
 20
1.530382
  0
SEQEND
  8
0
  0
POLYLINE
  8
PLAN_1
 62
     5
  6
CONTINUOUS
 66
     1
 40
0.003000
 41
0.003000
  0
VERTEX
  8
PLAN_1
 62
     5
  6
CONTINUOUS
 10
-1.500618
 20
1.530382
  0
VERTEX
  8
PLAN_1
 62
     5
  6
CONTINUOUS
 10
-1.492299
 20
1.530382
  0
SEQEND
  8
0
  0
POLYLINE
  8
PLAN_1
 62
     5
  6
CONTINUOUS
 66
     1
 40
0.003000
 41
0.003000
  0
VERTEX
  8
PLAN_1
 62
     5
  6
CONTINUOUS
 10
-1.483984
 20
1.530382
  0
VERTEX
  8
PLAN_1
 62
     5
  6
CONTINUOUS
 10
-1.475665
 20
1.530382
  0
SEQEND
  8
0
  0
POLYLINE
  8
PLAN_1
 62
     5
  6
CONTINUOUS
 66
     1
 40
0.003000
 41
0.003000
  0
VERTEX
  8
PLAN_1
 62
     5
  6
CONTINUOUS
 10
-1.467346
 20
1.530382
  0
VERTEX
  8
PLAN_1
 62
     5
  6
CONTINUOUS
 10
-1.459028
 20
1.530382
  0
SEQEND
  8
0
  0
POLYLINE
  8
PLAN_1
 62
     5
  6
CONTINUOUS
 66
     1
 40
0.003000
 41
0.003000
  0
VERTEX
  8
PLAN_1
 62
     5
  6
CONTINUOUS
 10
-1.450709
 20
1.530382
  0
VERTEX
  8
PLAN_1
 62
     5
  6
CONTINUOUS
 10
-1.442390
 20
1.530382
  0
SEQEND
  8
0
  0
POLYLINE
  8
PLAN_1
 62
     5
  6
CONTINUOUS
 66
     1
 40
0.003000
 41
0.003000
  0
VERTEX
  8
PLAN_1
 62
     5
  6
CONTINUOUS
 10
-1.433634
 20
1.530382
  0
VERTEX
  8
PLAN_1
 62
     5
  6
CONTINUOUS
 10
-1.425315
 20
1.530382
  0
SEQEND
  8
0
  0
POLYLINE
  8
PLAN_1
 62
     5
  6
CONTINUOUS
 66
     1
 40
0.003000
 41
0.003000
  0
VERTEX
  8
PLAN_1
 62
     5
  6
CONTINUOUS
 10
-1.416996
 20
1.530382
  0
VERTEX
  8
PLAN_1
 62
     5
  6
CONTINUOUS
 10
-1.408677
 20
1.530382
  0
SEQEND
  8
0
  0
POLYLINE
  8
PLAN_1
 62
     5
  6
CONTINUOUS
 66
     1
 40
0.003000
 41
0.003000
  0
VERTEX
  8
PLAN_1
 62
     5
  6
CONTINUOUS
 10
-1.400358
 20
1.530382
  0
VERTEX
  8
PLAN_1
 62
     5
  6
CONTINUOUS
 10
-1.392039
 20
1.530382
  0
SEQEND
  8
0
  0
POLYLINE
  8
PLAN_1
 62
     5
  6
CONTINUOUS
 66
     1
 40
0.003000
 41
0.003000
  0
VERTEX
  8
PLAN_1
 62
     5
  6
CONTINUOUS
 10
-1.383720
 20
1.530382
  0
VERTEX
  8
PLAN_1
 62
     5
  6
CONTINUOUS
 10
-1.375402
 20
1.530382
  0
SEQEND
  8
0
  0
POLYLINE
  8
PLAN_1
 62
     5
  6
CONTINUOUS
 66
     1
 40
0.003000
 41
0.003000
  0
VERTEX
  8
PLAN_1
 62
     5
  6
CONTINUOUS
 10
-1.367087
 20
1.530382
  0
VERTEX
  8
PLAN_1
 62
     5
  6
CONTINUOUS
 10
-1.358768
 20
1.530382
  0
SEQEND
  8
0
  0
POLYLINE
  8
PLAN_1
 62
     5
  6
CONTINUOUS
 66
     1
 40
0.003000
 41
0.003000
  0
VERTEX
  8
PLAN_1
 62
     5
  6
CONTINUOUS
 10
-1.350449
 20
1.530382
  0
VERTEX
  8
PLAN_1
 62
     5
  6
CONTINUOUS
 10
-1.342130
 20
1.530382
  0
SEQEND
  8
0
  0
POLYLINE
  8
PLAN_1
 62
     5
  6
CONTINUOUS
 66
     1
 40
0.003000
 41
0.003000
  0
VERTEX
  8
PLAN_1
 62
     5
  6
CONTINUOUS
 10
-1.333811
 20
1.530382
  0
VERTEX
  8
PLAN_1
 62
     5
  6
CONTINUOUS
 10
-1.325492
 20
1.530382
  0
SEQEND
  8
0
  0
POLYLINE
  8
PLAN_1
 62
     5
  6
CONTINUOUS
 66
     1
 40
0.003000
 41
0.003000
  0
VERTEX
  8
PLAN_1
 62
     5
  6
CONTINUOUS
 10
-1.317173
 20
1.530382
  0
VERTEX
  8
PLAN_1
 62
     5
  6
CONTINUOUS
 10
-1.308854
 20
1.530382
  0
SEQEND
  8
0
  0
POLYLINE
  8
PLAN_1
 62
     5
  6
CONTINUOUS
 66
     1
 40
0.003000
 41
0.003000
  0
VERTEX
  8
PLAN_1
 62
     5
  6
CONTINUOUS
 10
-1.300535
 20
1.530382
  0
VERTEX
  8
PLAN_1
 62
     5
  6
CONTINUOUS
 10
-1.292217
 20
1.530382
  0
SEQEND
  8
0
  0
POLYLINE
  8
PLAN_1
 62
     5
  6
CONTINUOUS
 66
     1
 40
0.003000
 41
0.003000
  0
VERTEX
  8
PLAN_1
 62
     5
  6
CONTINUOUS
 10
-1.283898
 20
1.530382
  0
VERTEX
  8
PLAN_1
 62
     5
  6
CONTINUOUS
 10
-1.275583
 20
1.530382
  0
SEQEND
  8
0
  0
POLYLINE
  8
PLAN_1
 62
     5
  6
CONTINUOUS
 66
     1
 40
0.003000
 41
0.003000
  0
VERTEX
  8
PLAN_1
 62
     5
  6
CONTINUOUS
 10
-1.267264
 20
1.530382
  0
VERTEX
  8
PLAN_1
 62
     5
  6
CONTINUOUS
 10
-1.258945
 20
1.530382
  0
SEQEND
  8
0
  0
POLYLINE
  8
PLAN_1
 62
     5
  6
CONTINUOUS
 66
     1
 40
0.003000
 41
0.003000
  0
VERTEX
  8
PLAN_1
 62
     5
  6
CONTINUOUS
 10
-1.250626
 20
1.530382
  0
VERTEX
  8
PLAN_1
 62
     5
  6
CONTINUOUS
 10
-1.242307
 20
1.530382
  0
SEQEND
  8
0
  0
POLYLINE
  8
PLAN_1
 62
     5
  6
CONTINUOUS
 66
     1
 40
0.003000
 41
0.003000
  0
VERTEX
  8
PLAN_1
 62
     5
  6
CONTINUOUS
 10
-1.233988
 20
1.530382
  0
VERTEX
  8
PLAN_1
 62
     5
  6
CONTINUOUS
 10
-1.225669
 20
1.530382
  0
SEQEND
  8
0
  0
POLYLINE
  8
PLAN_1
 62
     5
  6
CONTINUOUS
 66
     1
 40
0.003000
 41
0.003000
  0
VERTEX
  8
PLAN_1
 62
     5
  6
CONTINUOUS
 10
-1.217350
 20
1.530382
  0
VERTEX
  8
PLAN_1
 62
     5
  6
CONTINUOUS
 10
-1.209031
 20
1.530382
  0
SEQEND
  8
0
  0
POLYLINE
  8
PLAN_1
 62
     5
  6
CONTINUOUS
 66
     1
 40
0.003000
 41
0.003000
  0
VERTEX
  8
PLAN_1
 62
     5
  6
CONTINUOUS
 10
-1.200713
 20
1.530382
  0
VERTEX
  8
PLAN_1
 62
     5
  6
CONTINUOUS
 10
-1.192394
 20
1.530382
  0
SEQEND
  8
0
  0
POLYLINE
  8
PLAN_1
 62
     5
  6
CONTINUOUS
 66
     1
 40
0.003000
 41
0.003000
  0
VERTEX
  8
PLAN_1
 62
     5
  6
CONTINUOUS
 10
-1.184079
 20
1.530382
  0
VERTEX
  8
PLAN_1
 62
     5
  6
CONTINUOUS
 10
-1.175760
 20
1.530382
  0
SEQEND
  8
0
  0
POLYLINE
  8
PLAN_1
 62
     5
  6
CONTINUOUS
 66
     1
 40
0.003000
 41
0.003000
  0
VERTEX
  8
PLAN_1
 62
     5
  6
CONTINUOUS
 10
-1.167441
 20
1.530382
  0
VERTEX
  8
PLAN_1
 62
     5
  6
CONTINUOUS
 10
-1.159122
 20
1.530382
  0
SEQEND
  8
0
  0
POLYLINE
  8
PLAN_1
 62
     5
  6
CONTINUOUS
 66
     1
 40
0.003000
 41
0.003000
  0
VERTEX
  8
PLAN_1
 62
     5
  6
CONTINUOUS
 10
-1.150803
 20
1.530382
  0
VERTEX
  8
PLAN_1
 62
     5
  6
CONTINUOUS
 10
-1.142484
 20
1.530382
  0
SEQEND
  8
0
  0
POLYLINE
  8
PLAN_1
 62
     5
  6
CONTINUOUS
 66
     1
 40
0.003000
 41
0.003000
  0
VERTEX
  8
PLAN_1
 62
     5
  6
CONTINUOUS
 10
-1.134165
 20
1.530382
  0
VERTEX
  8
PLAN_1
 62
     5
  6
CONTINUOUS
 10
-1.125846
 20
1.530382
  0
SEQEND
  8
0
  0
POLYLINE
  8
PLAN_1
 62
     5
  6
CONTINUOUS
 66
     1
 40
0.003000
 41
0.003000
  0
VERTEX
  8
PLAN_1
 62
     5
  6
CONTINUOUS
 10
-1.117528
 20
1.530382
  0
VERTEX
  8
PLAN_1
 62
     5
  6
CONTINUOUS
 10
-1.109209
 20
1.530382
  0
SEQEND
  8
0
  0
POLYLINE
  8
PLAN_1
 62
     5
  6
CONTINUOUS
 66
     1
 40
0.003000
 41
0.003000
  0
VERTEX
  8
PLAN_1
 62
     5
  6
CONTINUOUS
 10
-1.100890
 20
1.530382
  0
VERTEX
  8
PLAN_1
 62
     5
  6
CONTINUOUS
 10
-1.092575
 20
1.530382
  0
SEQEND
  8
0
  0
POLYLINE
  8
PLAN_1
 62
     5
  6
CONTINUOUS
 66
     1
 40
0.003000
 41
0.003000
  0
VERTEX
  8
PLAN_1
 62
     5
  6
CONTINUOUS
 10
-1.084256
 20
1.530382
  0
VERTEX
  8
PLAN_1
 62
     5
  6
CONTINUOUS
 10
-1.075937
 20
1.530382
  0
SEQEND
  8
0
  0
POLYLINE
  8
PLAN_1
 62
     5
  6
CONTINUOUS
 66
     1
 40
0.003000
 41
0.003000
  0
VERTEX
  8
PLAN_1
 62
     5
  6
CONTINUOUS
 10
-1.067181
 20
1.530382
  0
VERTEX
  8
PLAN_1
 62
     5
  6
CONTINUOUS
 10
-1.058862
 20
1.530382
  0
SEQEND
  8
0
  0
POLYLINE
  8
PLAN_1
 62
     5
  6
CONTINUOUS
 66
     1
 40
0.003000
 41
0.003000
  0
VERTEX
  8
PLAN_1
 62
     5
  6
CONTINUOUS
 10
-1.050543
 20
1.530382
  0
VERTEX
  8
PLAN_1
 62
     5
  6
CONTINUOUS
 10
-1.042224
 20
1.530382
  0
SEQEND
  8
0
  0
POLYLINE
  8
PLAN_1
 62
     5
  6
CONTINUOUS
 66
     1
 40
0.003000
 41
0.003000
  0
VERTEX
  8
PLAN_1
 62
     5
  6
CONTINUOUS
 10
-1.033906
 20
1.530382
  0
VERTEX
  8
PLAN_1
 62
     5
  6
CONTINUOUS
 10
-1.025587
 20
1.530382
  0
SEQEND
  8
0
  0
POLYLINE
  8
PLAN_1
 62
     5
  6
CONTINUOUS
 66
     1
 40
0.003000
 41
0.003000
  0
VERTEX
  8
PLAN_1
 62
     5
  6
CONTINUOUS
 10
-1.017268
 20
1.530382
  0
VERTEX
  8
PLAN_1
 62
     5
  6
CONTINUOUS
 10
-1.008949
 20
1.530382
  0
SEQEND
  8
0
  0
POLYLINE
  8
PLAN_1
 62
     5
  6
CONTINUOUS
 66
     1
 40
0.003000
 41
0.003000
  0
VERTEX
  8
PLAN_1
 62
     5
  6
CONTINUOUS
 10
-1.000630
 20
1.530382
  0
VERTEX
  8
PLAN_1
 62
     5
  6
CONTINUOUS
 10
-0.992311
 20
1.530382
  0
SEQEND
  8
0
  0
POLYLINE
  8
PLAN_1
 62
     5
  6
CONTINUOUS
 66
     1
 40
0.003000
 41
0.003000
  0
VERTEX
  8
PLAN_1
 62
     5
  6
CONTINUOUS
 10
-0.983992
 20
1.530382
  0
VERTEX
  8
PLAN_1
 62
     5
  6
CONTINUOUS
 10
-0.975677
 20
1.530382
  0
SEQEND
  8
0
  0
POLYLINE
  8
PLAN_1
 62
     5
  6
CONTINUOUS
 66
     1
 40
0.003000
 41
0.003000
  0
VERTEX
  8
PLAN_1
 62
     5
  6
CONTINUOUS
 10
-0.967358
 20
1.530382
  0
VERTEX
  8
PLAN_1
 62
     5
  6
CONTINUOUS
 10
-0.959039
 20
1.530382
  0
SEQEND
  8
0
  0
POLYLINE
  8
PLAN_1
 62
     5
  6
CONTINUOUS
 66
     1
 40
0.003000
 41
0.003000
  0
VERTEX
  8
PLAN_1
 62
     5
  6
CONTINUOUS
 10
-0.950720
 20
1.530382
  0
VERTEX
  8
PLAN_1
 62
     5
  6
CONTINUOUS
 10
-0.942402
 20
1.530382
  0
SEQEND
  8
0
  0
POLYLINE
  8
PLAN_1
 62
     5
  6
CONTINUOUS
 66
     1
 40
0.003000
 41
0.003000
  0
VERTEX
  8
PLAN_1
 62
     5
  6
CONTINUOUS
 10
-0.934083
 20
1.530382
  0
VERTEX
  8
PLAN_1
 62
     5
  6
CONTINUOUS
 10
-0.925764
 20
1.530382
  0
SEQEND
  8
0
  0
POLYLINE
  8
PLAN_1
 62
     5
  6
CONTINUOUS
 66
     1
 40
0.003000
 41
0.003000
  0
VERTEX
  8
PLAN_1
 62
     5
  6
CONTINUOUS
 10
-0.917445
 20
1.530382
  0
VERTEX
  8
PLAN_1
 62
     5
  6
CONTINUOUS
 10
-0.909126
 20
1.530382
  0
SEQEND
  8
0
  0
POLYLINE
  8
PLAN_1
 62
     5
  6
CONTINUOUS
 66
     1
 40
0.003000
 41
0.003000
  0
VERTEX
  8
PLAN_1
 62
     5
  6
CONTINUOUS
 10
-0.900807
 20
1.530382
  0
VERTEX
  8
PLAN_1
 62
     5
  6
CONTINUOUS
 10
-0.892488
 20
1.530382
  0
SEQEND
  8
0
  0
POLYLINE
  8
PLAN_1
 62
     5
  6
CONTINUOUS
 66
     1
 40
0.003000
 41
0.003000
  0
VERTEX
  8
PLAN_1
 62
     5
  6
CONTINUOUS
 10
-0.884173
 20
1.530382
  0
VERTEX
  8
PLAN_1
 62
     5
  6
CONTINUOUS
 10
-0.875854
 20
1.530382
  0
SEQEND
  8
0
  0
POLYLINE
  8
PLAN_1
 62
     5
  6
CONTINUOUS
 66
     1
 40
0.003000
 41
0.003000
  0
VERTEX
  8
PLAN_1
 62
     5
  6
CONTINUOUS
 10
-0.867535
 20
1.530382
  0
VERTEX
  8
PLAN_1
 62
     5
  6
CONTINUOUS
 10
-0.859217
 20
1.530382
  0
SEQEND
  8
0
  0
POLYLINE
  8
PLAN_1
 62
     5
  6
CONTINUOUS
 66
     1
 40
0.003000
 41
0.003000
  0
VERTEX
  8
PLAN_1
 62
     5
  6
CONTINUOUS
 10
-0.850898
 20
1.530382
  0
VERTEX
  8
PLAN_1
 62
     5
  6
CONTINUOUS
 10
-0.842579
 20
1.530382
  0
SEQEND
  8
0
  0
POLYLINE
  8
PLAN_1
 62
     5
  6
CONTINUOUS
 66
     1
 40
0.003000
 41
0.003000
  0
VERTEX
  8
PLAN_1
 62
     5
  6
CONTINUOUS
 10
-0.834260
 20
1.530382
  0
VERTEX
  8
PLAN_1
 62
     5
  6
CONTINUOUS
 10
-0.825941
 20
1.530382
  0
SEQEND
  8
0
  0
POLYLINE
  8
PLAN_1
 62
     5
  6
CONTINUOUS
 66
     1
 40
0.003000
 41
0.003000
  0
VERTEX
  8
PLAN_1
 62
     5
  6
CONTINUOUS
 10
-0.817622
 20
1.530382
  0
VERTEX
  8
PLAN_1
 62
     5
  6
CONTINUOUS
 10
-0.809303
 20
1.530382
  0
SEQEND
  8
0
  0
POLYLINE
  8
PLAN_1
 62
     5
  6
CONTINUOUS
 66
     1
 40
0.003000
 41
0.003000
  0
VERTEX
  8
PLAN_1
 62
     5
  6
CONTINUOUS
 10
-0.800984
 20
1.530382
  0
VERTEX
  8
PLAN_1
 62
     5
  6
CONTINUOUS
 10
-0.792669
 20
1.530382
  0
SEQEND
  8
0
  0
POLYLINE
  8
PLAN_1
 62
     5
  6
CONTINUOUS
 66
     1
 40
0.003000
 41
0.003000
  0
VERTEX
  8
PLAN_1
 62
     5
  6
CONTINUOUS
 10
-0.784350
 20
1.530382
  0
VERTEX
  8
PLAN_1
 62
     5
  6
CONTINUOUS
 10
-0.776031
 20
1.530382
  0
SEQEND
  8
0
  0
POLYLINE
  8
PLAN_1
 62
     5
  6
CONTINUOUS
 66
     1
 40
0.003000
 41
0.003000
  0
VERTEX
  8
PLAN_1
 62
     5
  6
CONTINUOUS
 10
-0.767713
 20
1.530382
  0
VERTEX
  8
PLAN_1
 62
     5
  6
CONTINUOUS
 10
-0.759394
 20
1.530382
  0
SEQEND
  8
0
  0
POLYLINE
  8
PLAN_1
 62
     5
  6
CONTINUOUS
 66
     1
 40
0.003000
 41
0.003000
  0
VERTEX
  8
PLAN_1
 62
     5
  6
CONTINUOUS
 10
-0.751075
 20
1.530382
  0
VERTEX
  8
PLAN_1
 62
     5
  6
CONTINUOUS
 10
-0.742756
 20
1.530382
  0
SEQEND
  8
0
  0
POLYLINE
  8
PLAN_1
 62
     5
  6
CONTINUOUS
 66
     1
 40
0.003000
 41
0.003000
  0
VERTEX
  8
PLAN_1
 62
     5
  6
CONTINUOUS
 10
-0.734437
 20
1.530382
  0
VERTEX
  8
PLAN_1
 62
     5
  6
CONTINUOUS
 10
-0.726118
 20
1.530382
  0
SEQEND
  8
0
  0
POLYLINE
  8
PLAN_1
 62
     5
  6
CONTINUOUS
 66
     1
 40
0.003000
 41
0.003000
  0
VERTEX
  8
PLAN_1
 62
     5
  6
CONTINUOUS
 10
-0.717799
 20
1.530382
  0
VERTEX
  8
PLAN_1
 62
     5
  6
CONTINUOUS
 10
-0.709480
 20
1.530382
  0
SEQEND
  8
0
  0
POLYLINE
  8
PLAN_1
 62
     5
  6
CONTINUOUS
 66
     1
 40
0.003000
 41
0.003000
  0
VERTEX
  8
PLAN_1
 62
     5
  6
CONTINUOUS
 10
-0.700724
 20
1.530382
  0
VERTEX
  8
PLAN_1
 62
     5
  6
CONTINUOUS
 10
-0.692406
 20
1.530382
  0
SEQEND
  8
0
  0
POLYLINE
  8
PLAN_1
 62
     5
  6
CONTINUOUS
 66
     1
 40
0.003000
 41
0.003000
  0
VERTEX
  8
PLAN_1
 62
     5
  6
CONTINUOUS
 10
-0.684087
 20
1.530382
  0
VERTEX
  8
PLAN_1
 62
     5
  6
CONTINUOUS
 10
-0.675772
 20
1.530382
  0
SEQEND
  8
0
  0
POLYLINE
  8
PLAN_1
 62
     5
  6
CONTINUOUS
 66
     1
 40
0.003000
 41
0.003000
  0
VERTEX
  8
PLAN_1
 62
     5
  6
CONTINUOUS
 10
-0.667453
 20
1.530382
  0
VERTEX
  8
PLAN_1
 62
     5
  6
CONTINUOUS
 10
-0.659134
 20
1.530382
  0
SEQEND
  8
0
  0
POLYLINE
  8
PLAN_1
 62
     5
  6
CONTINUOUS
 66
     1
 40
0.003000
 41
0.003000
  0
VERTEX
  8
PLAN_1
 62
     5
  6
CONTINUOUS
 10
-0.650815
 20
1.530382
  0
VERTEX
  8
PLAN_1
 62
     5
  6
CONTINUOUS
 10
-0.642496
 20
1.530382
  0
SEQEND
  8
0
  0
POLYLINE
  8
PLAN_1
 62
     5
  6
CONTINUOUS
 66
     1
 40
0.003000
 41
0.003000
  0
VERTEX
  8
PLAN_1
 62
     5
  6
CONTINUOUS
 10
-0.634177
 20
1.530382
  0
VERTEX
  8
PLAN_1
 62
     5
  6
CONTINUOUS
 10
-0.625858
 20
1.530382
  0
SEQEND
  8
0
  0
POLYLINE
  8
PLAN_1
 62
     5
  6
CONTINUOUS
 66
     1
 40
0.003000
 41
0.003000
  0
VERTEX
  8
PLAN_1
 62
     5
  6
CONTINUOUS
 10
-0.617539
 20
1.530382
  0
VERTEX
  8
PLAN_1
 62
     5
  6
CONTINUOUS
 10
-0.609220
 20
1.530382
  0
SEQEND
  8
0
  0
POLYLINE
  8
PLAN_1
 62
     5
  6
CONTINUOUS
 66
     1
 40
0.003000
 41
0.003000
  0
VERTEX
  8
PLAN_1
 62
     5
  6
CONTINUOUS
 10
-0.600902
 20
1.530382
  0
VERTEX
  8
PLAN_1
 62
     5
  6
CONTINUOUS
 10
-0.592583
 20
1.530382
  0
SEQEND
  8
0
  0
POLYLINE
  8
PLAN_1
 62
     5
  6
CONTINUOUS
 66
     1
 40
0.003000
 41
0.003000
  0
VERTEX
  8
PLAN_1
 62
     5
  6
CONTINUOUS
 10
-0.584268
 20
1.530382
  0
VERTEX
  8
PLAN_1
 62
     5
  6
CONTINUOUS
 10
-0.575949
 20
1.530382
  0
SEQEND
  8
0
  0
POLYLINE
  8
PLAN_1
 62
     5
  6
CONTINUOUS
 66
     1
 40
0.003000
 41
0.003000
  0
VERTEX
  8
PLAN_1
 62
     5
  6
CONTINUOUS
 10
-0.567630
 20
1.530382
  0
VERTEX
  8
PLAN_1
 62
     5
  6
CONTINUOUS
 10
-0.559311
 20
1.530382
  0
SEQEND
  8
0
  0
POLYLINE
  8
PLAN_1
 62
     5
  6
CONTINUOUS
 66
     1
 40
0.003000
 41
0.003000
  0
VERTEX
  8
PLAN_1
 62
     5
  6
CONTINUOUS
 10
-0.550992
 20
1.530382
  0
VERTEX
  8
PLAN_1
 62
     5
  6
CONTINUOUS
 10
-0.542673
 20
1.530382
  0
SEQEND
  8
0
  0
POLYLINE
  8
PLAN_1
 62
     5
  6
CONTINUOUS
 66
     1
 40
0.003000
 41
0.003000
  0
VERTEX
  8
PLAN_1
 62
     5
  6
CONTINUOUS
 10
-0.534354
 20
1.530382
  0
VERTEX
  8
PLAN_1
 62
     5
  6
CONTINUOUS
 10
-0.526035
 20
1.530382
  0
SEQEND
  8
0
  0
POLYLINE
  8
PLAN_1
 62
     5
  6
CONTINUOUS
 66
     1
 40
0.003000
 41
0.003000
  0
VERTEX
  8
PLAN_1
 62
     5
  6
CONTINUOUS
 10
-0.517717
 20
1.530382
  0
VERTEX
  8
PLAN_1
 62
     5
  6
CONTINUOUS
 10
-0.509398
 20
1.530382
  0
SEQEND
  8
0
  0
POLYLINE
  8
PLAN_1
 62
     5
  6
CONTINUOUS
 66
     1
 40
0.003000
 41
0.003000
  0
VERTEX
  8
PLAN_1
 62
     5
  6
CONTINUOUS
 10
-0.501079
 20
1.530382
  0
VERTEX
  8
PLAN_1
 62
     5
  6
CONTINUOUS
 10
-0.492764
 20
1.530382
  0
SEQEND
  8
0
  0
POLYLINE
  8
PLAN_1
 62
     5
  6
CONTINUOUS
 66
     1
 40
0.003000
 41
0.003000
  0
VERTEX
  8
PLAN_1
 62
     5
  6
CONTINUOUS
 10
-0.484445
 20
1.530382
  0
VERTEX
  8
PLAN_1
 62
     5
  6
CONTINUOUS
 10
-0.476126
 20
1.530382
  0
SEQEND
  8
0
  0
POLYLINE
  8
PLAN_1
 62
     5
  6
CONTINUOUS
 66
     1
 40
0.003000
 41
0.003000
  0
VERTEX
  8
PLAN_1
 62
     5
  6
CONTINUOUS
 10
-0.467807
 20
1.530382
  0
VERTEX
  8
PLAN_1
 62
     5
  6
CONTINUOUS
 10
-0.459488
 20
1.530382
  0
SEQEND
  8
0
  0
POLYLINE
  8
PLAN_1
 62
     5
  6
CONTINUOUS
 66
     1
 40
0.003000
 41
0.003000
  0
VERTEX
  8
PLAN_1
 62
     5
  6
CONTINUOUS
 10
-0.451169
 20
1.530382
  0
VERTEX
  8
PLAN_1
 62
     5
  6
CONTINUOUS
 10
-0.442850
 20
1.530382
  0
SEQEND
  8
0
  0
POLYLINE
  8
PLAN_1
 62
     5
  6
CONTINUOUS
 66
     1
 40
0.003000
 41
0.003000
  0
VERTEX
  8
PLAN_1
 62
     5
  6
CONTINUOUS
 10
-0.434531
 20
1.530382
  0
VERTEX
  8
PLAN_1
 62
     5
  6
CONTINUOUS
 10
-0.426213
 20
1.530382
  0
SEQEND
  8
0
  0
POLYLINE
  8
PLAN_1
 62
     5
  6
CONTINUOUS
 66
     1
 40
0.003000
 41
0.003000
  0
VERTEX
  8
PLAN_1
 62
     5
  6
CONTINUOUS
 10
-0.417894
 20
1.530382
  0
VERTEX
  8
PLAN_1
 62
     5
  6
CONTINUOUS
 10
-0.409575
 20
1.530382
  0
SEQEND
  8
0
  0
POLYLINE
  8
PLAN_1
 62
     5
  6
CONTINUOUS
 66
     1
 40
0.003000
 41
0.003000
  0
VERTEX
  8
PLAN_1
 62
     5
  6
CONTINUOUS
 10
-0.401260
 20
1.530382
  0
VERTEX
  8
PLAN_1
 62
     5
  6
CONTINUOUS
 10
-0.394252
 20
1.530382
  0
SEQEND
  8
0
  0
POLYLINE
  8
PLAN_1
 62
     5
  6
CONTINUOUS
 66
     1
 40
0.003000
 41
0.003000
  0
VERTEX
  8
PLAN_1
 62
     5
  6
CONTINUOUS
 10
-0.401260
 20
1.530382
  0
VERTEX
  8
PLAN_1
 62
     5
  6
CONTINUOUS
 10
-0.394252
 20
1.530382
  0
SEQEND
  8
0
  0
POLYLINE
  8
PLAN_1
 62
     5
  6
CONTINUOUS
 66
     1
 40
0.003000
 41
0.003000
  0
VERTEX
  8
PLAN_1
 62
     5
  6
CONTINUOUS
 10
-0.394252
 20
1.530382
  0
VERTEX
  8
PLAN_1
 62
     5
  6
CONTINUOUS
 10
-0.390311
 20
1.530382
  0
VERTEX
  8
PLAN_1
 62
     5
  6
CONTINUOUS
 10
-0.386374
 20
1.529504
  0
VERTEX
  8
PLAN_1
 62
     5
  6
CONTINUOUS
 10
-0.385933
 20
1.529504
  0
SEQEND
  8
0
  0
POLYLINE
  8
PLAN_1
 62
     5
  6
CONTINUOUS
 66
     1
 40
0.003000
 41
0.003000
  0
VERTEX
  8
PLAN_1
 62
     5
  6
CONTINUOUS
 10
-0.378055
 20
1.526878
  0
VERTEX
  8
PLAN_1
 62
     5
  6
CONTINUOUS
 10
-0.375866
 20
1.526000
  0
VERTEX
  8
PLAN_1
 62
     5
  6
CONTINUOUS
 10
-0.372799
 20
1.523811
  0
VERTEX
  8
PLAN_1
 62
     5
  6
CONTINUOUS
 10
-0.371047
 20
1.522500
  0
SEQEND
  8
0
  0
POLYLINE
  8
PLAN_1
 62
     5
  6
CONTINUOUS
 66
     1
 40
0.003000
 41
0.003000
  0
VERTEX
  8
PLAN_1
 62
     5
  6
CONTINUOUS
 10
-0.364917
 20
1.516807
  0
VERTEX
  8
PLAN_1
 62
     5
  6
CONTINUOUS
 10
-0.364480
 20
1.516807
  0
VERTEX
  8
PLAN_1
 62
     5
  6
CONTINUOUS
 10
-0.361854
 20
1.513744
  0
VERTEX
  8
PLAN_1
 62
     5
  6
CONTINUOUS
 10
-0.360102
 20
1.510677
  0
VERTEX
  8
PLAN_1
 62
     5
  6
CONTINUOUS
 10
-0.359665
 20
1.510240
  0
SEQEND
  8
0
  0
POLYLINE
  8
PLAN_1
 62
     5
  6
CONTINUOUS
 66
     1
 40
0.003000
 41
0.003000
  0
VERTEX
  8
PLAN_1
 62
     5
  6
CONTINUOUS
 10
-0.356602
 20
1.502799
  0
VERTEX
  8
PLAN_1
 62
     5
  6
CONTINUOUS
 10
-0.355724
 20
1.500169
  0
VERTEX
  8
PLAN_1
 62
     5
  6
CONTINUOUS
 10
-0.354850
 20
1.496228
  0
VERTEX
  8
PLAN_1
 62
     5
  6
CONTINUOUS
 10
-0.354409
 20
1.494480
  0
SEQEND
  8
0
  0
POLYLINE
  8
PLAN_1
 62
     5
  6
CONTINUOUS
 66
     1
 40
0.003000
 41
0.003000
  0
VERTEX
  8
PLAN_1
 62
     5
  6
CONTINUOUS
 10
-0.354409
 20
1.492291
  0
VERTEX
  8
PLAN_1
 62
     5
  6
CONTINUOUS
 10
-0.354409
 20
1.483972
  0
SEQEND
  8
0
  0
POLYLINE
  8
PLAN_1
 62
     5
  6
CONTINUOUS
 66
     1
 40
0.003000
 41
0.003000
  0
VERTEX
  8
PLAN_1
 62
     5
  6
CONTINUOUS
 10
-0.354409
 20
1.475654
  0
VERTEX
  8
PLAN_1
 62
     5
  6
CONTINUOUS
 10
-0.354409
 20
1.467335
  0
SEQEND
  8
0
  0
POLYLINE
  8
PLAN_1
 62
     5
  6
CONTINUOUS
 66
     1
 40
0.003000
 41
0.003000
  0
VERTEX
  8
PLAN_1
 62
     5
  6
CONTINUOUS
 10
-0.354409
 20
1.459016
  0
VERTEX
  8
PLAN_1
 62
     5
  6
CONTINUOUS
 10
-0.354409
 20
1.450697
  0
SEQEND
  8
0
  0
POLYLINE
  8
PLAN_1
 62
     5
  6
CONTINUOUS
 66
     1
 40
0.003000
 41
0.003000
  0
VERTEX
  8
PLAN_1
 62
     5
  6
CONTINUOUS
 10
-0.354409
 20
1.442378
  0
VERTEX
  8
PLAN_1
 62
     5
  6
CONTINUOUS
 10
-0.354409
 20
1.434059
  0
SEQEND
  8
0
  0
POLYLINE
  8
PLAN_1
 62
     5
  6
CONTINUOUS
 66
     1
 40
0.003000
 41
0.003000
  0
VERTEX
  8
PLAN_1
 62
     5
  6
CONTINUOUS
 10
-0.354409
 20
1.425740
  0
VERTEX
  8
PLAN_1
 62
     5
  6
CONTINUOUS
 10
-0.354409
 20
1.417421
  0
SEQEND
  8
0
  0
POLYLINE
  8
PLAN_1
 62
     5
  6
CONTINUOUS
 66
     1
 40
0.003000
 41
0.003000
  0
VERTEX
  8
PLAN_1
 62
     5
  6
CONTINUOUS
 10
-0.354409
 20
1.409106
  0
VERTEX
  8
PLAN_1
 62
     5
  6
CONTINUOUS
 10
-0.354409
 20
1.400787
  0
SEQEND
  8
0
  0
POLYLINE
  8
PLAN_1
 62
     5
  6
CONTINUOUS
 66
     1
 40
0.003000
 41
0.003000
  0
VERTEX
  8
PLAN_1
 62
     5
  6
CONTINUOUS
 10
-0.354409
 20
1.392469
  0
VERTEX
  8
PLAN_1
 62
     5
  6
CONTINUOUS
 10
-0.354409
 20
1.384150
  0
SEQEND
  8
0
  0
POLYLINE
  8
PLAN_1
 62
     5
  6
CONTINUOUS
 66
     1
 40
0.003000
 41
0.003000
  0
VERTEX
  8
PLAN_1
 62
     5
  6
CONTINUOUS
 10
-0.354409
 20
1.375831
  0
VERTEX
  8
PLAN_1
 62
     5
  6
CONTINUOUS
 10
-0.354409
 20
1.367512
  0
SEQEND
  8
0
  0
POLYLINE
  8
PLAN_1
 62
     5
  6
CONTINUOUS
 66
     1
 40
0.003000
 41
0.003000
  0
VERTEX
  8
PLAN_1
 62
     5
  6
CONTINUOUS
 10
-0.354409
 20
1.359193
  0
VERTEX
  8
PLAN_1
 62
     5
  6
CONTINUOUS
 10
-0.354409
 20
1.350874
  0
SEQEND
  8
0
  0
POLYLINE
  8
PLAN_1
 62
     5
  6
CONTINUOUS
 66
     1
 40
0.003000
 41
0.003000
  0
VERTEX
  8
PLAN_1
 62
     5
  6
CONTINUOUS
 10
-0.354409
 20
1.342555
  0
VERTEX
  8
PLAN_1
 62
     5
  6
CONTINUOUS
 10
-0.354409
 20
1.334236
  0
SEQEND
  8
0
  0
POLYLINE
  8
PLAN_1
 62
     5
  6
CONTINUOUS
 66
     1
 40
0.003000
 41
0.003000
  0
VERTEX
  8
PLAN_1
 62
     5
  6
CONTINUOUS
 10
-0.354409
 20
1.325917
  0
VERTEX
  8
PLAN_1
 62
     5
  6
CONTINUOUS
 10
-0.354409
 20
1.317598
  0
SEQEND
  8
0
  0
POLYLINE
  8
PLAN_1
 62
     5
  6
CONTINUOUS
 66
     1
 40
0.003000
 41
0.003000
  0
VERTEX
  8
PLAN_1
 62
     5
  6
CONTINUOUS
 10
-0.354409
 20
1.309283
  0
VERTEX
  8
PLAN_1
 62
     5
  6
CONTINUOUS
 10
-0.354409
 20
1.300965
  0
SEQEND
  8
0
  0
POLYLINE
  8
PLAN_1
 62
     5
  6
CONTINUOUS
 66
     1
 40
0.003000
 41
0.003000
  0
VERTEX
  8
PLAN_1
 62
     5
  6
CONTINUOUS
 10
-0.354409
 20
1.292646
  0
VERTEX
  8
PLAN_1
 62
     5
  6
CONTINUOUS
 10
-0.354409
 20
1.284327
  0
SEQEND
  8
0
  0
POLYLINE
  8
PLAN_1
 62
     5
  6
CONTINUOUS
 66
     1
 40
0.003000
 41
0.003000
  0
VERTEX
  8
PLAN_1
 62
     5
  6
CONTINUOUS
 10
-0.354409
 20
1.276008
  0
VERTEX
  8
PLAN_1
 62
     5
  6
CONTINUOUS
 10
-0.354409
 20
1.267689
  0
SEQEND
  8
0
  0
POLYLINE
  8
PLAN_1
 62
     5
  6
CONTINUOUS
 66
     1
 40
0.003000
 41
0.003000
  0
VERTEX
  8
PLAN_1
 62
     5
  6
CONTINUOUS
 10
-0.354409
 20
1.259370
  0
VERTEX
  8
PLAN_1
 62
     5
  6
CONTINUOUS
 10
-0.354409
 20
1.251051
  0
SEQEND
  8
0
  0
POLYLINE
  8
PLAN_1
 62
     5
  6
CONTINUOUS
 66
     1
 40
0.003000
 41
0.003000
  0
VERTEX
  8
PLAN_1
 62
     5
  6
CONTINUOUS
 10
-0.354409
 20
1.242295
  0
VERTEX
  8
PLAN_1
 62
     5
  6
CONTINUOUS
 10
-0.354409
 20
1.233976
  0
SEQEND
  8
0
  0
POLYLINE
  8
PLAN_1
 62
     5
  6
CONTINUOUS
 66
     1
 40
0.003000
 41
0.003000
  0
VERTEX
  8
PLAN_1
 62
     5
  6
CONTINUOUS
 10
-0.354409
 20
1.225657
  0
VERTEX
  8
PLAN_1
 62
     5
  6
CONTINUOUS
 10
-0.354409
 20
1.217339
  0
SEQEND
  8
0
  0
POLYLINE
  8
PLAN_1
 62
     5
  6
CONTINUOUS
 66
     1
 40
0.003000
 41
0.003000
  0
VERTEX
  8
PLAN_1
 62
     5
  6
CONTINUOUS
 10
-0.354409
 20
1.209020
  0
VERTEX
  8
PLAN_1
 62
     5
  6
CONTINUOUS
 10
-0.354409
 20
1.200705
  0
SEQEND
  8
0
  0
POLYLINE
  8
PLAN_1
 62
     5
  6
CONTINUOUS
 66
     1
 40
0.003000
 41
0.003000
  0
VERTEX
  8
PLAN_1
 62
     5
  6
CONTINUOUS
 10
-0.354409
 20
1.192386
  0
VERTEX
  8
PLAN_1
 62
     5
  6
CONTINUOUS
 10
-0.354409
 20
1.184067
  0
SEQEND
  8
0
  0
POLYLINE
  8
PLAN_1
 62
     5
  6
CONTINUOUS
 66
     1
 40
0.003000
 41
0.003000
  0
VERTEX
  8
PLAN_1
 62
     5
  6
CONTINUOUS
 10
-0.354409
 20
1.175748
  0
VERTEX
  8
PLAN_1
 62
     5
  6
CONTINUOUS
 10
-0.354409
 20
1.167429
  0
SEQEND
  8
0
  0
POLYLINE
  8
PLAN_1
 62
     5
  6
CONTINUOUS
 66
     1
 40
0.003000
 41
0.003000
  0
VERTEX
  8
PLAN_1
 62
     5
  6
CONTINUOUS
 10
-0.354409
 20
1.159110
  0
VERTEX
  8
PLAN_1
 62
     5
  6
CONTINUOUS
 10
-0.354409
 20
1.150791
  0
SEQEND
  8
0
  0
POLYLINE
  8
PLAN_1
 62
     5
  6
CONTINUOUS
 66
     1
 40
0.003000
 41
0.003000
  0
VERTEX
  8
PLAN_1
 62
     5
  6
CONTINUOUS
 10
-0.354409
 20
1.142472
  0
VERTEX
  8
PLAN_1
 62
     5
  6
CONTINUOUS
 10
-0.354409
 20
1.134154
  0
SEQEND
  8
0
  0
POLYLINE
  8
PLAN_1
 62
     5
  6
CONTINUOUS
 66
     1
 40
0.003000
 41
0.003000
  0
VERTEX
  8
PLAN_1
 62
     5
  6
CONTINUOUS
 10
-0.354409
 20
1.125835
  0
VERTEX
  8
PLAN_1
 62
     5
  6
CONTINUOUS
 10
-0.354409
 20
1.117516
  0
SEQEND
  8
0
  0
POLYLINE
  8
PLAN_1
 62
     5
  6
CONTINUOUS
 66
     1
 40
0.003000
 41
0.003000
  0
VERTEX
  8
PLAN_1
 62
     5
  6
CONTINUOUS
 10
-0.354409
 20
1.109201
  0
VERTEX
  8
PLAN_1
 62
     5
  6
CONTINUOUS
 10
-0.354409
 20
1.100882
  0
SEQEND
  8
0
  0
POLYLINE
  8
PLAN_1
 62
     5
  6
CONTINUOUS
 66
     1
 40
0.003000
 41
0.003000
  0
VERTEX
  8
PLAN_1
 62
     5
  6
CONTINUOUS
 10
-0.354409
 20
1.092563
  0
VERTEX
  8
PLAN_1
 62
     5
  6
CONTINUOUS
 10
-0.354409
 20
1.084244
  0
SEQEND
  8
0
  0
POLYLINE
  8
PLAN_1
 62
     5
  6
CONTINUOUS
 66
     1
 40
0.003000
 41
0.003000
  0
VERTEX
  8
PLAN_1
 62
     5
  6
CONTINUOUS
 10
-0.354409
 20
1.075925
  0
VERTEX
  8
PLAN_1
 62
     5
  6
CONTINUOUS
 10
-0.354409
 20
1.067606
  0
SEQEND
  8
0
  0
POLYLINE
  8
PLAN_1
 62
     5
  6
CONTINUOUS
 66
     1
 40
0.003000
 41
0.003000
  0
VERTEX
  8
PLAN_1
 62
     5
  6
CONTINUOUS
 10
-0.354409
 20
1.059287
  0
VERTEX
  8
PLAN_1
 62
     5
  6
CONTINUOUS
 10
-0.354409
 20
1.050969
  0
SEQEND
  8
0
  0
POLYLINE
  8
PLAN_1
 62
     5
  6
CONTINUOUS
 66
     1
 40
0.003000
 41
0.003000
  0
VERTEX
  8
PLAN_1
 62
     5
  6
CONTINUOUS
 10
-0.354409
 20
1.042650
  0
VERTEX
  8
PLAN_1
 62
     5
  6
CONTINUOUS
 10
-0.354409
 20
1.034331
  0
SEQEND
  8
0
  0
POLYLINE
  8
PLAN_1
 62
     5
  6
CONTINUOUS
 66
     1
 40
0.003000
 41
0.003000
  0
VERTEX
  8
PLAN_1
 62
     5
  6
CONTINUOUS
 10
-0.354409
 20
1.026012
  0
VERTEX
  8
PLAN_1
 62
     5
  6
CONTINUOUS
 10
-0.354409
 20
1.017693
  0
SEQEND
  8
0
  0
POLYLINE
  8
PLAN_1
 62
     5
  6
CONTINUOUS
 66
     1
 40
0.003000
 41
0.003000
  0
VERTEX
  8
PLAN_1
 62
     5
  6
CONTINUOUS
 10
-0.354409
 20
1.009378
  0
VERTEX
  8
PLAN_1
 62
     5
  6
CONTINUOUS
 10
-0.354409
 20
1.001059
  0
SEQEND
  8
0
  0
POLYLINE
  8
PLAN_1
 62
     5
  6
CONTINUOUS
 66
     1
 40
0.003000
 41
0.003000
  0
VERTEX
  8
PLAN_1
 62
     5
  6
CONTINUOUS
 10
-0.354409
 20
0.992740
  0
VERTEX
  8
PLAN_1
 62
     5
  6
CONTINUOUS
 10
-0.354409
 20
0.984421
  0
SEQEND
  8
0
  0
POLYLINE
  8
PLAN_1
 62
     5
  6
CONTINUOUS
 66
     1
 40
0.003000
 41
0.003000
  0
VERTEX
  8
PLAN_1
 62
     5
  6
CONTINUOUS
 10
-0.354409
 20
0.976102
  0
VERTEX
  8
PLAN_1
 62
     5
  6
CONTINUOUS
 10
-0.354409
 20
0.967783
  0
SEQEND
  8
0
  0
POLYLINE
  8
PLAN_1
 62
     5
  6
CONTINUOUS
 66
     1
 40
0.003000
 41
0.003000
  0
VERTEX
  8
PLAN_1
 62
     5
  6
CONTINUOUS
 10
-0.354409
 20
0.959465
  0
VERTEX
  8
PLAN_1
 62
     5
  6
CONTINUOUS
 10
-0.354409
 20
0.951146
  0
SEQEND
  8
0
  0
POLYLINE
  8
PLAN_1
 62
     5
  6
CONTINUOUS
 66
     1
 40
0.003000
 41
0.003000
  0
VERTEX
  8
PLAN_1
 62
     5
  6
CONTINUOUS
 10
-0.354409
 20
0.942827
  0
VERTEX
  8
PLAN_1
 62
     5
  6
CONTINUOUS
 10
-0.354409
 20
0.934508
  0
SEQEND
  8
0
  0
POLYLINE
  8
PLAN_1
 62
     5
  6
CONTINUOUS
 66
     1
 40
0.003000
 41
0.003000
  0
VERTEX
  8
PLAN_1
 62
     5
  6
CONTINUOUS
 10
-0.354409
 20
0.926189
  0
VERTEX
  8
PLAN_1
 62
     5
  6
CONTINUOUS
 10
-0.354409
 20
0.917874
  0
SEQEND
  8
0
  0
POLYLINE
  8
PLAN_1
 62
     5
  6
CONTINUOUS
 66
     1
 40
0.003000
 41
0.003000
  0
VERTEX
  8
PLAN_1
 62
     5
  6
CONTINUOUS
 10
-0.354409
 20
0.909555
  0
VERTEX
  8
PLAN_1
 62
     5
  6
CONTINUOUS
 10
-0.354409
 20
0.901236
  0
SEQEND
  8
0
  0
POLYLINE
  8
PLAN_1
 62
     5
  6
CONTINUOUS
 66
     1
 40
0.003000
 41
0.003000
  0
VERTEX
  8
PLAN_1
 62
     5
  6
CONTINUOUS
 10
-0.354409
 20
0.892917
  0
VERTEX
  8
PLAN_1
 62
     5
  6
CONTINUOUS
 10
-0.354409
 20
0.884598
  0
SEQEND
  8
0
  0
POLYLINE
  8
PLAN_1
 62
     5
  6
CONTINUOUS
 66
     1
 40
0.003000
 41
0.003000
  0
VERTEX
  8
PLAN_1
 62
     5
  6
CONTINUOUS
 10
-0.354409
 20
0.875843
  0
VERTEX
  8
PLAN_1
 62
     5
  6
CONTINUOUS
 10
-0.354409
 20
0.867524
  0
SEQEND
  8
0
  0
POLYLINE
  8
PLAN_1
 62
     5
  6
CONTINUOUS
 66
     1
 40
0.003000
 41
0.003000
  0
VERTEX
  8
PLAN_1
 62
     5
  6
CONTINUOUS
 10
-0.354409
 20
0.859205
  0
VERTEX
  8
PLAN_1
 62
     5
  6
CONTINUOUS
 10
-0.354409
 20
0.850886
  0
SEQEND
  8
0
  0
POLYLINE
  8
PLAN_1
 62
     5
  6
CONTINUOUS
 66
     1
 40
0.003000
 41
0.003000
  0
VERTEX
  8
PLAN_1
 62
     5
  6
CONTINUOUS
 10
-0.354409
 20
0.842567
  0
VERTEX
  8
PLAN_1
 62
     5
  6
CONTINUOUS
 10
-0.354409
 20
0.834248
  0
SEQEND
  8
0
  0
POLYLINE
  8
PLAN_1
 62
     5
  6
CONTINUOUS
 66
     1
 40
0.003000
 41
0.003000
  0
VERTEX
  8
PLAN_1
 62
     5
  6
CONTINUOUS
 10
-0.354409
 20
0.825929
  0
VERTEX
  8
PLAN_1
 62
     5
  6
CONTINUOUS
 10
-0.354409
 20
0.817610
  0
SEQEND
  8
0
  0
POLYLINE
  8
PLAN_1
 62
     5
  6
CONTINUOUS
 66
     1
 40
0.003000
 41
0.003000
  0
VERTEX
  8
PLAN_1
 62
     5
  6
CONTINUOUS
 10
-0.354409
 20
0.809295
  0
VERTEX
  8
PLAN_1
 62
     5
  6
CONTINUOUS
 10
-0.354409
 20
0.800976
  0
SEQEND
  8
0
  0
POLYLINE
  8
PLAN_1
 62
     5
  6
CONTINUOUS
 66
     1
 40
0.003000
 41
0.003000
  0
VERTEX
  8
PLAN_1
 62
     5
  6
CONTINUOUS
 10
-0.354409
 20
0.792657
  0
VERTEX
  8
PLAN_1
 62
     5
  6
CONTINUOUS
 10
-0.354409
 20
0.784339
  0
SEQEND
  8
0
  0
POLYLINE
  8
PLAN_1
 62
     5
  6
CONTINUOUS
 66
     1
 40
0.003000
 41
0.003000
  0
VERTEX
  8
PLAN_1
 62
     5
  6
CONTINUOUS
 10
-0.670516
 20
1.266815
  0
VERTEX
  8
PLAN_1
 62
     5
  6
CONTINUOUS
 10
-0.662197
 20
1.266815
  0
SEQEND
  8
0
  0
POLYLINE
  8
PLAN_1
 62
     5
  6
CONTINUOUS
 66
     1
 40
0.003000
 41
0.003000
  0
VERTEX
  8
PLAN_1
 62
     5
  6
CONTINUOUS
 10
-0.653878
 20
1.266815
  0
VERTEX
  8
PLAN_1
 62
     5
  6
CONTINUOUS
 10
-0.645559
 20
1.266815
  0
SEQEND
  8
0
  0
POLYLINE
  8
PLAN_1
 62
     5
  6
CONTINUOUS
 66
     1
 40
0.003000
 41
0.003000
  0
VERTEX
  8
PLAN_1
 62
     5
  6
CONTINUOUS
 10
-0.636803
 20
1.266815
  0
VERTEX
  8
PLAN_1
 62
     5
  6
CONTINUOUS
 10
-0.628484
 20
1.266815
  0
SEQEND
  8
0
  0
POLYLINE
  8
PLAN_1
 62
     5
  6
CONTINUOUS
 66
     1
 40
0.003000
 41
0.003000
  0
VERTEX
  8
PLAN_1
 62
     5
  6
CONTINUOUS
 10
-0.620165
 20
1.266815
  0
VERTEX
  8
PLAN_1
 62
     5
  6
CONTINUOUS
 10
-0.611850
 20
1.266815
  0
SEQEND
  8
0
  0
POLYLINE
  8
PLAN_1
 62
     5
  6
CONTINUOUS
 66
     1
 40
0.003000
 41
0.003000
  0
VERTEX
  8
PLAN_1
 62
     5
  6
CONTINUOUS
 10
-0.603531
 20
1.266815
  0
VERTEX
  8
PLAN_1
 62
     5
  6
CONTINUOUS
 10
-0.595213
 20
1.266815
  0
SEQEND
  8
0
  0
POLYLINE
  8
PLAN_1
 62
     5
  6
CONTINUOUS
 66
     1
 40
0.003000
 41
0.003000
  0
VERTEX
  8
PLAN_1
 62
     5
  6
CONTINUOUS
 10
-0.586894
 20
1.266815
  0
VERTEX
  8
PLAN_1
 62
     5
  6
CONTINUOUS
 10
-0.578575
 20
1.266815
  0
SEQEND
  8
0
  0
POLYLINE
  8
PLAN_1
 62
     5
  6
CONTINUOUS
 66
     1
 40
0.003000
 41
0.003000
  0
VERTEX
  8
PLAN_1
 62
     5
  6
CONTINUOUS
 10
-0.570256
 20
1.266815
  0
VERTEX
  8
PLAN_1
 62
     5
  6
CONTINUOUS
 10
-0.561937
 20
1.266815
  0
SEQEND
  8
0
  0
POLYLINE
  8
PLAN_1
 62
     5
  6
CONTINUOUS
 66
     1
 40
0.003000
 41
0.003000
  0
VERTEX
  8
PLAN_1
 62
     5
  6
CONTINUOUS
 10
-0.553618
 20
1.266815
  0
VERTEX
  8
PLAN_1
 62
     5
  6
CONTINUOUS
 10
-0.545299
 20
1.266815
  0
SEQEND
  8
0
  0
POLYLINE
  8
PLAN_1
 62
     5
  6
CONTINUOUS
 66
     1
 40
0.003000
 41
0.003000
  0
VERTEX
  8
PLAN_1
 62
     5
  6
CONTINUOUS
 10
-0.536980
 20
1.266815
  0
VERTEX
  8
PLAN_1
 62
     5
  6
CONTINUOUS
 10
-0.528661
 20
1.266815
  0
SEQEND
  8
0
  0
POLYLINE
  8
PLAN_1
 62
     5
  6
CONTINUOUS
 66
     1
 40
0.003000
 41
0.003000
  0
VERTEX
  8
PLAN_1
 62
     5
  6
CONTINUOUS
 10
-0.520343
 20
1.266815
  0
VERTEX
  8
PLAN_1
 62
     5
  6
CONTINUOUS
 10
-0.512028
 20
1.266815
  0
SEQEND
  8
0
  0
POLYLINE
  8
PLAN_1
 62
     5
  6
CONTINUOUS
 66
     1
 40
0.003000
 41
0.003000
  0
VERTEX
  8
PLAN_1
 62
     5
  6
CONTINUOUS
 10
-0.503709
 20
1.266815
  0
VERTEX
  8
PLAN_1
 62
     5
  6
CONTINUOUS
 10
-0.495390
 20
1.266815
  0
SEQEND
  8
0
  0
POLYLINE
  8
PLAN_1
 62
     5
  6
CONTINUOUS
 66
     1
 40
0.003000
 41
0.003000
  0
VERTEX
  8
PLAN_1
 62
     5
  6
CONTINUOUS
 10
-0.487071
 20
1.266815
  0
VERTEX
  8
PLAN_1
 62
     5
  6
CONTINUOUS
 10
-0.478752
 20
1.266815
  0
SEQEND
  8
0
  0
POLYLINE
  8
PLAN_1
 62
     5
  6
CONTINUOUS
 66
     1
 40
0.003000
 41
0.003000
  0
VERTEX
  8
PLAN_1
 62
     5
  6
CONTINUOUS
 10
-0.470433
 20
1.266815
  0
VERTEX
  8
PLAN_1
 62
     5
  6
CONTINUOUS
 10
-0.462114
 20
1.266815
  0
SEQEND
  8
0
  0
POLYLINE
  8
PLAN_1
 62
     5
  6
CONTINUOUS
 66
     1
 40
0.003000
 41
0.003000
  0
VERTEX
  8
PLAN_1
 62
     5
  6
CONTINUOUS
 10
-0.453795
 20
1.266815
  0
VERTEX
  8
PLAN_1
 62
     5
  6
CONTINUOUS
 10
-0.445476
 20
1.266815
  0
SEQEND
  8
0
  0
POLYLINE
  8
PLAN_1
 62
     5
  6
CONTINUOUS
 66
     1
 40
0.003000
 41
0.003000
  0
VERTEX
  8
PLAN_1
 62
     5
  6
CONTINUOUS
 10
-0.437157
 20
1.266815
  0
VERTEX
  8
PLAN_1
 62
     5
  6
CONTINUOUS
 10
-0.428839
 20
1.266815
  0
SEQEND
  8
0
  0
POLYLINE
  8
PLAN_1
 62
     5
  6
CONTINUOUS
 66
     1
 40
0.003000
 41
0.003000
  0
VERTEX
  8
PLAN_1
 62
     5
  6
CONTINUOUS
 10
-0.420524
 20
1.266815
  0
VERTEX
  8
PLAN_1
 62
     5
  6
CONTINUOUS
 10
-0.412205
 20
1.266815
  0
SEQEND
  8
0
  0
POLYLINE
  8
PLAN_1
 62
     5
  6
CONTINUOUS
 66
     1
 40
0.003000
 41
0.003000
  0
VERTEX
  8
PLAN_1
 62
     5
  6
CONTINUOUS
 10
-0.403886
 20
1.266815
  0
VERTEX
  8
PLAN_1
 62
     5
  6
CONTINUOUS
 10
-0.395567
 20
1.266815
  0
SEQEND
  8
0
  0
POLYLINE
  8
PLAN_1
 62
     5
  6
CONTINUOUS
 66
     1
 40
0.003000
 41
0.003000
  0
VERTEX
  8
PLAN_1
 62
     5
  6
CONTINUOUS
 10
-0.387248
 20
1.266815
  0
VERTEX
  8
PLAN_1
 62
     5
  6
CONTINUOUS
 10
-0.378929
 20
1.266815
  0
SEQEND
  8
0
  0
POLYLINE
  8
PLAN_1
 62
     5
  6
CONTINUOUS
 66
     1
 40
0.003000
 41
0.003000
  0
VERTEX
  8
PLAN_1
 62
     5
  6
CONTINUOUS
 10
-0.370610
 20
1.266815
  0
VERTEX
  8
PLAN_1
 62
     5
  6
CONTINUOUS
 10
-0.362291
 20
1.266815
  0
SEQEND
  8
0
  0
POLYLINE
  8
PLAN_1
 62
     5
  6
CONTINUOUS
 66
     1
 40
0.003000
 41
0.003000
  0
VERTEX
  8
PLAN_1
 62
     5
  6
CONTINUOUS
 10
-0.536980
 20
1.139409
  0
VERTEX
  8
PLAN_1
 62
     5
  6
CONTINUOUS
 10
-0.536980
 20
1.147728
  0
SEQEND
  8
0
  0
POLYLINE
  8
PLAN_1
 62
     5
  6
CONTINUOUS
 66
     1
 40
0.003000
 41
0.003000
  0
VERTEX
  8
PLAN_1
 62
     5
  6
CONTINUOUS
 10
-0.536980
 20
1.156484
  0
VERTEX
  8
PLAN_1
 62
     5
  6
CONTINUOUS
 10
-0.536980
 20
1.164803
  0
SEQEND
  8
0
  0
POLYLINE
  8
PLAN_1
 62
     5
  6
CONTINUOUS
 66
     1
 40
0.003000
 41
0.003000
  0
VERTEX
  8
PLAN_1
 62
     5
  6
CONTINUOUS
 10
-0.536980
 20
1.173122
  0
VERTEX
  8
PLAN_1
 62
     5
  6
CONTINUOUS
 10
-0.536980
 20
1.181437
  0
SEQEND
  8
0
  0
POLYLINE
  8
PLAN_1
 62
     5
  6
CONTINUOUS
 66
     1
 40
0.003000
 41
0.003000
  0
VERTEX
  8
PLAN_1
 62
     5
  6
CONTINUOUS
 10
-0.536980
 20
1.189756
  0
VERTEX
  8
PLAN_1
 62
     5
  6
CONTINUOUS
 10
-0.536980
 20
1.198075
  0
SEQEND
  8
0
  0
POLYLINE
  8
PLAN_1
 62
     5
  6
CONTINUOUS
 66
     1
 40
0.003000
 41
0.003000
  0
VERTEX
  8
PLAN_1
 62
     5
  6
CONTINUOUS
 10
-0.536980
 20
1.206394
  0
VERTEX
  8
PLAN_1
 62
     5
  6
CONTINUOUS
 10
-0.536980
 20
1.214713
  0
SEQEND
  8
0
  0
POLYLINE
  8
PLAN_1
 62
     5
  6
CONTINUOUS
 66
     1
 40
0.003000
 41
0.003000
  0
VERTEX
  8
PLAN_1
 62
     5
  6
CONTINUOUS
 10
-0.536980
 20
1.223031
  0
VERTEX
  8
PLAN_1
 62
     5
  6
CONTINUOUS
 10
-0.536980
 20
1.231350
  0
SEQEND
  8
0
  0
POLYLINE
  8
PLAN_1
 62
     5
  6
CONTINUOUS
 66
     1
 40
0.003000
 41
0.003000
  0
VERTEX
  8
PLAN_1
 62
     5
  6
CONTINUOUS
 10
-0.536980
 20
1.239669
  0
VERTEX
  8
PLAN_1
 62
     5
  6
CONTINUOUS
 10
-0.536980
 20
1.247988
  0
SEQEND
  8
0
  0
POLYLINE
  8
PLAN_1
 62
     5
  6
CONTINUOUS
 66
     1
 40
0.003000
 41
0.003000
  0
VERTEX
  8
PLAN_1
 62
     5
  6
CONTINUOUS
 10
-0.536980
 20
1.256307
  0
VERTEX
  8
PLAN_1
 62
     5
  6
CONTINUOUS
 10
-0.536980
 20
1.264626
  0
SEQEND
  8
0
  0
POLYLINE
  8
PLAN_1
 62
     5
  6
CONTINUOUS
 66
     1
 40
0.003000
 41
0.003000
  0
VERTEX
  8
PLAN_1
 62
     5
  6
CONTINUOUS
 10
-0.536980
 20
1.272941
  0
VERTEX
  8
PLAN_1
 62
     5
  6
CONTINUOUS
 10
-0.536980
 20
1.281260
  0
SEQEND
  8
0
  0
POLYLINE
  8
PLAN_1
 62
     5
  6
CONTINUOUS
 66
     1
 40
0.003000
 41
0.003000
  0
VERTEX
  8
PLAN_1
 62
     5
  6
CONTINUOUS
 10
-0.536980
 20
1.289579
  0
VERTEX
  8
PLAN_1
 62
     5
  6
CONTINUOUS
 10
-0.536980
 20
1.297898
  0
SEQEND
  8
0
  0
POLYLINE
  8
PLAN_1
 62
     5
  6
CONTINUOUS
 66
     1
 40
0.003000
 41
0.003000
  0
VERTEX
  8
PLAN_1
 62
     5
  6
CONTINUOUS
 10
-0.536980
 20
1.306217
  0
VERTEX
  8
PLAN_1
 62
     5
  6
CONTINUOUS
 10
-0.536980
 20
1.314535
  0
SEQEND
  8
0
  0
POLYLINE
  8
PLAN_1
 62
     5
  6
CONTINUOUS
 66
     1
 40
0.003000
 41
0.003000
  0
VERTEX
  8
PLAN_1
 62
     5
  6
CONTINUOUS
 10
-0.536980
 20
1.322854
  0
VERTEX
  8
PLAN_1
 62
     5
  6
CONTINUOUS
 10
-0.536980
 20
1.331173
  0
SEQEND
  8
0
  0
POLYLINE
  8
PLAN_1
 62
     5
  6
CONTINUOUS
 66
     1
 40
0.003000
 41
0.003000
  0
VERTEX
  8
PLAN_1
 62
     5
  6
CONTINUOUS
 10
-0.536980
 20
1.339492
  0
VERTEX
  8
PLAN_1
 62
     5
  6
CONTINUOUS
 10
-0.536980
 20
1.347811
  0
SEQEND
  8
0
  0
POLYLINE
  8
PLAN_1
 62
     5
  6
CONTINUOUS
 66
     1
 40
0.003000
 41
0.003000
  0
VERTEX
  8
PLAN_1
 62
     5
  6
CONTINUOUS
 10
-0.536980
 20
1.356130
  0
VERTEX
  8
PLAN_1
 62
     5
  6
CONTINUOUS
 10
-0.536980
 20
1.364449
  0
SEQEND
  8
0
  0
POLYLINE
  8
PLAN_1
 62
     5
  6
CONTINUOUS
 66
     1
 40
0.003000
 41
0.003000
  0
VERTEX
  8
PLAN_1
 62
     5
  6
CONTINUOUS
 10
-0.536980
 20
1.372764
  0
VERTEX
  8
PLAN_1
 62
     5
  6
CONTINUOUS
 10
-0.536980
 20
1.381083
  0
SEQEND
  8
0
  0
POLYLINE
  8
PLAN_1
 62
     5
  6
CONTINUOUS
 66
     1
 40
0.003000
 41
0.003000
  0
VERTEX
  8
PLAN_1
 62
     5
  6
CONTINUOUS
 10
-0.536980
 20
1.389402
  0
VERTEX
  8
PLAN_1
 62
     5
  6
CONTINUOUS
 10
-0.536980
 20
1.397720
  0
SEQEND
  8
0
  0
POLYLINE
  8
PLAN_1
 62
     5
  6
CONTINUOUS
 66
     1
 40
0.003000
 41
0.003000
  0
VERTEX
  8
PLAN_1
 62
     5
  6
CONTINUOUS
 10
-1.894217
 20
1.266815
  0
VERTEX
  8
PLAN_1
 62
     5
  6
CONTINUOUS
 10
-1.885902
 20
1.266815
  0
SEQEND
  8
0
  0
POLYLINE
  8
PLAN_1
 62
     5
  6
CONTINUOUS
 66
     1
 40
0.003000
 41
0.003000
  0
VERTEX
  8
PLAN_1
 62
     5
  6
CONTINUOUS
 10
-1.877583
 20
1.266815
  0
VERTEX
  8
PLAN_1
 62
     5
  6
CONTINUOUS
 10
-1.869264
 20
1.266815
  0
SEQEND
  8
0
  0
POLYLINE
  8
PLAN_1
 62
     5
  6
CONTINUOUS
 66
     1
 40
0.003000
 41
0.003000
  0
VERTEX
  8
PLAN_1
 62
     5
  6
CONTINUOUS
 10
-1.860945
 20
1.266815
  0
VERTEX
  8
PLAN_1
 62
     5
  6
CONTINUOUS
 10
-1.852626
 20
1.266815
  0
SEQEND
  8
0
  0
POLYLINE
  8
PLAN_1
 62
     5
  6
CONTINUOUS
 66
     1
 40
0.003000
 41
0.003000
  0
VERTEX
  8
PLAN_1
 62
     5
  6
CONTINUOUS
 10
-1.844307
 20
1.266815
  0
VERTEX
  8
PLAN_1
 62
     5
  6
CONTINUOUS
 10
-1.835988
 20
1.266815
  0
SEQEND
  8
0
  0
POLYLINE
  8
PLAN_1
 62
     5
  6
CONTINUOUS
 66
     1
 40
0.003000
 41
0.003000
  0
VERTEX
  8
PLAN_1
 62
     5
  6
CONTINUOUS
 10
-1.827669
 20
1.266815
  0
VERTEX
  8
PLAN_1
 62
     5
  6
CONTINUOUS
 10
-1.819350
 20
1.266815
  0
SEQEND
  8
0
  0
POLYLINE
  8
PLAN_1
 62
     5
  6
CONTINUOUS
 66
     1
 40
0.003000
 41
0.003000
  0
VERTEX
  8
PLAN_1
 62
     5
  6
CONTINUOUS
 10
-1.811031
 20
1.266815
  0
VERTEX
  8
PLAN_1
 62
     5
  6
CONTINUOUS
 10
-1.802713
 20
1.266815
  0
SEQEND
  8
0
  0
POLYLINE
  8
PLAN_1
 62
     5
  6
CONTINUOUS
 66
     1
 40
0.003000
 41
0.003000
  0
VERTEX
  8
PLAN_1
 62
     5
  6
CONTINUOUS
 10
-1.794394
 20
1.266815
  0
VERTEX
  8
PLAN_1
 62
     5
  6
CONTINUOUS
 10
-1.786079
 20
1.266815
  0
SEQEND
  8
0
  0
POLYLINE
  8
PLAN_1
 62
     5
  6
CONTINUOUS
 66
     1
 40
0.003000
 41
0.003000
  0
VERTEX
  8
PLAN_1
 62
     5
  6
CONTINUOUS
 10
-1.777760
 20
1.266815
  0
VERTEX
  8
PLAN_1
 62
     5
  6
CONTINUOUS
 10
-1.769441
 20
1.266815
  0
SEQEND
  8
0
  0
POLYLINE
  8
PLAN_1
 62
     5
  6
CONTINUOUS
 66
     1
 40
0.003000
 41
0.003000
  0
VERTEX
  8
PLAN_1
 62
     5
  6
CONTINUOUS
 10
-1.761122
 20
1.266815
  0
VERTEX
  8
PLAN_1
 62
     5
  6
CONTINUOUS
 10
-1.752803
 20
1.266815
  0
SEQEND
  8
0
  0
POLYLINE
  8
PLAN_1
 62
     5
  6
CONTINUOUS
 66
     1
 40
0.003000
 41
0.003000
  0
VERTEX
  8
PLAN_1
 62
     5
  6
CONTINUOUS
 10
-1.744484
 20
1.266815
  0
VERTEX
  8
PLAN_1
 62
     5
  6
CONTINUOUS
 10
-1.736165
 20
1.266815
  0
SEQEND
  8
0
  0
POLYLINE
  8
PLAN_1
 62
     5
  6
CONTINUOUS
 66
     1
 40
0.003000
 41
0.003000
  0
VERTEX
  8
PLAN_1
 62
     5
  6
CONTINUOUS
 10
-1.727846
 20
1.266815
  0
VERTEX
  8
PLAN_1
 62
     5
  6
CONTINUOUS
 10
-1.719528
 20
1.266815
  0
SEQEND
  8
0
  0
POLYLINE
  8
PLAN_1
 62
     5
  6
CONTINUOUS
 66
     1
 40
0.003000
 41
0.003000
  0
VERTEX
  8
PLAN_1
 62
     5
  6
CONTINUOUS
 10
-1.711209
 20
1.266815
  0
VERTEX
  8
PLAN_1
 62
     5
  6
CONTINUOUS
 10
-1.702890
 20
1.266815
  0
SEQEND
  8
0
  0
POLYLINE
  8
PLAN_1
 62
     5
  6
CONTINUOUS
 66
     1
 40
0.003000
 41
0.003000
  0
VERTEX
  8
PLAN_1
 62
     5
  6
CONTINUOUS
 10
-1.694575
 20
1.266815
  0
VERTEX
  8
PLAN_1
 62
     5
  6
CONTINUOUS
 10
-1.686256
 20
1.266815
  0
SEQEND
  8
0
  0
POLYLINE
  8
PLAN_1
 62
     5
  6
CONTINUOUS
 66
     1
 40
0.003000
 41
0.003000
  0
VERTEX
  8
PLAN_1
 62
     5
  6
CONTINUOUS
 10
-1.677937
 20
1.266815
  0
VERTEX
  8
PLAN_1
 62
     5
  6
CONTINUOUS
 10
-1.669618
 20
1.266815
  0
SEQEND
  8
0
  0
POLYLINE
  8
PLAN_1
 62
     5
  6
CONTINUOUS
 66
     1
 40
0.003000
 41
0.003000
  0
VERTEX
  8
PLAN_1
 62
     5
  6
CONTINUOUS
 10
-1.661299
 20
1.266815
  0
VERTEX
  8
PLAN_1
 62
     5
  6
CONTINUOUS
 10
-1.652980
 20
1.266815
  0
SEQEND
  8
0
  0
POLYLINE
  8
PLAN_1
 62
     5
  6
CONTINUOUS
 66
     1
 40
0.003000
 41
0.003000
  0
VERTEX
  8
PLAN_1
 62
     5
  6
CONTINUOUS
 10
-1.644661
 20
1.266815
  0
VERTEX
  8
PLAN_1
 62
     5
  6
CONTINUOUS
 10
-1.636343
 20
1.266815
  0
SEQEND
  8
0
  0
POLYLINE
  8
PLAN_1
 62
     5
  6
CONTINUOUS
 66
     1
 40
0.003000
 41
0.003000
  0
VERTEX
  8
PLAN_1
 62
     5
  6
CONTINUOUS
 10
-1.628024
 20
1.266815
  0
VERTEX
  8
PLAN_1
 62
     5
  6
CONTINUOUS
 10
-1.623209
 20
1.266815
  0
SEQEND
  8
0
  0
POLYLINE
  8
PLAN_1
 62
     5
  6
CONTINUOUS
 66
     1
 40
0.003000
 41
0.003000
  0
VERTEX
  8
PLAN_1
 62
     5
  6
CONTINUOUS
 10
-1.628024
 20
1.266815
  0
VERTEX
  8
PLAN_1
 62
     5
  6
CONTINUOUS
 10
-1.623209
 20
1.266815
  0
SEQEND
  8
0
  0
POLYLINE
  8
PLAN_1
 62
     5
  6
CONTINUOUS
 66
     1
 40
0.003000
 41
0.003000
  0
VERTEX
  8
PLAN_1
 62
     5
  6
CONTINUOUS
 10
-1.761122
 20
1.125398
  0
VERTEX
  8
PLAN_1
 62
     5
  6
CONTINUOUS
 10
-1.761122
 20
1.133717
  0
SEQEND
  8
0
  0
POLYLINE
  8
PLAN_1
 62
     5
  6
CONTINUOUS
 66
     1
 40
0.003000
 41
0.003000
  0
VERTEX
  8
PLAN_1
 62
     5
  6
CONTINUOUS
 10
-1.761122
 20
1.142035
  0
VERTEX
  8
PLAN_1
 62
     5
  6
CONTINUOUS
 10
-1.761122
 20
1.150354
  0
SEQEND
  8
0
  0
POLYLINE
  8
PLAN_1
 62
     5
  6
CONTINUOUS
 66
     1
 40
0.003000
 41
0.003000
  0
VERTEX
  8
PLAN_1
 62
     5
  6
CONTINUOUS
 10
-1.761122
 20
1.158673
  0
VERTEX
  8
PLAN_1
 62
     5
  6
CONTINUOUS
 10
-1.761122
 20
1.166992
  0
SEQEND
  8
0
  0
POLYLINE
  8
PLAN_1
 62
     5
  6
CONTINUOUS
 66
     1
 40
0.003000
 41
0.003000
  0
VERTEX
  8
PLAN_1
 62
     5
  6
CONTINUOUS
 10
-1.761122
 20
1.175311
  0
VERTEX
  8
PLAN_1
 62
     5
  6
CONTINUOUS
 10
-1.761122
 20
1.183626
  0
SEQEND
  8
0
  0
POLYLINE
  8
PLAN_1
 62
     5
  6
CONTINUOUS
 66
     1
 40
0.003000
 41
0.003000
  0
VERTEX
  8
PLAN_1
 62
     5
  6
CONTINUOUS
 10
-1.761122
 20
1.191945
  0
VERTEX
  8
PLAN_1
 62
     5
  6
CONTINUOUS
 10
-1.761122
 20
1.200264
  0
SEQEND
  8
0
  0
POLYLINE
  8
PLAN_1
 62
     5
  6
CONTINUOUS
 66
     1
 40
0.003000
 41
0.003000
  0
VERTEX
  8
PLAN_1
 62
     5
  6
CONTINUOUS
 10
-1.761122
 20
1.208583
  0
VERTEX
  8
PLAN_1
 62
     5
  6
CONTINUOUS
 10
-1.761122
 20
1.216902
  0
SEQEND
  8
0
  0
POLYLINE
  8
PLAN_1
 62
     5
  6
CONTINUOUS
 66
     1
 40
0.003000
 41
0.003000
  0
VERTEX
  8
PLAN_1
 62
     5
  6
CONTINUOUS
 10
-1.761122
 20
1.225220
  0
VERTEX
  8
PLAN_1
 62
     5
  6
CONTINUOUS
 10
-1.761122
 20
1.233539
  0
SEQEND
  8
0
  0
POLYLINE
  8
PLAN_1
 62
     5
  6
CONTINUOUS
 66
     1
 40
0.003000
 41
0.003000
  0
VERTEX
  8
PLAN_1
 62
     5
  6
CONTINUOUS
 10
-1.761122
 20
1.241858
  0
VERTEX
  8
PLAN_1
 62
     5
  6
CONTINUOUS
 10
-1.761122
 20
1.250177
  0
SEQEND
  8
0
  0
POLYLINE
  8
PLAN_1
 62
     5
  6
CONTINUOUS
 66
     1
 40
0.003000
 41
0.003000
  0
VERTEX
  8
PLAN_1
 62
     5
  6
CONTINUOUS
 10
-1.761122
 20
1.258496
  0
VERTEX
  8
PLAN_1
 62
     5
  6
CONTINUOUS
 10
-1.761122
 20
1.266815
  0
SEQEND
  8
0
  0
POLYLINE
  8
PLAN_1
 62
     5
  6
CONTINUOUS
 66
     1
 40
0.003000
 41
0.003000
  0
VERTEX
  8
PLAN_1
 62
     5
  6
CONTINUOUS
 10
-1.761122
 20
1.275134
  0
VERTEX
  8
PLAN_1
 62
     5
  6
CONTINUOUS
 10
-1.761122
 20
1.283449
  0
SEQEND
  8
0
  0
POLYLINE
  8
PLAN_1
 62
     5
  6
CONTINUOUS
 66
     1
 40
0.003000
 41
0.003000
  0
VERTEX
  8
PLAN_1
 62
     5
  6
CONTINUOUS
 10
-1.761122
 20
1.291768
  0
VERTEX
  8
PLAN_1
 62
     5
  6
CONTINUOUS
 10
-1.761122
 20
1.300087
  0
SEQEND
  8
0
  0
POLYLINE
  8
PLAN_1
 62
     5
  6
CONTINUOUS
 66
     1
 40
0.003000
 41
0.003000
  0
VERTEX
  8
PLAN_1
 62
     5
  6
CONTINUOUS
 10
-1.761122
 20
1.308406
  0
VERTEX
  8
PLAN_1
 62
     5
  6
CONTINUOUS
 10
-1.761122
 20
1.316724
  0
SEQEND
  8
0
  0
POLYLINE
  8
PLAN_1
 62
     5
  6
CONTINUOUS
 66
     1
 40
0.003000
 41
0.003000
  0
VERTEX
  8
PLAN_1
 62
     5
  6
CONTINUOUS
 10
-1.761122
 20
1.325043
  0
VERTEX
  8
PLAN_1
 62
     5
  6
CONTINUOUS
 10
-1.761122
 20
1.333362
  0
SEQEND
  8
0
  0
POLYLINE
  8
PLAN_1
 62
     5
  6
CONTINUOUS
 66
     1
 40
0.003000
 41
0.003000
  0
VERTEX
  8
PLAN_1
 62
     5
  6
CONTINUOUS
 10
-1.761122
 20
1.341681
  0
VERTEX
  8
PLAN_1
 62
     5
  6
CONTINUOUS
 10
-1.761122
 20
1.350000
  0
SEQEND
  8
0
  0
POLYLINE
  8
PLAN_1
 62
     5
  6
CONTINUOUS
 66
     1
 40
0.003000
 41
0.003000
  0
VERTEX
  8
PLAN_1
 62
     5
  6
CONTINUOUS
 10
-1.761122
 20
1.358319
  0
VERTEX
  8
PLAN_1
 62
     5
  6
CONTINUOUS
 10
-1.761122
 20
1.366638
  0
SEQEND
  8
0
  0
POLYLINE
  8
PLAN_1
 62
     5
  6
CONTINUOUS
 66
     1
 40
0.003000
 41
0.003000
  0
VERTEX
  8
PLAN_1
 62
     5
  6
CONTINUOUS
 10
-1.761122
 20
1.374953
  0
VERTEX
  8
PLAN_1
 62
     5
  6
CONTINUOUS
 10
-1.761122
 20
1.383272
  0
SEQEND
  8
0
  0
POLYLINE
  8
PLAN_1
 62
     5
  6
CONTINUOUS
 66
     1
 40
0.003000
 41
0.003000
  0
VERTEX
  8
PLAN_1
 62
     5
  6
CONTINUOUS
 10
-1.761122
 20
1.391591
  0
VERTEX
  8
PLAN_1
 62
     5
  6
CONTINUOUS
 10
-1.761122
 20
1.399909
  0
SEQEND
  8
0
  0
POLYLINE
  8
PLAN_1
 62
     5
  6
CONTINUOUS
 66
     1
 40
0.003000
 41
0.003000
  0
VERTEX
  8
PLAN_1
 62
     5
  6
CONTINUOUS
 10
-1.761122
 20
1.408228
  0
VERTEX
  8
PLAN_1
 62
     5
  6
CONTINUOUS
 10
-1.761122
 20
1.416547
  0
SEQEND
  8
0
  0
POLYLINE
  8
PLAN_1
 62
     5
  6
CONTINUOUS
 66
     1
 40
0.003000
 41
0.003000
  0
VERTEX
  8
PLAN_1
 62
     5
  6
CONTINUOUS
 10
-1.761122
 20
1.424866
  0
VERTEX
  8
PLAN_1
 62
     5
  6
CONTINUOUS
 10
-1.761122
 20
1.433185
  0
SEQEND
  8
0
  0
POLYLINE
  8
PLAN_1
  6
CONTINUOUS
 66
     1
 40
0.008315
 41
0.008315
  0
VERTEX
  8
PLAN_1
  6
CONTINUOUS
 10
-0.949843
 20
1.116205
  0
VERTEX
  8
PLAN_1
  6
CONTINUOUS
 10
-0.949843
 20
1.162173
  0
VERTEX
  8
PLAN_1
  6
CONTINUOUS
 10
-1.348697
 20
1.162173
  0
VERTEX
  8
PLAN_1
  6
CONTINUOUS
 10
-1.348697
 20
1.116205
  0
VERTEX
  8
PLAN_1
  6
CONTINUOUS
 10
-0.949843
 20
1.116205
  0
SEQEND
  8
0
  0
POLYLINE
  8
PLAN_1
  6
CONTINUOUS
 66
     1
 40
0.008315
 41
0.008315
  0
VERTEX
  8
PLAN_1
  6
CONTINUOUS
 10
-0.613161
 20
1.507614
  0
VERTEX
  8
PLAN_1
  6
CONTINUOUS
 10
-0.613161
 20
1.530382
  0
VERTEX
  8
PLAN_1
  6
CONTINUOUS
 10
-1.684941
 20
1.530382
  0
VERTEX
  8
PLAN_1
  6
CONTINUOUS
 10
-1.684941
 20
1.507614
  0
VERTEX
  8
PLAN_1
  6
CONTINUOUS
 10
-0.613161
 20
1.507614
  0
SEQEND
  8
0
  0
POLYLINE
  8
PLAN_1
  6
CONTINUOUS
 66
     1
 40
0.008315
 41
0.008315
  0
VERTEX
  8
PLAN_1
  6
CONTINUOUS
 10
-0.820248
 20
1.162173
  0
VERTEX
  8
PLAN_1
  6
CONTINUOUS
 10
-0.820248
 20
1.507614
  0
VERTEX
  8
PLAN_1
  6
CONTINUOUS
 10
-1.478291
 20
1.507614
  0
VERTEX
  8
PLAN_1
  6
CONTINUOUS
 10
-1.478291
 20
1.162173
  0
VERTEX
  8
PLAN_1
  6
CONTINUOUS
 10
-0.820248
 20
1.162173
  0
SEQEND
  8
0
  0
POLYLINE
  8
PLAN_1
  6
CONTINUOUS
 66
     1
 40
0.008315
 41
0.008315
  0
VERTEX
  8
PLAN_1
  6
CONTINUOUS
 10
-0.496264
 20
1.532130
  0
VERTEX
  8
PLAN_1
  6
CONTINUOUS
 10
-0.496264
 20
2.414335
  0
VERTEX
  8
PLAN_1
  6
CONTINUOUS
 10
-1.801839
 20
2.414335
  0
VERTEX
  8
PLAN_1
  6
CONTINUOUS
 10
-1.801839
 20
1.532130
  0
VERTEX
  8
PLAN_1
  6
CONTINUOUS
 10
-0.496264
 20
1.532130
  0
SEQEND
  8
0
  0
POLYLINE
  8
PLAN_1
  6
CONTINUOUS
 66
     1
 40
0.008315
 41
0.008315
  0
VERTEX
  8
PLAN_1
  6
CONTINUOUS
 10
-1.457713
 20
1.531693
  0
VERTEX
  8
PLAN_1
  6
CONTINUOUS
 10
-1.457713
 20
1.722146
  0
VERTEX
  8
PLAN_1
  6
CONTINUOUS
 10
-1.806217
 20
1.722146
  0
SEQEND
  8
0
  0
POLYLINE
  8
PLAN_1
  6
CONTINUOUS
 66
     1
 40
0.008315
 41
0.008315
  0
VERTEX
  8
PLAN_1
  6
CONTINUOUS
 10
-0.495390
 20
1.722146
  0
VERTEX
  8
PLAN_1
  6
CONTINUOUS
 10
-0.825067
 20
1.722146
  0
VERTEX
  8
PLAN_1
  6
CONTINUOUS
 10
-0.825067
 20
1.531693
  0
SEQEND
  8
0
  0
POLYLINE
  8
PLAN_1
  6
CONTINUOUS
 66
     1
 40
0.008315
 41
0.008315
  0
VERTEX
  8
PLAN_1
  6
CONTINUOUS
 10
-1.562350
 20
1.533882
  0
VERTEX
  8
PLAN_1
  6
CONTINUOUS
 10
-1.562350
 20
1.722583
  0
SEQEND
  8
0
  0
POLYLINE
  8
PLAN_1
  6
CONTINUOUS
 66
     1
 40
0.008315
 41
0.008315
  0
VERTEX
  8
PLAN_1
  6
CONTINUOUS
 10
-0.736189
 20
1.533882
  0
VERTEX
  8
PLAN_1
  6
CONTINUOUS
 10
-0.736189
 20
1.722583
  0
SEQEND
  8
0
  0
POLYLINE
  8
PLAN_1
  6
CONTINUOUS
 66
     1
 40
0.008315
 41
0.008315
  0
VERTEX
  8
PLAN_1
  6
CONTINUOUS
 10
-0.947217
 20
3.197154
  0
VERTEX
  8
PLAN_1
  6
CONTINUOUS
 10
-0.968232
 20
3.212917
  0
VERTEX
  8
PLAN_1
  6
CONTINUOUS
 10
-0.988811
 20
3.226488
  0
VERTEX
  8
PLAN_1
  6
CONTINUOUS
 10
-1.008949
 20
3.238307
  0
VERTEX
  8
PLAN_1
  6
CONTINUOUS
 10
-1.029091
 20
3.248378
  0
VERTEX
  8
PLAN_1
  6
CONTINUOUS
 10
-1.048354
 20
3.256260
  0
VERTEX
  8
PLAN_1
  6
CONTINUOUS
 10
-1.067181
 20
3.263264
  0
VERTEX
  8
PLAN_1
  6
CONTINUOUS
 10
-1.086004
 20
3.268079
  0
VERTEX
  8
PLAN_1
  6
CONTINUOUS
 10
-1.103957
 20
3.272020
  0
VERTEX
  8
PLAN_1
  6
CONTINUOUS
 10
-1.121469
 20
3.274650
  0
VERTEX
  8
PLAN_1
  6
CONTINUOUS
 10
-1.138543
 20
3.275961
  0
VERTEX
  8
PLAN_1
  6
CONTINUOUS
 10
-1.154744
 20
3.275961
  0
VERTEX
  8
PLAN_1
  6
CONTINUOUS
 10
-1.170504
 20
3.275087
  0
VERTEX
  8
PLAN_1
  6
CONTINUOUS
 10
-1.185827
 20
3.273335
  0
VERTEX
  8
PLAN_1
  6
CONTINUOUS
 10
-1.200713
 20
3.270709
  0
VERTEX
  8
PLAN_1
  6
CONTINUOUS
 10
-1.214724
 20
3.267642
  0
VERTEX
  8
PLAN_1
  6
CONTINUOUS
 10
-1.228295
 20
3.263701
  0
VERTEX
  8
PLAN_1
  6
CONTINUOUS
 10
-1.240992
 20
3.259323
  0
VERTEX
  8
PLAN_1
  6
CONTINUOUS
 10
-1.253252
 20
3.254508
  0
VERTEX
  8
PLAN_1
  6
CONTINUOUS
 10
-1.264634
 20
3.249256
  0
VERTEX
  8
PLAN_1
  6
CONTINUOUS
 10
-1.275142
 20
3.244000
  0
VERTEX
  8
PLAN_1
  6
CONTINUOUS
 10
-1.285213
 20
3.238307
  0
VERTEX
  8
PLAN_1
  6
CONTINUOUS
 10
-1.294406
 20
3.233055
  0
VERTEX
  8
PLAN_1
  6
CONTINUOUS
 10
-1.302724
 20
3.227362
  0
VERTEX
  8
PLAN_1
  6
CONTINUOUS
 10
-1.310169
 20
3.222110
  0
VERTEX
  8
PLAN_1
  6
CONTINUOUS
 10
-1.322866
 20
3.212476
  0
VERTEX
  8
PLAN_1
  6
CONTINUOUS
 10
-1.332059
 20
3.204598
  0
VERTEX
  8
PLAN_1
  6
CONTINUOUS
 10
-1.337752
 20
3.199343
  0
VERTEX
  8
PLAN_1
  6
CONTINUOUS
 10
-1.339941
 20
3.197154
  0
SEQEND
  8
0
  0
POLYLINE
  8
PLAN_1
  6
CONTINUOUS
 66
     1
 40
0.008315
 41
0.008315
  0
VERTEX
  8
PLAN_1
  6
CONTINUOUS
 10
-1.339941
 20
3.197154
  0
VERTEX
  8
PLAN_1
  6
CONTINUOUS
 10
-1.339504
 20
2.732630
  0
VERTEX
  8
PLAN_1
  6
CONTINUOUS
 10
-0.947654
 20
2.732630
  0
VERTEX
  8
PLAN_1
  6
CONTINUOUS
 10
-0.947217
 20
3.197154
  0
SEQEND
  8
0
  0
POLYLINE
  8
PLAN_1
  6
CONTINUOUS
 66
     1
 40
0.008315
 41
0.008315
  0
VERTEX
  8
PLAN_1
  6
CONTINUOUS
 10
-0.947654
 20
3.195843
  0
VERTEX
  8
PLAN_1
  6
CONTINUOUS
 10
-1.339504
 20
3.195843
  0
SEQEND
  8
0
  0
POLYLINE
  8
PLAN_1
  6
CONTINUOUS
 66
     1
 40
0.008315
 41
0.008315
  0
VERTEX
  8
PLAN_1
  6
CONTINUOUS
 10
-0.780409
 20
2.414335
  0
VERTEX
  8
PLAN_1
  6
CONTINUOUS
 10
-0.780409
 20
2.656012
  0
SEQEND
  8
0
  0
POLYLINE
  8
PLAN_1
  6
CONTINUOUS
 66
     1
 40
0.008315
 41
0.008315
  0
VERTEX
  8
PLAN_1
  6
CONTINUOUS
 10
-0.780409
 20
2.656012
  0
VERTEX
  8
PLAN_1
  6
CONTINUOUS
 10
-0.780846
 20
2.663890
  0
VERTEX
  8
PLAN_1
  6
CONTINUOUS
 10
-0.782161
 20
2.671335
  0
VERTEX
  8
PLAN_1
  6
CONTINUOUS
 10
-0.783909
 20
2.678776
  0
VERTEX
  8
PLAN_1
  6
CONTINUOUS
 10
-0.786539
 20
2.685783
  0
VERTEX
  8
PLAN_1
  6
CONTINUOUS
 10
-0.789602
 20
2.692350
  0
VERTEX
  8
PLAN_1
  6
CONTINUOUS
 10
-0.793543
 20
2.698480
  0
VERTEX
  8
PLAN_1
  6
CONTINUOUS
 10
-0.797921
 20
2.704610
  0
VERTEX
  8
PLAN_1
  6
CONTINUOUS
 10
-0.802736
 20
2.709862
  0
VERTEX
  8
PLAN_1
  6
CONTINUOUS
 10
-0.807992
 20
2.714677
  0
VERTEX
  8
PLAN_1
  6
CONTINUOUS
 10
-0.813681
 20
2.719055
  0
VERTEX
  8
PLAN_1
  6
CONTINUOUS
 10
-0.820248
 20
2.722996
  0
VERTEX
  8
PLAN_1
  6
CONTINUOUS
 10
-0.826819
 20
2.726063
  0
VERTEX
  8
PLAN_1
  6
CONTINUOUS
 10
-0.833823
 20
2.728689
  0
VERTEX
  8
PLAN_1
  6
CONTINUOUS
 10
-0.840827
 20
2.730441
  0
VERTEX
  8
PLAN_1
  6
CONTINUOUS
 10
-0.848709
 20
2.731752
  0
VERTEX
  8
PLAN_1
  6
CONTINUOUS
 10
-0.856150
 20
2.732193
  0
SEQEND
  8
0
  0
POLYLINE
  8
PLAN_1
  6
CONTINUOUS
 66
     1
 40
0.008315
 41
0.008315
  0
VERTEX
  8
PLAN_1
  6
CONTINUOUS
 10
-0.856150
 20
2.732193
  0
VERTEX
  8
PLAN_1
  6
CONTINUOUS
 10
-1.434071
 20
2.732193
  0
SEQEND
  8
0
  0
POLYLINE
  8
PLAN_1
  6
CONTINUOUS
 66
     1
 40
0.008315
 41
0.008315
  0
VERTEX
  8
PLAN_1
  6
CONTINUOUS
 10
-1.434071
 20
2.732193
  0
VERTEX
  8
PLAN_1
  6
CONTINUOUS
 10
-1.441953
 20
2.731752
  0
VERTEX
  8
PLAN_1
  6
CONTINUOUS
 10
-1.449394
 20
2.730441
  0
VERTEX
  8
PLAN_1
  6
CONTINUOUS
 10
-1.456839
 20
2.728689
  0
VERTEX
  8
PLAN_1
  6
CONTINUOUS
 10
-1.463843
 20
2.726063
  0
VERTEX
  8
PLAN_1
  6
CONTINUOUS
 10
-1.470409
 20
2.722996
  0
VERTEX
  8
PLAN_1
  6
CONTINUOUS
 10
-1.476539
 20
2.719055
  0
VERTEX
  8
PLAN_1
  6
CONTINUOUS
 10
-1.482669
 20
2.714677
  0
VERTEX
  8
PLAN_1
  6
CONTINUOUS
 10
-1.487921
 20
2.709862
  0
VERTEX
  8
PLAN_1
  6
CONTINUOUS
 10
-1.492740
 20
2.704610
  0
VERTEX
  8
PLAN_1
  6
CONTINUOUS
 10
-1.497118
 20
2.698480
  0
VERTEX
  8
PLAN_1
  6
CONTINUOUS
 10
-1.501059
 20
2.692350
  0
VERTEX
  8
PLAN_1
  6
CONTINUOUS
 10
-1.504122
 20
2.685783
  0
VERTEX
  8
PLAN_1
  6
CONTINUOUS
 10
-1.506748
 20
2.678776
  0
VERTEX
  8
PLAN_1
  6
CONTINUOUS
 10
-1.508500
 20
2.671335
  0
VERTEX
  8
PLAN_1
  6
CONTINUOUS
 10
-1.509815
 20
2.663890
  0
VERTEX
  8
PLAN_1
  6
CONTINUOUS
 10
-1.510252
 20
2.656012
  0
SEQEND
  8
0
  0
POLYLINE
  8
PLAN_1
  6
CONTINUOUS
 66
     1
 40
0.008315
 41
0.008315
  0
VERTEX
  8
PLAN_1
  6
CONTINUOUS
 10
-1.510252
 20
2.656012
  0
VERTEX
  8
PLAN_1
  6
CONTINUOUS
 10
-1.510252
 20
2.414335
  0
VERTEX
  8
PLAN_1
  6
CONTINUOUS
 10
-0.780409
 20
2.414335
  0
SEQEND
  8
0
  0
POLYLINE
  8
PLAN_1
  6
CONTINUOUS
 66
     1
 40
0.008315
 41
0.008315
  0
VERTEX
  8
PLAN_1
  6
CONTINUOUS
 10
-1.801402
 20
2.146390
  0
VERTEX
  8
PLAN_1
  6
CONTINUOUS
 10
-0.495827
 20
2.146390
  0
SEQEND
  8
0
  0
POLYLINE
  8
PLAN_1
 62
     2
  6
CONTINUOUS
 66
     1
 40
0.004378
 41
0.004378
  0
VERTEX
  8
PLAN_1
 62
     2
  6
CONTINUOUS
 10
-1.308417
 20
3.400740
  0
VERTEX
  8
PLAN_1
 62
     2
  6
CONTINUOUS
 10
-0.976988
 20
3.400740
  0
SEQEND
  8
0
  0
SOLID
  8
PLAN_1
 62
     2
 10
-0.947654
 20
3.400740
 11
-1.006323
 21
3.416500
 12
-0.947654
 22
3.400740
 13
-1.006323
 23
3.384976
  0
POLYLINE
  8
PLAN_1
 62
     2
  6
CONTINUOUS
 66
     1
 40
0.003000
 41
0.003000
  0
VERTEX
  8
PLAN_1
 62
     2
  6
CONTINUOUS
 10
-0.947654
 20
3.400740
  0
VERTEX
  8
PLAN_1
 62
     2
  6
CONTINUOUS
 10
-1.006323
 20
3.416500
  0
VERTEX
  8
PLAN_1
 62
     2
  6
CONTINUOUS
 10
-1.006323
 20
3.384976
  0
VERTEX
  8
PLAN_1
 62
     2
  6
CONTINUOUS
 10
-0.947654
 20
3.400740
  0
SEQEND
  8
0
  0
SOLID
  8
PLAN_1
 62
     2
 10
-1.338189
 20
3.400740
 11
-1.279083
 21
3.416500
 12
-1.338189
 22
3.400740
 13
-1.279083
 23
3.384976
  0
POLYLINE
  8
PLAN_1
 62
     2
  6
CONTINUOUS
 66
     1
 40
0.003000
 41
0.003000
  0
VERTEX
  8
PLAN_1
 62
     2
  6
CONTINUOUS
 10
-1.338189
 20
3.400740
  0
VERTEX
  8
PLAN_1
 62
     2
  6
CONTINUOUS
 10
-1.279083
 20
3.416500
  0
VERTEX
  8
PLAN_1
 62
     2
  6
CONTINUOUS
 10
-1.279083
 20
3.384976
  0
VERTEX
  8
PLAN_1
 62
     2
  6
CONTINUOUS
 10
-1.338189
 20
3.400740
  0
SEQEND
  8
0
  0
POLYLINE
  8
PLAN_1
 62
     2
  6
CONTINUOUS
 66
     1
 40
0.003000
 41
0.003000
  0
VERTEX
  8
PLAN_1
 62
     2
  6
CONTINUOUS
 10
-1.172256
 20
3.488303
  0
VERTEX
  8
PLAN_1
 62
     2
  6
CONTINUOUS
 10
-1.170067
 20
3.485240
  0
VERTEX
  8
PLAN_1
 62
     2
  6
CONTINUOUS
 10
-1.168315
 20
3.482173
  0
VERTEX
  8
PLAN_1
 62
     2
  6
CONTINUOUS
 10
-1.167004
 20
3.478673
  0
VERTEX
  8
PLAN_1
 62
     2
  6
CONTINUOUS
 10
-1.165689
 20
3.475169
  0
VERTEX
  8
PLAN_1
 62
     2
  6
CONTINUOUS
 10
-1.164811
 20
3.471665
  0
VERTEX
  8
PLAN_1
 62
     2
  6
CONTINUOUS
 10
-1.164374
 20
3.468165
  0
VERTEX
  8
PLAN_1
 62
     2
  6
CONTINUOUS
 10
-1.163937
 20
3.465098
  0
VERTEX
  8
PLAN_1
 62
     2
  6
CONTINUOUS
 10
-1.163937
 20
3.461594
  0
VERTEX
  8
PLAN_1
 62
     2
  6
CONTINUOUS
 10
-1.164374
 20
3.455469
  0
VERTEX
  8
PLAN_1
 62
     2
  6
CONTINUOUS
 10
-1.165689
 20
3.448902
  0
VERTEX
  8
PLAN_1
 62
     2
  6
CONTINUOUS
 10
-1.166563
 20
3.445398
  0
VERTEX
  8
PLAN_1
 62
     2
  6
CONTINUOUS
 10
-1.167878
 20
3.442331
  0
VERTEX
  8
PLAN_1
 62
     2
  6
CONTINUOUS
 10
-1.169630
 20
3.438831
  0
VERTEX
  8
PLAN_1
 62
     2
  6
CONTINUOUS
 10
-1.171382
 20
3.435764
  0
VERTEX
  8
PLAN_1
 62
     2
  6
CONTINUOUS
 10
-1.174008
 20
3.433138
  0
VERTEX
  8
PLAN_1
 62
     2
  6
CONTINUOUS
 10
-1.176634
 20
3.430512
  0
VERTEX
  8
PLAN_1
 62
     2
  6
CONTINUOUS
 10
-1.179260
 20
3.428323
  0
VERTEX
  8
PLAN_1
 62
     2
  6
CONTINUOUS
 10
-1.182764
 20
3.426134
  0
VERTEX
  8
PLAN_1
 62
     2
  6
CONTINUOUS
 10
-1.186705
 20
3.424382
  0
VERTEX
  8
PLAN_1
 62
     2
  6
CONTINUOUS
 10
-1.190646
 20
3.423508
  0
VERTEX
  8
PLAN_1
 62
     2
  6
CONTINUOUS
 10
-1.195024
 20
3.422630
  0
VERTEX
  8
PLAN_1
 62
     2
  6
CONTINUOUS
 10
-1.200276
 20
3.422193
  0
VERTEX
  8
PLAN_1
 62
     2
  6
CONTINUOUS
 10
-1.204217
 20
3.422630
  0
VERTEX
  8
PLAN_1
 62
     2
  6
CONTINUOUS
 10
-1.207720
 20
3.423067
  0
VERTEX
  8
PLAN_1
 62
     2
  6
CONTINUOUS
 10
-1.211220
 20
3.423945
  0
VERTEX
  8
PLAN_1
 62
     2
  6
CONTINUOUS
 10
-1.214287
 20
3.424819
  0
VERTEX
  8
PLAN_1
 62
     2
  6
CONTINUOUS
 10
-1.217350
 20
3.426134
  0
VERTEX
  8
PLAN_1
 62
     2
  6
CONTINUOUS
 10
-1.219976
 20
3.427886
  0
VERTEX
  8
PLAN_1
 62
     2
  6
CONTINUOUS
 10
-1.222606
 20
3.429634
  0
VERTEX
  8
PLAN_1
 62
     2
  6
CONTINUOUS
 10
-1.224795
 20
3.431386
  0
VERTEX
  8
PLAN_1
 62
     2
  6
CONTINUOUS
 10
-1.233114
 20
3.422193
  0
VERTEX
  8
PLAN_1
 62
     2
  6
CONTINUOUS
 10
-1.236614
 20
3.425256
  0
VERTEX
  8
PLAN_1
 62
     2
  6
CONTINUOUS
 10
-1.227858
 20
3.434453
  0
VERTEX
  8
PLAN_1
 62
     2
  6
CONTINUOUS
 10
-1.230047
 20
3.437953
  0
VERTEX
  8
PLAN_1
 62
     2
  6
CONTINUOUS
 10
-1.231799
 20
3.441020
  0
VERTEX
  8
PLAN_1
 62
     2
  6
CONTINUOUS
 10
-1.233551
 20
3.444520
  0
VERTEX
  8
PLAN_1
 62
     2
  6
CONTINUOUS
 10
-1.234425
 20
3.448024
  0
VERTEX
  8
PLAN_1
 62
     2
  6
CONTINUOUS
 10
-1.235303
 20
3.451528
  0
VERTEX
  8
PLAN_1
 62
     2
  6
CONTINUOUS
 10
-1.236177
 20
3.455028
  0
VERTEX
  8
PLAN_1
 62
     2
  6
CONTINUOUS
 10
-1.236614
 20
3.458531
  0
VERTEX
  8
PLAN_1
 62
     2
  6
CONTINUOUS
 10
-1.236614
 20
3.461594
  0
VERTEX
  8
PLAN_1
 62
     2
  6
CONTINUOUS
 10
-1.236614
 20
3.464661
  0
VERTEX
  8
PLAN_1
 62
     2
  6
CONTINUOUS
 10
-1.236177
 20
3.468165
  0
VERTEX
  8
PLAN_1
 62
     2
  6
CONTINUOUS
 10
-1.235740
 20
3.471228
  0
VERTEX
  8
PLAN_1
 62
     2
  6
CONTINUOUS
 10
-1.234862
 20
3.474732
  0
VERTEX
  8
PLAN_1
 62
     2
  6
CONTINUOUS
 10
-1.233988
 20
3.477795
  0
VERTEX
  8
PLAN_1
 62
     2
  6
CONTINUOUS
 10
-1.232236
 20
3.481299
  0
VERTEX
  8
PLAN_1
 62
     2
  6
CONTINUOUS
 10
-1.230925
 20
3.484362
  0
VERTEX
  8
PLAN_1
 62
     2
  6
CONTINUOUS
 10
-1.228736
 20
3.487429
  0
VERTEX
  8
PLAN_1
 62
     2
  6
CONTINUOUS
 10
-1.226547
 20
3.490055
  0
VERTEX
  8
PLAN_1
 62
     2
  6
CONTINUOUS
 10
-1.223917
 20
3.492681
  0
VERTEX
  8
PLAN_1
 62
     2
  6
CONTINUOUS
 10
-1.220854
 20
3.495307
  0
VERTEX
  8
PLAN_1
 62
     2
  6
CONTINUOUS
 10
-1.217787
 20
3.497059
  0
VERTEX
  8
PLAN_1
 62
     2
  6
CONTINUOUS
 10
-1.213850
 20
3.498811
  0
VERTEX
  8
PLAN_1
 62
     2
  6
CONTINUOUS
 10
-1.209909
 20
3.500126
  0
VERTEX
  8
PLAN_1
 62
     2
  6
CONTINUOUS
 10
-1.205091
 20
3.500563
  0
VERTEX
  8
PLAN_1
 62
     2
  6
CONTINUOUS
 10
-1.200276
 20
3.501000
  0
VERTEX
  8
PLAN_1
 62
     2
  6
CONTINUOUS
 10
-1.196335
 20
3.501000
  0
VERTEX
  8
PLAN_1
 62
     2
  6
CONTINUOUS
 10
-1.192394
 20
3.500126
  0
VERTEX
  8
PLAN_1
 62
     2
  6
CONTINUOUS
 10
-1.188894
 20
3.499685
  0
VERTEX
  8
PLAN_1
 62
     2
  6
CONTINUOUS
 10
-1.185827
 20
3.498374
  0
VERTEX
  8
PLAN_1
 62
     2
  6
CONTINUOUS
 10
-1.182764
 20
3.497059
  0
VERTEX
  8
PLAN_1
 62
     2
  6
CONTINUOUS
 10
-1.180138
 20
3.495307
  0
VERTEX
  8
PLAN_1
 62
     2
  6
CONTINUOUS
 10
-1.177508
 20
3.493559
  0
VERTEX
  8
PLAN_1
 62
     2
  6
CONTINUOUS
 10
-1.175319
 20
3.491807
  0
VERTEX
  8
PLAN_1
 62
     2
  6
CONTINUOUS
 10
-1.167004
 20
3.501000
  0
VERTEX
  8
PLAN_1
 62
     2
  6
CONTINUOUS
 10
-1.163500
 20
3.497937
  0
VERTEX
  8
PLAN_1
 62
     2
  6
CONTINUOUS
 10
-1.172256
 20
3.488303
  0
SEQEND
  8
0
  0
POLYLINE
  8
PLAN_1
 62
     2
  6
CONTINUOUS
 66
     1
 40
0.003000
 41
0.003000
  0
VERTEX
  8
PLAN_1
 62
     2
  6
CONTINUOUS
 10
-1.218228
 20
3.438831
  0
VERTEX
  8
PLAN_1
 62
     2
  6
CONTINUOUS
 10
-1.216476
 20
3.437079
  0
VERTEX
  8
PLAN_1
 62
     2
  6
CONTINUOUS
 10
-1.214724
 20
3.435764
  0
VERTEX
  8
PLAN_1
 62
     2
  6
CONTINUOUS
 10
-1.212535
 20
3.434453
  0
VERTEX
  8
PLAN_1
 62
     2
  6
CONTINUOUS
 10
-1.210346
 20
3.433138
  0
VERTEX
  8
PLAN_1
 62
     2
  6
CONTINUOUS
 10
-1.208157
 20
3.432264
  0
VERTEX
  8
PLAN_1
 62
     2
  6
CONTINUOUS
 10
-1.205531
 20
3.431823
  0
VERTEX
  8
PLAN_1
 62
     2
  6
CONTINUOUS
 10
-1.202902
 20
3.431386
  0
VERTEX
  8
PLAN_1
 62
     2
  6
CONTINUOUS
 10
-1.200276
 20
3.431386
  0
VERTEX
  8
PLAN_1
 62
     2
  6
CONTINUOUS
 10
-1.197213
 20
3.431386
  0
VERTEX
  8
PLAN_1
 62
     2
  6
CONTINUOUS
 10
-1.194583
 20
3.431823
  0
VERTEX
  8
PLAN_1
 62
     2
  6
CONTINUOUS
 10
-1.191957
 20
3.432701
  0
VERTEX
  8
PLAN_1
 62
     2
  6
CONTINUOUS
 10
-1.189331
 20
3.433575
  0
VERTEX
  8
PLAN_1
 62
     2
  6
CONTINUOUS
 10
-1.187142
 20
3.434890
  0
VERTEX
  8
PLAN_1
 62
     2
  6
CONTINUOUS
 10
-1.184953
 20
3.436205
  0
VERTEX
  8
PLAN_1
 62
     2
  6
CONTINUOUS
 10
-1.182764
 20
3.437953
  0
VERTEX
  8
PLAN_1
 62
     2
  6
CONTINUOUS
 10
-1.181012
 20
3.439705
  0
VERTEX
  8
PLAN_1
 62
     2
  6
CONTINUOUS
 10
-1.179697
 20
3.441894
  0
VERTEX
  8
PLAN_1
 62
     2
  6
CONTINUOUS
 10
-1.177949
 20
3.444520
  0
VERTEX
  8
PLAN_1
 62
     2
  6
CONTINUOUS
 10
-1.177071
 20
3.446709
  0
VERTEX
  8
PLAN_1
 62
     2
  6
CONTINUOUS
 10
-1.176197
 20
3.449339
  0
VERTEX
  8
PLAN_1
 62
     2
  6
CONTINUOUS
 10
-1.175319
 20
3.452402
  0
VERTEX
  8
PLAN_1
 62
     2
  6
CONTINUOUS
 10
-1.174445
 20
3.455469
  0
VERTEX
  8
PLAN_1
 62
     2
  6
CONTINUOUS
 10
-1.174445
 20
3.458531
  0
VERTEX
  8
PLAN_1
 62
     2
  6
CONTINUOUS
 10
-1.174008
 20
3.461594
  0
VERTEX
  8
PLAN_1
 62
     2
  6
CONTINUOUS
 10
-1.174445
 20
3.464224
  0
VERTEX
  8
PLAN_1
 62
     2
  6
CONTINUOUS
 10
-1.174445
 20
3.467287
  0
VERTEX
  8
PLAN_1
 62
     2
  6
CONTINUOUS
 10
-1.174882
 20
3.469913
  0
VERTEX
  8
PLAN_1
 62
     2
  6
CONTINUOUS
 10
-1.175319
 20
3.472102
  0
VERTEX
  8
PLAN_1
 62
     2
  6
CONTINUOUS
 10
-1.176197
 20
3.474732
  0
VERTEX
  8
PLAN_1
 62
     2
  6
CONTINUOUS
 10
-1.177071
 20
3.476921
  0
VERTEX
  8
PLAN_1
 62
     2
  6
CONTINUOUS
 10
-1.177949
 20
3.478673
  0
VERTEX
  8
PLAN_1
 62
     2
  6
CONTINUOUS
 10
-1.179260
 20
3.480862
  0
VERTEX
  8
PLAN_1
 62
     2
  6
CONTINUOUS
 10
-1.218228
 20
3.438831
  0
SEQEND
  8
0
  0
POLYLINE
  8
PLAN_1
 62
     2
  6
CONTINUOUS
 66
     1
 40
0.003000
 41
0.003000
  0
VERTEX
  8
PLAN_1
 62
     2
  6
CONTINUOUS
 10
-1.181890
 20
3.484362
  0
VERTEX
  8
PLAN_1
 62
     2
  6
CONTINUOUS
 10
-1.183638
 20
3.486114
  0
VERTEX
  8
PLAN_1
 62
     2
  6
CONTINUOUS
 10
-1.185827
 20
3.487866
  0
VERTEX
  8
PLAN_1
 62
     2
  6
CONTINUOUS
 10
-1.187579
 20
3.488740
  0
VERTEX
  8
PLAN_1
 62
     2
  6
CONTINUOUS
 10
-1.189768
 20
3.490055
  0
VERTEX
  8
PLAN_1
 62
     2
  6
CONTINUOUS
 10
-1.192394
 20
3.490929
  0
VERTEX
  8
PLAN_1
 62
     2
  6
CONTINUOUS
 10
-1.194583
 20
3.491366
  0
VERTEX
  8
PLAN_1
 62
     2
  6
CONTINUOUS
 10
-1.197213
 20
3.491807
  0
VERTEX
  8
PLAN_1
 62
     2
  6
CONTINUOUS
 10
-1.200276
 20
3.492244
  0
VERTEX
  8
PLAN_1
 62
     2
  6
CONTINUOUS
 10
-1.203343
 20
3.491807
  0
VERTEX
  8
PLAN_1
 62
     2
  6
CONTINUOUS
 10
-1.205969
 20
3.491366
  0
VERTEX
  8
PLAN_1
 62
     2
  6
CONTINUOUS
 10
-1.208594
 20
3.490929
  0
VERTEX
  8
PLAN_1
 62
     2
  6
CONTINUOUS
 10
-1.211220
 20
3.489618
  0
VERTEX
  8
PLAN_1
 62
     2
  6
CONTINUOUS
 10
-1.213409
 20
3.488740
  0
VERTEX
  8
PLAN_1
 62
     2
  6
CONTINUOUS
 10
-1.215598
 20
3.486988
  0
VERTEX
  8
PLAN_1
 62
     2
  6
CONTINUOUS
 10
-1.217350
 20
3.485240
  0
VERTEX
  8
PLAN_1
 62
     2
  6
CONTINUOUS
 10
-1.219102
 20
3.483488
  0
VERTEX
  8
PLAN_1
 62
     2
  6
CONTINUOUS
 10
-1.220854
 20
3.481299
  0
VERTEX
  8
PLAN_1
 62
     2
  6
CONTINUOUS
 10
-1.222165
 20
3.479110
  0
VERTEX
  8
PLAN_1
 62
     2
  6
CONTINUOUS
 10
-1.223480
 20
3.476480
  0
VERTEX
  8
PLAN_1
 62
     2
  6
CONTINUOUS
 10
-1.224354
 20
3.473854
  0
VERTEX
  8
PLAN_1
 62
     2
  6
CONTINUOUS
 10
-1.225232
 20
3.470791
  0
VERTEX
  8
PLAN_1
 62
     2
  6
CONTINUOUS
 10
-1.225669
 20
3.468165
  0
VERTEX
  8
PLAN_1
 62
     2
  6
CONTINUOUS
 10
-1.226106
 20
3.465098
  0
VERTEX
  8
PLAN_1
 62
     2
  6
CONTINUOUS
 10
-1.226106
 20
3.461594
  0
VERTEX
  8
PLAN_1
 62
     2
  6
CONTINUOUS
 10
-1.226106
 20
3.458969
  0
VERTEX
  8
PLAN_1
 62
     2
  6
CONTINUOUS
 10
-1.225669
 20
3.456343
  0
VERTEX
  8
PLAN_1
 62
     2
  6
CONTINUOUS
 10
-1.225232
 20
3.453717
  0
VERTEX
  8
PLAN_1
 62
     2
  6
CONTINUOUS
 10
-1.224795
 20
3.451091
  0
VERTEX
  8
PLAN_1
 62
     2
  6
CONTINUOUS
 10
-1.223917
 20
3.448461
  0
VERTEX
  8
PLAN_1
 62
     2
  6
CONTINUOUS
 10
-1.223043
 20
3.446272
  0
VERTEX
  8
PLAN_1
 62
     2
  6
CONTINUOUS
 10
-1.222165
 20
3.444083
  0
VERTEX
  8
PLAN_1
 62
     2
  6
CONTINUOUS
 10
-1.220854
 20
3.442331
  0
VERTEX
  8
PLAN_1
 62
     2
  6
CONTINUOUS
 10
-1.181890
 20
3.484362
  0
SEQEND
  8
0
  0
POLYLINE
  8
PLAN_1
 62
     2
  6
CONTINUOUS
 66
     1
 40
0.003000
 41
0.003000
  0
VERTEX
  8
PLAN_1
 62
     2
  6
CONTINUOUS
 10
-1.122346
 20
3.424382
  0
VERTEX
  8
PLAN_1
 62
     2
  6
CONTINUOUS
 10
-1.131976
 20
3.424382
  0
VERTEX
  8
PLAN_1
 62
     2
  6
CONTINUOUS
 10
-1.131976
 20
3.476043
  0
VERTEX
  8
PLAN_1
 62
     2
  6
CONTINUOUS
 10
-1.149051
 20
3.476043
  0
VERTEX
  8
PLAN_1
 62
     2
  6
CONTINUOUS
 10
-1.149051
 20
3.483488
  0
VERTEX
  8
PLAN_1
 62
     2
  6
CONTINUOUS
 10
-1.145110
 20
3.483925
  0
VERTEX
  8
PLAN_1
 62
     2
  6
CONTINUOUS
 10
-1.141610
 20
3.484362
  0
VERTEX
  8
PLAN_1
 62
     2
  6
CONTINUOUS
 10
-1.138543
 20
3.485240
  0
VERTEX
  8
PLAN_1
 62
     2
  6
CONTINUOUS
 10
-1.135917
 20
3.486114
  0
VERTEX
  8
PLAN_1
 62
     2
  6
CONTINUOUS
 10
-1.133728
 20
3.487866
  0
VERTEX
  8
PLAN_1
 62
     2
  6
CONTINUOUS
 10
-1.131976
 20
3.490492
  0
VERTEX
  8
PLAN_1
 62
     2
  6
CONTINUOUS
 10
-1.130661
 20
3.493559
  0
VERTEX
  8
PLAN_1
 62
     2
  6
CONTINUOUS
 10
-1.129350
 20
3.497496
  0
VERTEX
  8
PLAN_1
 62
     2
  6
CONTINUOUS
 10
-1.122346
 20
3.497496
  0
VERTEX
  8
PLAN_1
 62
     2
  6
CONTINUOUS
 10
-1.122346
 20
3.424382
  0
SEQEND
  8
0
  0
POLYLINE
  8
PLAN_1
 62
     2
  6
CONTINUOUS
 66
     1
 40
0.003000
 41
0.003000
  0
VERTEX
  8
PLAN_1
 62
     2
  6
CONTINUOUS
 10
-1.072870
 20
3.422193
  0
VERTEX
  8
PLAN_1
 62
     2
  6
CONTINUOUS
 10
-1.076811
 20
3.422630
  0
VERTEX
  8
PLAN_1
 62
     2
  6
CONTINUOUS
 10
-1.079878
 20
3.423508
  0
VERTEX
  8
PLAN_1
 62
     2
  6
CONTINUOUS
 10
-1.082941
 20
3.424382
  0
VERTEX
  8
PLAN_1
 62
     2
  6
CONTINUOUS
 10
-1.085567
 20
3.426134
  0
VERTEX
  8
PLAN_1
 62
     2
  6
CONTINUOUS
 10
-1.088193
 20
3.427886
  0
VERTEX
  8
PLAN_1
 62
     2
  6
CONTINUOUS
 10
-1.089945
 20
3.430075
  0
VERTEX
  8
PLAN_1
 62
     2
  6
CONTINUOUS
 10
-1.091697
 20
3.432701
  0
VERTEX
  8
PLAN_1
 62
     2
  6
CONTINUOUS
 10
-1.093449
 20
3.435327
  0
VERTEX
  8
PLAN_1
 62
     2
  6
CONTINUOUS
 10
-1.094323
 20
3.438394
  0
VERTEX
  8
PLAN_1
 62
     2
  6
CONTINUOUS
 10
-1.095638
 20
3.441457
  0
VERTEX
  8
PLAN_1
 62
     2
  6
CONTINUOUS
 10
-1.096512
 20
3.444520
  0
VERTEX
  8
PLAN_1
 62
     2
  6
CONTINUOUS
 10
-1.096953
 20
3.447587
  0
VERTEX
  8
PLAN_1
 62
     2
  6
CONTINUOUS
 10
-1.097827
 20
3.453717
  0
VERTEX
  8
PLAN_1
 62
     2
  6
CONTINUOUS
 10
-1.097827
 20
3.459846
  0
VERTEX
  8
PLAN_1
 62
     2
  6
CONTINUOUS
 10
-1.097827
 20
3.465976
  0
VERTEX
  8
PLAN_1
 62
     2
  6
CONTINUOUS
 10
-1.096953
 20
3.472102
  0
VERTEX
  8
PLAN_1
 62
     2
  6
CONTINUOUS
 10
-1.096512
 20
3.475169
  0
VERTEX
  8
PLAN_1
 62
     2
  6
CONTINUOUS
 10
-1.095638
 20
3.478673
  0
VERTEX
  8
PLAN_1
 62
     2
  6
CONTINUOUS
 10
-1.094323
 20
3.481299
  0
VERTEX
  8
PLAN_1
 62
     2
  6
CONTINUOUS
 10
-1.093449
 20
3.484362
  0
VERTEX
  8
PLAN_1
 62
     2
  6
CONTINUOUS
 10
-1.091697
 20
3.486988
  0
VERTEX
  8
PLAN_1
 62
     2
  6
CONTINUOUS
 10
-1.089945
 20
3.489618
  0
VERTEX
  8
PLAN_1
 62
     2
  6
CONTINUOUS
 10
-1.088193
 20
3.491807
  0
VERTEX
  8
PLAN_1
 62
     2
  6
CONTINUOUS
 10
-1.085567
 20
3.493559
  0
VERTEX
  8
PLAN_1
 62
     2
  6
CONTINUOUS
 10
-1.082941
 20
3.495307
  0
VERTEX
  8
PLAN_1
 62
     2
  6
CONTINUOUS
 10
-1.079878
 20
3.496622
  0
VERTEX
  8
PLAN_1
 62
     2
  6
CONTINUOUS
 10
-1.076811
 20
3.497059
  0
VERTEX
  8
PLAN_1
 62
     2
  6
CONTINUOUS
 10
-1.072870
 20
3.497496
  0
VERTEX
  8
PLAN_1
 62
     2
  6
CONTINUOUS
 10
-1.068929
 20
3.497059
  0
VERTEX
  8
PLAN_1
 62
     2
  6
CONTINUOUS
 10
-1.065866
 20
3.496622
  0
VERTEX
  8
PLAN_1
 62
     2
  6
CONTINUOUS
 10
-1.062803
 20
3.495307
  0
VERTEX
  8
PLAN_1
 62
     2
  6
CONTINUOUS
 10
-1.060173
 20
3.493559
  0
VERTEX
  8
PLAN_1
 62
     2
  6
CONTINUOUS
 10
-1.057547
 20
3.491807
  0
VERTEX
  8
PLAN_1
 62
     2
  6
CONTINUOUS
 10
-1.055795
 20
3.489618
  0
VERTEX
  8
PLAN_1
 62
     2
  6
CONTINUOUS
 10
-1.054043
 20
3.486988
  0
VERTEX
  8
PLAN_1
 62
     2
  6
CONTINUOUS
 10
-1.052295
 20
3.484362
  0
VERTEX
  8
PLAN_1
 62
     2
  6
CONTINUOUS
 10
-1.051417
 20
3.481299
  0
VERTEX
  8
PLAN_1
 62
     2
  6
CONTINUOUS
 10
-1.050106
 20
3.478673
  0
VERTEX
  8
PLAN_1
 62
     2
  6
CONTINUOUS
 10
-1.049228
 20
3.475169
  0
VERTEX
  8
PLAN_1
 62
     2
  6
CONTINUOUS
 10
-1.048791
 20
3.472102
  0
VERTEX
  8
PLAN_1
 62
     2
  6
CONTINUOUS
 10
-1.047917
 20
3.465976
  0
VERTEX
  8
PLAN_1
 62
     2
  6
CONTINUOUS
 10
-1.047917
 20
3.459846
  0
VERTEX
  8
PLAN_1
 62
     2
  6
CONTINUOUS
 10
-1.047917
 20
3.453717
  0
VERTEX
  8
PLAN_1
 62
     2
  6
CONTINUOUS
 10
-1.048791
 20
3.447587
  0
VERTEX
  8
PLAN_1
 62
     2
  6
CONTINUOUS
 10
-1.049228
 20
3.444520
  0
VERTEX
  8
PLAN_1
 62
     2
  6
CONTINUOUS
 10
-1.050106
 20
3.441457
  0
VERTEX
  8
PLAN_1
 62
     2
  6
CONTINUOUS
 10
-1.051417
 20
3.438394
  0
VERTEX
  8
PLAN_1
 62
     2
  6
CONTINUOUS
 10
-1.052295
 20
3.435327
  0
VERTEX
  8
PLAN_1
 62
     2
  6
CONTINUOUS
 10
-1.054043
 20
3.432701
  0
VERTEX
  8
PLAN_1
 62
     2
  6
CONTINUOUS
 10
-1.055795
 20
3.430075
  0
VERTEX
  8
PLAN_1
 62
     2
  6
CONTINUOUS
 10
-1.057547
 20
3.427886
  0
VERTEX
  8
PLAN_1
 62
     2
  6
CONTINUOUS
 10
-1.060173
 20
3.426134
  0
VERTEX
  8
PLAN_1
 62
     2
  6
CONTINUOUS
 10
-1.062803
 20
3.424382
  0
VERTEX
  8
PLAN_1
 62
     2
  6
CONTINUOUS
 10
-1.065866
 20
3.423508
  0
VERTEX
  8
PLAN_1
 62
     2
  6
CONTINUOUS
 10
-1.068929
 20
3.422630
  0
VERTEX
  8
PLAN_1
 62
     2
  6
CONTINUOUS
 10
-1.072870
 20
3.422193
  0
SEQEND
  8
0
  0
POLYLINE
  8
PLAN_1
 62
     2
  6
CONTINUOUS
 66
     1
 40
0.003000
 41
0.003000
  0
VERTEX
  8
PLAN_1
 62
     2
  6
CONTINUOUS
 10
-1.072870
 20
3.489177
  0
VERTEX
  8
PLAN_1
 62
     2
  6
CONTINUOUS
 10
-1.074622
 20
3.489177
  0
VERTEX
  8
PLAN_1
 62
     2
  6
CONTINUOUS
 10
-1.076374
 20
3.488740
  0
VERTEX
  8
PLAN_1
 62
     2
  6
CONTINUOUS
 10
-1.078126
 20
3.488303
  0
VERTEX
  8
PLAN_1
 62
     2
  6
CONTINUOUS
 10
-1.079878
 20
3.487429
  0
VERTEX
  8
PLAN_1
 62
     2
  6
CONTINUOUS
 10
-1.081189
 20
3.486114
  0
VERTEX
  8
PLAN_1
 62
     2
  6
CONTINUOUS
 10
-1.082504
 20
3.484799
  0
VERTEX
  8
PLAN_1
 62
     2
  6
CONTINUOUS
 10
-1.083378
 20
3.483051
  0
VERTEX
  8
PLAN_1
 62
     2
  6
CONTINUOUS
 10
-1.084256
 20
3.481299
  0
VERTEX
  8
PLAN_1
 62
     2
  6
CONTINUOUS
 10
-1.086004
 20
3.477358
  0
VERTEX
  8
PLAN_1
 62
     2
  6
CONTINUOUS
 10
-1.087319
 20
3.472102
  0
VERTEX
  8
PLAN_1
 62
     2
  6
CONTINUOUS
 10
-1.087756
 20
3.466413
  0
VERTEX
  8
PLAN_1
 62
     2
  6
CONTINUOUS
 10
-1.088193
 20
3.459846
  0
VERTEX
  8
PLAN_1
 62
     2
  6
CONTINUOUS
 10
-1.087756
 20
3.453280
  0
VERTEX
  8
PLAN_1
 62
     2
  6
CONTINUOUS
 10
-1.087319
 20
3.447587
  0
VERTEX
  8
PLAN_1
 62
     2
  6
CONTINUOUS
 10
-1.086004
 20
3.442772
  0
VERTEX
  8
PLAN_1
 62
     2
  6
CONTINUOUS
 10
-1.084256
 20
3.438394
  0
VERTEX
  8
PLAN_1
 62
     2
  6
CONTINUOUS
 10
-1.083378
 20
3.436642
  0
VERTEX
  8
PLAN_1
 62
     2
  6
CONTINUOUS
 10
-1.082504
 20
3.434890
  0
VERTEX
  8
PLAN_1
 62
     2
  6
CONTINUOUS
 10
-1.081189
 20
3.433575
  0
VERTEX
  8
PLAN_1
 62
     2
  6
CONTINUOUS
 10
-1.079878
 20
3.432701
  0
VERTEX
  8
PLAN_1
 62
     2
  6
CONTINUOUS
 10
-1.078126
 20
3.431823
  0
VERTEX
  8
PLAN_1
 62
     2
  6
CONTINUOUS
 10
-1.076374
 20
3.430949
  0
VERTEX
  8
PLAN_1
 62
     2
  6
CONTINUOUS
 10
-1.074622
 20
3.430512
  0
VERTEX
  8
PLAN_1
 62
     2
  6
CONTINUOUS
 10
-1.072870
 20
3.430512
  0
VERTEX
  8
PLAN_1
 62
     2
  6
CONTINUOUS
 10
-1.071118
 20
3.430512
  0
VERTEX
  8
PLAN_1
 62
     2
  6
CONTINUOUS
 10
-1.069370
 20
3.430949
  0
VERTEX
  8
PLAN_1
 62
     2
  6
CONTINUOUS
 10
-1.067618
 20
3.431823
  0
VERTEX
  8
PLAN_1
 62
     2
  6
CONTINUOUS
 10
-1.065866
 20
3.432701
  0
VERTEX
  8
PLAN_1
 62
     2
  6
CONTINUOUS
 10
-1.064551
 20
3.433575
  0
VERTEX
  8
PLAN_1
 62
     2
  6
CONTINUOUS
 10
-1.063240
 20
3.434890
  0
VERTEX
  8
PLAN_1
 62
     2
  6
CONTINUOUS
 10
-1.062362
 20
3.436642
  0
VERTEX
  8
PLAN_1
 62
     2
  6
CONTINUOUS
 10
-1.061051
 20
3.438394
  0
VERTEX
  8
PLAN_1
 62
     2
  6
CONTINUOUS
 10
-1.059736
 20
3.442772
  0
VERTEX
  8
PLAN_1
 62
     2
  6
CONTINUOUS
 10
-1.058421
 20
3.447587
  0
VERTEX
  8
PLAN_1
 62
     2
  6
CONTINUOUS
 10
-1.057984
 20
3.453280
  0
VERTEX
  8
PLAN_1
 62
     2
  6
CONTINUOUS
 10
-1.057547
 20
3.459846
  0
VERTEX
  8
PLAN_1
 62
     2
  6
CONTINUOUS
 10
-1.057984
 20
3.466413
  0
VERTEX
  8
PLAN_1
 62
     2
  6
CONTINUOUS
 10
-1.058421
 20
3.472102
  0
VERTEX
  8
PLAN_1
 62
     2
  6
CONTINUOUS
 10
-1.059736
 20
3.477358
  0
VERTEX
  8
PLAN_1
 62
     2
  6
CONTINUOUS
 10
-1.061051
 20
3.481299
  0
VERTEX
  8
PLAN_1
 62
     2
  6
CONTINUOUS
 10
-1.062362
 20
3.483051
  0
VERTEX
  8
PLAN_1
 62
     2
  6
CONTINUOUS
 10
-1.063240
 20
3.484799
  0
VERTEX
  8
PLAN_1
 62
     2
  6
CONTINUOUS
 10
-1.064551
 20
3.486114
  0
VERTEX
  8
PLAN_1
 62
     2
  6
CONTINUOUS
 10
-1.065866
 20
3.487429
  0
VERTEX
  8
PLAN_1
 62
     2
  6
CONTINUOUS
 10
-1.067618
 20
3.488303
  0
VERTEX
  8
PLAN_1
 62
     2
  6
CONTINUOUS
 10
-1.069370
 20
3.488740
  0
VERTEX
  8
PLAN_1
 62
     2
  6
CONTINUOUS
 10
-1.071118
 20
3.489177
  0
VERTEX
  8
PLAN_1
 62
     2
  6
CONTINUOUS
 10
-1.072870
 20
3.489177
  0
SEQEND
  8
0
  0
POLYLINE
  8
PLAN_1
 62
     2
  6
CONTINUOUS
 66
     1
 40
0.004378
 41
0.004378
  0
VERTEX
  8
PLAN_1
 62
     2
  6
CONTINUOUS
 10
-1.338189
 20
3.424382
  0
VERTEX
  8
PLAN_1
 62
     2
  6
CONTINUOUS
 10
-1.338189
 20
3.219484
  0
SEQEND
  8
0
  0
POLYLINE
  8
PLAN_1
 62
     2
  6
CONTINUOUS
 66
     1
 40
0.004378
 41
0.004378
  0
VERTEX
  8
PLAN_1
 62
     2
  6
CONTINUOUS
 10
-0.947654
 20
3.424382
  0
VERTEX
  8
PLAN_1
 62
     2
  6
CONTINUOUS
 10
-0.947654
 20
3.219484
  0
SEQEND
  8
0
  0
POLYLINE
  8
PLAN_1
 62
     2
  6
CONTINUOUS
 66
     1
 40
0.004378
 41
0.004378
  0
VERTEX
  8
PLAN_1
 62
     2
  6
CONTINUOUS
 10
-1.056232
 20
3.275524
  0
VERTEX
  8
PLAN_1
 62
     2
  6
CONTINUOUS
 10
-0.970421
 20
3.275524
  0
SEQEND
  8
0
  0
POLYLINE
  8
PLAN_1
 62
     2
  6
CONTINUOUS
 66
     1
 40
0.004378
 41
0.004378
  0
VERTEX
  8
PLAN_1
 62
     2
  6
CONTINUOUS
 10
-0.923138
 20
3.275524
  0
VERTEX
  8
PLAN_1
 62
     2
  6
CONTINUOUS
 10
-0.172280
 20
3.275524
  0
SEQEND
  8
0
  0
POLYLINE
  8
PLAN_1
 62
     2
  6
CONTINUOUS
 66
     1
 40
0.004378
 41
0.004378
  0
VERTEX
  8
PLAN_1
 62
     2
  6
CONTINUOUS
 10
-0.195921
 20
1.296587
  0
VERTEX
  8
PLAN_1
 62
     2
  6
CONTINUOUS
 10
-0.195921
 20
3.245752
  0
SEQEND
  8
0
  0
SOLID
  8
PLAN_1
 62
     2
 10
-0.195921
 20
3.275524
 11
-0.211681
 21
3.216417
 12
-0.195921
 22
3.275524
 13
-0.180161
 23
3.216417
  0
POLYLINE
  8
PLAN_1
 62
     2
  6
CONTINUOUS
 66
     1
 40
0.003000
 41
0.003000
  0
VERTEX
  8
PLAN_1
 62
     2
  6
CONTINUOUS
 10
-0.195921
 20
3.275524
  0
VERTEX
  8
PLAN_1
 62
     2
  6
CONTINUOUS
 10
-0.211681
 20
3.216417
  0
VERTEX
  8
PLAN_1
 62
     2
  6
CONTINUOUS
 10
-0.180161
 20
3.216417
  0
VERTEX
  8
PLAN_1
 62
     2
  6
CONTINUOUS
 10
-0.195921
 20
3.275524
  0
SEQEND
  8
0
  0
SOLID
  8
PLAN_1
 62
     2
 10
-0.195921
 20
1.266815
 11
-0.211681
 21
1.325917
 12
-0.195921
 22
1.266815
 13
-0.180161
 23
1.325917
  0
POLYLINE
  8
PLAN_1
 62
     2
  6
CONTINUOUS
 66
     1
 40
0.003000
 41
0.003000
  0
VERTEX
  8
PLAN_1
 62
     2
  6
CONTINUOUS
 10
-0.195921
 20
1.266815
  0
VERTEX
  8
PLAN_1
 62
     2
  6
CONTINUOUS
 10
-0.211681
 20
1.325917
  0
VERTEX
  8
PLAN_1
 62
     2
  6
CONTINUOUS
 10
-0.180161
 20
1.325917
  0
VERTEX
  8
PLAN_1
 62
     2
  6
CONTINUOUS
 10
-0.195921
 20
1.266815
  0
SEQEND
  8
0
  0
POLYLINE
  8
PLAN_1
 62
     2
  6
CONTINUOUS
 66
     1
 40
0.003000
 41
0.003000
  0
VERTEX
  8
PLAN_1
 62
     2
  6
CONTINUOUS
 10
-0.237075
 20
2.213378
  0
VERTEX
  8
PLAN_1
 62
     2
  6
CONTINUOUS
 10
-0.219563
 20
2.213378
  0
VERTEX
  8
PLAN_1
 62
     2
  6
CONTINUOUS
 10
-0.219563
 20
2.204622
  0
VERTEX
  8
PLAN_1
 62
     2
  6
CONTINUOUS
 10
-0.237075
 20
2.204622
  0
VERTEX
  8
PLAN_1
 62
     2
  6
CONTINUOUS
 10
-0.237075
 20
2.172657
  0
VERTEX
  8
PLAN_1
 62
     2
  6
CONTINUOUS
 10
-0.246272
 20
2.172657
  0
VERTEX
  8
PLAN_1
 62
     2
  6
CONTINUOUS
 10
-0.292677
 20
2.205933
  0
VERTEX
  8
PLAN_1
 62
     2
  6
CONTINUOUS
 10
-0.292677
 20
2.213378
  0
VERTEX
  8
PLAN_1
 62
     2
  6
CONTINUOUS
 10
-0.244957
 20
2.213378
  0
VERTEX
  8
PLAN_1
 62
     2
  6
CONTINUOUS
 10
-0.244957
 20
2.224323
  0
VERTEX
  8
PLAN_1
 62
     2
  6
CONTINUOUS
 10
-0.237075
 20
2.224323
  0
VERTEX
  8
PLAN_1
 62
     2
  6
CONTINUOUS
 10
-0.237075
 20
2.213378
  0
SEQEND
  8
0
  0
SOLID
  8
PLAN_1
 62
     2
 10
-0.244957
 20
2.180976
 11
-0.244957
 21
2.204622
 12
-0.278232
 22
2.204181
 13
-0.278232
 23
2.204622
  0
POLYLINE
  8
PLAN_1
 62
     2
  6
CONTINUOUS
 66
     1
 40
0.003000
 41
0.003000
  0
VERTEX
  8
PLAN_1
 62
     2
  6
CONTINUOUS
 10
-0.244957
 20
2.180976
  0
VERTEX
  8
PLAN_1
 62
     2
  6
CONTINUOUS
 10
-0.244957
 20
2.204622
  0
VERTEX
  8
PLAN_1
 62
     2
  6
CONTINUOUS
 10
-0.278232
 20
2.204622
  0
VERTEX
  8
PLAN_1
 62
     2
  6
CONTINUOUS
 10
-0.278232
 20
2.204181
  0
VERTEX
  8
PLAN_1
 62
     2
  6
CONTINUOUS
 10
-0.244957
 20
2.180976
  0
SEQEND
  8
0
  0
POLYLINE
  8
PLAN_1
 62
     2
  6
CONTINUOUS
 66
     1
 40
0.003000
 41
0.003000
  0
VERTEX
  8
PLAN_1
 62
     2
  6
CONTINUOUS
 10
-0.267287
 20
2.232201
  0
VERTEX
  8
PLAN_1
 62
     2
  6
CONTINUOUS
 10
-0.272102
 20
2.232642
  0
VERTEX
  8
PLAN_1
 62
     2
  6
CONTINUOUS
 10
-0.276917
 20
2.233516
  0
VERTEX
  8
PLAN_1
 62
     2
  6
CONTINUOUS
 10
-0.279106
 20
2.234394
  0
VERTEX
  8
PLAN_1
 62
     2
  6
CONTINUOUS
 10
-0.281295
 20
2.235705
  0
VERTEX
  8
PLAN_1
 62
     2
  6
CONTINUOUS
 10
-0.283047
 20
2.236583
  0
VERTEX
  8
PLAN_1
 62
     2
  6
CONTINUOUS
 10
-0.284799
 20
2.237894
  0
VERTEX
  8
PLAN_1
 62
     2
  6
CONTINUOUS
 10
-0.286551
 20
2.239646
  0
VERTEX
  8
PLAN_1
 62
     2
  6
CONTINUOUS
 10
-0.287862
 20
2.241398
  0
VERTEX
  8
PLAN_1
 62
     2
  6
CONTINUOUS
 10
-0.289177
 20
2.243150
  0
VERTEX
  8
PLAN_1
 62
     2
  6
CONTINUOUS
 10
-0.290488
 20
2.245339
  0
VERTEX
  8
PLAN_1
 62
     2
  6
CONTINUOUS
 10
-0.291366
 20
2.247528
  0
VERTEX
  8
PLAN_1
 62
     2
  6
CONTINUOUS
 10
-0.291803
 20
2.250154
  0
VERTEX
  8
PLAN_1
 62
     2
  6
CONTINUOUS
 10
-0.292240
 20
2.252780
  0
VERTEX
  8
PLAN_1
 62
     2
  6
CONTINUOUS
 10
-0.292677
 20
2.255846
  0
VERTEX
  8
PLAN_1
 62
     2
  6
CONTINUOUS
 10
-0.292240
 20
2.259783
  0
VERTEX
  8
PLAN_1
 62
     2
  6
CONTINUOUS
 10
-0.291366
 20
2.263287
  0
VERTEX
  8
PLAN_1
 62
     2
  6
CONTINUOUS
 10
-0.290488
 20
2.266791
  0
VERTEX
  8
PLAN_1
 62
     2
  6
CONTINUOUS
 10
-0.288740
 20
2.269417
  0
VERTEX
  8
PLAN_1
 62
     2
  6
CONTINUOUS
 10
-0.286988
 20
2.272043
  0
VERTEX
  8
PLAN_1
 62
     2
  6
CONTINUOUS
 10
-0.284799
 20
2.273795
  0
VERTEX
  8
PLAN_1
 62
     2
  6
CONTINUOUS
 10
-0.282610
 20
2.275547
  0
VERTEX
  8
PLAN_1
 62
     2
  6
CONTINUOUS
 10
-0.279980
 20
2.277299
  0
VERTEX
  8
PLAN_1
 62
     2
  6
CONTINUOUS
 10
-0.277354
 20
2.278173
  0
VERTEX
  8
PLAN_1
 62
     2
  6
CONTINUOUS
 10
-0.274728
 20
2.279488
  0
VERTEX
  8
PLAN_1
 62
     2
  6
CONTINUOUS
 10
-0.271665
 20
2.279925
  0
VERTEX
  8
PLAN_1
 62
     2
  6
CONTINUOUS
 10
-0.269035
 20
2.280362
  0
VERTEX
  8
PLAN_1
 62
     2
  6
CONTINUOUS
 10
-0.263346
 20
2.281240
  0
VERTEX
  8
PLAN_1
 62
     2
  6
CONTINUOUS
 10
-0.258528
 20
2.281240
  0
VERTEX
  8
PLAN_1
 62
     2
  6
CONTINUOUS
 10
-0.254591
 20
2.281240
  0
VERTEX
  8
PLAN_1
 62
     2
  6
CONTINUOUS
 10
-0.248898
 20
2.280799
  0
VERTEX
  8
PLAN_1
 62
     2
  6
CONTINUOUS
 10
-0.241894
 20
2.279488
  0
VERTEX
  8
PLAN_1
 62
     2
  6
CONTINUOUS
 10
-0.234886
 20
2.277299
  0
VERTEX
  8
PLAN_1
 62
     2
  6
CONTINUOUS
 10
-0.231823
 20
2.275984
  0
VERTEX
  8
PLAN_1
 62
     2
  6
CONTINUOUS
 10
-0.228319
 20
2.274232
  0
VERTEX
  8
PLAN_1
 62
     2
  6
CONTINUOUS
 10
-0.225256
 20
2.272043
  0
VERTEX
  8
PLAN_1
 62
     2
  6
CONTINUOUS
 10
-0.222630
 20
2.269417
  0
VERTEX
  8
PLAN_1
 62
     2
  6
CONTINUOUS
 10
-0.220437
 20
2.266354
  0
VERTEX
  8
PLAN_1
 62
     2
  6
CONTINUOUS
 10
-0.218689
 20
2.262850
  0
VERTEX
  8
PLAN_1
 62
     2
  6
CONTINUOUS
 10
-0.217811
 20
2.259346
  0
VERTEX
  8
PLAN_1
 62
     2
  6
CONTINUOUS
 10
-0.217374
 20
2.254531
  0
VERTEX
  8
PLAN_1
 62
     2
  6
CONTINUOUS
 10
-0.217374
 20
2.251469
  0
VERTEX
  8
PLAN_1
 62
     2
  6
CONTINUOUS
 10
-0.217811
 20
2.248839
  0
VERTEX
  8
PLAN_1
 62
     2
  6
CONTINUOUS
 10
-0.218689
 20
2.246213
  0
VERTEX
  8
PLAN_1
 62
     2
  6
CONTINUOUS
 10
-0.219563
 20
2.244024
  0
VERTEX
  8
PLAN_1
 62
     2
  6
CONTINUOUS
 10
-0.220437
 20
2.241835
  0
VERTEX
  8
PLAN_1
 62
     2
  6
CONTINUOUS
 10
-0.221752
 20
2.240083
  0
VERTEX
  8
PLAN_1
 62
     2
  6
CONTINUOUS
 10
-0.223067
 20
2.238772
  0
VERTEX
  8
PLAN_1
 62
     2
  6
CONTINUOUS
 10
-0.224378
 20
2.237457
  0
VERTEX
  8
PLAN_1
 62
     2
  6
CONTINUOUS
 10
-0.227445
 20
2.235268
  0
VERTEX
  8
PLAN_1
 62
     2
  6
CONTINUOUS
 10
-0.230945
 20
2.233953
  0
VERTEX
  8
PLAN_1
 62
     2
  6
CONTINUOUS
 10
-0.234012
 20
2.233079
  0
VERTEX
  8
PLAN_1
 62
     2
  6
CONTINUOUS
 10
-0.237075
 20
2.233079
  0
VERTEX
  8
PLAN_1
 62
     2
  6
CONTINUOUS
 10
-0.237075
 20
2.242272
  0
VERTEX
  8
PLAN_1
 62
     2
  6
CONTINUOUS
 10
-0.234449
 20
2.242272
  0
VERTEX
  8
PLAN_1
 62
     2
  6
CONTINUOUS
 10
-0.231823
 20
2.243150
  0
VERTEX
  8
PLAN_1
 62
     2
  6
CONTINUOUS
 10
-0.230071
 20
2.244461
  0
VERTEX
  8
PLAN_1
 62
     2
  6
CONTINUOUS
 10
-0.228319
 20
2.245776
  0
VERTEX
  8
PLAN_1
 62
     2
  6
CONTINUOUS
 10
-0.227008
 20
2.247528
  0
VERTEX
  8
PLAN_1
 62
     2
  6
CONTINUOUS
 10
-0.225693
 20
2.249280
  0
VERTEX
  8
PLAN_1
 62
     2
  6
CONTINUOUS
 10
-0.225256
 20
2.251906
  0
VERTEX
  8
PLAN_1
 62
     2
  6
CONTINUOUS
 10
-0.224819
 20
2.254531
  0
VERTEX
  8
PLAN_1
 62
     2
  6
CONTINUOUS
 10
-0.225256
 20
2.256283
  0
VERTEX
  8
PLAN_1
 62
     2
  6
CONTINUOUS
 10
-0.225256
 20
2.258035
  0
VERTEX
  8
PLAN_1
 62
     2
  6
CONTINUOUS
 10
-0.225693
 20
2.259783
  0
VERTEX
  8
PLAN_1
 62
     2
  6
CONTINUOUS
 10
-0.226567
 20
2.261098
  0
VERTEX
  8
PLAN_1
 62
     2
  6
CONTINUOUS
 10
-0.227445
 20
2.262413
  0
VERTEX
  8
PLAN_1
 62
     2
  6
CONTINUOUS
 10
-0.228756
 20
2.263724
  0
VERTEX
  8
PLAN_1
 62
     2
  6
CONTINUOUS
 10
-0.230071
 20
2.265039
  0
VERTEX
  8
PLAN_1
 62
     2
  6
CONTINUOUS
 10
-0.231386
 20
2.266354
  0
VERTEX
  8
PLAN_1
 62
     2
  6
CONTINUOUS
 10
-0.235323
 20
2.268102
  0
VERTEX
  8
PLAN_1
 62
     2
  6
CONTINUOUS
 10
-0.240142
 20
2.269854
  0
VERTEX
  8
PLAN_1
 62
     2
  6
CONTINUOUS
 10
-0.245831
 20
2.271169
  0
VERTEX
  8
PLAN_1
 62
     2
  6
CONTINUOUS
 10
-0.252402
 20
2.272043
  0
VERTEX
  8
PLAN_1
 62
     2
  6
CONTINUOUS
 10
-0.250650
 20
2.270732
  0
VERTEX
  8
PLAN_1
 62
     2
  6
CONTINUOUS
 10
-0.248898
 20
2.268980
  0
VERTEX
  8
PLAN_1
 62
     2
  6
CONTINUOUS
 10
-0.247146
 20
2.267228
  0
VERTEX
  8
PLAN_1
 62
     2
  6
CONTINUOUS
 10
-0.246272
 20
2.265039
  0
VERTEX
  8
PLAN_1
 62
     2
  6
CONTINUOUS
 10
-0.244957
 20
2.262850
  0
VERTEX
  8
PLAN_1
 62
     2
  6
CONTINUOUS
 10
-0.244520
 20
2.260224
  0
VERTEX
  8
PLAN_1
 62
     2
  6
CONTINUOUS
 10
-0.244083
 20
2.257594
  0
VERTEX
  8
PLAN_1
 62
     2
  6
CONTINUOUS
 10
-0.243642
 20
2.254969
  0
VERTEX
  8
PLAN_1
 62
     2
  6
CONTINUOUS
 10
-0.244083
 20
2.250154
  0
VERTEX
  8
PLAN_1
 62
     2
  6
CONTINUOUS
 10
-0.245394
 20
2.245776
  0
VERTEX
  8
PLAN_1
 62
     2
  6
CONTINUOUS
 10
-0.246272
 20
2.243587
  0
VERTEX
  8
PLAN_1
 62
     2
  6
CONTINUOUS
 10
-0.247583
 20
2.241835
  0
VERTEX
  8
PLAN_1
 62
     2
  6
CONTINUOUS
 10
-0.248898
 20
2.240083
  0
VERTEX
  8
PLAN_1
 62
     2
  6
CONTINUOUS
 10
-0.250209
 20
2.238772
  0
VERTEX
  8
PLAN_1
 62
     2
  6
CONTINUOUS
 10
-0.251961
 20
2.237020
  0
VERTEX
  8
PLAN_1
 62
     2
  6
CONTINUOUS
 10
-0.253713
 20
2.235705
  0
VERTEX
  8
PLAN_1
 62
     2
  6
CONTINUOUS
 10
-0.255465
 20
2.234831
  0
VERTEX
  8
PLAN_1
 62
     2
  6
CONTINUOUS
 10
-0.257654
 20
2.233953
  0
VERTEX
  8
PLAN_1
 62
     2
  6
CONTINUOUS
 10
-0.259843
 20
2.233079
  0
VERTEX
  8
PLAN_1
 62
     2
  6
CONTINUOUS
 10
-0.262031
 20
2.232642
  0
VERTEX
  8
PLAN_1
 62
     2
  6
CONTINUOUS
 10
-0.264657
 20
2.232201
  0
VERTEX
  8
PLAN_1
 62
     2
  6
CONTINUOUS
 10
-0.267287
 20
2.232201
  0
SEQEND
  8
0
  0
POLYLINE
  8
PLAN_1
 62
     2
  6
CONTINUOUS
 66
     1
 40
0.003000
 41
0.003000
  0
VERTEX
  8
PLAN_1
 62
     2
  6
CONTINUOUS
 10
-0.268598
 20
2.270732
  0
VERTEX
  8
PLAN_1
 62
     2
  6
CONTINUOUS
 10
-0.271665
 20
2.270291
  0
VERTEX
  8
PLAN_1
 62
     2
  6
CONTINUOUS
 10
-0.274728
 20
2.269854
  0
VERTEX
  8
PLAN_1
 62
     2
  6
CONTINUOUS
 10
-0.277354
 20
2.268543
  0
VERTEX
  8
PLAN_1
 62
     2
  6
CONTINUOUS
 10
-0.279543
 20
2.267228
  0
VERTEX
  8
PLAN_1
 62
     2
  6
CONTINUOUS
 10
-0.281732
 20
2.265039
  0
VERTEX
  8
PLAN_1
 62
     2
  6
CONTINUOUS
 10
-0.283047
 20
2.262413
  0
VERTEX
  8
PLAN_1
 62
     2
  6
CONTINUOUS
 10
-0.283921
 20
2.259346
  0
VERTEX
  8
PLAN_1
 62
     2
  6
CONTINUOUS
 10
-0.284362
 20
2.255846
  0
VERTEX
  8
PLAN_1
 62
     2
  6
CONTINUOUS
 10
-0.283921
 20
2.252780
  0
VERTEX
  8
PLAN_1
 62
     2
  6
CONTINUOUS
 10
-0.283047
 20
2.249717
  0
VERTEX
  8
PLAN_1
 62
     2
  6
CONTINUOUS
 10
-0.281732
 20
2.247528
  0
VERTEX
  8
PLAN_1
 62
     2
  6
CONTINUOUS
 10
-0.279543
 20
2.245339
  0
VERTEX
  8
PLAN_1
 62
     2
  6
CONTINUOUS
 10
-0.277354
 20
2.244024
  0
VERTEX
  8
PLAN_1
 62
     2
  6
CONTINUOUS
 10
-0.274728
 20
2.242709
  0
VERTEX
  8
PLAN_1
 62
     2
  6
CONTINUOUS
 10
-0.271224
 20
2.241835
  0
VERTEX
  8
PLAN_1
 62
     2
  6
CONTINUOUS
 10
-0.267724
 20
2.241398
  0
VERTEX
  8
PLAN_1
 62
     2
  6
CONTINUOUS
 10
-0.262906
 20
2.241835
  0
VERTEX
  8
PLAN_1
 62
     2
  6
CONTINUOUS
 10
-0.259406
 20
2.243150
  0
VERTEX
  8
PLAN_1
 62
     2
  6
CONTINUOUS
 10
-0.256780
 20
2.244461
  0
VERTEX
  8
PLAN_1
 62
     2
  6
CONTINUOUS
 10
-0.254591
 20
2.246650
  0
VERTEX
  8
PLAN_1
 62
     2
  6
CONTINUOUS
 10
-0.253276
 20
2.248839
  0
VERTEX
  8
PLAN_1
 62
     2
  6
CONTINUOUS
 10
-0.252402
 20
2.251469
  0
VERTEX
  8
PLAN_1
 62
     2
  6
CONTINUOUS
 10
-0.251961
 20
2.254094
  0
VERTEX
  8
PLAN_1
 62
     2
  6
CONTINUOUS
 10
-0.251961
 20
2.256283
  0
VERTEX
  8
PLAN_1
 62
     2
  6
CONTINUOUS
 10
-0.251961
 20
2.258472
  0
VERTEX
  8
PLAN_1
 62
     2
  6
CONTINUOUS
 10
-0.252402
 20
2.260661
  0
VERTEX
  8
PLAN_1
 62
     2
  6
CONTINUOUS
 10
-0.253276
 20
2.262850
  0
VERTEX
  8
PLAN_1
 62
     2
  6
CONTINUOUS
 10
-0.255028
 20
2.265476
  0
VERTEX
  8
PLAN_1
 62
     2
  6
CONTINUOUS
 10
-0.257217
 20
2.267228
  0
VERTEX
  8
PLAN_1
 62
     2
  6
CONTINUOUS
 10
-0.259843
 20
2.268980
  0
VERTEX
  8
PLAN_1
 62
     2
  6
CONTINUOUS
 10
-0.261594
 20
2.269417
  0
VERTEX
  8
PLAN_1
 62
     2
  6
CONTINUOUS
 10
-0.263783
 20
2.270291
  0
VERTEX
  8
PLAN_1
 62
     2
  6
CONTINUOUS
 10
-0.265972
 20
2.270291
  0
VERTEX
  8
PLAN_1
 62
     2
  6
CONTINUOUS
 10
-0.268598
 20
2.270732
  0
SEQEND
  8
0
  0
POLYLINE
  8
PLAN_1
 62
     2
  6
CONTINUOUS
 66
     1
 40
0.003000
 41
0.003000
  0
VERTEX
  8
PLAN_1
 62
     2
  6
CONTINUOUS
 10
-0.219563
 20
2.294811
  0
VERTEX
  8
PLAN_1
 62
     2
  6
CONTINUOUS
 10
-0.219563
 20
2.300063
  0
VERTEX
  8
PLAN_1
 62
     2
  6
CONTINUOUS
 10
-0.217374
 20
2.300063
  0
VERTEX
  8
PLAN_1
 62
     2
  6
CONTINUOUS
 10
-0.215622
 20
2.300063
  0
VERTEX
  8
PLAN_1
 62
     2
  6
CONTINUOUS
 10
-0.213870
 20
2.299626
  0
VERTEX
  8
PLAN_1
 62
     2
  6
CONTINUOUS
 10
-0.212559
 20
2.299189
  0
VERTEX
  8
PLAN_1
 62
     2
  6
CONTINUOUS
 10
-0.211244
 20
2.298315
  0
VERTEX
  8
PLAN_1
 62
     2
  6
CONTINUOUS
 10
-0.209933
 20
2.297437
  0
VERTEX
  8
PLAN_1
 62
     2
  6
CONTINUOUS
 10
-0.209055
 20
2.296126
  0
VERTEX
  8
PLAN_1
 62
     2
  6
CONTINUOUS
 10
-0.209055
 20
2.294811
  0
VERTEX
  8
PLAN_1
 62
     2
  6
CONTINUOUS
 10
-0.204240
 20
2.294811
  0
VERTEX
  8
PLAN_1
 62
     2
  6
CONTINUOUS
 10
-0.204240
 20
2.295685
  0
VERTEX
  8
PLAN_1
 62
     2
  6
CONTINUOUS
 10
-0.204677
 20
2.297437
  0
VERTEX
  8
PLAN_1
 62
     2
  6
CONTINUOUS
 10
-0.205551
 20
2.299189
  0
VERTEX
  8
PLAN_1
 62
     2
  6
CONTINUOUS
 10
-0.206866
 20
2.300941
  0
VERTEX
  8
PLAN_1
 62
     2
  6
CONTINUOUS
 10
-0.209055
 20
2.302693
  0
VERTEX
  8
PLAN_1
 62
     2
  6
CONTINUOUS
 10
-0.211681
 20
2.304004
  0
VERTEX
  8
PLAN_1
 62
     2
  6
CONTINUOUS
 10
-0.215622
 20
2.305319
  0
VERTEX
  8
PLAN_1
 62
     2
  6
CONTINUOUS
 10
-0.220000
 20
2.305319
  0
VERTEX
  8
PLAN_1
 62
     2
  6
CONTINUOUS
 10
-0.230508
 20
2.305319
  0
VERTEX
  8
PLAN_1
 62
     2
  6
CONTINUOUS
 10
-0.230508
 20
2.294811
  0
VERTEX
  8
PLAN_1
 62
     2
  6
CONTINUOUS
 10
-0.219563
 20
2.294811
  0
SEQEND
  8
0
  0
POLYLINE
  8
PLAN_1
 62
     2
  6
CONTINUOUS
 66
     1
 40
0.003000
 41
0.003000
  0
VERTEX
  8
PLAN_1
 62
     2
  6
CONTINUOUS
 10
-0.262031
 20
2.329835
  0
VERTEX
  8
PLAN_1
 62
     2
  6
CONTINUOUS
 10
-0.262906
 20
2.331150
  0
VERTEX
  8
PLAN_1
 62
     2
  6
CONTINUOUS
 10
-0.263783
 20
2.332465
  0
VERTEX
  8
PLAN_1
 62
     2
  6
CONTINUOUS
 10
-0.264220
 20
2.333776
  0
VERTEX
  8
PLAN_1
 62
     2
  6
CONTINUOUS
 10
-0.265094
 20
2.335528
  0
VERTEX
  8
PLAN_1
 62
     2
  6
CONTINUOUS
 10
-0.265535
 20
2.337280
  0
VERTEX
  8
PLAN_1
 62
     2
  6
CONTINUOUS
 10
-0.265972
 20
2.339469
  0
VERTEX
  8
PLAN_1
 62
     2
  6
CONTINUOUS
 10
-0.266409
 20
2.341657
  0
VERTEX
  8
PLAN_1
 62
     2
  6
CONTINUOUS
 10
-0.266409
 20
2.343846
  0
VERTEX
  8
PLAN_1
 62
     2
  6
CONTINUOUS
 10
-0.265972
 20
2.348661
  0
VERTEX
  8
PLAN_1
 62
     2
  6
CONTINUOUS
 10
-0.265094
 20
2.352602
  0
VERTEX
  8
PLAN_1
 62
     2
  6
CONTINUOUS
 10
-0.262906
 20
2.356980
  0
VERTEX
  8
PLAN_1
 62
     2
  6
CONTINUOUS
 10
-0.260280
 20
2.360484
  0
VERTEX
  8
PLAN_1
 62
     2
  6
CONTINUOUS
 10
-0.258969
 20
2.362236
  0
VERTEX
  8
PLAN_1
 62
     2
  6
CONTINUOUS
 10
-0.257217
 20
2.363547
  0
VERTEX
  8
PLAN_1
 62
     2
  6
CONTINUOUS
 10
-0.255028
 20
2.364862
  0
VERTEX
  8
PLAN_1
 62
     2
  6
CONTINUOUS
 10
-0.253276
 20
2.366173
  0
VERTEX
  8
PLAN_1
 62
     2
  6
CONTINUOUS
 10
-0.250650
 20
2.367051
  0
VERTEX
  8
PLAN_1
 62
     2
  6
CONTINUOUS
 10
-0.248461
 20
2.367488
  0
VERTEX
  8
PLAN_1
 62
     2
  6
CONTINUOUS
 10
-0.245831
 20
2.367925
  0
VERTEX
  8
PLAN_1
 62
     2
  6
CONTINUOUS
 10
-0.243205
 20
2.367925
  0
VERTEX
  8
PLAN_1
 62
     2
  6
CONTINUOUS
 10
-0.239705
 20
2.367925
  0
VERTEX
  8
PLAN_1
 62
     2
  6
CONTINUOUS
 10
-0.235764
 20
2.367051
  0
VERTEX
  8
PLAN_1
 62
     2
  6
CONTINUOUS
 10
-0.231386
 20
2.365736
  0
VERTEX
  8
PLAN_1
 62
     2
  6
CONTINUOUS
 10
-0.227008
 20
2.363547
  0
VERTEX
  8
PLAN_1
 62
     2
  6
CONTINUOUS
 10
-0.225256
 20
2.361795
  0
VERTEX
  8
PLAN_1
 62
     2
  6
CONTINUOUS
 10
-0.223504
 20
2.360047
  0
VERTEX
  8
PLAN_1
 62
     2
  6
CONTINUOUS
 10
-0.221752
 20
2.357858
  0
VERTEX
  8
PLAN_1
 62
     2
  6
CONTINUOUS
 10
-0.220437
 20
2.355228
  0
VERTEX
  8
PLAN_1
 62
     2
  6
CONTINUOUS
 10
-0.219126
 20
2.352602
  0
VERTEX
  8
PLAN_1
 62
     2
  6
CONTINUOUS
 10
-0.218248
 20
2.349098
  0
VERTEX
  8
PLAN_1
 62
     2
  6
CONTINUOUS
 10
-0.217374
 20
2.345598
  0
VERTEX
  8
PLAN_1
 62
     2
  6
CONTINUOUS
 10
-0.217374
 20
2.341657
  0
VERTEX
  8
PLAN_1
 62
     2
  6
CONTINUOUS
 10
-0.217374
 20
2.337717
  0
VERTEX
  8
PLAN_1
 62
     2
  6
CONTINUOUS
 10
-0.218248
 20
2.334213
  0
VERTEX
  8
PLAN_1
 62
     2
  6
CONTINUOUS
 10
-0.219563
 20
2.330276
  0
VERTEX
  8
PLAN_1
 62
     2
  6
CONTINUOUS
 10
-0.221315
 20
2.326772
  0
VERTEX
  8
PLAN_1
 62
     2
  6
CONTINUOUS
 10
-0.222630
 20
2.325020
  0
VERTEX
  8
PLAN_1
 62
     2
  6
CONTINUOUS
 10
-0.223941
 20
2.323705
  0
VERTEX
  8
PLAN_1
 62
     2
  6
CONTINUOUS
 10
-0.225693
 20
2.322394
  0
VERTEX
  8
PLAN_1
 62
     2
  6
CONTINUOUS
 10
-0.227445
 20
2.321079
  0
VERTEX
  8
PLAN_1
 62
     2
  6
CONTINUOUS
 10
-0.229634
 20
2.319768
  0
VERTEX
  8
PLAN_1
 62
     2
  6
CONTINUOUS
 10
-0.231823
 20
2.318890
  0
VERTEX
  8
PLAN_1
 62
     2
  6
CONTINUOUS
 10
-0.234449
 20
2.318453
  0
VERTEX
  8
PLAN_1
 62
     2
  6
CONTINUOUS
 10
-0.237516
 20
2.318016
  0
VERTEX
  8
PLAN_1
 62
     2
  6
CONTINUOUS
 10
-0.237516
 20
2.327209
  0
VERTEX
  8
PLAN_1
 62
     2
  6
CONTINUOUS
 10
-0.234449
 20
2.328087
  0
VERTEX
  8
PLAN_1
 62
     2
  6
CONTINUOUS
 10
-0.232260
 20
2.328961
  0
VERTEX
  8
PLAN_1
 62
     2
  6
CONTINUOUS
 10
-0.230071
 20
2.330713
  0
VERTEX
  8
PLAN_1
 62
     2
  6
CONTINUOUS
 10
-0.228319
 20
2.332465
  0
VERTEX
  8
PLAN_1
 62
     2
  6
CONTINUOUS
 10
-0.227008
 20
2.334654
  0
VERTEX
  8
PLAN_1
 62
     2
  6
CONTINUOUS
 10
-0.226130
 20
2.337280
  0
VERTEX
  8
PLAN_1
 62
     2
  6
CONTINUOUS
 10
-0.225256
 20
2.339906
  0
VERTEX
  8
PLAN_1
 62
     2
  6
CONTINUOUS
 10
-0.225256
 20
2.342972
  0
VERTEX
  8
PLAN_1
 62
     2
  6
CONTINUOUS
 10
-0.225693
 20
2.346035
  0
VERTEX
  8
PLAN_1
 62
     2
  6
CONTINUOUS
 10
-0.226567
 20
2.349098
  0
VERTEX
  8
PLAN_1
 62
     2
  6
CONTINUOUS
 10
-0.228319
 20
2.351728
  0
VERTEX
  8
PLAN_1
 62
     2
  6
CONTINUOUS
 10
-0.230071
 20
2.353917
  0
VERTEX
  8
PLAN_1
 62
     2
  6
CONTINUOUS
 10
-0.232697
 20
2.356106
  0
VERTEX
  8
PLAN_1
 62
     2
  6
CONTINUOUS
 10
-0.235764
 20
2.356980
  0
VERTEX
  8
PLAN_1
 62
     2
  6
CONTINUOUS
 10
-0.238827
 20
2.357858
  0
VERTEX
  8
PLAN_1
 62
     2
  6
CONTINUOUS
 10
-0.241894
 20
2.358295
  0
VERTEX
  8
PLAN_1
 62
     2
  6
CONTINUOUS
 10
-0.245831
 20
2.357858
  0
VERTEX
  8
PLAN_1
 62
     2
  6
CONTINUOUS
 10
-0.248898
 20
2.356980
  0
VERTEX
  8
PLAN_1
 62
     2
  6
CONTINUOUS
 10
-0.251961
 20
2.355669
  0
VERTEX
  8
PLAN_1
 62
     2
  6
CONTINUOUS
 10
-0.254150
 20
2.353476
  0
VERTEX
  8
PLAN_1
 62
     2
  6
CONTINUOUS
 10
-0.255902
 20
2.351287
  0
VERTEX
  8
PLAN_1
 62
     2
  6
CONTINUOUS
 10
-0.257217
 20
2.348224
  0
VERTEX
  8
PLAN_1
 62
     2
  6
CONTINUOUS
 10
-0.258091
 20
2.345161
  0
VERTEX
  8
PLAN_1
 62
     2
  6
CONTINUOUS
 10
-0.258091
 20
2.342094
  0
VERTEX
  8
PLAN_1
 62
     2
  6
CONTINUOUS
 10
-0.258091
 20
2.339906
  0
VERTEX
  8
PLAN_1
 62
     2
  6
CONTINUOUS
 10
-0.257654
 20
2.338154
  0
VERTEX
  8
PLAN_1
 62
     2
  6
CONTINUOUS
 10
-0.257217
 20
2.336402
  0
VERTEX
  8
PLAN_1
 62
     2
  6
CONTINUOUS
 10
-0.256339
 20
2.334654
  0
VERTEX
  8
PLAN_1
 62
     2
  6
CONTINUOUS
 10
-0.255465
 20
2.332902
  0
VERTEX
  8
PLAN_1
 62
     2
  6
CONTINUOUS
 10
-0.254150
 20
2.331150
  0
VERTEX
  8
PLAN_1
 62
     2
  6
CONTINUOUS
 10
-0.252839
 20
2.329835
  0
VERTEX
  8
PLAN_1
 62
     2
  6
CONTINUOUS
 10
-0.251087
 20
2.328524
  0
VERTEX
  8
PLAN_1
 62
     2
  6
CONTINUOUS
 10
-0.251524
 20
2.320642
  0
VERTEX
  8
PLAN_1
 62
     2
  6
CONTINUOUS
 10
-0.290929
 20
2.326335
  0
VERTEX
  8
PLAN_1
 62
     2
  6
CONTINUOUS
 10
-0.290929
 20
2.363984
  0
VERTEX
  8
PLAN_1
 62
     2
  6
CONTINUOUS
 10
-0.282173
 20
2.363984
  0
VERTEX
  8
PLAN_1
 62
     2
  6
CONTINUOUS
 10
-0.282173
 20
2.332902
  0
VERTEX
  8
PLAN_1
 62
     2
  6
CONTINUOUS
 10
-0.262031
 20
2.329835
  0
SEQEND
  8
0
  0
POLYLINE
  8
PLAN_1
 62
     2
  6
CONTINUOUS
 66
     1
 40
0.004378
 41
0.004378
  0
VERTEX
  8
PLAN_1
 62
     2
  6
CONTINUOUS
 10
-0.336461
 20
1.266815
  0
VERTEX
  8
PLAN_1
 62
     2
  6
CONTINUOUS
 10
-0.172280
 20
1.266815
  0
SEQEND
  8
0
  0
ENDSEC
  0
EOF
