  0
SECTION
  2
HEADER
  9
$ACADVER
  1
AC1006
  9
$EXTMIN
 10
-2.227197
 20
-3.165469
  9
$EXTMAX
 10
2.226000
 20
3.166000
  9
$LTSCALE
 40
0.000394
  9
$PDMODE
 70
    35
  9
$PDSIZE
 40
0.000315
  0
ENDSEC
  0
SECTION
  2
TABLES
  0
TABLE
  2
LTYPE
 70
     9
  0
LTYPE
  2
CONTINUOUS
 70
    64
  3
Solid line
 72
    65
 73
     0
 40
0.000000
  0
LTYPE
  2
DASHED
 70
    64
  3
__ __ __ __ __ __ __ __ __ __ __ __ __ __ __
 72
    65
 73
     2
 40
0.000003
 49
0.000002
 49
-0.000001
  0
LTYPE
  2
HIDDEN
 70
    64
  3
 _ _ _ _ _ _ _ _ _ _ _ _ _ _ _ _ _ _ _ _ _ _
 72
    65
 73
     2
 40
0.000001
 49
0.000001
 49
-0.000000
  0
LTYPE
  2
CENTER
 70
    64
  3
____ _ ____ _ ____ _ ____ _ ____ _ ____ _ ____
 72
    65
 73
     4
 40
0.000008
 49
0.000005
 49
-0.000001
 49
0.000001
 49
-0.000001
  0
LTYPE
  2
PHANTOM
 70
    64
  3
_____ _ _ _____ _ _ _____ _ _ _____ _ _ ____
 72
    65
 73
     6
 40
0.000010
 49
0.000005
 49
-0.000001
 49
0.000001
 49
-0.000001
 49
0.000001
 49
-0.000001
  0
LTYPE
  2
DOT
 70
    64
  3
...............................................
 72
    65
 73
     2
 40
0.000001
 49
0.000000
 49
-0.000001
  0
LTYPE
  2
DASHDOT
 70
    64
  3
__ . __ . __ . __ . __ . __ . __ . __ . __ . __
 72
    65
 73
     4
 40
0.000004
 49
0.000002
 49
-0.000001
 49
0.000000
 49
-0.000001
  0
LTYPE
  2
BORDER
 70
    64
  3
__ __ . __ __ . __ __ . __ __ . __ __ . __ __
 72
    65
 73
     6
 40
0.000007
 49
0.000002
 49
-0.000001
 49
0.000002
 49
-0.000001
 49
0.000000
 49
-0.000001
  0
LTYPE
  2
DIVIDE
 70
    64
  3
__ . . __ . . __ . . __ . . __ . . __ . . __
 72
    65
 73
     6
 40
0.000005
 49
0.000002
 49
-0.000001
 49
0.000000
 49
-0.000001
 49
0.000000
 49
-0.000001
  0
LTYPE
  2
DOTDOT
 70
    64
  3
 . .  . .  . .  . .  . .  . . 
 72
    65
 73
     5
 40
0.000002
 49
-0.000001
 49
0.000000
 49
-0.000001
 49
0.000000
 49
-0.000001
  0
ENDTAB
  0
TABLE
  2
STYLE
 70
     0
  0
ENDTAB
  0
TABLE
  2
LAYER
 70
     3
  0
LAYER
  2
FOREGROUND
 70
    64
 62
     7
  6
CONTINUOUS
  0
LAYER
  2
BACKGROUND
 70
    65
 62
    -7
  6
CONTINUOUS
  0
LAYER
  2
PLAN_1
 70
    64
 62
     7
  6
CONTINUOUS
  0
ENDTAB
  0
ENDSEC
  0
SECTION
  2
ENTITIES
  0
POLYLINE
  8
PLAN_1
  6
CONTINUOUS
 66
     1
 40
0.003000
 41
0.003000
  0
VERTEX
  8
PLAN_1
  6
CONTINUOUS
 10
0.365339
 20
-3.130646
  0
VERTEX
  8
PLAN_1
  6
CONTINUOUS
 10
0.208638
 20
-3.130646
  0
VERTEX
  8
PLAN_1
  6
CONTINUOUS
 10
0.208638
 20
-3.108484
  0
VERTEX
  8
PLAN_1
  6
CONTINUOUS
 10
0.330516
 20
-2.955343
  0
VERTEX
  8
PLAN_1
  6
CONTINUOUS
 10
0.217736
 20
-2.955343
  0
VERTEX
  8
PLAN_1
  6
CONTINUOUS
 10
0.217736
 20
-2.931598
  0
VERTEX
  8
PLAN_1
  6
CONTINUOUS
 10
0.365339
 20
-2.931598
  0
VERTEX
  8
PLAN_1
  6
CONTINUOUS
 10
0.365339
 20
-2.954945
  0
VERTEX
  8
PLAN_1
  6
CONTINUOUS
 10
0.242669
 20
-3.106902
  0
VERTEX
  8
PLAN_1
  6
CONTINUOUS
 10
0.365339
 20
-3.106902
  0
VERTEX
  8
PLAN_1
  6
CONTINUOUS
 10
0.365339
 20
-3.130646
  0
SEQEND
  8
0
  0
POLYLINE
  8
PLAN_1
  6
CONTINUOUS
 66
     1
 40
0.003000
 41
0.003000
  0
VERTEX
  8
PLAN_1
  6
CONTINUOUS
 10
0.532728
 20
-2.991350
  0
VERTEX
  8
PLAN_1
  6
CONTINUOUS
 10
0.531146
 20
-2.985417
  0
VERTEX
  8
PLAN_1
  6
CONTINUOUS
 10
0.529165
 20
-2.979480
  0
VERTEX
  8
PLAN_1
  6
CONTINUOUS
 10
0.526398
 20
-2.974732
  0
VERTEX
  8
PLAN_1
  6
CONTINUOUS
 10
0.523626
 20
-2.970378
  0
VERTEX
  8
PLAN_1
  6
CONTINUOUS
 10
0.520461
 20
-2.966421
  0
VERTEX
  8
PLAN_1
  6
CONTINUOUS
 10
0.516898
 20
-2.962858
  0
VERTEX
  8
PLAN_1
  6
CONTINUOUS
 10
0.513339
 20
-2.960091
  0
VERTEX
  8
PLAN_1
  6
CONTINUOUS
 10
0.509382
 20
-2.957717
  0
VERTEX
  8
PLAN_1
  6
CONTINUOUS
 10
0.505028
 20
-2.955736
  0
VERTEX
  8
PLAN_1
  6
CONTINUOUS
 10
0.501071
 20
-2.954154
  0
VERTEX
  8
PLAN_1
  6
CONTINUOUS
 10
0.496717
 20
-2.952571
  0
VERTEX
  8
PLAN_1
  6
CONTINUOUS
 10
0.492760
 20
-2.951780
  0
VERTEX
  8
PLAN_1
  6
CONTINUOUS
 10
0.484453
 20
-2.950594
  0
VERTEX
  8
PLAN_1
  6
CONTINUOUS
 10
0.476933
 20
-2.950197
  0
VERTEX
  8
PLAN_1
  6
CONTINUOUS
 10
0.470205
 20
-2.950594
  0
VERTEX
  8
PLAN_1
  6
CONTINUOUS
 10
0.463874
 20
-2.951386
  0
VERTEX
  8
PLAN_1
  6
CONTINUOUS
 10
0.457543
 20
-2.952969
  0
VERTEX
  8
PLAN_1
  6
CONTINUOUS
 10
0.451606
 20
-2.954945
  0
VERTEX
  8
PLAN_1
  6
CONTINUOUS
 10
0.445669
 20
-2.957717
  0
VERTEX
  8
PLAN_1
  6
CONTINUOUS
 10
0.440528
 20
-2.961276
  0
VERTEX
  8
PLAN_1
  6
CONTINUOUS
 10
0.435382
 20
-2.965236
  0
VERTEX
  8
PLAN_1
  6
CONTINUOUS
 10
0.431028
 20
-2.969984
  0
VERTEX
  8
PLAN_1
  6
CONTINUOUS
 10
0.426677
 20
-2.975126
  0
VERTEX
  8
PLAN_1
  6
CONTINUOUS
 10
0.422720
 20
-2.981063
  0
VERTEX
  8
PLAN_1
  6
CONTINUOUS
 10
0.419555
 20
-2.987791
  0
VERTEX
  8
PLAN_1
  6
CONTINUOUS
 10
0.416783
 20
-2.994516
  0
VERTEX
  8
PLAN_1
  6
CONTINUOUS
 10
0.414803
 20
-3.002433
  0
VERTEX
  8
PLAN_1
  6
CONTINUOUS
 10
0.413220
 20
-3.010740
  0
VERTEX
  8
PLAN_1
  6
CONTINUOUS
 10
0.412035
 20
-3.019843
  0
VERTEX
  8
PLAN_1
  6
CONTINUOUS
 10
0.411638
 20
-3.029343
  0
VERTEX
  8
PLAN_1
  6
CONTINUOUS
 10
0.412035
 20
-3.038047
  0
VERTEX
  8
PLAN_1
  6
CONTINUOUS
 10
0.412429
 20
-3.046358
  0
VERTEX
  8
PLAN_1
  6
CONTINUOUS
 10
0.413618
 20
-3.054272
  0
VERTEX
  8
PLAN_1
  6
CONTINUOUS
 10
0.415201
 20
-3.061791
  0
VERTEX
  8
PLAN_1
  6
CONTINUOUS
 10
0.417177
 20
-3.069307
  0
VERTEX
  8
PLAN_1
  6
CONTINUOUS
 10
0.419555
 20
-3.076035
  0
VERTEX
  8
PLAN_1
  6
CONTINUOUS
 10
0.422720
 20
-3.082366
  0
VERTEX
  8
PLAN_1
  6
CONTINUOUS
 10
0.426280
 20
-3.088303
  0
VERTEX
  8
PLAN_1
  6
CONTINUOUS
 10
0.428260
 20
-3.091071
  0
VERTEX
  8
PLAN_1
  6
CONTINUOUS
 10
0.430236
 20
-3.093445
  0
VERTEX
  8
PLAN_1
  6
CONTINUOUS
 10
0.432610
 20
-3.095823
  0
VERTEX
  8
PLAN_1
  6
CONTINUOUS
 10
0.435382
 20
-3.098197
  0
VERTEX
  8
PLAN_1
  6
CONTINUOUS
 10
0.437756
 20
-3.100571
  0
VERTEX
  8
PLAN_1
  6
CONTINUOUS
 10
0.440528
 20
-3.102547
  0
VERTEX
  8
PLAN_1
  6
CONTINUOUS
 10
0.443693
 20
-3.104130
  0
VERTEX
  8
PLAN_1
  6
CONTINUOUS
 10
0.446461
 20
-3.105713
  0
VERTEX
  8
PLAN_1
  6
CONTINUOUS
 10
0.450024
 20
-3.107295
  0
VERTEX
  8
PLAN_1
  6
CONTINUOUS
 10
0.453189
 20
-3.108484
  0
VERTEX
  8
PLAN_1
  6
CONTINUOUS
 10
0.457146
 20
-3.109669
  0
VERTEX
  8
PLAN_1
  6
CONTINUOUS
 10
0.460709
 20
-3.110461
  0
VERTEX
  8
PLAN_1
  6
CONTINUOUS
 10
0.464665
 20
-3.111256
  0
VERTEX
  8
PLAN_1
  6
CONTINUOUS
 10
0.469020
 20
-3.111650
  0
VERTEX
  8
PLAN_1
  6
CONTINUOUS
 10
0.473370
 20
-3.112047
  0
VERTEX
  8
PLAN_1
  6
CONTINUOUS
 10
0.477724
 20
-3.112047
  0
VERTEX
  8
PLAN_1
  6
CONTINUOUS
 10
0.481283
 20
-3.112047
  0
VERTEX
  8
PLAN_1
  6
CONTINUOUS
 10
0.484846
 20
-3.111650
  0
VERTEX
  8
PLAN_1
  6
CONTINUOUS
 10
0.488803
 20
-3.111256
  0
VERTEX
  8
PLAN_1
  6
CONTINUOUS
 10
0.492760
 20
-3.110067
  0
VERTEX
  8
PLAN_1
  6
CONTINUOUS
 10
0.496717
 20
-3.108878
  0
VERTEX
  8
PLAN_1
  6
CONTINUOUS
 10
0.501071
 20
-3.107295
  0
VERTEX
  8
PLAN_1
  6
CONTINUOUS
 10
0.505425
 20
-3.104921
  0
VERTEX
  8
PLAN_1
  6
CONTINUOUS
 10
0.509382
 20
-3.102154
  0
VERTEX
  8
PLAN_1
  6
CONTINUOUS
 10
0.513339
 20
-3.098988
  0
VERTEX
  8
PLAN_1
  6
CONTINUOUS
 10
0.517295
 20
-3.095031
  0
VERTEX
  8
PLAN_1
  6
CONTINUOUS
 10
0.520858
 20
-3.090677
  0
VERTEX
  8
PLAN_1
  6
CONTINUOUS
 10
0.524417
 20
-3.085531
  0
VERTEX
  8
PLAN_1
  6
CONTINUOUS
 10
0.527583
 20
-3.079598
  0
VERTEX
  8
PLAN_1
  6
CONTINUOUS
 10
0.530354
 20
-3.073264
  0
VERTEX
  8
PLAN_1
  6
CONTINUOUS
 10
0.532728
 20
-3.065748
  0
VERTEX
  8
PLAN_1
  6
CONTINUOUS
 10
0.534709
 20
-3.057437
  0
VERTEX
  8
PLAN_1
  6
CONTINUOUS
 10
0.560823
 20
-3.057437
  0
VERTEX
  8
PLAN_1
  6
CONTINUOUS
 10
0.559638
 20
-3.064165
  0
VERTEX
  8
PLAN_1
  6
CONTINUOUS
 10
0.558055
 20
-3.070890
  0
VERTEX
  8
PLAN_1
  6
CONTINUOUS
 10
0.556472
 20
-3.076827
  0
VERTEX
  8
PLAN_1
  6
CONTINUOUS
 10
0.554492
 20
-3.082366
  0
VERTEX
  8
PLAN_1
  6
CONTINUOUS
 10
0.552118
 20
-3.087906
  0
VERTEX
  8
PLAN_1
  6
CONTINUOUS
 10
0.549744
 20
-3.092654
  0
VERTEX
  8
PLAN_1
  6
CONTINUOUS
 10
0.547370
 20
-3.097406
  0
VERTEX
  8
PLAN_1
  6
CONTINUOUS
 10
0.544598
 20
-3.101362
  0
VERTEX
  8
PLAN_1
  6
CONTINUOUS
 10
0.541831
 20
-3.105319
  0
VERTEX
  8
PLAN_1
  6
CONTINUOUS
 10
0.538665
 20
-3.108878
  0
VERTEX
  8
PLAN_1
  6
CONTINUOUS
 10
0.535500
 20
-3.112441
  0
VERTEX
  8
PLAN_1
  6
CONTINUOUS
 10
0.532331
 20
-3.115606
  0
VERTEX
  8
PLAN_1
  6
CONTINUOUS
 10
0.528772
 20
-3.118378
  0
VERTEX
  8
PLAN_1
  6
CONTINUOUS
 10
0.525606
 20
-3.120752
  0
VERTEX
  8
PLAN_1
  6
CONTINUOUS
 10
0.522043
 20
-3.123126
  0
VERTEX
  8
PLAN_1
  6
CONTINUOUS
 10
0.518878
 20
-3.125102
  0
VERTEX
  8
PLAN_1
  6
CONTINUOUS
 10
0.511756
 20
-3.128272
  0
VERTEX
  8
PLAN_1
  6
CONTINUOUS
 10
0.505028
 20
-3.131039
  0
VERTEX
  8
PLAN_1
  6
CONTINUOUS
 10
0.498299
 20
-3.133020
  0
VERTEX
  8
PLAN_1
  6
CONTINUOUS
 10
0.491969
 20
-3.134205
  0
VERTEX
  8
PLAN_1
  6
CONTINUOUS
 10
0.486429
 20
-3.135394
  0
VERTEX
  8
PLAN_1
  6
CONTINUOUS
 10
0.481283
 20
-3.135787
  0
VERTEX
  8
PLAN_1
  6
CONTINUOUS
 10
0.476933
 20
-3.136185
  0
VERTEX
  8
PLAN_1
  6
CONTINUOUS
 10
0.473768
 20
-3.136185
  0
VERTEX
  8
PLAN_1
  6
CONTINUOUS
 10
0.465059
 20
-3.135787
  0
VERTEX
  8
PLAN_1
  6
CONTINUOUS
 10
0.456752
 20
-3.134602
  0
VERTEX
  8
PLAN_1
  6
CONTINUOUS
 10
0.452795
 20
-3.133811
  0
VERTEX
  8
PLAN_1
  6
CONTINUOUS
 10
0.448441
 20
-3.133020
  0
VERTEX
  8
PLAN_1
  6
CONTINUOUS
 10
0.444484
 20
-3.131831
  0
VERTEX
  8
PLAN_1
  6
CONTINUOUS
 10
0.440528
 20
-3.130248
  0
VERTEX
  8
PLAN_1
  6
CONTINUOUS
 10
0.436571
 20
-3.128665
  0
VERTEX
  8
PLAN_1
  6
CONTINUOUS
 10
0.432610
 20
-3.127083
  0
VERTEX
  8
PLAN_1
  6
CONTINUOUS
 10
0.429051
 20
-3.125102
  0
VERTEX
  8
PLAN_1
  6
CONTINUOUS
 10
0.425488
 20
-3.122728
  0
VERTEX
  8
PLAN_1
  6
CONTINUOUS
 10
0.421929
 20
-3.120354
  0
VERTEX
  8
PLAN_1
  6
CONTINUOUS
 10
0.418366
 20
-3.117587
  0
VERTEX
  8
PLAN_1
  6
CONTINUOUS
 10
0.415201
 20
-3.114815
  0
VERTEX
  8
PLAN_1
  6
CONTINUOUS
 10
0.412035
 20
-3.111650
  0
VERTEX
  8
PLAN_1
  6
CONTINUOUS
 10
0.408870
 20
-3.108484
  0
VERTEX
  8
PLAN_1
  6
CONTINUOUS
 10
0.405705
 20
-3.104921
  0
VERTEX
  8
PLAN_1
  6
CONTINUOUS
 10
0.402933
 20
-3.101362
  0
VERTEX
  8
PLAN_1
  6
CONTINUOUS
 10
0.400559
 20
-3.097406
  0
VERTEX
  8
PLAN_1
  6
CONTINUOUS
 10
0.397787
 20
-3.093051
  0
VERTEX
  8
PLAN_1
  6
CONTINUOUS
 10
0.395811
 20
-3.088697
  0
VERTEX
  8
PLAN_1
  6
CONTINUOUS
 10
0.393437
 20
-3.083949
  0
VERTEX
  8
PLAN_1
  6
CONTINUOUS
 10
0.391457
 20
-3.078807
  0
VERTEX
  8
PLAN_1
  6
CONTINUOUS
 10
0.389874
 20
-3.073661
  0
VERTEX
  8
PLAN_1
  6
CONTINUOUS
 10
0.388291
 20
-3.068122
  0
VERTEX
  8
PLAN_1
  6
CONTINUOUS
 10
0.387106
 20
-3.062583
  0
VERTEX
  8
PLAN_1
  6
CONTINUOUS
 10
0.385917
 20
-3.056646
  0
VERTEX
  8
PLAN_1
  6
CONTINUOUS
 10
0.385126
 20
-3.050315
  0
VERTEX
  8
PLAN_1
  6
CONTINUOUS
 10
0.384335
 20
-3.043980
  0
VERTEX
  8
PLAN_1
  6
CONTINUOUS
 10
0.383937
 20
-3.037256
  0
VERTEX
  8
PLAN_1
  6
CONTINUOUS
 10
0.383937
 20
-3.030134
  0
VERTEX
  8
PLAN_1
  6
CONTINUOUS
 10
0.383937
 20
-3.024197
  0
VERTEX
  8
PLAN_1
  6
CONTINUOUS
 10
0.384335
 20
-3.018657
  0
VERTEX
  8
PLAN_1
  6
CONTINUOUS
 10
0.384728
 20
-3.013118
  0
VERTEX
  8
PLAN_1
  6
CONTINUOUS
 10
0.385520
 20
-3.007972
  0
VERTEX
  8
PLAN_1
  6
CONTINUOUS
 10
0.386315
 20
-3.002827
  0
VERTEX
  8
PLAN_1
  6
CONTINUOUS
 10
0.387500
 20
-2.997685
  0
VERTEX
  8
PLAN_1
  6
CONTINUOUS
 10
0.389083
 20
-2.992933
  0
VERTEX
  8
PLAN_1
  6
CONTINUOUS
 10
0.390272
 20
-2.987791
  0
VERTEX
  8
PLAN_1
  6
CONTINUOUS
 10
0.391854
 20
-2.983437
  0
VERTEX
  8
PLAN_1
  6
CONTINUOUS
 10
0.393831
 20
-2.978689
  0
VERTEX
  8
PLAN_1
  6
CONTINUOUS
 10
0.395811
 20
-2.974335
  0
VERTEX
  8
PLAN_1
  6
CONTINUOUS
 10
0.398185
 20
-2.970378
  0
VERTEX
  8
PLAN_1
  6
CONTINUOUS
 10
0.400559
 20
-2.966028
  0
VERTEX
  8
PLAN_1
  6
CONTINUOUS
 10
0.402933
 20
-2.962465
  0
VERTEX
  8
PLAN_1
  6
CONTINUOUS
 10
0.405705
 20
-2.958508
  0
VERTEX
  8
PLAN_1
  6
CONTINUOUS
 10
0.408870
 20
-2.954945
  0
VERTEX
  8
PLAN_1
  6
CONTINUOUS
 10
0.411638
 20
-2.951780
  0
VERTEX
  8
PLAN_1
  6
CONTINUOUS
 10
0.415201
 20
-2.948614
  0
VERTEX
  8
PLAN_1
  6
CONTINUOUS
 10
0.418366
 20
-2.945843
  0
VERTEX
  8
PLAN_1
  6
CONTINUOUS
 10
0.421929
 20
-2.943075
  0
VERTEX
  8
PLAN_1
  6
CONTINUOUS
 10
0.425886
 20
-2.940303
  0
VERTEX
  8
PLAN_1
  6
CONTINUOUS
 10
0.429843
 20
-2.937929
  0
VERTEX
  8
PLAN_1
  6
CONTINUOUS
 10
0.433799
 20
-2.935953
  0
VERTEX
  8
PLAN_1
  6
CONTINUOUS
 10
0.438154
 20
-2.933972
  0
VERTEX
  8
PLAN_1
  6
CONTINUOUS
 10
0.442504
 20
-2.931996
  0
VERTEX
  8
PLAN_1
  6
CONTINUOUS
 10
0.446858
 20
-2.930413
  0
VERTEX
  8
PLAN_1
  6
CONTINUOUS
 10
0.451606
 20
-2.929224
  0
VERTEX
  8
PLAN_1
  6
CONTINUOUS
 10
0.456354
 20
-2.928035
  0
VERTEX
  8
PLAN_1
  6
CONTINUOUS
 10
0.461102
 20
-2.927244
  0
VERTEX
  8
PLAN_1
  6
CONTINUOUS
 10
0.466248
 20
-2.926850
  0
VERTEX
  8
PLAN_1
  6
CONTINUOUS
 10
0.471787
 20
-2.926453
  0
VERTEX
  8
PLAN_1
  6
CONTINUOUS
 10
0.476933
 20
-2.926059
  0
VERTEX
  8
PLAN_1
  6
CONTINUOUS
 10
0.486429
 20
-2.926453
  0
VERTEX
  8
PLAN_1
  6
CONTINUOUS
 10
0.495134
 20
-2.927642
  0
VERTEX
  8
PLAN_1
  6
CONTINUOUS
 10
0.503445
 20
-2.929224
  0
VERTEX
  8
PLAN_1
  6
CONTINUOUS
 10
0.510965
 20
-2.931598
  0
VERTEX
  8
PLAN_1
  6
CONTINUOUS
 10
0.518087
 20
-2.934764
  0
VERTEX
  8
PLAN_1
  6
CONTINUOUS
 10
0.524417
 20
-2.937929
  0
VERTEX
  8
PLAN_1
  6
CONTINUOUS
 10
0.530354
 20
-2.941886
  0
VERTEX
  8
PLAN_1
  6
CONTINUOUS
 10
0.535894
 20
-2.946240
  0
VERTEX
  8
PLAN_1
  6
CONTINUOUS
 10
0.540642
 20
-2.950988
  0
VERTEX
  8
PLAN_1
  6
CONTINUOUS
 10
0.544598
 20
-2.956134
  0
VERTEX
  8
PLAN_1
  6
CONTINUOUS
 10
0.548555
 20
-2.961673
  0
VERTEX
  8
PLAN_1
  6
CONTINUOUS
 10
0.551724
 20
-2.967213
  0
VERTEX
  8
PLAN_1
  6
CONTINUOUS
 10
0.554098
 20
-2.973150
  0
VERTEX
  8
PLAN_1
  6
CONTINUOUS
 10
0.556472
 20
-2.979083
  0
VERTEX
  8
PLAN_1
  6
CONTINUOUS
 10
0.558055
 20
-2.985417
  0
VERTEX
  8
PLAN_1
  6
CONTINUOUS
 10
0.558846
 20
-2.991350
  0
VERTEX
  8
PLAN_1
  6
CONTINUOUS
 10
0.532728
 20
-2.991350
  0
SEQEND
  8
0
  0
POLYLINE
  8
PLAN_1
  6
CONTINUOUS
 66
     1
 40
0.003000
 41
0.003000
  0
VERTEX
  8
PLAN_1
  6
CONTINUOUS
 10
0.620181
 20
-3.130646
  0
VERTEX
  8
PLAN_1
  6
CONTINUOUS
 10
0.593272
 20
-3.130646
  0
VERTEX
  8
PLAN_1
  6
CONTINUOUS
 10
0.593272
 20
-2.931598
  0
VERTEX
  8
PLAN_1
  6
CONTINUOUS
 10
0.620181
 20
-2.931598
  0
VERTEX
  8
PLAN_1
  6
CONTINUOUS
 10
0.620181
 20
-3.028154
  0
VERTEX
  8
PLAN_1
  6
CONTINUOUS
 10
0.716736
 20
-2.931598
  0
VERTEX
  8
PLAN_1
  6
CONTINUOUS
 10
0.753933
 20
-2.931598
  0
VERTEX
  8
PLAN_1
  6
CONTINUOUS
 10
0.671228
 20
-3.011929
  0
VERTEX
  8
PLAN_1
  6
CONTINUOUS
 10
0.756307
 20
-3.130646
  0
VERTEX
  8
PLAN_1
  6
CONTINUOUS
 10
0.721484
 20
-3.130646
  0
VERTEX
  8
PLAN_1
  6
CONTINUOUS
 10
0.651839
 20
-3.030925
  0
VERTEX
  8
PLAN_1
  6
CONTINUOUS
 10
0.620181
 20
-3.060996
  0
VERTEX
  8
PLAN_1
  6
CONTINUOUS
 10
0.620181
 20
-3.130646
  0
SEQEND
  8
0
  0
POLYLINE
  8
PLAN_1
  6
CONTINUOUS
 66
     1
 40
0.003000
 41
0.003000
  0
VERTEX
  8
PLAN_1
  6
CONTINUOUS
 10
0.928445
 20
-3.130646
  0
VERTEX
  8
PLAN_1
  6
CONTINUOUS
 10
0.781240
 20
-3.130646
  0
VERTEX
  8
PLAN_1
  6
CONTINUOUS
 10
0.781240
 20
-2.931598
  0
VERTEX
  8
PLAN_1
  6
CONTINUOUS
 10
0.926465
 20
-2.931598
  0
VERTEX
  8
PLAN_1
  6
CONTINUOUS
 10
0.926465
 20
-2.955343
  0
VERTEX
  8
PLAN_1
  6
CONTINUOUS
 10
0.808146
 20
-2.955343
  0
VERTEX
  8
PLAN_1
  6
CONTINUOUS
 10
0.808146
 20
-3.016283
  0
VERTEX
  8
PLAN_1
  6
CONTINUOUS
 10
0.917366
 20
-3.016283
  0
VERTEX
  8
PLAN_1
  6
CONTINUOUS
 10
0.917366
 20
-3.040421
  0
VERTEX
  8
PLAN_1
  6
CONTINUOUS
 10
0.808146
 20
-3.040421
  0
VERTEX
  8
PLAN_1
  6
CONTINUOUS
 10
0.808146
 20
-3.106902
  0
VERTEX
  8
PLAN_1
  6
CONTINUOUS
 10
0.928445
 20
-3.106902
  0
VERTEX
  8
PLAN_1
  6
CONTINUOUS
 10
0.928445
 20
-3.130646
  0
SEQEND
  8
0
  0
POLYLINE
  8
PLAN_1
  6
CONTINUOUS
 66
     1
 40
0.003000
 41
0.003000
  0
VERTEX
  8
PLAN_1
  6
CONTINUOUS
 10
1.058634
 20
-2.987394
  0
VERTEX
  8
PLAN_1
  6
CONTINUOUS
 10
1.057051
 20
-2.981461
  0
VERTEX
  8
PLAN_1
  6
CONTINUOUS
 10
1.055075
 20
-2.975524
  0
VERTEX
  8
PLAN_1
  6
CONTINUOUS
 10
1.053492
 20
-2.973150
  0
VERTEX
  8
PLAN_1
  6
CONTINUOUS
 10
1.051909
 20
-2.970378
  0
VERTEX
  8
PLAN_1
  6
CONTINUOUS
 10
1.050327
 20
-2.968402
  0
VERTEX
  8
PLAN_1
  6
CONTINUOUS
 10
1.048346
 20
-2.966028
  0
VERTEX
  8
PLAN_1
  6
CONTINUOUS
 10
1.046370
 20
-2.964047
  0
VERTEX
  8
PLAN_1
  6
CONTINUOUS
 10
1.043996
 20
-2.962465
  0
VERTEX
  8
PLAN_1
  6
CONTINUOUS
 10
1.041224
 20
-2.960882
  0
VERTEX
  8
PLAN_1
  6
CONTINUOUS
 10
1.038453
 20
-2.959693
  0
VERTEX
  8
PLAN_1
  6
CONTINUOUS
 10
1.035685
 20
-2.958902
  0
VERTEX
  8
PLAN_1
  6
CONTINUOUS
 10
1.032122
 20
-2.958110
  0
VERTEX
  8
PLAN_1
  6
CONTINUOUS
 10
1.028563
 20
-2.957717
  0
VERTEX
  8
PLAN_1
  6
CONTINUOUS
 10
1.025000
 20
-2.957717
  0
VERTEX
  8
PLAN_1
  6
CONTINUOUS
 10
1.021437
 20
-2.957717
  0
VERTEX
  8
PLAN_1
  6
CONTINUOUS
 10
1.017878
 20
-2.958110
  0
VERTEX
  8
PLAN_1
  6
CONTINUOUS
 10
1.014713
 20
-2.958902
  0
VERTEX
  8
PLAN_1
  6
CONTINUOUS
 10
1.011941
 20
-2.959693
  0
VERTEX
  8
PLAN_1
  6
CONTINUOUS
 10
1.009169
 20
-2.960882
  0
VERTEX
  8
PLAN_1
  6
CONTINUOUS
 10
1.006402
 20
-2.962465
  0
VERTEX
  8
PLAN_1
  6
CONTINUOUS
 10
1.004028
 20
-2.964047
  0
VERTEX
  8
PLAN_1
  6
CONTINUOUS
 10
1.001654
 20
-2.966028
  0
VERTEX
  8
PLAN_1
  6
CONTINUOUS
 10
0.999280
 20
-2.968004
  0
VERTEX
  8
PLAN_1
  6
CONTINUOUS
 10
0.997299
 20
-2.970378
  0
VERTEX
  8
PLAN_1
  6
CONTINUOUS
 10
0.995323
 20
-2.972358
  0
VERTEX
  8
PLAN_1
  6
CONTINUOUS
 10
0.993343
 20
-2.975126
  0
VERTEX
  8
PLAN_1
  6
CONTINUOUS
 10
0.990177
 20
-2.980272
  0
VERTEX
  8
PLAN_1
  6
CONTINUOUS
 10
0.987406
 20
-2.985811
  0
VERTEX
  8
PLAN_1
  6
CONTINUOUS
 10
0.985031
 20
-2.991748
  0
VERTEX
  8
PLAN_1
  6
CONTINUOUS
 10
0.983055
 20
-2.998079
  0
VERTEX
  8
PLAN_1
  6
CONTINUOUS
 10
0.981472
 20
-3.004016
  0
VERTEX
  8
PLAN_1
  6
CONTINUOUS
 10
0.980283
 20
-3.009949
  0
VERTEX
  8
PLAN_1
  6
CONTINUOUS
 10
0.979492
 20
-3.015492
  0
VERTEX
  8
PLAN_1
  6
CONTINUOUS
 10
0.979098
 20
-3.020634
  0
VERTEX
  8
PLAN_1
  6
CONTINUOUS
 10
0.978701
 20
-3.025382
  0
VERTEX
  8
PLAN_1
  6
CONTINUOUS
 10
0.978701
 20
-3.029736
  0
VERTEX
  8
PLAN_1
  6
CONTINUOUS
 10
0.979098
 20
-3.030134
  0
VERTEX
  8
PLAN_1
  6
CONTINUOUS
 10
0.981866
 20
-3.026173
  0
VERTEX
  8
PLAN_1
  6
CONTINUOUS
 10
0.985031
 20
-3.022217
  0
VERTEX
  8
PLAN_1
  6
CONTINUOUS
 10
0.987012
 20
-3.020240
  0
VERTEX
  8
PLAN_1
  6
CONTINUOUS
 10
0.989386
 20
-3.018260
  0
VERTEX
  8
PLAN_1
  6
CONTINUOUS
 10
0.991760
 20
-3.016283
  0
VERTEX
  8
PLAN_1
  6
CONTINUOUS
 10
0.994531
 20
-3.014303
  0
VERTEX
  8
PLAN_1
  6
CONTINUOUS
 10
0.997299
 20
-3.012720
  0
VERTEX
  8
PLAN_1
  6
CONTINUOUS
 10
1.000465
 20
-3.011138
  0
VERTEX
  8
PLAN_1
  6
CONTINUOUS
 10
1.004028
 20
-3.009949
  0
VERTEX
  8
PLAN_1
  6
CONTINUOUS
 10
1.007984
 20
-3.008764
  0
VERTEX
  8
PLAN_1
  6
CONTINUOUS
 10
1.011941
 20
-3.007575
  0
VERTEX
  8
PLAN_1
  6
CONTINUOUS
 10
1.015898
 20
-3.007181
  0
VERTEX
  8
PLAN_1
  6
CONTINUOUS
 10
1.020646
 20
-3.006783
  0
VERTEX
  8
PLAN_1
  6
CONTINUOUS
 10
1.025394
 20
-3.006390
  0
VERTEX
  8
PLAN_1
  6
CONTINUOUS
 10
1.030146
 20
-3.006783
  0
VERTEX
  8
PLAN_1
  6
CONTINUOUS
 10
1.034894
 20
-3.007181
  0
VERTEX
  8
PLAN_1
  6
CONTINUOUS
 10
1.040035
 20
-3.007972
  0
VERTEX
  8
PLAN_1
  6
CONTINUOUS
 10
1.045181
 20
-3.009555
  0
VERTEX
  8
PLAN_1
  6
CONTINUOUS
 10
1.050327
 20
-3.011531
  0
VERTEX
  8
PLAN_1
  6
CONTINUOUS
 10
1.055075
 20
-3.013909
  0
VERTEX
  8
PLAN_1
  6
CONTINUOUS
 10
1.060220
 20
-3.016677
  0
VERTEX
  8
PLAN_1
  6
CONTINUOUS
 10
1.064969
 20
-3.019843
  0
VERTEX
  8
PLAN_1
  6
CONTINUOUS
 10
1.069319
 20
-3.023799
  0
VERTEX
  8
PLAN_1
  6
CONTINUOUS
 10
1.073276
 20
-3.028154
  0
VERTEX
  8
PLAN_1
  6
CONTINUOUS
 10
1.077236
 20
-3.033299
  0
VERTEX
  8
PLAN_1
  6
CONTINUOUS
 10
1.080402
 20
-3.038839
  0
VERTEX
  8
PLAN_1
  6
CONTINUOUS
 10
1.081587
 20
-3.042004
  0
VERTEX
  8
PLAN_1
  6
CONTINUOUS
 10
1.082776
 20
-3.045169
  0
VERTEX
  8
PLAN_1
  6
CONTINUOUS
 10
1.083961
 20
-3.048732
  0
VERTEX
  8
PLAN_1
  6
CONTINUOUS
 10
1.084752
 20
-3.052291
  0
VERTEX
  8
PLAN_1
  6
CONTINUOUS
 10
1.085543
 20
-3.055854
  0
VERTEX
  8
PLAN_1
  6
CONTINUOUS
 10
1.085941
 20
-3.059811
  0
VERTEX
  8
PLAN_1
  6
CONTINUOUS
 10
1.086335
 20
-3.064165
  0
VERTEX
  8
PLAN_1
  6
CONTINUOUS
 10
1.086335
 20
-3.068516
  0
VERTEX
  8
PLAN_1
  6
CONTINUOUS
 10
1.086335
 20
-3.075638
  0
VERTEX
  8
PLAN_1
  6
CONTINUOUS
 10
1.085543
 20
-3.082366
  0
VERTEX
  8
PLAN_1
  6
CONTINUOUS
 10
1.083961
 20
-3.088697
  0
VERTEX
  8
PLAN_1
  6
CONTINUOUS
 10
1.082378
 20
-3.095031
  0
VERTEX
  8
PLAN_1
  6
CONTINUOUS
 10
1.079610
 20
-3.100571
  0
VERTEX
  8
PLAN_1
  6
CONTINUOUS
 10
1.076445
 20
-3.106110
  0
VERTEX
  8
PLAN_1
  6
CONTINUOUS
 10
1.072484
 20
-3.111650
  0
VERTEX
  8
PLAN_1
  6
CONTINUOUS
 10
1.067736
 20
-3.117189
  0
VERTEX
  8
PLAN_1
  6
CONTINUOUS
 10
1.063780
 20
-3.121146
  0
VERTEX
  8
PLAN_1
  6
CONTINUOUS
 10
1.059823
 20
-3.125102
  0
VERTEX
  8
PLAN_1
  6
CONTINUOUS
 10
1.055075
 20
-3.128272
  0
VERTEX
  8
PLAN_1
  6
CONTINUOUS
 10
1.049535
 20
-3.131039
  0
VERTEX
  8
PLAN_1
  6
CONTINUOUS
 10
1.046764
 20
-3.132228
  0
VERTEX
  8
PLAN_1
  6
CONTINUOUS
 10
1.043598
 20
-3.133020
  0
VERTEX
  8
PLAN_1
  6
CONTINUOUS
 10
1.040035
 20
-3.133811
  0
VERTEX
  8
PLAN_1
  6
CONTINUOUS
 10
1.036476
 20
-3.134602
  0
VERTEX
  8
PLAN_1
  6
CONTINUOUS
 10
1.028165
 20
-3.135787
  0
VERTEX
  8
PLAN_1
  6
CONTINUOUS
 10
1.018669
 20
-3.136185
  0
VERTEX
  8
PLAN_1
  6
CONTINUOUS
 10
1.012732
 20
-3.135787
  0
VERTEX
  8
PLAN_1
  6
CONTINUOUS
 10
1.006402
 20
-3.134602
  0
VERTEX
  8
PLAN_1
  6
CONTINUOUS
 10
1.002839
 20
-3.133811
  0
VERTEX
  8
PLAN_1
  6
CONTINUOUS
 10
0.999673
 20
-3.132622
  0
VERTEX
  8
PLAN_1
  6
CONTINUOUS
 10
0.996114
 20
-3.131437
  0
VERTEX
  8
PLAN_1
  6
CONTINUOUS
 10
0.992945
 20
-3.129854
  0
VERTEX
  8
PLAN_1
  6
CONTINUOUS
 10
0.989780
 20
-3.128272
  0
VERTEX
  8
PLAN_1
  6
CONTINUOUS
 10
0.986220
 20
-3.126291
  0
VERTEX
  8
PLAN_1
  6
CONTINUOUS
 10
0.983055
 20
-3.123917
  0
VERTEX
  8
PLAN_1
  6
CONTINUOUS
 10
0.979890
 20
-3.121146
  0
VERTEX
  8
PLAN_1
  6
CONTINUOUS
 10
0.976720
 20
-3.118378
  0
VERTEX
  8
PLAN_1
  6
CONTINUOUS
 10
0.973953
 20
-3.115213
  0
VERTEX
  8
PLAN_1
  6
CONTINUOUS
 10
0.970787
 20
-3.111650
  0
VERTEX
  8
PLAN_1
  6
CONTINUOUS
 10
0.968413
 20
-3.107693
  0
VERTEX
  8
PLAN_1
  6
CONTINUOUS
 10
0.966039
 20
-3.104130
  0
VERTEX
  8
PLAN_1
  6
CONTINUOUS
 10
0.964059
 20
-3.100571
  0
VERTEX
  8
PLAN_1
  6
CONTINUOUS
 10
0.962476
 20
-3.097008
  0
VERTEX
  8
PLAN_1
  6
CONTINUOUS
 10
0.960894
 20
-3.093051
  0
VERTEX
  8
PLAN_1
  6
CONTINUOUS
 10
0.958520
 20
-3.085138
  0
VERTEX
  8
PLAN_1
  6
CONTINUOUS
 10
0.956539
 20
-3.076429
  0
VERTEX
  8
PLAN_1
  6
CONTINUOUS
 10
0.954957
 20
-3.067724
  0
VERTEX
  8
PLAN_1
  6
CONTINUOUS
 10
0.953772
 20
-3.058622
  0
VERTEX
  8
PLAN_1
  6
CONTINUOUS
 10
0.953374
 20
-3.049524
  0
VERTEX
  8
PLAN_1
  6
CONTINUOUS
 10
0.953374
 20
-3.040024
  0
VERTEX
  8
PLAN_1
  6
CONTINUOUS
 10
0.953374
 20
-3.031717
  0
VERTEX
  8
PLAN_1
  6
CONTINUOUS
 10
0.954165
 20
-3.023406
  0
VERTEX
  8
PLAN_1
  6
CONTINUOUS
 10
0.954957
 20
-3.014701
  0
VERTEX
  8
PLAN_1
  6
CONTINUOUS
 10
0.956146
 20
-3.005598
  0
VERTEX
  8
PLAN_1
  6
CONTINUOUS
 10
0.958122
 20
-2.996894
  0
VERTEX
  8
PLAN_1
  6
CONTINUOUS
 10
0.960894
 20
-2.988185
  0
VERTEX
  8
PLAN_1
  6
CONTINUOUS
 10
0.963665
 20
-2.979878
  0
VERTEX
  8
PLAN_1
  6
CONTINUOUS
 10
0.967622
 20
-2.971961
  0
VERTEX
  8
PLAN_1
  6
CONTINUOUS
 10
0.969598
 20
-2.968004
  0
VERTEX
  8
PLAN_1
  6
CONTINUOUS
 10
0.971972
 20
-2.964445
  0
VERTEX
  8
PLAN_1
  6
CONTINUOUS
 10
0.974346
 20
-2.960882
  0
VERTEX
  8
PLAN_1
  6
CONTINUOUS
 10
0.977118
 20
-2.957319
  0
VERTEX
  8
PLAN_1
  6
CONTINUOUS
 10
0.979890
 20
-2.954154
  0
VERTEX
  8
PLAN_1
  6
CONTINUOUS
 10
0.982657
 20
-2.951386
  0
VERTEX
  8
PLAN_1
  6
CONTINUOUS
 10
0.986220
 20
-2.948614
  0
VERTEX
  8
PLAN_1
  6
CONTINUOUS
 10
0.989386
 20
-2.945843
  0
VERTEX
  8
PLAN_1
  6
CONTINUOUS
 10
0.993343
 20
-2.943866
  0
VERTEX
  8
PLAN_1
  6
CONTINUOUS
 10
0.997299
 20
-2.941492
  0
VERTEX
  8
PLAN_1
  6
CONTINUOUS
 10
1.001256
 20
-2.939909
  0
VERTEX
  8
PLAN_1
  6
CONTINUOUS
 10
1.005610
 20
-2.938327
  0
VERTEX
  8
PLAN_1
  6
CONTINUOUS
 10
1.010358
 20
-2.937138
  0
VERTEX
  8
PLAN_1
  6
CONTINUOUS
 10
1.015106
 20
-2.936346
  0
VERTEX
  8
PLAN_1
  6
CONTINUOUS
 10
1.020252
 20
-2.935953
  0
VERTEX
  8
PLAN_1
  6
CONTINUOUS
 10
1.025394
 20
-2.935555
  0
VERTEX
  8
PLAN_1
  6
CONTINUOUS
 10
1.029748
 20
-2.935953
  0
VERTEX
  8
PLAN_1
  6
CONTINUOUS
 10
1.034102
 20
-2.936346
  0
VERTEX
  8
PLAN_1
  6
CONTINUOUS
 10
1.038850
 20
-2.937138
  0
VERTEX
  8
PLAN_1
  6
CONTINUOUS
 10
1.043598
 20
-2.938327
  0
VERTEX
  8
PLAN_1
  6
CONTINUOUS
 10
1.047953
 20
-2.939512
  0
VERTEX
  8
PLAN_1
  6
CONTINUOUS
 10
1.052701
 20
-2.941492
  0
VERTEX
  8
PLAN_1
  6
CONTINUOUS
 10
1.057051
 20
-2.943866
  0
VERTEX
  8
PLAN_1
  6
CONTINUOUS
 10
1.061406
 20
-2.946638
  0
VERTEX
  8
PLAN_1
  6
CONTINUOUS
 10
1.065362
 20
-2.949803
  0
VERTEX
  8
PLAN_1
  6
CONTINUOUS
 10
1.069319
 20
-2.953760
  0
VERTEX
  8
PLAN_1
  6
CONTINUOUS
 10
1.072484
 20
-2.958110
  0
VERTEX
  8
PLAN_1
  6
CONTINUOUS
 10
1.075650
 20
-2.962858
  0
VERTEX
  8
PLAN_1
  6
CONTINUOUS
 10
1.078028
 20
-2.968004
  0
VERTEX
  8
PLAN_1
  6
CONTINUOUS
 10
1.080004
 20
-2.973941
  0
VERTEX
  8
PLAN_1
  6
CONTINUOUS
 10
1.081587
 20
-2.980272
  0
VERTEX
  8
PLAN_1
  6
CONTINUOUS
 10
1.082378
 20
-2.987394
  0
VERTEX
  8
PLAN_1
  6
CONTINUOUS
 10
1.058634
 20
-2.987394
  0
SEQEND
  8
0
  0
POLYLINE
  8
PLAN_1
  6
CONTINUOUS
 66
     1
 40
0.003000
 41
0.003000
  0
VERTEX
  8
PLAN_1
  6
CONTINUOUS
 10
1.023020
 20
-3.114024
  0
VERTEX
  8
PLAN_1
  6
CONTINUOUS
 10
1.027374
 20
-3.114024
  0
VERTEX
  8
PLAN_1
  6
CONTINUOUS
 10
1.031331
 20
-3.113232
  0
VERTEX
  8
PLAN_1
  6
CONTINUOUS
 10
1.035287
 20
-3.112441
  0
VERTEX
  8
PLAN_1
  6
CONTINUOUS
 10
1.038850
 20
-3.110858
  0
VERTEX
  8
PLAN_1
  6
CONTINUOUS
 10
1.042016
 20
-3.109276
  0
VERTEX
  8
PLAN_1
  6
CONTINUOUS
 10
1.045181
 20
-3.106902
  0
VERTEX
  8
PLAN_1
  6
CONTINUOUS
 10
1.048346
 20
-3.104528
  0
VERTEX
  8
PLAN_1
  6
CONTINUOUS
 10
1.050720
 20
-3.101756
  0
VERTEX
  8
PLAN_1
  6
CONTINUOUS
 10
1.053094
 20
-3.098591
  0
VERTEX
  8
PLAN_1
  6
CONTINUOUS
 10
1.055075
 20
-3.095031
  0
VERTEX
  8
PLAN_1
  6
CONTINUOUS
 10
1.057051
 20
-3.091469
  0
VERTEX
  8
PLAN_1
  6
CONTINUOUS
 10
1.058634
 20
-3.087512
  0
VERTEX
  8
PLAN_1
  6
CONTINUOUS
 10
1.059823
 20
-3.083555
  0
VERTEX
  8
PLAN_1
  6
CONTINUOUS
 10
1.060614
 20
-3.078807
  0
VERTEX
  8
PLAN_1
  6
CONTINUOUS
 10
1.061012
 20
-3.074453
  0
VERTEX
  8
PLAN_1
  6
CONTINUOUS
 10
1.061406
 20
-3.069307
  0
VERTEX
  8
PLAN_1
  6
CONTINUOUS
 10
1.061012
 20
-3.066142
  0
VERTEX
  8
PLAN_1
  6
CONTINUOUS
 10
1.060614
 20
-3.062583
  0
VERTEX
  8
PLAN_1
  6
CONTINUOUS
 10
1.060220
 20
-3.059413
  0
VERTEX
  8
PLAN_1
  6
CONTINUOUS
 10
1.059429
 20
-3.055854
  0
VERTEX
  8
PLAN_1
  6
CONTINUOUS
 10
1.058240
 20
-3.052291
  0
VERTEX
  8
PLAN_1
  6
CONTINUOUS
 10
1.056657
 20
-3.048732
  0
VERTEX
  8
PLAN_1
  6
CONTINUOUS
 10
1.055075
 20
-3.045567
  0
VERTEX
  8
PLAN_1
  6
CONTINUOUS
 10
1.052701
 20
-3.042398
  0
VERTEX
  8
PLAN_1
  6
CONTINUOUS
 10
1.050327
 20
-3.039630
  0
VERTEX
  8
PLAN_1
  6
CONTINUOUS
 10
1.047555
 20
-3.036858
  0
VERTEX
  8
PLAN_1
  6
CONTINUOUS
 10
1.044390
 20
-3.034484
  0
VERTEX
  8
PLAN_1
  6
CONTINUOUS
 10
1.040827
 20
-3.032508
  0
VERTEX
  8
PLAN_1
  6
CONTINUOUS
 10
1.036870
 20
-3.030528
  0
VERTEX
  8
PLAN_1
  6
CONTINUOUS
 10
1.032122
 20
-3.029343
  0
VERTEX
  8
PLAN_1
  6
CONTINUOUS
 10
1.027374
 20
-3.028547
  0
VERTEX
  8
PLAN_1
  6
CONTINUOUS
 10
1.021835
 20
-3.028547
  0
VERTEX
  8
PLAN_1
  6
CONTINUOUS
 10
1.017087
 20
-3.028547
  0
VERTEX
  8
PLAN_1
  6
CONTINUOUS
 10
1.012339
 20
-3.029343
  0
VERTEX
  8
PLAN_1
  6
CONTINUOUS
 10
1.007984
 20
-3.030134
  0
VERTEX
  8
PLAN_1
  6
CONTINUOUS
 10
1.004028
 20
-3.031717
  0
VERTEX
  8
PLAN_1
  6
CONTINUOUS
 10
1.000465
 20
-3.033693
  0
VERTEX
  8
PLAN_1
  6
CONTINUOUS
 10
0.997299
 20
-3.035673
  0
VERTEX
  8
PLAN_1
  6
CONTINUOUS
 10
0.994531
 20
-3.038047
  0
VERTEX
  8
PLAN_1
  6
CONTINUOUS
 10
0.991760
 20
-3.040815
  0
VERTEX
  8
PLAN_1
  6
CONTINUOUS
 10
0.989386
 20
-3.043980
  0
VERTEX
  8
PLAN_1
  6
CONTINUOUS
 10
0.987406
 20
-3.047150
  0
VERTEX
  8
PLAN_1
  6
CONTINUOUS
 10
0.985823
 20
-3.050709
  0
VERTEX
  8
PLAN_1
  6
CONTINUOUS
 10
0.984240
 20
-3.054665
  0
VERTEX
  8
PLAN_1
  6
CONTINUOUS
 10
0.983055
 20
-3.058228
  0
VERTEX
  8
PLAN_1
  6
CONTINUOUS
 10
0.982264
 20
-3.062583
  0
VERTEX
  8
PLAN_1
  6
CONTINUOUS
 10
0.981866
 20
-3.066539
  0
VERTEX
  8
PLAN_1
  6
CONTINUOUS
 10
0.981866
 20
-3.070890
  0
VERTEX
  8
PLAN_1
  6
CONTINUOUS
 10
0.981866
 20
-3.074846
  0
VERTEX
  8
PLAN_1
  6
CONTINUOUS
 10
0.982264
 20
-3.078807
  0
VERTEX
  8
PLAN_1
  6
CONTINUOUS
 10
0.983055
 20
-3.082366
  0
VERTEX
  8
PLAN_1
  6
CONTINUOUS
 10
0.984240
 20
-3.086323
  0
VERTEX
  8
PLAN_1
  6
CONTINUOUS
 10
0.985429
 20
-3.090280
  0
VERTEX
  8
PLAN_1
  6
CONTINUOUS
 10
0.987406
 20
-3.093843
  0
VERTEX
  8
PLAN_1
  6
CONTINUOUS
 10
0.989386
 20
-3.097008
  0
VERTEX
  8
PLAN_1
  6
CONTINUOUS
 10
0.991760
 20
-3.100173
  0
VERTEX
  8
PLAN_1
  6
CONTINUOUS
 10
0.994531
 20
-3.103339
  0
VERTEX
  8
PLAN_1
  6
CONTINUOUS
 10
0.997299
 20
-3.106110
  0
VERTEX
  8
PLAN_1
  6
CONTINUOUS
 10
1.000862
 20
-3.108087
  0
VERTEX
  8
PLAN_1
  6
CONTINUOUS
 10
1.004421
 20
-3.110461
  0
VERTEX
  8
PLAN_1
  6
CONTINUOUS
 10
1.008378
 20
-3.112047
  0
VERTEX
  8
PLAN_1
  6
CONTINUOUS
 10
1.013130
 20
-3.113232
  0
VERTEX
  8
PLAN_1
  6
CONTINUOUS
 10
1.017878
 20
-3.114024
  0
VERTEX
  8
PLAN_1
  6
CONTINUOUS
 10
1.023020
 20
-3.114024
  0
SEQEND
  8
0
  0
POLYLINE
  8
PLAN_1
  6
CONTINUOUS
 66
     1
 40
0.003000
 41
0.003000
  0
VERTEX
  8
PLAN_1
  6
CONTINUOUS
 10
1.137780
 20
-3.017075
  0
VERTEX
  8
PLAN_1
  6
CONTINUOUS
 10
1.141339
 20
-3.015094
  0
VERTEX
  8
PLAN_1
  6
CONTINUOUS
 10
1.144902
 20
-3.012720
  0
VERTEX
  8
PLAN_1
  6
CONTINUOUS
 10
1.148858
 20
-3.010740
  0
VERTEX
  8
PLAN_1
  6
CONTINUOUS
 10
1.153213
 20
-3.008764
  0
VERTEX
  8
PLAN_1
  6
CONTINUOUS
 10
1.158358
 20
-3.007181
  0
VERTEX
  8
PLAN_1
  6
CONTINUOUS
 10
1.163500
 20
-3.005992
  0
VERTEX
  8
PLAN_1
  6
CONTINUOUS
 10
1.169437
 20
-3.005201
  0
VERTEX
  8
PLAN_1
  6
CONTINUOUS
 10
1.175768
 20
-3.005201
  0
VERTEX
  8
PLAN_1
  6
CONTINUOUS
 10
1.181705
 20
-3.005201
  0
VERTEX
  8
PLAN_1
  6
CONTINUOUS
 10
1.187638
 20
-3.005992
  0
VERTEX
  8
PLAN_1
  6
CONTINUOUS
 10
1.193181
 20
-3.007181
  0
VERTEX
  8
PLAN_1
  6
CONTINUOUS
 10
1.199114
 20
-3.009157
  0
VERTEX
  8
PLAN_1
  6
CONTINUOUS
 10
1.204654
 20
-3.011531
  0
VERTEX
  8
PLAN_1
  6
CONTINUOUS
 10
1.209799
 20
-3.014303
  0
VERTEX
  8
PLAN_1
  6
CONTINUOUS
 10
1.214945
 20
-3.017469
  0
VERTEX
  8
PLAN_1
  6
CONTINUOUS
 10
1.219693
 20
-3.021031
  0
VERTEX
  8
PLAN_1
  6
CONTINUOUS
 10
1.224047
 20
-3.025382
  0
VERTEX
  8
PLAN_1
  6
CONTINUOUS
 10
1.227606
 20
-3.030134
  0
VERTEX
  8
PLAN_1
  6
CONTINUOUS
 10
1.231169
 20
-3.035276
  0
VERTEX
  8
PLAN_1
  6
CONTINUOUS
 10
1.234335
 20
-3.040815
  0
VERTEX
  8
PLAN_1
  6
CONTINUOUS
 10
1.236709
 20
-3.046752
  0
VERTEX
  8
PLAN_1
  6
CONTINUOUS
 10
1.238291
 20
-3.053083
  0
VERTEX
  8
PLAN_1
  6
CONTINUOUS
 10
1.239476
 20
-3.060205
  0
VERTEX
  8
PLAN_1
  6
CONTINUOUS
 10
1.239874
 20
-3.067331
  0
VERTEX
  8
PLAN_1
  6
CONTINUOUS
 10
1.239476
 20
-3.071681
  0
VERTEX
  8
PLAN_1
  6
CONTINUOUS
 10
1.239083
 20
-3.076827
  0
VERTEX
  8
PLAN_1
  6
CONTINUOUS
 10
1.238291
 20
-3.081972
  0
VERTEX
  8
PLAN_1
  6
CONTINUOUS
 10
1.237102
 20
-3.087512
  0
VERTEX
  8
PLAN_1
  6
CONTINUOUS
 10
1.235520
 20
-3.093051
  0
VERTEX
  8
PLAN_1
  6
CONTINUOUS
 10
1.233543
 20
-3.098591
  0
VERTEX
  8
PLAN_1
  6
CONTINUOUS
 10
1.230772
 20
-3.104528
  0
VERTEX
  8
PLAN_1
  6
CONTINUOUS
 10
1.227213
 20
-3.110067
  0
VERTEX
  8
PLAN_1
  6
CONTINUOUS
 10
1.225232
 20
-3.112441
  0
VERTEX
  8
PLAN_1
  6
CONTINUOUS
 10
1.223252
 20
-3.115213
  0
VERTEX
  8
PLAN_1
  6
CONTINUOUS
 10
1.220878
 20
-3.117587
  0
VERTEX
  8
PLAN_1
  6
CONTINUOUS
 10
1.218110
 20
-3.119961
  0
VERTEX
  8
PLAN_1
  6
CONTINUOUS
 10
1.215339
 20
-3.122335
  0
VERTEX
  8
PLAN_1
  6
CONTINUOUS
 10
1.212571
 20
-3.124709
  0
VERTEX
  8
PLAN_1
  6
CONTINUOUS
 10
1.209406
 20
-3.126685
  0
VERTEX
  8
PLAN_1
  6
CONTINUOUS
 10
1.205843
 20
-3.128272
  0
VERTEX
  8
PLAN_1
  6
CONTINUOUS
 10
1.202280
 20
-3.130248
  0
VERTEX
  8
PLAN_1
  6
CONTINUOUS
 10
1.198323
 20
-3.131437
  0
VERTEX
  8
PLAN_1
  6
CONTINUOUS
 10
1.193972
 20
-3.133020
  0
VERTEX
  8
PLAN_1
  6
CONTINUOUS
 10
1.189618
 20
-3.133811
  0
VERTEX
  8
PLAN_1
  6
CONTINUOUS
 10
1.184870
 20
-3.134996
  0
VERTEX
  8
PLAN_1
  6
CONTINUOUS
 10
1.179724
 20
-3.135394
  0
VERTEX
  8
PLAN_1
  6
CONTINUOUS
 10
1.174583
 20
-3.135787
  0
VERTEX
  8
PLAN_1
  6
CONTINUOUS
 10
1.169039
 20
-3.136185
  0
VERTEX
  8
PLAN_1
  6
CONTINUOUS
 10
1.164291
 20
-3.135787
  0
VERTEX
  8
PLAN_1
  6
CONTINUOUS
 10
1.159150
 20
-3.135394
  0
VERTEX
  8
PLAN_1
  6
CONTINUOUS
 10
1.154004
 20
-3.134996
  0
VERTEX
  8
PLAN_1
  6
CONTINUOUS
 10
1.148858
 20
-3.133811
  0
VERTEX
  8
PLAN_1
  6
CONTINUOUS
 10
1.144110
 20
-3.132228
  0
VERTEX
  8
PLAN_1
  6
CONTINUOUS
 10
1.138965
 20
-3.130646
  0
VERTEX
  8
PLAN_1
  6
CONTINUOUS
 10
1.134217
 20
-3.128272
  0
VERTEX
  8
PLAN_1
  6
CONTINUOUS
 10
1.129866
 20
-3.125500
  0
VERTEX
  8
PLAN_1
  6
CONTINUOUS
 10
1.125118
 20
-3.122335
  0
VERTEX
  8
PLAN_1
  6
CONTINUOUS
 10
1.121157
 20
-3.118378
  0
VERTEX
  8
PLAN_1
  6
CONTINUOUS
 10
1.117598
 20
-3.114024
  0
VERTEX
  8
PLAN_1
  6
CONTINUOUS
 10
1.114035
 20
-3.108878
  0
VERTEX
  8
PLAN_1
  6
CONTINUOUS
 10
1.111268
 20
-3.103339
  0
VERTEX
  8
PLAN_1
  6
CONTINUOUS
 10
1.108894
 20
-3.097008
  0
VERTEX
  8
PLAN_1
  6
CONTINUOUS
 10
1.107307
 20
-3.089886
  0
VERTEX
  8
PLAN_1
  6
CONTINUOUS
 10
1.106122
 20
-3.082366
  0
VERTEX
  8
PLAN_1
  6
CONTINUOUS
 10
1.131051
 20
-3.082366
  0
VERTEX
  8
PLAN_1
  6
CONTINUOUS
 10
1.131843
 20
-3.086323
  0
VERTEX
  8
PLAN_1
  6
CONTINUOUS
 10
1.132634
 20
-3.090280
  0
VERTEX
  8
PLAN_1
  6
CONTINUOUS
 10
1.134217
 20
-3.093843
  0
VERTEX
  8
PLAN_1
  6
CONTINUOUS
 10
1.135799
 20
-3.097008
  0
VERTEX
  8
PLAN_1
  6
CONTINUOUS
 10
1.137382
 20
-3.099780
  0
VERTEX
  8
PLAN_1
  6
CONTINUOUS
 10
1.139756
 20
-3.102547
  0
VERTEX
  8
PLAN_1
  6
CONTINUOUS
 10
1.142134
 20
-3.104921
  0
VERTEX
  8
PLAN_1
  6
CONTINUOUS
 10
1.144508
 20
-3.107295
  0
VERTEX
  8
PLAN_1
  6
CONTINUOUS
 10
1.147276
 20
-3.108878
  0
VERTEX
  8
PLAN_1
  6
CONTINUOUS
 10
1.150441
 20
-3.110461
  0
VERTEX
  8
PLAN_1
  6
CONTINUOUS
 10
1.153606
 20
-3.112047
  0
VERTEX
  8
PLAN_1
  6
CONTINUOUS
 10
1.157169
 20
-3.113232
  0
VERTEX
  8
PLAN_1
  6
CONTINUOUS
 10
1.160732
 20
-3.114024
  0
VERTEX
  8
PLAN_1
  6
CONTINUOUS
 10
1.164689
 20
-3.114421
  0
VERTEX
  8
PLAN_1
  6
CONTINUOUS
 10
1.168646
 20
-3.114815
  0
VERTEX
  8
PLAN_1
  6
CONTINUOUS
 10
1.172602
 20
-3.114815
  0
VERTEX
  8
PLAN_1
  6
CONTINUOUS
 10
1.177350
 20
-3.114815
  0
VERTEX
  8
PLAN_1
  6
CONTINUOUS
 10
1.181705
 20
-3.114024
  0
VERTEX
  8
PLAN_1
  6
CONTINUOUS
 10
1.185661
 20
-3.112839
  0
VERTEX
  8
PLAN_1
  6
CONTINUOUS
 10
1.189618
 20
-3.111256
  0
VERTEX
  8
PLAN_1
  6
CONTINUOUS
 10
1.193181
 20
-3.109669
  0
VERTEX
  8
PLAN_1
  6
CONTINUOUS
 10
1.196740
 20
-3.107295
  0
VERTEX
  8
PLAN_1
  6
CONTINUOUS
 10
1.199906
 20
-3.104528
  0
VERTEX
  8
PLAN_1
  6
CONTINUOUS
 10
1.202677
 20
-3.101756
  0
VERTEX
  8
PLAN_1
  6
CONTINUOUS
 10
1.205051
 20
-3.098591
  0
VERTEX
  8
PLAN_1
  6
CONTINUOUS
 10
1.207425
 20
-3.095031
  0
VERTEX
  8
PLAN_1
  6
CONTINUOUS
 10
1.209406
 20
-3.091469
  0
VERTEX
  8
PLAN_1
  6
CONTINUOUS
 10
1.210988
 20
-3.087512
  0
VERTEX
  8
PLAN_1
  6
CONTINUOUS
 10
1.212173
 20
-3.083555
  0
VERTEX
  8
PLAN_1
  6
CONTINUOUS
 10
1.212965
 20
-3.079201
  0
VERTEX
  8
PLAN_1
  6
CONTINUOUS
 10
1.213362
 20
-3.074846
  0
VERTEX
  8
PLAN_1
  6
CONTINUOUS
 10
1.213756
 20
-3.070098
  0
VERTEX
  8
PLAN_1
  6
CONTINUOUS
 10
1.213362
 20
-3.065350
  0
VERTEX
  8
PLAN_1
  6
CONTINUOUS
 10
1.212965
 20
-3.060205
  0
VERTEX
  8
PLAN_1
  6
CONTINUOUS
 10
1.211780
 20
-3.055854
  0
VERTEX
  8
PLAN_1
  6
CONTINUOUS
 10
1.210197
 20
-3.051500
  0
VERTEX
  8
PLAN_1
  6
CONTINUOUS
 10
1.208614
 20
-3.047941
  0
VERTEX
  8
PLAN_1
  6
CONTINUOUS
 10
1.206236
 20
-3.044378
  0
VERTEX
  8
PLAN_1
  6
CONTINUOUS
 10
1.203862
 20
-3.041213
  0
VERTEX
  8
PLAN_1
  6
CONTINUOUS
 10
1.201094
 20
-3.038047
  0
VERTEX
  8
PLAN_1
  6
CONTINUOUS
 10
1.197929
 20
-3.035673
  0
VERTEX
  8
PLAN_1
  6
CONTINUOUS
 10
1.194764
 20
-3.033299
  0
VERTEX
  8
PLAN_1
  6
CONTINUOUS
 10
1.191201
 20
-3.031319
  0
VERTEX
  8
PLAN_1
  6
CONTINUOUS
 10
1.187244
 20
-3.029736
  0
VERTEX
  8
PLAN_1
  6
CONTINUOUS
 10
1.183287
 20
-3.028547
  0
VERTEX
  8
PLAN_1
  6
CONTINUOUS
 10
1.179331
 20
-3.027756
  0
VERTEX
  8
PLAN_1
  6
CONTINUOUS
 10
1.174976
 20
-3.026965
  0
VERTEX
  8
PLAN_1
  6
CONTINUOUS
 10
1.170228
 20
-3.026965
  0
VERTEX
  8
PLAN_1
  6
CONTINUOUS
 10
1.165083
 20
-3.027362
  0
VERTEX
  8
PLAN_1
  6
CONTINUOUS
 10
1.159941
 20
-3.028154
  0
VERTEX
  8
PLAN_1
  6
CONTINUOUS
 10
1.155189
 20
-3.029736
  0
VERTEX
  8
PLAN_1
  6
CONTINUOUS
 10
1.150441
 20
-3.031717
  0
VERTEX
  8
PLAN_1
  6
CONTINUOUS
 10
1.146091
 20
-3.034484
  0
VERTEX
  8
PLAN_1
  6
CONTINUOUS
 10
1.141736
 20
-3.037650
  0
VERTEX
  8
PLAN_1
  6
CONTINUOUS
 10
1.137780
 20
-3.041213
  0
VERTEX
  8
PLAN_1
  6
CONTINUOUS
 10
1.134217
 20
-3.045567
  0
VERTEX
  8
PLAN_1
  6
CONTINUOUS
 10
1.113244
 20
-3.044378
  0
VERTEX
  8
PLAN_1
  6
CONTINUOUS
 10
1.127886
 20
-2.939909
  0
VERTEX
  8
PLAN_1
  6
CONTINUOUS
 10
1.228795
 20
-2.939909
  0
VERTEX
  8
PLAN_1
  6
CONTINUOUS
 10
1.228795
 20
-2.963654
  0
VERTEX
  8
PLAN_1
  6
CONTINUOUS
 10
1.146091
 20
-2.963654
  0
VERTEX
  8
PLAN_1
  6
CONTINUOUS
 10
1.137780
 20
-3.017075
  0
SEQEND
  8
0
  0
SOLID
  8
PLAN_1
 10
1.251350
 20
-3.165469
 11
1.251350
 21
-3.151618
 12
1.405681
 22
-3.165469
 13
1.405681
 23
-3.151618
  0
POLYLINE
  8
PLAN_1
  6
CONTINUOUS
 66
     1
 40
0.003000
 41
0.003000
  0
VERTEX
  8
PLAN_1
  6
CONTINUOUS
 10
1.251350
 20
-3.165469
  0
VERTEX
  8
PLAN_1
  6
CONTINUOUS
 10
1.251350
 20
-3.151618
  0
VERTEX
  8
PLAN_1
  6
CONTINUOUS
 10
1.405681
 20
-3.151618
  0
VERTEX
  8
PLAN_1
  6
CONTINUOUS
 10
1.405681
 20
-3.165469
  0
VERTEX
  8
PLAN_1
  6
CONTINUOUS
 10
1.251350
 20
-3.165469
  0
SEQEND
  8
0
  0
POLYLINE
  8
PLAN_1
  6
CONTINUOUS
 66
     1
 40
0.003000
 41
0.003000
  0
VERTEX
  8
PLAN_1
  6
CONTINUOUS
 10
1.457122
 20
-3.130646
  0
VERTEX
  8
PLAN_1
  6
CONTINUOUS
 10
1.430213
 20
-3.130646
  0
VERTEX
  8
PLAN_1
  6
CONTINUOUS
 10
1.430213
 20
-2.931598
  0
VERTEX
  8
PLAN_1
  6
CONTINUOUS
 10
1.522417
 20
-2.931598
  0
VERTEX
  8
PLAN_1
  6
CONTINUOUS
 10
1.528350
 20
-2.931598
  0
VERTEX
  8
PLAN_1
  6
CONTINUOUS
 10
1.534681
 20
-2.931996
  0
VERTEX
  8
PLAN_1
  6
CONTINUOUS
 10
1.540618
 20
-2.932787
  0
VERTEX
  8
PLAN_1
  6
CONTINUOUS
 10
1.546555
 20
-2.933972
  0
VERTEX
  8
PLAN_1
  6
CONTINUOUS
 10
1.552094
 20
-2.935555
  0
VERTEX
  8
PLAN_1
  6
CONTINUOUS
 10
1.557634
 20
-2.937138
  0
VERTEX
  8
PLAN_1
  6
CONTINUOUS
 10
1.562780
 20
-2.939512
  0
VERTEX
  8
PLAN_1
  6
CONTINUOUS
 10
1.567528
 20
-2.942283
  0
VERTEX
  8
PLAN_1
  6
CONTINUOUS
 10
1.571882
 20
-2.945843
  0
VERTEX
  8
PLAN_1
  6
CONTINUOUS
 10
1.575839
 20
-2.949406
  0
VERTEX
  8
PLAN_1
  6
CONTINUOUS
 10
1.579398
 20
-2.953760
  0
VERTEX
  8
PLAN_1
  6
CONTINUOUS
 10
1.582169
 20
-2.958902
  0
VERTEX
  8
PLAN_1
  6
CONTINUOUS
 10
1.584543
 20
-2.964445
  0
VERTEX
  8
PLAN_1
  6
CONTINUOUS
 10
1.586524
 20
-2.970776
  0
VERTEX
  8
PLAN_1
  6
CONTINUOUS
 10
1.587709
 20
-2.977500
  0
VERTEX
  8
PLAN_1
  6
CONTINUOUS
 10
1.588106
 20
-2.985020
  0
VERTEX
  8
PLAN_1
  6
CONTINUOUS
 10
1.587709
 20
-2.990559
  0
VERTEX
  8
PLAN_1
  6
CONTINUOUS
 10
1.587315
 20
-2.995307
  0
VERTEX
  8
PLAN_1
  6
CONTINUOUS
 10
1.586524
 20
-2.999661
  0
VERTEX
  8
PLAN_1
  6
CONTINUOUS
 10
1.585335
 20
-3.004016
  0
VERTEX
  8
PLAN_1
  6
CONTINUOUS
 10
1.584146
 20
-3.007575
  0
VERTEX
  8
PLAN_1
  6
CONTINUOUS
 10
1.582563
 20
-3.011138
  0
VERTEX
  8
PLAN_1
  6
CONTINUOUS
 10
1.580587
 20
-3.014303
  0
VERTEX
  8
PLAN_1
  6
CONTINUOUS
 10
1.579004
 20
-3.017075
  0
VERTEX
  8
PLAN_1
  6
CONTINUOUS
 10
1.576630
 20
-3.019843
  0
VERTEX
  8
PLAN_1
  6
CONTINUOUS
 10
1.574650
 20
-3.022217
  0
VERTEX
  8
PLAN_1
  6
CONTINUOUS
 10
1.572276
 20
-3.024197
  0
VERTEX
  8
PLAN_1
  6
CONTINUOUS
 10
1.569902
 20
-3.026173
  0
VERTEX
  8
PLAN_1
  6
CONTINUOUS
 10
1.565154
 20
-3.029736
  0
VERTEX
  8
PLAN_1
  6
CONTINUOUS
 10
1.560008
 20
-3.032902
  0
VERTEX
  8
PLAN_1
  6
CONTINUOUS
 10
1.564362
 20
-3.034484
  0
VERTEX
  8
PLAN_1
  6
CONTINUOUS
 10
1.568713
 20
-3.036858
  0
VERTEX
  8
PLAN_1
  6
CONTINUOUS
 10
1.570693
 20
-3.038047
  0
VERTEX
  8
PLAN_1
  6
CONTINUOUS
 10
1.572276
 20
-3.039232
  0
VERTEX
  8
PLAN_1
  6
CONTINUOUS
 10
1.574256
 20
-3.041213
  0
VERTEX
  8
PLAN_1
  6
CONTINUOUS
 10
1.575839
 20
-3.042795
  0
VERTEX
  8
PLAN_1
  6
CONTINUOUS
 10
1.577421
 20
-3.045169
  0
VERTEX
  8
PLAN_1
  6
CONTINUOUS
 10
1.579004
 20
-3.047543
  0
VERTEX
  8
PLAN_1
  6
CONTINUOUS
 10
1.580189
 20
-3.050315
  0
VERTEX
  8
PLAN_1
  6
CONTINUOUS
 10
1.581378
 20
-3.053480
  0
VERTEX
  8
PLAN_1
  6
CONTINUOUS
 10
1.582563
 20
-3.057039
  0
VERTEX
  8
PLAN_1
  6
CONTINUOUS
 10
1.582961
 20
-3.060996
  0
VERTEX
  8
PLAN_1
  6
CONTINUOUS
 10
1.583752
 20
-3.065350
  0
VERTEX
  8
PLAN_1
  6
CONTINUOUS
 10
1.584146
 20
-3.070098
  0
VERTEX
  8
PLAN_1
  6
CONTINUOUS
 10
1.585732
 20
-3.106504
  0
VERTEX
  8
PLAN_1
  6
CONTINUOUS
 10
1.585732
 20
-3.110067
  0
VERTEX
  8
PLAN_1
  6
CONTINUOUS
 10
1.586126
 20
-3.113630
  0
VERTEX
  8
PLAN_1
  6
CONTINUOUS
 10
1.586917
 20
-3.116398
  0
VERTEX
  8
PLAN_1
  6
CONTINUOUS
 10
1.587709
 20
-3.118772
  0
VERTEX
  8
PLAN_1
  6
CONTINUOUS
 10
1.588898
 20
-3.120752
  0
VERTEX
  8
PLAN_1
  6
CONTINUOUS
 10
1.590480
 20
-3.122728
  0
VERTEX
  8
PLAN_1
  6
CONTINUOUS
 10
1.592854
 20
-3.124709
  0
VERTEX
  8
PLAN_1
  6
CONTINUOUS
 10
1.595622
 20
-3.126291
  0
VERTEX
  8
PLAN_1
  6
CONTINUOUS
 10
1.595622
 20
-3.130646
  0
VERTEX
  8
PLAN_1
  6
CONTINUOUS
 10
1.562780
 20
-3.130646
  0
VERTEX
  8
PLAN_1
  6
CONTINUOUS
 10
1.561197
 20
-3.125500
  0
VERTEX
  8
PLAN_1
  6
CONTINUOUS
 10
1.560406
 20
-3.118772
  0
VERTEX
  8
PLAN_1
  6
CONTINUOUS
 10
1.559614
 20
-3.111650
  0
VERTEX
  8
PLAN_1
  6
CONTINUOUS
 10
1.558823
 20
-3.104130
  0
VERTEX
  8
PLAN_1
  6
CONTINUOUS
 10
1.558425
 20
-3.096614
  0
VERTEX
  8
PLAN_1
  6
CONTINUOUS
 10
1.558031
 20
-3.089886
  0
VERTEX
  8
PLAN_1
  6
CONTINUOUS
 10
1.558031
 20
-3.084740
  0
VERTEX
  8
PLAN_1
  6
CONTINUOUS
 10
1.558031
 20
-3.080783
  0
VERTEX
  8
PLAN_1
  6
CONTINUOUS
 10
1.557634
 20
-3.074453
  0
VERTEX
  8
PLAN_1
  6
CONTINUOUS
 10
1.556843
 20
-3.068516
  0
VERTEX
  8
PLAN_1
  6
CONTINUOUS
 10
1.556051
 20
-3.065350
  0
VERTEX
  8
PLAN_1
  6
CONTINUOUS
 10
1.555260
 20
-3.062185
  0
VERTEX
  8
PLAN_1
  6
CONTINUOUS
 10
1.554075
 20
-3.059413
  0
VERTEX
  8
PLAN_1
  6
CONTINUOUS
 10
1.552094
 20
-3.057039
  0
VERTEX
  8
PLAN_1
  6
CONTINUOUS
 10
1.550114
 20
-3.054272
  0
VERTEX
  8
PLAN_1
  6
CONTINUOUS
 10
1.547740
 20
-3.052291
  0
VERTEX
  8
PLAN_1
  6
CONTINUOUS
 10
1.544972
 20
-3.050315
  0
VERTEX
  8
PLAN_1
  6
CONTINUOUS
 10
1.541409
 20
-3.048732
  0
VERTEX
  8
PLAN_1
  6
CONTINUOUS
 10
1.537453
 20
-3.047150
  0
VERTEX
  8
PLAN_1
  6
CONTINUOUS
 10
1.533098
 20
-3.045961
  0
VERTEX
  8
PLAN_1
  6
CONTINUOUS
 10
1.527957
 20
-3.045567
  0
VERTEX
  8
PLAN_1
  6
CONTINUOUS
 10
1.522417
 20
-3.045169
  0
VERTEX
  8
PLAN_1
  6
CONTINUOUS
 10
1.457122
 20
-3.045169
  0
VERTEX
  8
PLAN_1
  6
CONTINUOUS
 10
1.457122
 20
-3.130646
  0
SEQEND
  8
0
  0
POLYLINE
  8
PLAN_1
  6
CONTINUOUS
 66
     1
 40
0.003000
 41
0.003000
  0
VERTEX
  8
PLAN_1
  6
CONTINUOUS
 10
1.457122
 20
-3.022217
  0
VERTEX
  8
PLAN_1
  6
CONTINUOUS
 10
1.519646
 20
-3.022217
  0
VERTEX
  8
PLAN_1
  6
CONTINUOUS
 10
1.527165
 20
-3.021823
  0
VERTEX
  8
PLAN_1
  6
CONTINUOUS
 10
1.534287
 20
-3.021031
  0
VERTEX
  8
PLAN_1
  6
CONTINUOUS
 10
1.537850
 20
-3.020240
  0
VERTEX
  8
PLAN_1
  6
CONTINUOUS
 10
1.541016
 20
-3.019051
  0
VERTEX
  8
PLAN_1
  6
CONTINUOUS
 10
1.544181
 20
-3.017866
  0
VERTEX
  8
PLAN_1
  6
CONTINUOUS
 10
1.547346
 20
-3.015886
  0
VERTEX
  8
PLAN_1
  6
CONTINUOUS
 10
1.550114
 20
-3.013909
  0
VERTEX
  8
PLAN_1
  6
CONTINUOUS
 10
1.552492
 20
-3.011531
  0
VERTEX
  8
PLAN_1
  6
CONTINUOUS
 10
1.554866
 20
-3.008764
  0
VERTEX
  8
PLAN_1
  6
CONTINUOUS
 10
1.556449
 20
-3.005598
  0
VERTEX
  8
PLAN_1
  6
CONTINUOUS
 10
1.558031
 20
-3.002035
  0
VERTEX
  8
PLAN_1
  6
CONTINUOUS
 10
1.559217
 20
-2.997685
  0
VERTEX
  8
PLAN_1
  6
CONTINUOUS
 10
1.560008
 20
-2.992933
  0
VERTEX
  8
PLAN_1
  6
CONTINUOUS
 10
1.560008
 20
-2.987791
  0
VERTEX
  8
PLAN_1
  6
CONTINUOUS
 10
1.560008
 20
-2.982252
  0
VERTEX
  8
PLAN_1
  6
CONTINUOUS
 10
1.559217
 20
-2.977500
  0
VERTEX
  8
PLAN_1
  6
CONTINUOUS
 10
1.558031
 20
-2.973150
  0
VERTEX
  8
PLAN_1
  6
CONTINUOUS
 10
1.556449
 20
-2.969587
  0
VERTEX
  8
PLAN_1
  6
CONTINUOUS
 10
1.554469
 20
-2.966421
  0
VERTEX
  8
PLAN_1
  6
CONTINUOUS
 10
1.552492
 20
-2.963654
  0
VERTEX
  8
PLAN_1
  6
CONTINUOUS
 10
1.549720
 20
-2.961673
  0
VERTEX
  8
PLAN_1
  6
CONTINUOUS
 10
1.547346
 20
-2.959693
  0
VERTEX
  8
PLAN_1
  6
CONTINUOUS
 10
1.544575
 20
-2.958110
  0
VERTEX
  8
PLAN_1
  6
CONTINUOUS
 10
1.541409
 20
-2.956925
  0
VERTEX
  8
PLAN_1
  6
CONTINUOUS
 10
1.538642
 20
-2.956134
  0
VERTEX
  8
PLAN_1
  6
CONTINUOUS
 10
1.535472
 20
-2.955343
  0
VERTEX
  8
PLAN_1
  6
CONTINUOUS
 10
1.529539
 20
-2.954551
  0
VERTEX
  8
PLAN_1
  6
CONTINUOUS
 10
1.524394
 20
-2.954551
  0
VERTEX
  8
PLAN_1
  6
CONTINUOUS
 10
1.457122
 20
-2.954551
  0
VERTEX
  8
PLAN_1
  6
CONTINUOUS
 10
1.457122
 20
-3.022217
  0
SEQEND
  8
0
  0
SOLID
  8
PLAN_1
 10
1.659335
 20
-3.130646
 11
1.630445
 21
-3.130646
 12
1.659335
 22
-3.101362
 13
1.630445
 23
-3.101362
  0
POLYLINE
  8
PLAN_1
  6
CONTINUOUS
 66
     1
 40
0.003000
 41
0.003000
  0
VERTEX
  8
PLAN_1
  6
CONTINUOUS
 10
1.659335
 20
-3.130646
  0
VERTEX
  8
PLAN_1
  6
CONTINUOUS
 10
1.630445
 20
-3.130646
  0
VERTEX
  8
PLAN_1
  6
CONTINUOUS
 10
1.630445
 20
-3.101362
  0
VERTEX
  8
PLAN_1
  6
CONTINUOUS
 10
1.659335
 20
-3.101362
  0
VERTEX
  8
PLAN_1
  6
CONTINUOUS
 10
1.659335
 20
-3.130646
  0
SEQEND
  8
0
  0
POLYLINE
  8
PLAN_1
  6
CONTINUOUS
 66
     1
 40
0.003000
 41
0.003000
  0
VERTEX
  8
PLAN_1
  6
CONTINUOUS
 10
1.854421
 20
-3.130646
  0
VERTEX
  8
PLAN_1
  6
CONTINUOUS
 10
1.707217
 20
-3.130646
  0
VERTEX
  8
PLAN_1
  6
CONTINUOUS
 10
1.707217
 20
-2.931598
  0
VERTEX
  8
PLAN_1
  6
CONTINUOUS
 10
1.852445
 20
-2.931598
  0
VERTEX
  8
PLAN_1
  6
CONTINUOUS
 10
1.852445
 20
-2.955343
  0
VERTEX
  8
PLAN_1
  6
CONTINUOUS
 10
1.734126
 20
-2.955343
  0
VERTEX
  8
PLAN_1
  6
CONTINUOUS
 10
1.734126
 20
-3.016283
  0
VERTEX
  8
PLAN_1
  6
CONTINUOUS
 10
1.843343
 20
-3.016283
  0
VERTEX
  8
PLAN_1
  6
CONTINUOUS
 10
1.843343
 20
-3.040421
  0
VERTEX
  8
PLAN_1
  6
CONTINUOUS
 10
1.734126
 20
-3.040421
  0
VERTEX
  8
PLAN_1
  6
CONTINUOUS
 10
1.734126
 20
-3.106902
  0
VERTEX
  8
PLAN_1
  6
CONTINUOUS
 10
1.854421
 20
-3.106902
  0
VERTEX
  8
PLAN_1
  6
CONTINUOUS
 10
1.854421
 20
-3.130646
  0
SEQEND
  8
0
  0
POLYLINE
  8
PLAN_1
  6
CONTINUOUS
 66
     1
 40
0.003000
 41
0.003000
  0
VERTEX
  8
PLAN_1
  6
CONTINUOUS
 10
1.919319
 20
-3.130646
  0
VERTEX
  8
PLAN_1
  6
CONTINUOUS
 10
1.892409
 20
-3.130646
  0
VERTEX
  8
PLAN_1
  6
CONTINUOUS
 10
1.892409
 20
-2.931598
  0
VERTEX
  8
PLAN_1
  6
CONTINUOUS
 10
1.982240
 20
-2.931598
  0
VERTEX
  8
PLAN_1
  6
CONTINUOUS
 10
1.988965
 20
-2.931598
  0
VERTEX
  8
PLAN_1
  6
CONTINUOUS
 10
1.995295
 20
-2.932390
  0
VERTEX
  8
PLAN_1
  6
CONTINUOUS
 10
2.001232
 20
-2.933972
  0
VERTEX
  8
PLAN_1
  6
CONTINUOUS
 10
2.007169
 20
-2.935555
  0
VERTEX
  8
PLAN_1
  6
CONTINUOUS
 10
2.012311
 20
-2.937929
  0
VERTEX
  8
PLAN_1
  6
CONTINUOUS
 10
2.017063
 20
-2.940701
  0
VERTEX
  8
PLAN_1
  6
CONTINUOUS
 10
2.021413
 20
-2.943866
  0
VERTEX
  8
PLAN_1
  6
CONTINUOUS
 10
2.025768
 20
-2.947429
  0
VERTEX
  8
PLAN_1
  6
CONTINUOUS
 10
2.029331
 20
-2.951386
  0
VERTEX
  8
PLAN_1
  6
CONTINUOUS
 10
2.032496
 20
-2.955736
  0
VERTEX
  8
PLAN_1
  6
CONTINUOUS
 10
2.034870
 20
-2.960484
  0
VERTEX
  8
PLAN_1
  6
CONTINUOUS
 10
2.037244
 20
-2.965236
  0
VERTEX
  8
PLAN_1
  6
CONTINUOUS
 10
2.039220
 20
-2.970378
  0
VERTEX
  8
PLAN_1
  6
CONTINUOUS
 10
2.040409
 20
-2.975917
  0
VERTEX
  8
PLAN_1
  6
CONTINUOUS
 10
2.041201
 20
-2.981461
  0
VERTEX
  8
PLAN_1
  6
CONTINUOUS
 10
2.041201
 20
-2.987394
  0
VERTEX
  8
PLAN_1
  6
CONTINUOUS
 10
2.041201
 20
-2.992933
  0
VERTEX
  8
PLAN_1
  6
CONTINUOUS
 10
2.040409
 20
-2.998079
  0
VERTEX
  8
PLAN_1
  6
CONTINUOUS
 10
2.039618
 20
-3.003224
  0
VERTEX
  8
PLAN_1
  6
CONTINUOUS
 10
2.038035
 20
-3.008366
  0
VERTEX
  8
PLAN_1
  6
CONTINUOUS
 10
2.036453
 20
-3.013512
  0
VERTEX
  8
PLAN_1
  6
CONTINUOUS
 10
2.034079
 20
-3.018657
  0
VERTEX
  8
PLAN_1
  6
CONTINUOUS
 10
2.031307
 20
-3.023008
  0
VERTEX
  8
PLAN_1
  6
CONTINUOUS
 10
2.028142
 20
-3.027362
  0
VERTEX
  8
PLAN_1
  6
CONTINUOUS
 10
2.024185
 20
-3.031717
  0
VERTEX
  8
PLAN_1
  6
CONTINUOUS
 10
2.019831
 20
-3.035276
  0
VERTEX
  8
PLAN_1
  6
CONTINUOUS
 10
2.015083
 20
-3.038441
  0
VERTEX
  8
PLAN_1
  6
CONTINUOUS
 10
2.009543
 20
-3.041213
  0
VERTEX
  8
PLAN_1
  6
CONTINUOUS
 10
2.003606
 20
-3.043587
  0
VERTEX
  8
PLAN_1
  6
CONTINUOUS
 10
1.997276
 20
-3.045169
  0
VERTEX
  8
PLAN_1
  6
CONTINUOUS
 10
1.990154
 20
-3.046358
  0
VERTEX
  8
PLAN_1
  6
CONTINUOUS
 10
1.982240
 20
-3.046752
  0
VERTEX
  8
PLAN_1
  6
CONTINUOUS
 10
1.919319
 20
-3.046752
  0
VERTEX
  8
PLAN_1
  6
CONTINUOUS
 10
1.919319
 20
-3.130646
  0
SEQEND
  8
0
  0
POLYLINE
  8
PLAN_1
  6
CONTINUOUS
 66
     1
 40
0.003000
 41
0.003000
  0
VERTEX
  8
PLAN_1
  6
CONTINUOUS
 10
1.919319
 20
-3.023799
  0
VERTEX
  8
PLAN_1
  6
CONTINUOUS
 10
1.973138
 20
-3.023799
  0
VERTEX
  8
PLAN_1
  6
CONTINUOUS
 10
1.977488
 20
-3.023406
  0
VERTEX
  8
PLAN_1
  6
CONTINUOUS
 10
1.981843
 20
-3.023406
  0
VERTEX
  8
PLAN_1
  6
CONTINUOUS
 10
1.985799
 20
-3.022614
  0
VERTEX
  8
PLAN_1
  6
CONTINUOUS
 10
1.989756
 20
-3.021823
  0
VERTEX
  8
PLAN_1
  6
CONTINUOUS
 10
1.993319
 20
-3.020634
  0
VERTEX
  8
PLAN_1
  6
CONTINUOUS
 10
1.996484
 20
-3.019449
  0
VERTEX
  8
PLAN_1
  6
CONTINUOUS
 10
1.999650
 20
-3.017866
  0
VERTEX
  8
PLAN_1
  6
CONTINUOUS
 10
2.002421
 20
-3.015886
  0
VERTEX
  8
PLAN_1
  6
CONTINUOUS
 10
2.004795
 20
-3.013512
  0
VERTEX
  8
PLAN_1
  6
CONTINUOUS
 10
2.007169
 20
-3.011138
  0
VERTEX
  8
PLAN_1
  6
CONTINUOUS
 10
2.009146
 20
-3.007972
  0
VERTEX
  8
PLAN_1
  6
CONTINUOUS
 10
2.010728
 20
-3.004807
  0
VERTEX
  8
PLAN_1
  6
CONTINUOUS
 10
2.011917
 20
-3.001244
  0
VERTEX
  8
PLAN_1
  6
CONTINUOUS
 10
2.012709
 20
-2.997287
  0
VERTEX
  8
PLAN_1
  6
CONTINUOUS
 10
2.013500
 20
-2.992539
  0
VERTEX
  8
PLAN_1
  6
CONTINUOUS
 10
2.013500
 20
-2.987791
  0
VERTEX
  8
PLAN_1
  6
CONTINUOUS
 10
2.013500
 20
-2.983437
  0
VERTEX
  8
PLAN_1
  6
CONTINUOUS
 10
2.012709
 20
-2.979083
  0
VERTEX
  8
PLAN_1
  6
CONTINUOUS
 10
2.011917
 20
-2.975524
  0
VERTEX
  8
PLAN_1
  6
CONTINUOUS
 10
2.010728
 20
-2.971961
  0
VERTEX
  8
PLAN_1
  6
CONTINUOUS
 10
2.008752
 20
-2.968795
  0
VERTEX
  8
PLAN_1
  6
CONTINUOUS
 10
2.006772
 20
-2.966028
  0
VERTEX
  8
PLAN_1
  6
CONTINUOUS
 10
2.004795
 20
-2.963654
  0
VERTEX
  8
PLAN_1
  6
CONTINUOUS
 10
2.002024
 20
-2.961673
  0
VERTEX
  8
PLAN_1
  6
CONTINUOUS
 10
1.999256
 20
-2.960091
  0
VERTEX
  8
PLAN_1
  6
CONTINUOUS
 10
1.996484
 20
-2.958508
  0
VERTEX
  8
PLAN_1
  6
CONTINUOUS
 10
1.993319
 20
-2.957319
  0
VERTEX
  8
PLAN_1
  6
CONTINUOUS
 10
1.989756
 20
-2.956134
  0
VERTEX
  8
PLAN_1
  6
CONTINUOUS
 10
1.986197
 20
-2.955343
  0
VERTEX
  8
PLAN_1
  6
CONTINUOUS
 10
1.982240
 20
-2.954945
  0
VERTEX
  8
PLAN_1
  6
CONTINUOUS
 10
1.978280
 20
-2.954551
  0
VERTEX
  8
PLAN_1
  6
CONTINUOUS
 10
1.974323
 20
-2.954551
  0
VERTEX
  8
PLAN_1
  6
CONTINUOUS
 10
1.919319
 20
-2.954551
  0
VERTEX
  8
PLAN_1
  6
CONTINUOUS
 10
1.919319
 20
-3.023799
  0
SEQEND
  8
0
  0
POLYLINE
  8
PLAN_1
  6
CONTINUOUS
 66
     1
 40
0.003000
 41
0.003000
  0
VERTEX
  8
PLAN_1
  6
CONTINUOUS
 10
2.195134
 20
-2.989768
  0
VERTEX
  8
PLAN_1
  6
CONTINUOUS
 10
2.194740
 20
-2.984228
  0
VERTEX
  8
PLAN_1
  6
CONTINUOUS
 10
2.193551
 20
-2.979083
  0
VERTEX
  8
PLAN_1
  6
CONTINUOUS
 10
2.191969
 20
-2.974732
  0
VERTEX
  8
PLAN_1
  6
CONTINUOUS
 10
2.189988
 20
-2.970378
  0
VERTEX
  8
PLAN_1
  6
CONTINUOUS
 10
2.187614
 20
-2.966819
  0
VERTEX
  8
PLAN_1
  6
CONTINUOUS
 10
2.184846
 20
-2.963256
  0
VERTEX
  8
PLAN_1
  6
CONTINUOUS
 10
2.181681
 20
-2.960484
  0
VERTEX
  8
PLAN_1
  6
CONTINUOUS
 10
2.178516
 20
-2.958110
  0
VERTEX
  8
PLAN_1
  6
CONTINUOUS
 10
2.174953
 20
-2.955736
  0
VERTEX
  8
PLAN_1
  6
CONTINUOUS
 10
2.170996
 20
-2.954154
  0
VERTEX
  8
PLAN_1
  6
CONTINUOUS
 10
2.167039
 20
-2.952571
  0
VERTEX
  8
PLAN_1
  6
CONTINUOUS
 10
2.162685
 20
-2.951386
  0
VERTEX
  8
PLAN_1
  6
CONTINUOUS
 10
2.158728
 20
-2.950197
  0
VERTEX
  8
PLAN_1
  6
CONTINUOUS
 10
2.154374
 20
-2.949803
  0
VERTEX
  8
PLAN_1
  6
CONTINUOUS
 10
2.150024
 20
-2.949406
  0
VERTEX
  8
PLAN_1
  6
CONTINUOUS
 10
2.145669
 20
-2.949406
  0
VERTEX
  8
PLAN_1
  6
CONTINUOUS
 10
2.138941
 20
-2.949406
  0
VERTEX
  8
PLAN_1
  6
CONTINUOUS
 10
2.131425
 20
-2.950594
  0
VERTEX
  8
PLAN_1
  6
CONTINUOUS
 10
2.127862
 20
-2.951386
  0
VERTEX
  8
PLAN_1
  6
CONTINUOUS
 10
2.123906
 20
-2.952177
  0
VERTEX
  8
PLAN_1
  6
CONTINUOUS
 10
2.120343
 20
-2.953760
  0
VERTEX
  8
PLAN_1
  6
CONTINUOUS
 10
2.116783
 20
-2.955343
  0
VERTEX
  8
PLAN_1
  6
CONTINUOUS
 10
2.113220
 20
-2.957319
  0
VERTEX
  8
PLAN_1
  6
CONTINUOUS
 10
2.110055
 20
-2.959693
  0
VERTEX
  8
PLAN_1
  6
CONTINUOUS
 10
2.107283
 20
-2.962858
  0
VERTEX
  8
PLAN_1
  6
CONTINUOUS
 10
2.104909
 20
-2.966028
  0
VERTEX
  8
PLAN_1
  6
CONTINUOUS
 10
2.102933
 20
-2.969587
  0
VERTEX
  8
PLAN_1
  6
CONTINUOUS
 10
2.101350
 20
-2.973941
  0
VERTEX
  8
PLAN_1
  6
CONTINUOUS
 10
2.100559
 20
-2.978689
  0
VERTEX
  8
PLAN_1
  6
CONTINUOUS
 10
2.100161
 20
-2.984228
  0
VERTEX
  8
PLAN_1
  6
CONTINUOUS
 10
2.100559
 20
-2.987394
  0
VERTEX
  8
PLAN_1
  6
CONTINUOUS
 10
2.100953
 20
-2.990165
  0
VERTEX
  8
PLAN_1
  6
CONTINUOUS
 10
2.101350
 20
-2.992539
  0
VERTEX
  8
PLAN_1
  6
CONTINUOUS
 10
2.102142
 20
-2.994913
  0
VERTEX
  8
PLAN_1
  6
CONTINUOUS
 10
2.103327
 20
-2.996894
  0
VERTEX
  8
PLAN_1
  6
CONTINUOUS
 10
2.104516
 20
-2.998870
  0
VERTEX
  8
PLAN_1
  6
CONTINUOUS
 10
2.106098
 20
-3.000453
  0
VERTEX
  8
PLAN_1
  6
CONTINUOUS
 10
2.107681
 20
-3.002035
  0
VERTEX
  8
PLAN_1
  6
CONTINUOUS
 10
2.111244
 20
-3.004807
  0
VERTEX
  8
PLAN_1
  6
CONTINUOUS
 10
2.115201
 20
-3.006783
  0
VERTEX
  8
PLAN_1
  6
CONTINUOUS
 10
2.119551
 20
-3.008366
  0
VERTEX
  8
PLAN_1
  6
CONTINUOUS
 10
2.123906
 20
-3.009555
  0
VERTEX
  8
PLAN_1
  6
CONTINUOUS
 10
2.180890
 20
-3.022614
  0
VERTEX
  8
PLAN_1
  6
CONTINUOUS
 10
2.185638
 20
-3.023799
  0
VERTEX
  8
PLAN_1
  6
CONTINUOUS
 10
2.189988
 20
-3.025382
  0
VERTEX
  8
PLAN_1
  6
CONTINUOUS
 10
2.194343
 20
-3.026965
  0
VERTEX
  8
PLAN_1
  6
CONTINUOUS
 10
2.198697
 20
-3.028945
  0
VERTEX
  8
PLAN_1
  6
CONTINUOUS
 10
2.202654
 20
-3.031319
  0
VERTEX
  8
PLAN_1
  6
CONTINUOUS
 10
2.206213
 20
-3.033693
  0
VERTEX
  8
PLAN_1
  6
CONTINUOUS
 10
2.209776
 20
-3.036465
  0
VERTEX
  8
PLAN_1
  6
CONTINUOUS
 10
2.212941
 20
-3.039630
  0
VERTEX
  8
PLAN_1
  6
CONTINUOUS
 10
2.216106
 20
-3.042795
  0
VERTEX
  8
PLAN_1
  6
CONTINUOUS
 10
2.218480
 20
-3.046752
  0
VERTEX
  8
PLAN_1
  6
CONTINUOUS
 10
2.220854
 20
-3.050709
  0
VERTEX
  8
PLAN_1
  6
CONTINUOUS
 10
2.222437
 20
-3.055063
  0
VERTEX
  8
PLAN_1
  6
CONTINUOUS
 10
2.224020
 20
-3.059811
  0
VERTEX
  8
PLAN_1
  6
CONTINUOUS
 10
2.225209
 20
-3.064559
  0
VERTEX
  8
PLAN_1
  6
CONTINUOUS
 10
2.225602
 20
-3.070098
  0
VERTEX
  8
PLAN_1
  6
CONTINUOUS
 10
2.226000
 20
-3.075638
  0
VERTEX
  8
PLAN_1
  6
CONTINUOUS
 10
2.226000
 20
-3.079992
  0
VERTEX
  8
PLAN_1
  6
CONTINUOUS
 10
2.225602
 20
-3.084346
  0
VERTEX
  8
PLAN_1
  6
CONTINUOUS
 10
2.224811
 20
-3.088303
  0
VERTEX
  8
PLAN_1
  6
CONTINUOUS
 10
2.224020
 20
-3.091862
  0
VERTEX
  8
PLAN_1
  6
CONTINUOUS
 10
2.222835
 20
-3.095425
  0
VERTEX
  8
PLAN_1
  6
CONTINUOUS
 10
2.221646
 20
-3.098988
  0
VERTEX
  8
PLAN_1
  6
CONTINUOUS
 10
2.220063
 20
-3.102154
  0
VERTEX
  8
PLAN_1
  6
CONTINUOUS
 10
2.218480
 20
-3.105319
  0
VERTEX
  8
PLAN_1
  6
CONTINUOUS
 10
2.216898
 20
-3.108087
  0
VERTEX
  8
PLAN_1
  6
CONTINUOUS
 10
2.214921
 20
-3.110858
  0
VERTEX
  8
PLAN_1
  6
CONTINUOUS
 10
2.212547
 20
-3.113232
  0
VERTEX
  8
PLAN_1
  6
CONTINUOUS
 10
2.210173
 20
-3.115606
  0
VERTEX
  8
PLAN_1
  6
CONTINUOUS
 10
2.205421
 20
-3.119961
  0
VERTEX
  8
PLAN_1
  6
CONTINUOUS
 10
2.199882
 20
-3.123520
  0
VERTEX
  8
PLAN_1
  6
CONTINUOUS
 10
2.193949
 20
-3.126685
  0
VERTEX
  8
PLAN_1
  6
CONTINUOUS
 10
2.187614
 20
-3.129457
  0
VERTEX
  8
PLAN_1
  6
CONTINUOUS
 10
2.181283
 20
-3.131437
  0
VERTEX
  8
PLAN_1
  6
CONTINUOUS
 10
2.174555
 20
-3.133413
  0
VERTEX
  8
PLAN_1
  6
CONTINUOUS
 10
2.167831
 20
-3.134602
  0
VERTEX
  8
PLAN_1
  6
CONTINUOUS
 10
2.161102
 20
-3.135394
  0
VERTEX
  8
PLAN_1
  6
CONTINUOUS
 10
2.154374
 20
-3.135787
  0
VERTEX
  8
PLAN_1
  6
CONTINUOUS
 10
2.148043
 20
-3.136185
  0
VERTEX
  8
PLAN_1
  6
CONTINUOUS
 10
2.141315
 20
-3.135787
  0
VERTEX
  8
PLAN_1
  6
CONTINUOUS
 10
2.135382
 20
-3.135394
  0
VERTEX
  8
PLAN_1
  6
CONTINUOUS
 10
2.129445
 20
-3.134996
  0
VERTEX
  8
PLAN_1
  6
CONTINUOUS
 10
2.124299
 20
-3.134205
  0
VERTEX
  8
PLAN_1
  6
CONTINUOUS
 10
2.119551
 20
-3.133413
  0
VERTEX
  8
PLAN_1
  6
CONTINUOUS
 10
2.115201
 20
-3.132228
  0
VERTEX
  8
PLAN_1
  6
CONTINUOUS
 10
2.110846
 20
-3.131039
  0
VERTEX
  8
PLAN_1
  6
CONTINUOUS
 10
2.107283
 20
-3.129457
  0
VERTEX
  8
PLAN_1
  6
CONTINUOUS
 10
2.100953
 20
-3.126685
  0
VERTEX
  8
PLAN_1
  6
CONTINUOUS
 10
2.095811
 20
-3.123126
  0
VERTEX
  8
PLAN_1
  6
CONTINUOUS
 10
2.091457
 20
-3.119961
  0
VERTEX
  8
PLAN_1
  6
CONTINUOUS
 10
2.087894
 20
-3.116795
  0
VERTEX
  8
PLAN_1
  6
CONTINUOUS
 10
2.084728
 20
-3.114024
  0
VERTEX
  8
PLAN_1
  6
CONTINUOUS
 10
2.081961
 20
-3.111256
  0
VERTEX
  8
PLAN_1
  6
CONTINUOUS
 10
2.079587
 20
-3.108087
  0
VERTEX
  8
PLAN_1
  6
CONTINUOUS
 10
2.077606
 20
-3.105319
  0
VERTEX
  8
PLAN_1
  6
CONTINUOUS
 10
2.075626
 20
-3.102154
  0
VERTEX
  8
PLAN_1
  6
CONTINUOUS
 10
2.074043
 20
-3.098988
  0
VERTEX
  8
PLAN_1
  6
CONTINUOUS
 10
2.072461
 20
-3.096217
  0
VERTEX
  8
PLAN_1
  6
CONTINUOUS
 10
2.071276
 20
-3.093051
  0
VERTEX
  8
PLAN_1
  6
CONTINUOUS
 10
2.069295
 20
-3.086323
  0
VERTEX
  8
PLAN_1
  6
CONTINUOUS
 10
2.068110
 20
-3.079992
  0
VERTEX
  8
PLAN_1
  6
CONTINUOUS
 10
2.067713
 20
-3.073264
  0
VERTEX
  8
PLAN_1
  6
CONTINUOUS
 10
2.067713
 20
-3.066539
  0
VERTEX
  8
PLAN_1
  6
CONTINUOUS
 10
2.092642
 20
-3.066539
  0
VERTEX
  8
PLAN_1
  6
CONTINUOUS
 10
2.093039
 20
-3.072870
  0
VERTEX
  8
PLAN_1
  6
CONTINUOUS
 10
2.094224
 20
-3.078807
  0
VERTEX
  8
PLAN_1
  6
CONTINUOUS
 10
2.095811
 20
-3.083949
  0
VERTEX
  8
PLAN_1
  6
CONTINUOUS
 10
2.097787
 20
-3.088697
  0
VERTEX
  8
PLAN_1
  6
CONTINUOUS
 10
2.100559
 20
-3.093051
  0
VERTEX
  8
PLAN_1
  6
CONTINUOUS
 10
2.103327
 20
-3.097008
  0
VERTEX
  8
PLAN_1
  6
CONTINUOUS
 10
2.106890
 20
-3.100173
  0
VERTEX
  8
PLAN_1
  6
CONTINUOUS
 10
2.110846
 20
-3.103339
  0
VERTEX
  8
PLAN_1
  6
CONTINUOUS
 10
2.114803
 20
-3.105713
  0
VERTEX
  8
PLAN_1
  6
CONTINUOUS
 10
2.119157
 20
-3.107693
  0
VERTEX
  8
PLAN_1
  6
CONTINUOUS
 10
2.123508
 20
-3.109276
  0
VERTEX
  8
PLAN_1
  6
CONTINUOUS
 10
2.128260
 20
-3.110858
  0
VERTEX
  8
PLAN_1
  6
CONTINUOUS
 10
2.133008
 20
-3.111650
  0
VERTEX
  8
PLAN_1
  6
CONTINUOUS
 10
2.138150
 20
-3.112441
  0
VERTEX
  8
PLAN_1
  6
CONTINUOUS
 10
2.142898
 20
-3.112839
  0
VERTEX
  8
PLAN_1
  6
CONTINUOUS
 10
2.147650
 20
-3.112839
  0
VERTEX
  8
PLAN_1
  6
CONTINUOUS
 10
2.155563
 20
-3.112839
  0
VERTEX
  8
PLAN_1
  6
CONTINUOUS
 10
2.164268
 20
-3.111650
  0
VERTEX
  8
PLAN_1
  6
CONTINUOUS
 10
2.168622
 20
-3.110858
  0
VERTEX
  8
PLAN_1
  6
CONTINUOUS
 10
2.172579
 20
-3.110067
  0
VERTEX
  8
PLAN_1
  6
CONTINUOUS
 10
2.176933
 20
-3.108484
  0
VERTEX
  8
PLAN_1
  6
CONTINUOUS
 10
2.181283
 20
-3.106902
  0
VERTEX
  8
PLAN_1
  6
CONTINUOUS
 10
2.184846
 20
-3.104921
  0
VERTEX
  8
PLAN_1
  6
CONTINUOUS
 10
2.188406
 20
-3.102547
  0
VERTEX
  8
PLAN_1
  6
CONTINUOUS
 10
2.191571
 20
-3.099780
  0
VERTEX
  8
PLAN_1
  6
CONTINUOUS
 10
2.194343
 20
-3.096614
  0
VERTEX
  8
PLAN_1
  6
CONTINUOUS
 10
2.196717
 20
-3.093051
  0
VERTEX
  8
PLAN_1
  6
CONTINUOUS
 10
2.198299
 20
-3.089094
  0
VERTEX
  8
PLAN_1
  6
CONTINUOUS
 10
2.199488
 20
-3.084346
  0
VERTEX
  8
PLAN_1
  6
CONTINUOUS
 10
2.199882
 20
-3.079598
  0
VERTEX
  8
PLAN_1
  6
CONTINUOUS
 10
2.199882
 20
-3.075638
  0
VERTEX
  8
PLAN_1
  6
CONTINUOUS
 10
2.199488
 20
-3.072079
  0
VERTEX
  8
PLAN_1
  6
CONTINUOUS
 10
2.198697
 20
-3.069307
  0
VERTEX
  8
PLAN_1
  6
CONTINUOUS
 10
2.197906
 20
-3.066142
  0
VERTEX
  8
PLAN_1
  6
CONTINUOUS
 10
2.196717
 20
-3.063768
  0
VERTEX
  8
PLAN_1
  6
CONTINUOUS
 10
2.195134
 20
-3.060996
  0
VERTEX
  8
PLAN_1
  6
CONTINUOUS
 10
2.193157
 20
-3.059020
  0
VERTEX
  8
PLAN_1
  6
CONTINUOUS
 10
2.190780
 20
-3.057039
  0
VERTEX
  8
PLAN_1
  6
CONTINUOUS
 10
2.188406
 20
-3.055063
  0
VERTEX
  8
PLAN_1
  6
CONTINUOUS
 10
2.185240
 20
-3.053083
  0
VERTEX
  8
PLAN_1
  6
CONTINUOUS
 10
2.181681
 20
-3.051500
  0
VERTEX
  8
PLAN_1
  6
CONTINUOUS
 10
2.177724
 20
-3.049917
  0
VERTEX
  8
PLAN_1
  6
CONTINUOUS
 10
2.168622
 20
-3.047150
  0
VERTEX
  8
PLAN_1
  6
CONTINUOUS
 10
2.157539
 20
-3.043980
  0
VERTEX
  8
PLAN_1
  6
CONTINUOUS
 10
2.116783
 20
-3.034882
  0
VERTEX
  8
PLAN_1
  6
CONTINUOUS
 10
2.111244
 20
-3.033299
  0
VERTEX
  8
PLAN_1
  6
CONTINUOUS
 10
2.104516
 20
-3.030925
  0
VERTEX
  8
PLAN_1
  6
CONTINUOUS
 10
2.100953
 20
-3.029343
  0
VERTEX
  8
PLAN_1
  6
CONTINUOUS
 10
2.097394
 20
-3.027756
  0
VERTEX
  8
PLAN_1
  6
CONTINUOUS
 10
2.093831
 20
-3.025780
  0
VERTEX
  8
PLAN_1
  6
CONTINUOUS
 10
2.090665
 20
-3.023008
  0
VERTEX
  8
PLAN_1
  6
CONTINUOUS
 10
2.087102
 20
-3.020240
  0
VERTEX
  8
PLAN_1
  6
CONTINUOUS
 10
2.084335
 20
-3.017075
  0
VERTEX
  8
PLAN_1
  6
CONTINUOUS
 10
2.081563
 20
-3.013512
  0
VERTEX
  8
PLAN_1
  6
CONTINUOUS
 10
2.078795
 20
-3.009555
  0
VERTEX
  8
PLAN_1
  6
CONTINUOUS
 10
2.076815
 20
-3.004807
  0
VERTEX
  8
PLAN_1
  6
CONTINUOUS
 10
2.075626
 20
-2.999661
  0
VERTEX
  8
PLAN_1
  6
CONTINUOUS
 10
2.074441
 20
-2.994122
  0
VERTEX
  8
PLAN_1
  6
CONTINUOUS
 10
2.074043
 20
-2.987791
  0
VERTEX
  8
PLAN_1
  6
CONTINUOUS
 10
2.074441
 20
-2.981854
  0
VERTEX
  8
PLAN_1
  6
CONTINUOUS
 10
2.075232
 20
-2.976315
  0
VERTEX
  8
PLAN_1
  6
CONTINUOUS
 10
2.076417
 20
-2.970776
  0
VERTEX
  8
PLAN_1
  6
CONTINUOUS
 10
2.078000
 20
-2.965236
  0
VERTEX
  8
PLAN_1
  6
CONTINUOUS
 10
2.080378
 20
-2.959693
  0
VERTEX
  8
PLAN_1
  6
CONTINUOUS
 10
2.083146
 20
-2.954551
  0
VERTEX
  8
PLAN_1
  6
CONTINUOUS
 10
2.086311
 20
-2.949803
  0
VERTEX
  8
PLAN_1
  6
CONTINUOUS
 10
2.090268
 20
-2.945449
  0
VERTEX
  8
PLAN_1
  6
CONTINUOUS
 10
2.094622
 20
-2.941094
  0
VERTEX
  8
PLAN_1
  6
CONTINUOUS
 10
2.099768
 20
-2.937535
  0
VERTEX
  8
PLAN_1
  6
CONTINUOUS
 10
2.105307
 20
-2.934370
  0
VERTEX
  8
PLAN_1
  6
CONTINUOUS
 10
2.111638
 20
-2.931598
  0
VERTEX
  8
PLAN_1
  6
CONTINUOUS
 10
2.118366
 20
-2.929224
  0
VERTEX
  8
PLAN_1
  6
CONTINUOUS
 10
2.125882
 20
-2.927642
  0
VERTEX
  8
PLAN_1
  6
CONTINUOUS
 10
2.134193
 20
-2.926453
  0
VERTEX
  8
PLAN_1
  6
CONTINUOUS
 10
2.142898
 20
-2.926059
  0
VERTEX
  8
PLAN_1
  6
CONTINUOUS
 10
2.149232
 20
-2.926453
  0
VERTEX
  8
PLAN_1
  6
CONTINUOUS
 10
2.155165
 20
-2.926850
  0
VERTEX
  8
PLAN_1
  6
CONTINUOUS
 10
2.160709
 20
-2.927244
  0
VERTEX
  8
PLAN_1
  6
CONTINUOUS
 10
2.165850
 20
-2.928035
  0
VERTEX
  8
PLAN_1
  6
CONTINUOUS
 10
2.170996
 20
-2.929224
  0
VERTEX
  8
PLAN_1
  6
CONTINUOUS
 10
2.175744
 20
-2.930413
  0
VERTEX
  8
PLAN_1
  6
CONTINUOUS
 10
2.180098
 20
-2.931598
  0
VERTEX
  8
PLAN_1
  6
CONTINUOUS
 10
2.184055
 20
-2.933181
  0
VERTEX
  8
PLAN_1
  6
CONTINUOUS
 10
2.188012
 20
-2.934764
  0
VERTEX
  8
PLAN_1
  6
CONTINUOUS
 10
2.191571
 20
-2.936744
  0
VERTEX
  8
PLAN_1
  6
CONTINUOUS
 10
2.194740
 20
-2.938327
  0
VERTEX
  8
PLAN_1
  6
CONTINUOUS
 10
2.197508
 20
-2.940701
  0
VERTEX
  8
PLAN_1
  6
CONTINUOUS
 10
2.200280
 20
-2.942677
  0
VERTEX
  8
PLAN_1
  6
CONTINUOUS
 10
2.203047
 20
-2.945051
  0
VERTEX
  8
PLAN_1
  6
CONTINUOUS
 10
2.205028
 20
-2.947429
  0
VERTEX
  8
PLAN_1
  6
CONTINUOUS
 10
2.207402
 20
-2.949803
  0
VERTEX
  8
PLAN_1
  6
CONTINUOUS
 10
2.210965
 20
-2.954945
  0
VERTEX
  8
PLAN_1
  6
CONTINUOUS
 10
2.213732
 20
-2.960091
  0
VERTEX
  8
PLAN_1
  6
CONTINUOUS
 10
2.216106
 20
-2.965236
  0
VERTEX
  8
PLAN_1
  6
CONTINUOUS
 10
2.217689
 20
-2.970776
  0
VERTEX
  8
PLAN_1
  6
CONTINUOUS
 10
2.218878
 20
-2.975917
  0
VERTEX
  8
PLAN_1
  6
CONTINUOUS
 10
2.219669
 20
-2.980669
  0
VERTEX
  8
PLAN_1
  6
CONTINUOUS
 10
2.220063
 20
-2.985417
  0
VERTEX
  8
PLAN_1
  6
CONTINUOUS
 10
2.220461
 20
-2.989768
  0
VERTEX
  8
PLAN_1
  6
CONTINUOUS
 10
2.195134
 20
-2.989768
  0
SEQEND
  8
0
  0
POLYLINE
  8
PLAN_1
  6
CONTINUOUS
 66
     1
 40
0.008307
 41
0.008307
  0
VERTEX
  8
PLAN_1
  6
CONTINUOUS
 10
0.277886
 20
1.798799
  0
VERTEX
  8
PLAN_1
  6
CONTINUOUS
 10
0.277886
 20
2.713299
  0
VERTEX
  8
PLAN_1
  6
CONTINUOUS
 10
-1.027980
 20
2.713299
  0
VERTEX
  8
PLAN_1
  6
CONTINUOUS
 10
-1.027980
 20
1.798799
  0
VERTEX
  8
PLAN_1
  6
CONTINUOUS
 10
0.277886
 20
1.798799
  0
SEQEND
  8
0
  0
POLYLINE
  8
PLAN_1
  6
CONTINUOUS
 66
     1
 40
0.008307
 41
0.008307
  0
VERTEX
  8
PLAN_1
  6
CONTINUOUS
 10
-0.164921
 20
1.382110
  0
VERTEX
  8
PLAN_1
  6
CONTINUOUS
 10
-0.164921
 20
1.428409
  0
VERTEX
  8
PLAN_1
  6
CONTINUOUS
 10
-0.563803
 20
1.428409
  0
VERTEX
  8
PLAN_1
  6
CONTINUOUS
 10
-0.563803
 20
1.382110
  0
VERTEX
  8
PLAN_1
  6
CONTINUOUS
 10
-0.164921
 20
1.382110
  0
SEQEND
  8
0
  0
POLYLINE
  8
PLAN_1
  6
CONTINUOUS
 66
     1
 40
0.008307
 41
0.008307
  0
VERTEX
  8
PLAN_1
  6
CONTINUOUS
 10
0.171437
 20
1.773870
  0
VERTEX
  8
PLAN_1
  6
CONTINUOUS
 10
0.171437
 20
1.797610
  0
VERTEX
  8
PLAN_1
  6
CONTINUOUS
 10
-0.900559
 20
1.797610
  0
VERTEX
  8
PLAN_1
  6
CONTINUOUS
 10
-0.900559
 20
1.773870
  0
VERTEX
  8
PLAN_1
  6
CONTINUOUS
 10
0.171437
 20
1.773870
  0
SEQEND
  8
0
  0
POLYLINE
  8
PLAN_1
  6
CONTINUOUS
 66
     1
 40
0.008307
 41
0.008307
  0
VERTEX
  8
PLAN_1
  6
CONTINUOUS
 10
-0.064803
 20
1.428409
  0
VERTEX
  8
PLAN_1
  6
CONTINUOUS
 10
-0.064803
 20
1.773870
  0
VERTEX
  8
PLAN_1
  6
CONTINUOUS
 10
-0.683705
 20
1.773870
  0
VERTEX
  8
PLAN_1
  6
CONTINUOUS
 10
-0.683705
 20
1.428409
  0
VERTEX
  8
PLAN_1
  6
CONTINUOUS
 10
-0.064803
 20
1.428409
  0
SEQEND
  8
0
  0
POLYLINE
  8
PLAN_1
 62
     5
  6
CONTINUOUS
 66
     1
 40
0.003000
 41
0.003000
  0
VERTEX
  8
PLAN_1
 62
     5
  6
CONTINUOUS
 10
-1.194181
 20
1.099173
  0
VERTEX
  8
PLAN_1
 62
     5
  6
CONTINUOUS
 10
-1.194181
 20
1.107480
  0
SEQEND
  8
0
  0
POLYLINE
  8
PLAN_1
 62
     5
  6
CONTINUOUS
 66
     1
 40
0.003000
 41
0.003000
  0
VERTEX
  8
PLAN_1
 62
     5
  6
CONTINUOUS
 10
-1.194181
 20
1.115791
  0
VERTEX
  8
PLAN_1
 62
     5
  6
CONTINUOUS
 10
-1.194181
 20
1.124102
  0
SEQEND
  8
0
  0
POLYLINE
  8
PLAN_1
 62
     5
  6
CONTINUOUS
 66
     1
 40
0.003000
 41
0.003000
  0
VERTEX
  8
PLAN_1
 62
     5
  6
CONTINUOUS
 10
-1.194181
 20
1.132413
  0
VERTEX
  8
PLAN_1
 62
     5
  6
CONTINUOUS
 10
-1.194181
 20
1.140720
  0
SEQEND
  8
0
  0
POLYLINE
  8
PLAN_1
 62
     5
  6
CONTINUOUS
 66
     1
 40
0.003000
 41
0.003000
  0
VERTEX
  8
PLAN_1
 62
     5
  6
CONTINUOUS
 10
-1.194181
 20
1.149031
  0
VERTEX
  8
PLAN_1
 62
     5
  6
CONTINUOUS
 10
-1.194181
 20
1.157343
  0
SEQEND
  8
0
  0
POLYLINE
  8
PLAN_1
 62
     5
  6
CONTINUOUS
 66
     1
 40
0.003000
 41
0.003000
  0
VERTEX
  8
PLAN_1
 62
     5
  6
CONTINUOUS
 10
-1.194181
 20
1.165654
  0
VERTEX
  8
PLAN_1
 62
     5
  6
CONTINUOUS
 10
-1.194181
 20
1.173961
  0
SEQEND
  8
0
  0
POLYLINE
  8
PLAN_1
 62
     5
  6
CONTINUOUS
 66
     1
 40
0.003000
 41
0.003000
  0
VERTEX
  8
PLAN_1
 62
     5
  6
CONTINUOUS
 10
-1.194181
 20
1.182272
  0
VERTEX
  8
PLAN_1
 62
     5
  6
CONTINUOUS
 10
-1.194181
 20
1.190583
  0
SEQEND
  8
0
  0
POLYLINE
  8
PLAN_1
 62
     5
  6
CONTINUOUS
 66
     1
 40
0.003000
 41
0.003000
  0
VERTEX
  8
PLAN_1
 62
     5
  6
CONTINUOUS
 10
-1.194181
 20
1.198894
  0
VERTEX
  8
PLAN_1
 62
     5
  6
CONTINUOUS
 10
-1.194181
 20
1.207201
  0
SEQEND
  8
0
  0
POLYLINE
  8
PLAN_1
 62
     5
  6
CONTINUOUS
 66
     1
 40
0.003000
 41
0.003000
  0
VERTEX
  8
PLAN_1
 62
     5
  6
CONTINUOUS
 10
-1.194181
 20
1.215512
  0
VERTEX
  8
PLAN_1
 62
     5
  6
CONTINUOUS
 10
-1.194181
 20
1.224217
  0
SEQEND
  8
0
  0
POLYLINE
  8
PLAN_1
 62
     5
  6
CONTINUOUS
 66
     1
 40
0.003000
 41
0.003000
  0
VERTEX
  8
PLAN_1
 62
     5
  6
CONTINUOUS
 10
-1.194181
 20
1.232528
  0
VERTEX
  8
PLAN_1
 62
     5
  6
CONTINUOUS
 10
-1.194181
 20
1.240839
  0
SEQEND
  8
0
  0
POLYLINE
  8
PLAN_1
 62
     5
  6
CONTINUOUS
 66
     1
 40
0.003000
 41
0.003000
  0
VERTEX
  8
PLAN_1
 62
     5
  6
CONTINUOUS
 10
-1.194181
 20
1.249150
  0
VERTEX
  8
PLAN_1
 62
     5
  6
CONTINUOUS
 10
-1.194181
 20
1.257457
  0
SEQEND
  8
0
  0
POLYLINE
  8
PLAN_1
 62
     5
  6
CONTINUOUS
 66
     1
 40
0.003000
 41
0.003000
  0
VERTEX
  8
PLAN_1
 62
     5
  6
CONTINUOUS
 10
-1.194181
 20
1.265768
  0
VERTEX
  8
PLAN_1
 62
     5
  6
CONTINUOUS
 10
-1.194181
 20
1.274079
  0
SEQEND
  8
0
  0
POLYLINE
  8
PLAN_1
 62
     5
  6
CONTINUOUS
 66
     1
 40
0.003000
 41
0.003000
  0
VERTEX
  8
PLAN_1
 62
     5
  6
CONTINUOUS
 10
-1.194181
 20
1.282390
  0
VERTEX
  8
PLAN_1
 62
     5
  6
CONTINUOUS
 10
-1.194181
 20
1.290697
  0
SEQEND
  8
0
  0
POLYLINE
  8
PLAN_1
 62
     5
  6
CONTINUOUS
 66
     1
 40
0.003000
 41
0.003000
  0
VERTEX
  8
PLAN_1
 62
     5
  6
CONTINUOUS
 10
-1.194181
 20
1.299008
  0
VERTEX
  8
PLAN_1
 62
     5
  6
CONTINUOUS
 10
-1.194181
 20
1.307319
  0
SEQEND
  8
0
  0
POLYLINE
  8
PLAN_1
 62
     5
  6
CONTINUOUS
 66
     1
 40
0.003000
 41
0.003000
  0
VERTEX
  8
PLAN_1
 62
     5
  6
CONTINUOUS
 10
-1.194181
 20
1.315630
  0
VERTEX
  8
PLAN_1
 62
     5
  6
CONTINUOUS
 10
-1.194181
 20
1.323937
  0
SEQEND
  8
0
  0
POLYLINE
  8
PLAN_1
 62
     5
  6
CONTINUOUS
 66
     1
 40
0.003000
 41
0.003000
  0
VERTEX
  8
PLAN_1
 62
     5
  6
CONTINUOUS
 10
-1.194181
 20
1.332248
  0
VERTEX
  8
PLAN_1
 62
     5
  6
CONTINUOUS
 10
-1.194181
 20
1.340559
  0
SEQEND
  8
0
  0
POLYLINE
  8
PLAN_1
 62
     5
  6
CONTINUOUS
 66
     1
 40
0.003000
 41
0.003000
  0
VERTEX
  8
PLAN_1
 62
     5
  6
CONTINUOUS
 10
-1.194181
 20
1.348870
  0
VERTEX
  8
PLAN_1
 62
     5
  6
CONTINUOUS
 10
-1.194181
 20
1.357177
  0
SEQEND
  8
0
  0
POLYLINE
  8
PLAN_1
 62
     5
  6
CONTINUOUS
 66
     1
 40
0.003000
 41
0.003000
  0
VERTEX
  8
PLAN_1
 62
     5
  6
CONTINUOUS
 10
-1.194181
 20
1.365488
  0
VERTEX
  8
PLAN_1
 62
     5
  6
CONTINUOUS
 10
-1.194181
 20
1.373799
  0
SEQEND
  8
0
  0
POLYLINE
  8
PLAN_1
 62
     5
  6
CONTINUOUS
 66
     1
 40
0.003000
 41
0.003000
  0
VERTEX
  8
PLAN_1
 62
     5
  6
CONTINUOUS
 10
-1.194181
 20
1.382110
  0
VERTEX
  8
PLAN_1
 62
     5
  6
CONTINUOUS
 10
-1.194181
 20
1.390417
  0
SEQEND
  8
0
  0
POLYLINE
  8
PLAN_1
 62
     5
  6
CONTINUOUS
 66
     1
 40
0.003000
 41
0.003000
  0
VERTEX
  8
PLAN_1
 62
     5
  6
CONTINUOUS
 10
-1.194181
 20
1.398728
  0
VERTEX
  8
PLAN_1
 62
     5
  6
CONTINUOUS
 10
-1.194181
 20
1.407433
  0
SEQEND
  8
0
  0
POLYLINE
  8
PLAN_1
 62
     5
  6
CONTINUOUS
 66
     1
 40
0.003000
 41
0.003000
  0
VERTEX
  8
PLAN_1
 62
     5
  6
CONTINUOUS
 10
-1.194181
 20
1.415744
  0
VERTEX
  8
PLAN_1
 62
     5
  6
CONTINUOUS
 10
-1.194181
 20
1.424055
  0
SEQEND
  8
0
  0
POLYLINE
  8
PLAN_1
 62
     5
  6
CONTINUOUS
 66
     1
 40
0.003000
 41
0.003000
  0
VERTEX
  8
PLAN_1
 62
     5
  6
CONTINUOUS
 10
-1.194181
 20
1.432366
  0
VERTEX
  8
PLAN_1
 62
     5
  6
CONTINUOUS
 10
-1.194181
 20
1.440677
  0
SEQEND
  8
0
  0
POLYLINE
  8
PLAN_1
 62
     5
  6
CONTINUOUS
 66
     1
 40
0.003000
 41
0.003000
  0
VERTEX
  8
PLAN_1
 62
     5
  6
CONTINUOUS
 10
-1.194181
 20
1.448984
  0
VERTEX
  8
PLAN_1
 62
     5
  6
CONTINUOUS
 10
-1.194181
 20
1.457295
  0
SEQEND
  8
0
  0
POLYLINE
  8
PLAN_1
 62
     5
  6
CONTINUOUS
 66
     1
 40
0.003000
 41
0.003000
  0
VERTEX
  8
PLAN_1
 62
     5
  6
CONTINUOUS
 10
-1.194181
 20
1.465606
  0
VERTEX
  8
PLAN_1
 62
     5
  6
CONTINUOUS
 10
-1.194181
 20
1.473917
  0
SEQEND
  8
0
  0
POLYLINE
  8
PLAN_1
 62
     5
  6
CONTINUOUS
 66
     1
 40
0.003000
 41
0.003000
  0
VERTEX
  8
PLAN_1
 62
     5
  6
CONTINUOUS
 10
-1.194181
 20
1.482224
  0
VERTEX
  8
PLAN_1
 62
     5
  6
CONTINUOUS
 10
-1.194181
 20
1.490535
  0
SEQEND
  8
0
  0
POLYLINE
  8
PLAN_1
 62
     5
  6
CONTINUOUS
 66
     1
 40
0.003000
 41
0.003000
  0
VERTEX
  8
PLAN_1
 62
     5
  6
CONTINUOUS
 10
-1.194181
 20
1.498846
  0
VERTEX
  8
PLAN_1
 62
     5
  6
CONTINUOUS
 10
-1.194181
 20
1.507157
  0
SEQEND
  8
0
  0
POLYLINE
  8
PLAN_1
 62
     5
  6
CONTINUOUS
 66
     1
 40
0.003000
 41
0.003000
  0
VERTEX
  8
PLAN_1
 62
     5
  6
CONTINUOUS
 10
-1.194181
 20
1.515465
  0
VERTEX
  8
PLAN_1
 62
     5
  6
CONTINUOUS
 10
-1.194181
 20
1.523776
  0
SEQEND
  8
0
  0
POLYLINE
  8
PLAN_1
 62
     5
  6
CONTINUOUS
 66
     1
 40
0.003000
 41
0.003000
  0
VERTEX
  8
PLAN_1
 62
     5
  6
CONTINUOUS
 10
-1.194181
 20
1.532087
  0
VERTEX
  8
PLAN_1
 62
     5
  6
CONTINUOUS
 10
-1.194181
 20
1.540398
  0
SEQEND
  8
0
  0
POLYLINE
  8
PLAN_1
 62
     5
  6
CONTINUOUS
 66
     1
 40
0.003000
 41
0.003000
  0
VERTEX
  8
PLAN_1
 62
     5
  6
CONTINUOUS
 10
-1.194181
 20
1.548705
  0
VERTEX
  8
PLAN_1
 62
     5
  6
CONTINUOUS
 10
-1.194181
 20
1.557016
  0
SEQEND
  8
0
  0
POLYLINE
  8
PLAN_1
 62
     5
  6
CONTINUOUS
 66
     1
 40
0.003000
 41
0.003000
  0
VERTEX
  8
PLAN_1
 62
     5
  6
CONTINUOUS
 10
-1.194181
 20
1.565327
  0
VERTEX
  8
PLAN_1
 62
     5
  6
CONTINUOUS
 10
-1.194181
 20
1.573638
  0
SEQEND
  8
0
  0
POLYLINE
  8
PLAN_1
 62
     5
  6
CONTINUOUS
 66
     1
 40
0.003000
 41
0.003000
  0
VERTEX
  8
PLAN_1
 62
     5
  6
CONTINUOUS
 10
-1.194181
 20
1.582343
  0
VERTEX
  8
PLAN_1
 62
     5
  6
CONTINUOUS
 10
-1.194181
 20
1.590654
  0
SEQEND
  8
0
  0
POLYLINE
  8
PLAN_1
 62
     5
  6
CONTINUOUS
 66
     1
 40
0.003000
 41
0.003000
  0
VERTEX
  8
PLAN_1
 62
     5
  6
CONTINUOUS
 10
-1.194181
 20
1.598961
  0
VERTEX
  8
PLAN_1
 62
     5
  6
CONTINUOUS
 10
-1.194181
 20
1.607272
  0
SEQEND
  8
0
  0
POLYLINE
  8
PLAN_1
 62
     5
  6
CONTINUOUS
 66
     1
 40
0.003000
 41
0.003000
  0
VERTEX
  8
PLAN_1
 62
     5
  6
CONTINUOUS
 10
-1.194181
 20
1.615583
  0
VERTEX
  8
PLAN_1
 62
     5
  6
CONTINUOUS
 10
-1.194181
 20
1.623894
  0
SEQEND
  8
0
  0
POLYLINE
  8
PLAN_1
 62
     5
  6
CONTINUOUS
 66
     1
 40
0.003000
 41
0.003000
  0
VERTEX
  8
PLAN_1
 62
     5
  6
CONTINUOUS
 10
-1.194181
 20
1.632201
  0
VERTEX
  8
PLAN_1
 62
     5
  6
CONTINUOUS
 10
-1.194181
 20
1.640512
  0
SEQEND
  8
0
  0
POLYLINE
  8
PLAN_1
 62
     5
  6
CONTINUOUS
 66
     1
 40
0.003000
 41
0.003000
  0
VERTEX
  8
PLAN_1
 62
     5
  6
CONTINUOUS
 10
-1.194181
 20
1.648823
  0
VERTEX
  8
PLAN_1
 62
     5
  6
CONTINUOUS
 10
-1.194181
 20
1.657134
  0
SEQEND
  8
0
  0
POLYLINE
  8
PLAN_1
 62
     5
  6
CONTINUOUS
 66
     1
 40
0.003000
 41
0.003000
  0
VERTEX
  8
PLAN_1
 62
     5
  6
CONTINUOUS
 10
-1.194181
 20
1.665441
  0
VERTEX
  8
PLAN_1
 62
     5
  6
CONTINUOUS
 10
-1.194181
 20
1.673752
  0
SEQEND
  8
0
  0
POLYLINE
  8
PLAN_1
 62
     5
  6
CONTINUOUS
 66
     1
 40
0.003000
 41
0.003000
  0
VERTEX
  8
PLAN_1
 62
     5
  6
CONTINUOUS
 10
-1.194181
 20
1.682063
  0
VERTEX
  8
PLAN_1
 62
     5
  6
CONTINUOUS
 10
-1.194181
 20
1.690374
  0
SEQEND
  8
0
  0
POLYLINE
  8
PLAN_1
 62
     5
  6
CONTINUOUS
 66
     1
 40
0.003000
 41
0.003000
  0
VERTEX
  8
PLAN_1
 62
     5
  6
CONTINUOUS
 10
-1.194181
 20
1.698681
  0
VERTEX
  8
PLAN_1
 62
     5
  6
CONTINUOUS
 10
-1.194181
 20
1.706992
  0
SEQEND
  8
0
  0
POLYLINE
  8
PLAN_1
 62
     5
  6
CONTINUOUS
 66
     1
 40
0.003000
 41
0.003000
  0
VERTEX
  8
PLAN_1
 62
     5
  6
CONTINUOUS
 10
-1.194181
 20
1.715303
  0
VERTEX
  8
PLAN_1
 62
     5
  6
CONTINUOUS
 10
-1.194181
 20
1.723614
  0
SEQEND
  8
0
  0
POLYLINE
  8
PLAN_1
 62
     5
  6
CONTINUOUS
 66
     1
 40
0.003000
 41
0.003000
  0
VERTEX
  8
PLAN_1
 62
     5
  6
CONTINUOUS
 10
-1.194181
 20
1.731921
  0
VERTEX
  8
PLAN_1
 62
     5
  6
CONTINUOUS
 10
-1.194181
 20
1.740232
  0
SEQEND
  8
0
  0
POLYLINE
  8
PLAN_1
 62
     5
  6
CONTINUOUS
 66
     1
 40
0.003000
 41
0.003000
  0
VERTEX
  8
PLAN_1
 62
     5
  6
CONTINUOUS
 10
-1.194181
 20
1.748543
  0
VERTEX
  8
PLAN_1
 62
     5
  6
CONTINUOUS
 10
-1.194181
 20
1.756854
  0
SEQEND
  8
0
  0
POLYLINE
  8
PLAN_1
 62
     5
  6
CONTINUOUS
 66
     1
 40
0.003000
 41
0.003000
  0
VERTEX
  8
PLAN_1
 62
     5
  6
CONTINUOUS
 10
-1.194181
 20
1.765559
  0
VERTEX
  8
PLAN_1
 62
     5
  6
CONTINUOUS
 10
-1.194181
 20
1.773870
  0
SEQEND
  8
0
  0
POLYLINE
  8
PLAN_1
 62
     5
  6
CONTINUOUS
 66
     1
 40
0.003000
 41
0.003000
  0
VERTEX
  8
PLAN_1
 62
     5
  6
CONTINUOUS
 10
-1.194181
 20
1.782177
  0
VERTEX
  8
PLAN_1
 62
     5
  6
CONTINUOUS
 10
-1.194181
 20
1.790488
  0
SEQEND
  8
0
  0
POLYLINE
  8
PLAN_1
 62
     5
  6
CONTINUOUS
 66
     1
 40
0.003000
 41
0.003000
  0
VERTEX
  8
PLAN_1
 62
     5
  6
CONTINUOUS
 10
-1.194181
 20
1.798799
  0
VERTEX
  8
PLAN_1
 62
     5
  6
CONTINUOUS
 10
-1.186264
 20
1.798799
  0
SEQEND
  8
0
  0
POLYLINE
  8
PLAN_1
 62
     5
  6
CONTINUOUS
 66
     1
 40
0.003000
 41
0.003000
  0
VERTEX
  8
PLAN_1
 62
     5
  6
CONTINUOUS
 10
-1.177957
 20
1.798799
  0
VERTEX
  8
PLAN_1
 62
     5
  6
CONTINUOUS
 10
-1.169646
 20
1.798799
  0
SEQEND
  8
0
  0
POLYLINE
  8
PLAN_1
 62
     5
  6
CONTINUOUS
 66
     1
 40
0.003000
 41
0.003000
  0
VERTEX
  8
PLAN_1
 62
     5
  6
CONTINUOUS
 10
-1.161335
 20
1.798799
  0
VERTEX
  8
PLAN_1
 62
     5
  6
CONTINUOUS
 10
-1.153024
 20
1.798799
  0
SEQEND
  8
0
  0
POLYLINE
  8
PLAN_1
 62
     5
  6
CONTINUOUS
 66
     1
 40
0.003000
 41
0.003000
  0
VERTEX
  8
PLAN_1
 62
     5
  6
CONTINUOUS
 10
-1.144717
 20
1.798799
  0
VERTEX
  8
PLAN_1
 62
     5
  6
CONTINUOUS
 10
-1.136406
 20
1.798799
  0
SEQEND
  8
0
  0
POLYLINE
  8
PLAN_1
 62
     5
  6
CONTINUOUS
 66
     1
 40
0.003000
 41
0.003000
  0
VERTEX
  8
PLAN_1
 62
     5
  6
CONTINUOUS
 10
-1.128094
 20
1.798799
  0
VERTEX
  8
PLAN_1
 62
     5
  6
CONTINUOUS
 10
-1.119783
 20
1.798799
  0
SEQEND
  8
0
  0
POLYLINE
  8
PLAN_1
 62
     5
  6
CONTINUOUS
 66
     1
 40
0.003000
 41
0.003000
  0
VERTEX
  8
PLAN_1
 62
     5
  6
CONTINUOUS
 10
-1.111079
 20
1.798799
  0
VERTEX
  8
PLAN_1
 62
     5
  6
CONTINUOUS
 10
-1.102768
 20
1.798799
  0
SEQEND
  8
0
  0
POLYLINE
  8
PLAN_1
 62
     5
  6
CONTINUOUS
 66
     1
 40
0.003000
 41
0.003000
  0
VERTEX
  8
PLAN_1
 62
     5
  6
CONTINUOUS
 10
-1.094461
 20
1.798799
  0
VERTEX
  8
PLAN_1
 62
     5
  6
CONTINUOUS
 10
-1.086150
 20
1.798799
  0
SEQEND
  8
0
  0
POLYLINE
  8
PLAN_1
 62
     5
  6
CONTINUOUS
 66
     1
 40
0.003000
 41
0.003000
  0
VERTEX
  8
PLAN_1
 62
     5
  6
CONTINUOUS
 10
-1.077839
 20
1.798799
  0
VERTEX
  8
PLAN_1
 62
     5
  6
CONTINUOUS
 10
-1.069528
 20
1.798799
  0
SEQEND
  8
0
  0
POLYLINE
  8
PLAN_1
 62
     5
  6
CONTINUOUS
 66
     1
 40
0.003000
 41
0.003000
  0
VERTEX
  8
PLAN_1
 62
     5
  6
CONTINUOUS
 10
-1.061220
 20
1.798799
  0
VERTEX
  8
PLAN_1
 62
     5
  6
CONTINUOUS
 10
-1.052909
 20
1.798799
  0
SEQEND
  8
0
  0
POLYLINE
  8
PLAN_1
 62
     5
  6
CONTINUOUS
 66
     1
 40
0.003000
 41
0.003000
  0
VERTEX
  8
PLAN_1
 62
     5
  6
CONTINUOUS
 10
-1.044598
 20
1.798799
  0
VERTEX
  8
PLAN_1
 62
     5
  6
CONTINUOUS
 10
-1.036287
 20
1.798799
  0
SEQEND
  8
0
  0
POLYLINE
  8
PLAN_1
 62
     5
  6
CONTINUOUS
 66
     1
 40
0.003000
 41
0.003000
  0
VERTEX
  8
PLAN_1
 62
     5
  6
CONTINUOUS
 10
-1.027980
 20
1.798799
  0
VERTEX
  8
PLAN_1
 62
     5
  6
CONTINUOUS
 10
-1.019669
 20
1.798799
  0
SEQEND
  8
0
  0
POLYLINE
  8
PLAN_1
 62
     5
  6
CONTINUOUS
 66
     1
 40
0.003000
 41
0.003000
  0
VERTEX
  8
PLAN_1
 62
     5
  6
CONTINUOUS
 10
-1.011358
 20
1.798799
  0
VERTEX
  8
PLAN_1
 62
     5
  6
CONTINUOUS
 10
-1.003047
 20
1.798799
  0
SEQEND
  8
0
  0
POLYLINE
  8
PLAN_1
 62
     5
  6
CONTINUOUS
 66
     1
 40
0.003000
 41
0.003000
  0
VERTEX
  8
PLAN_1
 62
     5
  6
CONTINUOUS
 10
-0.994740
 20
1.798799
  0
VERTEX
  8
PLAN_1
 62
     5
  6
CONTINUOUS
 10
-0.986429
 20
1.798799
  0
SEQEND
  8
0
  0
POLYLINE
  8
PLAN_1
 62
     5
  6
CONTINUOUS
 66
     1
 40
0.003000
 41
0.003000
  0
VERTEX
  8
PLAN_1
 62
     5
  6
CONTINUOUS
 10
-0.978118
 20
1.798799
  0
VERTEX
  8
PLAN_1
 62
     5
  6
CONTINUOUS
 10
-0.969807
 20
1.798799
  0
SEQEND
  8
0
  0
POLYLINE
  8
PLAN_1
 62
     5
  6
CONTINUOUS
 66
     1
 40
0.003000
 41
0.003000
  0
VERTEX
  8
PLAN_1
 62
     5
  6
CONTINUOUS
 10
-0.961496
 20
1.798799
  0
VERTEX
  8
PLAN_1
 62
     5
  6
CONTINUOUS
 10
-0.953189
 20
1.798799
  0
SEQEND
  8
0
  0
POLYLINE
  8
PLAN_1
 62
     5
  6
CONTINUOUS
 66
     1
 40
0.003000
 41
0.003000
  0
VERTEX
  8
PLAN_1
 62
     5
  6
CONTINUOUS
 10
-0.944878
 20
1.798799
  0
VERTEX
  8
PLAN_1
 62
     5
  6
CONTINUOUS
 10
-0.936567
 20
1.798799
  0
SEQEND
  8
0
  0
POLYLINE
  8
PLAN_1
 62
     5
  6
CONTINUOUS
 66
     1
 40
0.003000
 41
0.003000
  0
VERTEX
  8
PLAN_1
 62
     5
  6
CONTINUOUS
 10
-0.927862
 20
1.798799
  0
VERTEX
  8
PLAN_1
 62
     5
  6
CONTINUOUS
 10
-0.919551
 20
1.798799
  0
SEQEND
  8
0
  0
POLYLINE
  8
PLAN_1
 62
     5
  6
CONTINUOUS
 66
     1
 40
0.003000
 41
0.003000
  0
VERTEX
  8
PLAN_1
 62
     5
  6
CONTINUOUS
 10
-0.911240
 20
1.798799
  0
VERTEX
  8
PLAN_1
 62
     5
  6
CONTINUOUS
 10
-0.902933
 20
1.798799
  0
SEQEND
  8
0
  0
POLYLINE
  8
PLAN_1
 62
     5
  6
CONTINUOUS
 66
     1
 40
0.003000
 41
0.003000
  0
VERTEX
  8
PLAN_1
 62
     5
  6
CONTINUOUS
 10
-0.894622
 20
1.798799
  0
VERTEX
  8
PLAN_1
 62
     5
  6
CONTINUOUS
 10
-0.886311
 20
1.798799
  0
SEQEND
  8
0
  0
POLYLINE
  8
PLAN_1
 62
     5
  6
CONTINUOUS
 66
     1
 40
0.003000
 41
0.003000
  0
VERTEX
  8
PLAN_1
 62
     5
  6
CONTINUOUS
 10
-0.878000
 20
1.798799
  0
VERTEX
  8
PLAN_1
 62
     5
  6
CONTINUOUS
 10
-0.869693
 20
1.798799
  0
SEQEND
  8
0
  0
POLYLINE
  8
PLAN_1
 62
     5
  6
CONTINUOUS
 66
     1
 40
0.003000
 41
0.003000
  0
VERTEX
  8
PLAN_1
 62
     5
  6
CONTINUOUS
 10
-0.861382
 20
1.798799
  0
VERTEX
  8
PLAN_1
 62
     5
  6
CONTINUOUS
 10
-0.853071
 20
1.798799
  0
SEQEND
  8
0
  0
POLYLINE
  8
PLAN_1
 62
     5
  6
CONTINUOUS
 66
     1
 40
0.003000
 41
0.003000
  0
VERTEX
  8
PLAN_1
 62
     5
  6
CONTINUOUS
 10
-0.844760
 20
1.798799
  0
VERTEX
  8
PLAN_1
 62
     5
  6
CONTINUOUS
 10
-0.836453
 20
1.798799
  0
SEQEND
  8
0
  0
POLYLINE
  8
PLAN_1
 62
     5
  6
CONTINUOUS
 66
     1
 40
0.003000
 41
0.003000
  0
VERTEX
  8
PLAN_1
 62
     5
  6
CONTINUOUS
 10
-0.828142
 20
1.798799
  0
VERTEX
  8
PLAN_1
 62
     5
  6
CONTINUOUS
 10
-0.819831
 20
1.798799
  0
SEQEND
  8
0
  0
POLYLINE
  8
PLAN_1
 62
     5
  6
CONTINUOUS
 66
     1
 40
0.003000
 41
0.003000
  0
VERTEX
  8
PLAN_1
 62
     5
  6
CONTINUOUS
 10
-0.811520
 20
1.798799
  0
VERTEX
  8
PLAN_1
 62
     5
  6
CONTINUOUS
 10
-0.803213
 20
1.798799
  0
SEQEND
  8
0
  0
POLYLINE
  8
PLAN_1
 62
     5
  6
CONTINUOUS
 66
     1
 40
0.003000
 41
0.003000
  0
VERTEX
  8
PLAN_1
 62
     5
  6
CONTINUOUS
 10
-0.794902
 20
1.798799
  0
VERTEX
  8
PLAN_1
 62
     5
  6
CONTINUOUS
 10
-0.786591
 20
1.798799
  0
SEQEND
  8
0
  0
POLYLINE
  8
PLAN_1
 62
     5
  6
CONTINUOUS
 66
     1
 40
0.003000
 41
0.003000
  0
VERTEX
  8
PLAN_1
 62
     5
  6
CONTINUOUS
 10
-0.778280
 20
1.798799
  0
VERTEX
  8
PLAN_1
 62
     5
  6
CONTINUOUS
 10
-0.769972
 20
1.798799
  0
SEQEND
  8
0
  0
POLYLINE
  8
PLAN_1
 62
     5
  6
CONTINUOUS
 66
     1
 40
0.003000
 41
0.003000
  0
VERTEX
  8
PLAN_1
 62
     5
  6
CONTINUOUS
 10
-0.761661
 20
1.798799
  0
VERTEX
  8
PLAN_1
 62
     5
  6
CONTINUOUS
 10
-0.752957
 20
1.798799
  0
SEQEND
  8
0
  0
POLYLINE
  8
PLAN_1
 62
     5
  6
CONTINUOUS
 66
     1
 40
0.003000
 41
0.003000
  0
VERTEX
  8
PLAN_1
 62
     5
  6
CONTINUOUS
 10
-0.744646
 20
1.798799
  0
VERTEX
  8
PLAN_1
 62
     5
  6
CONTINUOUS
 10
-0.736335
 20
1.798799
  0
SEQEND
  8
0
  0
POLYLINE
  8
PLAN_1
 62
     5
  6
CONTINUOUS
 66
     1
 40
0.003000
 41
0.003000
  0
VERTEX
  8
PLAN_1
 62
     5
  6
CONTINUOUS
 10
-0.728024
 20
1.798799
  0
VERTEX
  8
PLAN_1
 62
     5
  6
CONTINUOUS
 10
-0.719717
 20
1.798799
  0
SEQEND
  8
0
  0
POLYLINE
  8
PLAN_1
 62
     5
  6
CONTINUOUS
 66
     1
 40
0.003000
 41
0.003000
  0
VERTEX
  8
PLAN_1
 62
     5
  6
CONTINUOUS
 10
-0.711406
 20
1.798799
  0
VERTEX
  8
PLAN_1
 62
     5
  6
CONTINUOUS
 10
-0.703094
 20
1.798799
  0
SEQEND
  8
0
  0
POLYLINE
  8
PLAN_1
 62
     5
  6
CONTINUOUS
 66
     1
 40
0.003000
 41
0.003000
  0
VERTEX
  8
PLAN_1
 62
     5
  6
CONTINUOUS
 10
-0.694783
 20
1.798799
  0
VERTEX
  8
PLAN_1
 62
     5
  6
CONTINUOUS
 10
-0.686476
 20
1.798799
  0
SEQEND
  8
0
  0
POLYLINE
  8
PLAN_1
 62
     5
  6
CONTINUOUS
 66
     1
 40
0.003000
 41
0.003000
  0
VERTEX
  8
PLAN_1
 62
     5
  6
CONTINUOUS
 10
-0.678165
 20
1.798799
  0
VERTEX
  8
PLAN_1
 62
     5
  6
CONTINUOUS
 10
-0.669854
 20
1.798799
  0
SEQEND
  8
0
  0
POLYLINE
  8
PLAN_1
 62
     5
  6
CONTINUOUS
 66
     1
 40
0.003000
 41
0.003000
  0
VERTEX
  8
PLAN_1
 62
     5
  6
CONTINUOUS
 10
-0.661543
 20
1.798799
  0
VERTEX
  8
PLAN_1
 62
     5
  6
CONTINUOUS
 10
-0.653236
 20
1.798799
  0
SEQEND
  8
0
  0
POLYLINE
  8
PLAN_1
 62
     5
  6
CONTINUOUS
 66
     1
 40
0.003000
 41
0.003000
  0
VERTEX
  8
PLAN_1
 62
     5
  6
CONTINUOUS
 10
-0.644925
 20
1.798799
  0
VERTEX
  8
PLAN_1
 62
     5
  6
CONTINUOUS
 10
-0.636614
 20
1.798799
  0
SEQEND
  8
0
  0
POLYLINE
  8
PLAN_1
 62
     5
  6
CONTINUOUS
 66
     1
 40
0.003000
 41
0.003000
  0
VERTEX
  8
PLAN_1
 62
     5
  6
CONTINUOUS
 10
-0.628303
 20
1.798799
  0
VERTEX
  8
PLAN_1
 62
     5
  6
CONTINUOUS
 10
-0.619996
 20
1.798799
  0
SEQEND
  8
0
  0
POLYLINE
  8
PLAN_1
 62
     5
  6
CONTINUOUS
 66
     1
 40
0.003000
 41
0.003000
  0
VERTEX
  8
PLAN_1
 62
     5
  6
CONTINUOUS
 10
-0.611685
 20
1.798799
  0
VERTEX
  8
PLAN_1
 62
     5
  6
CONTINUOUS
 10
-0.603374
 20
1.798799
  0
SEQEND
  8
0
  0
POLYLINE
  8
PLAN_1
 62
     5
  6
CONTINUOUS
 66
     1
 40
0.003000
 41
0.003000
  0
VERTEX
  8
PLAN_1
 62
     5
  6
CONTINUOUS
 10
-0.595063
 20
1.798799
  0
VERTEX
  8
PLAN_1
 62
     5
  6
CONTINUOUS
 10
-0.586756
 20
1.798799
  0
SEQEND
  8
0
  0
POLYLINE
  8
PLAN_1
 62
     5
  6
CONTINUOUS
 66
     1
 40
0.003000
 41
0.003000
  0
VERTEX
  8
PLAN_1
 62
     5
  6
CONTINUOUS
 10
-0.578445
 20
1.798799
  0
VERTEX
  8
PLAN_1
 62
     5
  6
CONTINUOUS
 10
-0.569740
 20
1.798799
  0
SEQEND
  8
0
  0
POLYLINE
  8
PLAN_1
 62
     5
  6
CONTINUOUS
 66
     1
 40
0.003000
 41
0.003000
  0
VERTEX
  8
PLAN_1
 62
     5
  6
CONTINUOUS
 10
-0.561429
 20
1.798799
  0
VERTEX
  8
PLAN_1
 62
     5
  6
CONTINUOUS
 10
-0.553118
 20
1.798799
  0
SEQEND
  8
0
  0
POLYLINE
  8
PLAN_1
 62
     5
  6
CONTINUOUS
 66
     1
 40
0.003000
 41
0.003000
  0
VERTEX
  8
PLAN_1
 62
     5
  6
CONTINUOUS
 10
-0.544807
 20
1.798799
  0
VERTEX
  8
PLAN_1
 62
     5
  6
CONTINUOUS
 10
-0.536500
 20
1.798799
  0
SEQEND
  8
0
  0
POLYLINE
  8
PLAN_1
 62
     5
  6
CONTINUOUS
 66
     1
 40
0.003000
 41
0.003000
  0
VERTEX
  8
PLAN_1
 62
     5
  6
CONTINUOUS
 10
-0.528189
 20
1.798799
  0
VERTEX
  8
PLAN_1
 62
     5
  6
CONTINUOUS
 10
-0.519878
 20
1.798799
  0
SEQEND
  8
0
  0
POLYLINE
  8
PLAN_1
 62
     5
  6
CONTINUOUS
 66
     1
 40
0.003000
 41
0.003000
  0
VERTEX
  8
PLAN_1
 62
     5
  6
CONTINUOUS
 10
-0.511567
 20
1.798799
  0
VERTEX
  8
PLAN_1
 62
     5
  6
CONTINUOUS
 10
-0.503260
 20
1.798799
  0
SEQEND
  8
0
  0
POLYLINE
  8
PLAN_1
 62
     5
  6
CONTINUOUS
 66
     1
 40
0.003000
 41
0.003000
  0
VERTEX
  8
PLAN_1
 62
     5
  6
CONTINUOUS
 10
-0.494949
 20
1.798799
  0
VERTEX
  8
PLAN_1
 62
     5
  6
CONTINUOUS
 10
-0.486638
 20
1.798799
  0
SEQEND
  8
0
  0
POLYLINE
  8
PLAN_1
 62
     5
  6
CONTINUOUS
 66
     1
 40
0.003000
 41
0.003000
  0
VERTEX
  8
PLAN_1
 62
     5
  6
CONTINUOUS
 10
-0.478327
 20
1.798799
  0
VERTEX
  8
PLAN_1
 62
     5
  6
CONTINUOUS
 10
-0.470020
 20
1.798799
  0
SEQEND
  8
0
  0
POLYLINE
  8
PLAN_1
 62
     5
  6
CONTINUOUS
 66
     1
 40
0.003000
 41
0.003000
  0
VERTEX
  8
PLAN_1
 62
     5
  6
CONTINUOUS
 10
-0.461709
 20
1.798799
  0
VERTEX
  8
PLAN_1
 62
     5
  6
CONTINUOUS
 10
-0.453398
 20
1.798799
  0
SEQEND
  8
0
  0
POLYLINE
  8
PLAN_1
 62
     5
  6
CONTINUOUS
 66
     1
 40
0.003000
 41
0.003000
  0
VERTEX
  8
PLAN_1
 62
     5
  6
CONTINUOUS
 10
-0.445087
 20
1.798799
  0
VERTEX
  8
PLAN_1
 62
     5
  6
CONTINUOUS
 10
-0.436780
 20
1.798799
  0
SEQEND
  8
0
  0
POLYLINE
  8
PLAN_1
 62
     5
  6
CONTINUOUS
 66
     1
 40
0.003000
 41
0.003000
  0
VERTEX
  8
PLAN_1
 62
     5
  6
CONTINUOUS
 10
-0.428469
 20
1.798799
  0
VERTEX
  8
PLAN_1
 62
     5
  6
CONTINUOUS
 10
-0.420157
 20
1.798799
  0
SEQEND
  8
0
  0
POLYLINE
  8
PLAN_1
 62
     5
  6
CONTINUOUS
 66
     1
 40
0.003000
 41
0.003000
  0
VERTEX
  8
PLAN_1
 62
     5
  6
CONTINUOUS
 10
-0.411846
 20
1.798799
  0
VERTEX
  8
PLAN_1
 62
     5
  6
CONTINUOUS
 10
-0.403539
 20
1.798799
  0
SEQEND
  8
0
  0
POLYLINE
  8
PLAN_1
 62
     5
  6
CONTINUOUS
 66
     1
 40
0.003000
 41
0.003000
  0
VERTEX
  8
PLAN_1
 62
     5
  6
CONTINUOUS
 10
-0.395228
 20
1.798799
  0
VERTEX
  8
PLAN_1
 62
     5
  6
CONTINUOUS
 10
-0.386520
 20
1.798799
  0
SEQEND
  8
0
  0
POLYLINE
  8
PLAN_1
 62
     5
  6
CONTINUOUS
 66
     1
 40
0.003000
 41
0.003000
  0
VERTEX
  8
PLAN_1
 62
     5
  6
CONTINUOUS
 10
-0.378213
 20
1.798799
  0
VERTEX
  8
PLAN_1
 62
     5
  6
CONTINUOUS
 10
-0.369902
 20
1.798799
  0
SEQEND
  8
0
  0
POLYLINE
  8
PLAN_1
 62
     5
  6
CONTINUOUS
 66
     1
 40
0.003000
 41
0.003000
  0
VERTEX
  8
PLAN_1
 62
     5
  6
CONTINUOUS
 10
-0.361591
 20
1.798799
  0
VERTEX
  8
PLAN_1
 62
     5
  6
CONTINUOUS
 10
-0.353280
 20
1.798799
  0
SEQEND
  8
0
  0
POLYLINE
  8
PLAN_1
 62
     5
  6
CONTINUOUS
 66
     1
 40
0.003000
 41
0.003000
  0
VERTEX
  8
PLAN_1
 62
     5
  6
CONTINUOUS
 10
-0.344972
 20
1.798799
  0
VERTEX
  8
PLAN_1
 62
     5
  6
CONTINUOUS
 10
-0.336661
 20
1.798799
  0
SEQEND
  8
0
  0
POLYLINE
  8
PLAN_1
 62
     5
  6
CONTINUOUS
 66
     1
 40
0.003000
 41
0.003000
  0
VERTEX
  8
PLAN_1
 62
     5
  6
CONTINUOUS
 10
-0.328350
 20
1.798799
  0
VERTEX
  8
PLAN_1
 62
     5
  6
CONTINUOUS
 10
-0.320039
 20
1.798799
  0
SEQEND
  8
0
  0
POLYLINE
  8
PLAN_1
 62
     5
  6
CONTINUOUS
 66
     1
 40
0.003000
 41
0.003000
  0
VERTEX
  8
PLAN_1
 62
     5
  6
CONTINUOUS
 10
-0.311732
 20
1.798799
  0
VERTEX
  8
PLAN_1
 62
     5
  6
CONTINUOUS
 10
-0.303421
 20
1.798799
  0
SEQEND
  8
0
  0
POLYLINE
  8
PLAN_1
 62
     5
  6
CONTINUOUS
 66
     1
 40
0.003000
 41
0.003000
  0
VERTEX
  8
PLAN_1
 62
     5
  6
CONTINUOUS
 10
-0.295110
 20
1.798799
  0
VERTEX
  8
PLAN_1
 62
     5
  6
CONTINUOUS
 10
-0.286799
 20
1.798799
  0
SEQEND
  8
0
  0
POLYLINE
  8
PLAN_1
 62
     5
  6
CONTINUOUS
 66
     1
 40
0.003000
 41
0.003000
  0
VERTEX
  8
PLAN_1
 62
     5
  6
CONTINUOUS
 10
-0.278492
 20
1.798799
  0
VERTEX
  8
PLAN_1
 62
     5
  6
CONTINUOUS
 10
-0.270181
 20
1.798799
  0
SEQEND
  8
0
  0
POLYLINE
  8
PLAN_1
 62
     5
  6
CONTINUOUS
 66
     1
 40
0.003000
 41
0.003000
  0
VERTEX
  8
PLAN_1
 62
     5
  6
CONTINUOUS
 10
-0.261870
 20
1.798799
  0
VERTEX
  8
PLAN_1
 62
     5
  6
CONTINUOUS
 10
-0.253559
 20
1.798799
  0
SEQEND
  8
0
  0
POLYLINE
  8
PLAN_1
 62
     5
  6
CONTINUOUS
 66
     1
 40
0.003000
 41
0.003000
  0
VERTEX
  8
PLAN_1
 62
     5
  6
CONTINUOUS
 10
-0.245252
 20
1.798799
  0
VERTEX
  8
PLAN_1
 62
     5
  6
CONTINUOUS
 10
-0.236941
 20
1.798799
  0
SEQEND
  8
0
  0
POLYLINE
  8
PLAN_1
 62
     5
  6
CONTINUOUS
 66
     1
 40
0.003000
 41
0.003000
  0
VERTEX
  8
PLAN_1
 62
     5
  6
CONTINUOUS
 10
-0.228630
 20
1.798799
  0
VERTEX
  8
PLAN_1
 62
     5
  6
CONTINUOUS
 10
-0.220319
 20
1.798799
  0
SEQEND
  8
0
  0
POLYLINE
  8
PLAN_1
 62
     5
  6
CONTINUOUS
 66
     1
 40
0.003000
 41
0.003000
  0
VERTEX
  8
PLAN_1
 62
     5
  6
CONTINUOUS
 10
-0.211614
 20
1.798799
  0
VERTEX
  8
PLAN_1
 62
     5
  6
CONTINUOUS
 10
-0.203303
 20
1.798799
  0
SEQEND
  8
0
  0
POLYLINE
  8
PLAN_1
 62
     5
  6
CONTINUOUS
 66
     1
 40
0.003000
 41
0.003000
  0
VERTEX
  8
PLAN_1
 62
     5
  6
CONTINUOUS
 10
-0.194996
 20
1.798799
  0
VERTEX
  8
PLAN_1
 62
     5
  6
CONTINUOUS
 10
-0.186685
 20
1.798799
  0
SEQEND
  8
0
  0
POLYLINE
  8
PLAN_1
 62
     5
  6
CONTINUOUS
 66
     1
 40
0.003000
 41
0.003000
  0
VERTEX
  8
PLAN_1
 62
     5
  6
CONTINUOUS
 10
-0.178374
 20
1.798799
  0
VERTEX
  8
PLAN_1
 62
     5
  6
CONTINUOUS
 10
-0.170063
 20
1.798799
  0
SEQEND
  8
0
  0
POLYLINE
  8
PLAN_1
 62
     5
  6
CONTINUOUS
 66
     1
 40
0.003000
 41
0.003000
  0
VERTEX
  8
PLAN_1
 62
     5
  6
CONTINUOUS
 10
-0.161756
 20
1.798799
  0
VERTEX
  8
PLAN_1
 62
     5
  6
CONTINUOUS
 10
-0.153445
 20
1.798799
  0
SEQEND
  8
0
  0
POLYLINE
  8
PLAN_1
 62
     5
  6
CONTINUOUS
 66
     1
 40
0.003000
 41
0.003000
  0
VERTEX
  8
PLAN_1
 62
     5
  6
CONTINUOUS
 10
-0.145134
 20
1.798799
  0
VERTEX
  8
PLAN_1
 62
     5
  6
CONTINUOUS
 10
-0.136823
 20
1.798799
  0
SEQEND
  8
0
  0
POLYLINE
  8
PLAN_1
 62
     5
  6
CONTINUOUS
 66
     1
 40
0.003000
 41
0.003000
  0
VERTEX
  8
PLAN_1
 62
     5
  6
CONTINUOUS
 10
-0.128516
 20
1.798799
  0
VERTEX
  8
PLAN_1
 62
     5
  6
CONTINUOUS
 10
-0.120205
 20
1.798799
  0
SEQEND
  8
0
  0
POLYLINE
  8
PLAN_1
 62
     5
  6
CONTINUOUS
 66
     1
 40
0.003000
 41
0.003000
  0
VERTEX
  8
PLAN_1
 62
     5
  6
CONTINUOUS
 10
-0.111894
 20
1.798799
  0
VERTEX
  8
PLAN_1
 62
     5
  6
CONTINUOUS
 10
-0.103583
 20
1.798799
  0
SEQEND
  8
0
  0
POLYLINE
  8
PLAN_1
 62
     5
  6
CONTINUOUS
 66
     1
 40
0.003000
 41
0.003000
  0
VERTEX
  8
PLAN_1
 62
     5
  6
CONTINUOUS
 10
-0.095276
 20
1.798799
  0
VERTEX
  8
PLAN_1
 62
     5
  6
CONTINUOUS
 10
-0.086965
 20
1.798799
  0
SEQEND
  8
0
  0
POLYLINE
  8
PLAN_1
 62
     5
  6
CONTINUOUS
 66
     1
 40
0.003000
 41
0.003000
  0
VERTEX
  8
PLAN_1
 62
     5
  6
CONTINUOUS
 10
-0.078654
 20
1.798799
  0
VERTEX
  8
PLAN_1
 62
     5
  6
CONTINUOUS
 10
-0.070343
 20
1.798799
  0
SEQEND
  8
0
  0
POLYLINE
  8
PLAN_1
 62
     5
  6
CONTINUOUS
 66
     1
 40
0.003000
 41
0.003000
  0
VERTEX
  8
PLAN_1
 62
     5
  6
CONTINUOUS
 10
-0.062035
 20
1.798799
  0
VERTEX
  8
PLAN_1
 62
     5
  6
CONTINUOUS
 10
-0.053724
 20
1.798799
  0
SEQEND
  8
0
  0
POLYLINE
  8
PLAN_1
 62
     5
  6
CONTINUOUS
 66
     1
 40
0.003000
 41
0.003000
  0
VERTEX
  8
PLAN_1
 62
     5
  6
CONTINUOUS
 10
-0.045413
 20
1.798799
  0
VERTEX
  8
PLAN_1
 62
     5
  6
CONTINUOUS
 10
-0.037102
 20
1.798799
  0
SEQEND
  8
0
  0
POLYLINE
  8
PLAN_1
 62
     5
  6
CONTINUOUS
 66
     1
 40
0.003000
 41
0.003000
  0
VERTEX
  8
PLAN_1
 62
     5
  6
CONTINUOUS
 10
-0.028398
 20
1.798799
  0
VERTEX
  8
PLAN_1
 62
     5
  6
CONTINUOUS
 10
-0.020087
 20
1.798799
  0
SEQEND
  8
0
  0
POLYLINE
  8
PLAN_1
 62
     5
  6
CONTINUOUS
 66
     1
 40
0.003000
 41
0.003000
  0
VERTEX
  8
PLAN_1
 62
     5
  6
CONTINUOUS
 10
-0.011780
 20
1.798799
  0
VERTEX
  8
PLAN_1
 62
     5
  6
CONTINUOUS
 10
-0.003469
 20
1.798799
  0
SEQEND
  8
0
  0
POLYLINE
  8
PLAN_1
 62
     5
  6
CONTINUOUS
 66
     1
 40
0.003000
 41
0.003000
  0
VERTEX
  8
PLAN_1
 62
     5
  6
CONTINUOUS
 10
0.004843
 20
1.798799
  0
VERTEX
  8
PLAN_1
 62
     5
  6
CONTINUOUS
 10
0.013154
 20
1.798799
  0
SEQEND
  8
0
  0
POLYLINE
  8
PLAN_1
 62
     5
  6
CONTINUOUS
 66
     1
 40
0.003000
 41
0.003000
  0
VERTEX
  8
PLAN_1
 62
     5
  6
CONTINUOUS
 10
0.021461
 20
1.798799
  0
VERTEX
  8
PLAN_1
 62
     5
  6
CONTINUOUS
 10
0.029772
 20
1.798799
  0
SEQEND
  8
0
  0
POLYLINE
  8
PLAN_1
 62
     5
  6
CONTINUOUS
 66
     1
 40
0.003000
 41
0.003000
  0
VERTEX
  8
PLAN_1
 62
     5
  6
CONTINUOUS
 10
0.038083
 20
1.798799
  0
VERTEX
  8
PLAN_1
 62
     5
  6
CONTINUOUS
 10
0.046394
 20
1.798799
  0
SEQEND
  8
0
  0
POLYLINE
  8
PLAN_1
 62
     5
  6
CONTINUOUS
 66
     1
 40
0.003000
 41
0.003000
  0
VERTEX
  8
PLAN_1
 62
     5
  6
CONTINUOUS
 10
0.054701
 20
1.798799
  0
VERTEX
  8
PLAN_1
 62
     5
  6
CONTINUOUS
 10
0.063012
 20
1.798799
  0
SEQEND
  8
0
  0
POLYLINE
  8
PLAN_1
 62
     5
  6
CONTINUOUS
 66
     1
 40
0.003000
 41
0.003000
  0
VERTEX
  8
PLAN_1
 62
     5
  6
CONTINUOUS
 10
0.071323
 20
1.798799
  0
VERTEX
  8
PLAN_1
 62
     5
  6
CONTINUOUS
 10
0.079634
 20
1.798799
  0
SEQEND
  8
0
  0
POLYLINE
  8
PLAN_1
 62
     5
  6
CONTINUOUS
 66
     1
 40
0.003000
 41
0.003000
  0
VERTEX
  8
PLAN_1
 62
     5
  6
CONTINUOUS
 10
0.087941
 20
1.798799
  0
VERTEX
  8
PLAN_1
 62
     5
  6
CONTINUOUS
 10
0.096252
 20
1.798799
  0
SEQEND
  8
0
  0
POLYLINE
  8
PLAN_1
 62
     5
  6
CONTINUOUS
 66
     1
 40
0.003000
 41
0.003000
  0
VERTEX
  8
PLAN_1
 62
     5
  6
CONTINUOUS
 10
0.104563
 20
1.798799
  0
VERTEX
  8
PLAN_1
 62
     5
  6
CONTINUOUS
 10
0.112874
 20
1.798799
  0
SEQEND
  8
0
  0
POLYLINE
  8
PLAN_1
 62
     5
  6
CONTINUOUS
 66
     1
 40
0.003000
 41
0.003000
  0
VERTEX
  8
PLAN_1
 62
     5
  6
CONTINUOUS
 10
0.121181
 20
1.798799
  0
VERTEX
  8
PLAN_1
 62
     5
  6
CONTINUOUS
 10
0.129492
 20
1.798799
  0
SEQEND
  8
0
  0
POLYLINE
  8
PLAN_1
 62
     5
  6
CONTINUOUS
 66
     1
 40
0.003000
 41
0.003000
  0
VERTEX
  8
PLAN_1
 62
     5
  6
CONTINUOUS
 10
0.137803
 20
1.798799
  0
VERTEX
  8
PLAN_1
 62
     5
  6
CONTINUOUS
 10
0.146508
 20
1.798799
  0
SEQEND
  8
0
  0
POLYLINE
  8
PLAN_1
 62
     5
  6
CONTINUOUS
 66
     1
 40
0.003000
 41
0.003000
  0
VERTEX
  8
PLAN_1
 62
     5
  6
CONTINUOUS
 10
0.154819
 20
1.798799
  0
VERTEX
  8
PLAN_1
 62
     5
  6
CONTINUOUS
 10
0.163130
 20
1.798799
  0
SEQEND
  8
0
  0
POLYLINE
  8
PLAN_1
 62
     5
  6
CONTINUOUS
 66
     1
 40
0.003000
 41
0.003000
  0
VERTEX
  8
PLAN_1
 62
     5
  6
CONTINUOUS
 10
0.171437
 20
1.798799
  0
VERTEX
  8
PLAN_1
 62
     5
  6
CONTINUOUS
 10
0.179748
 20
1.798799
  0
SEQEND
  8
0
  0
POLYLINE
  8
PLAN_1
 62
     5
  6
CONTINUOUS
 66
     1
 40
0.003000
 41
0.003000
  0
VERTEX
  8
PLAN_1
 62
     5
  6
CONTINUOUS
 10
0.188059
 20
1.798799
  0
VERTEX
  8
PLAN_1
 62
     5
  6
CONTINUOUS
 10
0.196370
 20
1.798799
  0
SEQEND
  8
0
  0
POLYLINE
  8
PLAN_1
 62
     5
  6
CONTINUOUS
 66
     1
 40
0.003000
 41
0.003000
  0
VERTEX
  8
PLAN_1
 62
     5
  6
CONTINUOUS
 10
0.204677
 20
1.798799
  0
VERTEX
  8
PLAN_1
 62
     5
  6
CONTINUOUS
 10
0.212988
 20
1.798799
  0
SEQEND
  8
0
  0
POLYLINE
  8
PLAN_1
 62
     5
  6
CONTINUOUS
 66
     1
 40
0.003000
 41
0.003000
  0
VERTEX
  8
PLAN_1
 62
     5
  6
CONTINUOUS
 10
0.221299
 20
1.798799
  0
VERTEX
  8
PLAN_1
 62
     5
  6
CONTINUOUS
 10
0.229610
 20
1.798799
  0
SEQEND
  8
0
  0
POLYLINE
  8
PLAN_1
 62
     5
  6
CONTINUOUS
 66
     1
 40
0.003000
 41
0.003000
  0
VERTEX
  8
PLAN_1
 62
     5
  6
CONTINUOUS
 10
0.237921
 20
1.798799
  0
VERTEX
  8
PLAN_1
 62
     5
  6
CONTINUOUS
 10
0.246228
 20
1.798799
  0
SEQEND
  8
0
  0
POLYLINE
  8
PLAN_1
 62
     5
  6
CONTINUOUS
 66
     1
 40
0.003000
 41
0.003000
  0
VERTEX
  8
PLAN_1
 62
     5
  6
CONTINUOUS
 10
0.254539
 20
1.798799
  0
VERTEX
  8
PLAN_1
 62
     5
  6
CONTINUOUS
 10
0.262850
 20
1.798799
  0
SEQEND
  8
0
  0
POLYLINE
  8
PLAN_1
 62
     5
  6
CONTINUOUS
 66
     1
 40
0.003000
 41
0.003000
  0
VERTEX
  8
PLAN_1
 62
     5
  6
CONTINUOUS
 10
0.271161
 20
1.798799
  0
VERTEX
  8
PLAN_1
 62
     5
  6
CONTINUOUS
 10
0.276303
 20
1.798799
  0
VERTEX
  8
PLAN_1
 62
     5
  6
CONTINUOUS
 10
0.276303
 20
1.795634
  0
SEQEND
  8
0
  0
POLYLINE
  8
PLAN_1
 62
     5
  6
CONTINUOUS
 66
     1
 40
0.003000
 41
0.003000
  0
VERTEX
  8
PLAN_1
 62
     5
  6
CONTINUOUS
 10
0.276303
 20
1.787323
  0
VERTEX
  8
PLAN_1
 62
     5
  6
CONTINUOUS
 10
0.276303
 20
1.779012
  0
SEQEND
  8
0
  0
POLYLINE
  8
PLAN_1
 62
     5
  6
CONTINUOUS
 66
     1
 40
0.003000
 41
0.003000
  0
VERTEX
  8
PLAN_1
 62
     5
  6
CONTINUOUS
 10
0.276303
 20
1.770705
  0
VERTEX
  8
PLAN_1
 62
     5
  6
CONTINUOUS
 10
0.276303
 20
1.762394
  0
SEQEND
  8
0
  0
POLYLINE
  8
PLAN_1
 62
     5
  6
CONTINUOUS
 66
     1
 40
0.003000
 41
0.003000
  0
VERTEX
  8
PLAN_1
 62
     5
  6
CONTINUOUS
 10
0.276303
 20
1.754083
  0
VERTEX
  8
PLAN_1
 62
     5
  6
CONTINUOUS
 10
0.276303
 20
1.745772
  0
SEQEND
  8
0
  0
POLYLINE
  8
PLAN_1
 62
     5
  6
CONTINUOUS
 66
     1
 40
0.003000
 41
0.003000
  0
VERTEX
  8
PLAN_1
 62
     5
  6
CONTINUOUS
 10
0.276303
 20
1.737465
  0
VERTEX
  8
PLAN_1
 62
     5
  6
CONTINUOUS
 10
0.276303
 20
1.729154
  0
SEQEND
  8
0
  0
POLYLINE
  8
PLAN_1
 62
     5
  6
CONTINUOUS
 66
     1
 40
0.003000
 41
0.003000
  0
VERTEX
  8
PLAN_1
 62
     5
  6
CONTINUOUS
 10
0.276303
 20
1.720843
  0
VERTEX
  8
PLAN_1
 62
     5
  6
CONTINUOUS
 10
0.276303
 20
1.712531
  0
SEQEND
  8
0
  0
POLYLINE
  8
PLAN_1
 62
     5
  6
CONTINUOUS
 66
     1
 40
0.003000
 41
0.003000
  0
VERTEX
  8
PLAN_1
 62
     5
  6
CONTINUOUS
 10
0.276303
 20
1.704224
  0
VERTEX
  8
PLAN_1
 62
     5
  6
CONTINUOUS
 10
0.276303
 20
1.695913
  0
SEQEND
  8
0
  0
POLYLINE
  8
PLAN_1
 62
     5
  6
CONTINUOUS
 66
     1
 40
0.003000
 41
0.003000
  0
VERTEX
  8
PLAN_1
 62
     5
  6
CONTINUOUS
 10
0.276303
 20
1.687602
  0
VERTEX
  8
PLAN_1
 62
     5
  6
CONTINUOUS
 10
0.276303
 20
1.679291
  0
SEQEND
  8
0
  0
POLYLINE
  8
PLAN_1
 62
     5
  6
CONTINUOUS
 66
     1
 40
0.003000
 41
0.003000
  0
VERTEX
  8
PLAN_1
 62
     5
  6
CONTINUOUS
 10
0.276303
 20
1.670984
  0
VERTEX
  8
PLAN_1
 62
     5
  6
CONTINUOUS
 10
0.276303
 20
1.662673
  0
SEQEND
  8
0
  0
POLYLINE
  8
PLAN_1
 62
     5
  6
CONTINUOUS
 66
     1
 40
0.003000
 41
0.003000
  0
VERTEX
  8
PLAN_1
 62
     5
  6
CONTINUOUS
 10
0.278677
 20
1.656343
  0
VERTEX
  8
PLAN_1
 62
     5
  6
CONTINUOUS
 10
0.286988
 20
1.656343
  0
SEQEND
  8
0
  0
POLYLINE
  8
PLAN_1
 62
     5
  6
CONTINUOUS
 66
     1
 40
0.003000
 41
0.003000
  0
VERTEX
  8
PLAN_1
 62
     5
  6
CONTINUOUS
 10
0.295299
 20
1.656343
  0
VERTEX
  8
PLAN_1
 62
     5
  6
CONTINUOUS
 10
0.303610
 20
1.656343
  0
SEQEND
  8
0
  0
POLYLINE
  8
PLAN_1
 62
     5
  6
CONTINUOUS
 66
     1
 40
0.003000
 41
0.003000
  0
VERTEX
  8
PLAN_1
 62
     5
  6
CONTINUOUS
 10
0.311917
 20
1.656343
  0
VERTEX
  8
PLAN_1
 62
     5
  6
CONTINUOUS
 10
0.315480
 20
1.656343
  0
VERTEX
  8
PLAN_1
 62
     5
  6
CONTINUOUS
 10
0.315480
 20
1.651591
  0
SEQEND
  8
0
  0
POLYLINE
  8
PLAN_1
 62
     5
  6
CONTINUOUS
 66
     1
 40
0.003000
 41
0.003000
  0
VERTEX
  8
PLAN_1
 62
     5
  6
CONTINUOUS
 10
0.315480
 20
1.643283
  0
VERTEX
  8
PLAN_1
 62
     5
  6
CONTINUOUS
 10
0.315480
 20
1.634972
  0
SEQEND
  8
0
  0
POLYLINE
  8
PLAN_1
 62
     5
  6
CONTINUOUS
 66
     1
 40
0.003000
 41
0.003000
  0
VERTEX
  8
PLAN_1
 62
     5
  6
CONTINUOUS
 10
0.315480
 20
1.626661
  0
VERTEX
  8
PLAN_1
 62
     5
  6
CONTINUOUS
 10
0.315480
 20
1.618350
  0
SEQEND
  8
0
  0
POLYLINE
  8
PLAN_1
 62
     5
  6
CONTINUOUS
 66
     1
 40
0.003000
 41
0.003000
  0
VERTEX
  8
PLAN_1
 62
     5
  6
CONTINUOUS
 10
0.315480
 20
1.610043
  0
VERTEX
  8
PLAN_1
 62
     5
  6
CONTINUOUS
 10
0.315480
 20
1.601732
  0
SEQEND
  8
0
  0
POLYLINE
  8
PLAN_1
 62
     5
  6
CONTINUOUS
 66
     1
 40
0.003000
 41
0.003000
  0
VERTEX
  8
PLAN_1
 62
     5
  6
CONTINUOUS
 10
0.315480
 20
1.593421
  0
VERTEX
  8
PLAN_1
 62
     5
  6
CONTINUOUS
 10
0.315480
 20
1.585110
  0
SEQEND
  8
0
  0
POLYLINE
  8
PLAN_1
 62
     5
  6
CONTINUOUS
 66
     1
 40
0.003000
 41
0.003000
  0
VERTEX
  8
PLAN_1
 62
     5
  6
CONTINUOUS
 10
0.315480
 20
1.576803
  0
VERTEX
  8
PLAN_1
 62
     5
  6
CONTINUOUS
 10
0.315480
 20
1.568492
  0
SEQEND
  8
0
  0
POLYLINE
  8
PLAN_1
 62
     5
  6
CONTINUOUS
 66
     1
 40
0.003000
 41
0.003000
  0
VERTEX
  8
PLAN_1
 62
     5
  6
CONTINUOUS
 10
0.315480
 20
1.560181
  0
VERTEX
  8
PLAN_1
 62
     5
  6
CONTINUOUS
 10
0.315480
 20
1.551870
  0
SEQEND
  8
0
  0
POLYLINE
  8
PLAN_1
 62
     5
  6
CONTINUOUS
 66
     1
 40
0.003000
 41
0.003000
  0
VERTEX
  8
PLAN_1
 62
     5
  6
CONTINUOUS
 10
0.315480
 20
1.543563
  0
VERTEX
  8
PLAN_1
 62
     5
  6
CONTINUOUS
 10
0.315480
 20
1.535252
  0
SEQEND
  8
0
  0
POLYLINE
  8
PLAN_1
 62
     5
  6
CONTINUOUS
 66
     1
 40
0.003000
 41
0.003000
  0
VERTEX
  8
PLAN_1
 62
     5
  6
CONTINUOUS
 10
0.315480
 20
1.526941
  0
VERTEX
  8
PLAN_1
 62
     5
  6
CONTINUOUS
 10
0.315480
 20
1.518630
  0
SEQEND
  8
0
  0
POLYLINE
  8
PLAN_1
 62
     5
  6
CONTINUOUS
 66
     1
 40
0.003000
 41
0.003000
  0
VERTEX
  8
PLAN_1
 62
     5
  6
CONTINUOUS
 10
0.315480
 20
1.510323
  0
VERTEX
  8
PLAN_1
 62
     5
  6
CONTINUOUS
 10
0.315480
 20
1.502012
  0
SEQEND
  8
0
  0
POLYLINE
  8
PLAN_1
 62
     5
  6
CONTINUOUS
 66
     1
 40
0.003000
 41
0.003000
  0
VERTEX
  8
PLAN_1
 62
     5
  6
CONTINUOUS
 10
0.315480
 20
1.493701
  0
VERTEX
  8
PLAN_1
 62
     5
  6
CONTINUOUS
 10
0.315480
 20
1.485390
  0
SEQEND
  8
0
  0
POLYLINE
  8
PLAN_1
 62
     5
  6
CONTINUOUS
 66
     1
 40
0.003000
 41
0.003000
  0
VERTEX
  8
PLAN_1
 62
     5
  6
CONTINUOUS
 10
0.315480
 20
1.477083
  0
VERTEX
  8
PLAN_1
 62
     5
  6
CONTINUOUS
 10
0.315480
 20
1.468374
  0
SEQEND
  8
0
  0
POLYLINE
  8
PLAN_1
 62
     5
  6
CONTINUOUS
 66
     1
 40
0.003000
 41
0.003000
  0
VERTEX
  8
PLAN_1
 62
     5
  6
CONTINUOUS
 10
0.315480
 20
1.460067
  0
VERTEX
  8
PLAN_1
 62
     5
  6
CONTINUOUS
 10
0.315480
 20
1.451756
  0
SEQEND
  8
0
  0
POLYLINE
  8
PLAN_1
 62
     5
  6
CONTINUOUS
 66
     1
 40
0.003000
 41
0.003000
  0
VERTEX
  8
PLAN_1
 62
     5
  6
CONTINUOUS
 10
0.315480
 20
1.443445
  0
VERTEX
  8
PLAN_1
 62
     5
  6
CONTINUOUS
 10
0.315480
 20
1.435134
  0
SEQEND
  8
0
  0
POLYLINE
  8
PLAN_1
 62
     5
  6
CONTINUOUS
 66
     1
 40
0.003000
 41
0.003000
  0
VERTEX
  8
PLAN_1
 62
     5
  6
CONTINUOUS
 10
0.315480
 20
1.426827
  0
VERTEX
  8
PLAN_1
 62
     5
  6
CONTINUOUS
 10
0.315480
 20
1.418516
  0
SEQEND
  8
0
  0
POLYLINE
  8
PLAN_1
 62
     5
  6
CONTINUOUS
 66
     1
 40
0.003000
 41
0.003000
  0
VERTEX
  8
PLAN_1
 62
     5
  6
CONTINUOUS
 10
0.315480
 20
1.410205
  0
VERTEX
  8
PLAN_1
 62
     5
  6
CONTINUOUS
 10
0.315480
 20
1.401894
  0
SEQEND
  8
0
  0
POLYLINE
  8
PLAN_1
 62
     5
  6
CONTINUOUS
 66
     1
 40
0.003000
 41
0.003000
  0
VERTEX
  8
PLAN_1
 62
     5
  6
CONTINUOUS
 10
0.315480
 20
1.393587
  0
VERTEX
  8
PLAN_1
 62
     5
  6
CONTINUOUS
 10
0.315480
 20
1.385276
  0
SEQEND
  8
0
  0
POLYLINE
  8
PLAN_1
 62
     5
  6
CONTINUOUS
 66
     1
 40
0.003000
 41
0.003000
  0
VERTEX
  8
PLAN_1
 62
     5
  6
CONTINUOUS
 10
0.315480
 20
1.376965
  0
VERTEX
  8
PLAN_1
 62
     5
  6
CONTINUOUS
 10
0.315480
 20
1.371425
  0
VERTEX
  8
PLAN_1
 62
     5
  6
CONTINUOUS
 10
0.312709
 20
1.371425
  0
SEQEND
  8
0
  0
POLYLINE
  8
PLAN_1
 62
     5
  6
CONTINUOUS
 66
     1
 40
0.003000
 41
0.003000
  0
VERTEX
  8
PLAN_1
 62
     5
  6
CONTINUOUS
 10
0.304402
 20
1.371425
  0
VERTEX
  8
PLAN_1
 62
     5
  6
CONTINUOUS
 10
0.296091
 20
1.371425
  0
SEQEND
  8
0
  0
POLYLINE
  8
PLAN_1
 62
     5
  6
CONTINUOUS
 66
     1
 40
0.003000
 41
0.003000
  0
VERTEX
  8
PLAN_1
 62
     5
  6
CONTINUOUS
 10
0.287780
 20
1.371425
  0
VERTEX
  8
PLAN_1
 62
     5
  6
CONTINUOUS
 10
0.279469
 20
1.371425
  0
SEQEND
  8
0
  0
POLYLINE
  8
PLAN_1
 62
     5
  6
CONTINUOUS
 66
     1
 40
0.003000
 41
0.003000
  0
VERTEX
  8
PLAN_1
 62
     5
  6
CONTINUOUS
 10
0.276303
 20
1.366280
  0
VERTEX
  8
PLAN_1
 62
     5
  6
CONTINUOUS
 10
0.276303
 20
1.357969
  0
SEQEND
  8
0
  0
POLYLINE
  8
PLAN_1
 62
     5
  6
CONTINUOUS
 66
     1
 40
0.003000
 41
0.003000
  0
VERTEX
  8
PLAN_1
 62
     5
  6
CONTINUOUS
 10
0.276303
 20
1.349661
  0
VERTEX
  8
PLAN_1
 62
     5
  6
CONTINUOUS
 10
0.276303
 20
1.341350
  0
SEQEND
  8
0
  0
POLYLINE
  8
PLAN_1
 62
     5
  6
CONTINUOUS
 66
     1
 40
0.003000
 41
0.003000
  0
VERTEX
  8
PLAN_1
 62
     5
  6
CONTINUOUS
 10
0.276303
 20
1.332646
  0
VERTEX
  8
PLAN_1
 62
     5
  6
CONTINUOUS
 10
0.276303
 20
1.324335
  0
SEQEND
  8
0
  0
POLYLINE
  8
PLAN_1
 62
     5
  6
CONTINUOUS
 66
     1
 40
0.003000
 41
0.003000
  0
VERTEX
  8
PLAN_1
 62
     5
  6
CONTINUOUS
 10
0.276303
 20
1.316024
  0
VERTEX
  8
PLAN_1
 62
     5
  6
CONTINUOUS
 10
0.276303
 20
1.307713
  0
SEQEND
  8
0
  0
POLYLINE
  8
PLAN_1
 62
     5
  6
CONTINUOUS
 66
     1
 40
0.003000
 41
0.003000
  0
VERTEX
  8
PLAN_1
 62
     5
  6
CONTINUOUS
 10
0.276303
 20
1.299406
  0
VERTEX
  8
PLAN_1
 62
     5
  6
CONTINUOUS
 10
0.276303
 20
1.291094
  0
SEQEND
  8
0
  0
POLYLINE
  8
PLAN_1
 62
     5
  6
CONTINUOUS
 66
     1
 40
0.003000
 41
0.003000
  0
VERTEX
  8
PLAN_1
 62
     5
  6
CONTINUOUS
 10
0.276303
 20
1.282783
  0
VERTEX
  8
PLAN_1
 62
     5
  6
CONTINUOUS
 10
0.276303
 20
1.274472
  0
SEQEND
  8
0
  0
POLYLINE
  8
PLAN_1
 62
     5
  6
CONTINUOUS
 66
     1
 40
0.003000
 41
0.003000
  0
VERTEX
  8
PLAN_1
 62
     5
  6
CONTINUOUS
 10
0.276303
 20
1.266165
  0
VERTEX
  8
PLAN_1
 62
     5
  6
CONTINUOUS
 10
0.276303
 20
1.257854
  0
SEQEND
  8
0
  0
POLYLINE
  8
PLAN_1
 62
     5
  6
CONTINUOUS
 66
     1
 40
0.003000
 41
0.003000
  0
VERTEX
  8
PLAN_1
 62
     5
  6
CONTINUOUS
 10
0.276303
 20
1.249543
  0
VERTEX
  8
PLAN_1
 62
     5
  6
CONTINUOUS
 10
0.276303
 20
1.241232
  0
SEQEND
  8
0
  0
POLYLINE
  8
PLAN_1
 62
     5
  6
CONTINUOUS
 66
     1
 40
0.003000
 41
0.003000
  0
VERTEX
  8
PLAN_1
 62
     5
  6
CONTINUOUS
 10
0.276303
 20
1.232925
  0
VERTEX
  8
PLAN_1
 62
     5
  6
CONTINUOUS
 10
0.276303
 20
1.224614
  0
SEQEND
  8
0
  0
POLYLINE
  8
PLAN_1
 62
     5
  6
CONTINUOUS
 66
     1
 40
0.003000
 41
0.003000
  0
VERTEX
  8
PLAN_1
 62
     5
  6
CONTINUOUS
 10
0.276303
 20
1.216303
  0
VERTEX
  8
PLAN_1
 62
     5
  6
CONTINUOUS
 10
0.276303
 20
1.207992
  0
SEQEND
  8
0
  0
POLYLINE
  8
PLAN_1
 62
     5
  6
CONTINUOUS
 66
     1
 40
0.003000
 41
0.003000
  0
VERTEX
  8
PLAN_1
 62
     5
  6
CONTINUOUS
 10
0.276303
 20
1.199685
  0
VERTEX
  8
PLAN_1
 62
     5
  6
CONTINUOUS
 10
0.276303
 20
1.191374
  0
SEQEND
  8
0
  0
POLYLINE
  8
PLAN_1
 62
     5
  6
CONTINUOUS
 66
     1
 40
0.003000
 41
0.003000
  0
VERTEX
  8
PLAN_1
 62
     5
  6
CONTINUOUS
 10
0.276303
 20
1.183063
  0
VERTEX
  8
PLAN_1
 62
     5
  6
CONTINUOUS
 10
0.276303
 20
1.174752
  0
SEQEND
  8
0
  0
POLYLINE
  8
PLAN_1
 62
     5
  6
CONTINUOUS
 66
     1
 40
0.003000
 41
0.003000
  0
VERTEX
  8
PLAN_1
 62
     5
  6
CONTINUOUS
 10
0.276303
 20
1.166445
  0
VERTEX
  8
PLAN_1
 62
     5
  6
CONTINUOUS
 10
0.276303
 20
1.158134
  0
SEQEND
  8
0
  0
POLYLINE
  8
PLAN_1
 62
     5
  6
CONTINUOUS
 66
     1
 40
0.003000
 41
0.003000
  0
VERTEX
  8
PLAN_1
 62
     5
  6
CONTINUOUS
 10
0.276303
 20
1.149429
  0
VERTEX
  8
PLAN_1
 62
     5
  6
CONTINUOUS
 10
0.276303
 20
1.141118
  0
SEQEND
  8
0
  0
POLYLINE
  8
PLAN_1
 62
     5
  6
CONTINUOUS
 66
     1
 40
0.003000
 41
0.003000
  0
VERTEX
  8
PLAN_1
 62
     5
  6
CONTINUOUS
 10
0.276303
 20
1.132807
  0
VERTEX
  8
PLAN_1
 62
     5
  6
CONTINUOUS
 10
0.276303
 20
1.124496
  0
SEQEND
  8
0
  0
POLYLINE
  8
PLAN_1
 62
     5
  6
CONTINUOUS
 66
     1
 40
0.003000
 41
0.003000
  0
VERTEX
  8
PLAN_1
 62
     5
  6
CONTINUOUS
 10
0.276303
 20
1.116189
  0
VERTEX
  8
PLAN_1
 62
     5
  6
CONTINUOUS
 10
0.276303
 20
1.107878
  0
SEQEND
  8
0
  0
POLYLINE
  8
PLAN_1
 62
     5
  6
CONTINUOUS
 66
     1
 40
0.003000
 41
0.003000
  0
VERTEX
  8
PLAN_1
 62
     5
  6
CONTINUOUS
 10
0.276303
 20
1.099567
  0
VERTEX
  8
PLAN_1
 62
     5
  6
CONTINUOUS
 10
0.276303
 20
1.099173
  0
SEQEND
  8
0
  0
POLYLINE
  8
PLAN_1
 62
     5
  6
CONTINUOUS
 66
     1
 40
0.003000
 41
0.003000
  0
VERTEX
  8
PLAN_1
 62
     5
  6
CONTINUOUS
 10
0.276303
 20
1.099567
  0
VERTEX
  8
PLAN_1
 62
     5
  6
CONTINUOUS
 10
0.276303
 20
1.099173
  0
SEQEND
  8
0
  0
POLYLINE
  8
PLAN_1
  6
CONTINUOUS
 66
     1
 40
0.008307
 41
0.008307
  0
VERTEX
  8
PLAN_1
  6
CONTINUOUS
 10
-0.683705
 20
1.800382
  0
VERTEX
  8
PLAN_1
  6
CONTINUOUS
 10
-0.683705
 20
1.989535
  0
VERTEX
  8
PLAN_1
  6
CONTINUOUS
 10
-1.031937
 20
1.989535
  0
SEQEND
  8
0
  0
POLYLINE
  8
PLAN_1
  6
CONTINUOUS
 66
     1
 40
0.008307
 41
0.008307
  0
VERTEX
  8
PLAN_1
  6
CONTINUOUS
 10
0.278677
 20
1.989535
  0
VERTEX
  8
PLAN_1
  6
CONTINUOUS
 10
-0.050953
 20
1.989535
  0
VERTEX
  8
PLAN_1
  6
CONTINUOUS
 10
-0.050953
 20
1.800382
  0
SEQEND
  8
0
  0
POLYLINE
  8
PLAN_1
  6
CONTINUOUS
 66
     1
 40
0.008307
 41
0.008307
  0
VERTEX
  8
PLAN_1
  6
CONTINUOUS
 10
-0.788173
 20
1.802362
  0
VERTEX
  8
PLAN_1
  6
CONTINUOUS
 10
-0.788173
 20
1.989535
  0
SEQEND
  8
0
  0
POLYLINE
  8
PLAN_1
  6
CONTINUOUS
 66
     1
 40
0.008307
 41
0.008307
  0
VERTEX
  8
PLAN_1
  6
CONTINUOUS
 10
0.037685
 20
1.802362
  0
VERTEX
  8
PLAN_1
  6
CONTINUOUS
 10
0.037685
 20
1.989535
  0
SEQEND
  8
0
  0
POLYLINE
  8
PLAN_1
  6
CONTINUOUS
 66
     1
 40
0.008307
 41
0.008307
  0
VERTEX
  8
PLAN_1
  6
CONTINUOUS
 10
-1.433587
 20
1.960646
  0
VERTEX
  8
PLAN_1
  6
CONTINUOUS
 10
-1.027980
 20
1.960646
  0
VERTEX
  8
PLAN_1
  6
CONTINUOUS
 10
-1.027980
 20
2.635343
  0
VERTEX
  8
PLAN_1
  6
CONTINUOUS
 10
-1.435169
 20
2.635343
  0
VERTEX
  8
PLAN_1
  6
CONTINUOUS
 10
-1.491362
 20
2.600520
  0
VERTEX
  8
PLAN_1
  6
CONTINUOUS
 10
-1.491362
 20
2.004571
  0
VERTEX
  8
PLAN_1
  6
CONTINUOUS
 10
-1.433587
 20
1.960646
  0
SEQEND
  8
0
  0
POLYLINE
  8
PLAN_1
  6
CONTINUOUS
 66
     1
 40
0.008307
 41
0.008307
  0
VERTEX
  8
PLAN_1
  6
CONTINUOUS
 10
-1.434378
 20
2.629803
  0
VERTEX
  8
PLAN_1
  6
CONTINUOUS
 10
-1.434378
 20
1.963811
  0
SEQEND
  8
0
  0
POLYLINE
  8
PLAN_1
  6
CONTINUOUS
 66
     1
 40
0.008307
 41
0.008307
  0
VERTEX
  8
PLAN_1
  6
CONTINUOUS
 10
-1.768760
 20
2.390394
  0
VERTEX
  8
PLAN_1
  6
CONTINUOUS
 10
-1.772323
 20
2.397913
  0
VERTEX
  8
PLAN_1
  6
CONTINUOUS
 10
-1.776280
 20
2.405035
  0
VERTEX
  8
PLAN_1
  6
CONTINUOUS
 10
-1.780630
 20
2.412161
  0
VERTEX
  8
PLAN_1
  6
CONTINUOUS
 10
-1.784984
 20
2.418886
  0
VERTEX
  8
PLAN_1
  6
CONTINUOUS
 10
-1.789732
 20
2.425614
  0
VERTEX
  8
PLAN_1
  6
CONTINUOUS
 10
-1.794878
 20
2.432343
  0
VERTEX
  8
PLAN_1
  6
CONTINUOUS
 10
-1.800024
 20
2.438673
  0
VERTEX
  8
PLAN_1
  6
CONTINUOUS
 10
-1.805165
 20
2.445004
  0
VERTEX
  8
PLAN_1
  6
CONTINUOUS
 10
-1.810705
 20
2.450941
  0
VERTEX
  8
PLAN_1
  6
CONTINUOUS
 10
-1.816642
 20
2.456874
  0
VERTEX
  8
PLAN_1
  6
CONTINUOUS
 10
-1.822579
 20
2.462417
  0
VERTEX
  8
PLAN_1
  6
CONTINUOUS
 10
-1.828512
 20
2.467957
  0
VERTEX
  8
PLAN_1
  6
CONTINUOUS
 10
-1.834846
 20
2.473098
  0
VERTEX
  8
PLAN_1
  6
CONTINUOUS
 10
-1.841177
 20
2.478244
  0
VERTEX
  8
PLAN_1
  6
CONTINUOUS
 10
-1.847902
 20
2.482992
  0
VERTEX
  8
PLAN_1
  6
CONTINUOUS
 10
-1.855028
 20
2.487740
  0
VERTEX
  8
PLAN_1
  6
CONTINUOUS
 10
-1.861752
 20
2.491697
  0
VERTEX
  8
PLAN_1
  6
CONTINUOUS
 10
-1.868878
 20
2.496051
  0
VERTEX
  8
PLAN_1
  6
CONTINUOUS
 10
-1.876394
 20
2.500008
  0
VERTEX
  8
PLAN_1
  6
CONTINUOUS
 10
-1.883913
 20
2.503571
  0
VERTEX
  8
PLAN_1
  6
CONTINUOUS
 10
-1.891433
 20
2.506736
  0
VERTEX
  8
PLAN_1
  6
CONTINUOUS
 10
-1.898953
 20
2.509902
  0
VERTEX
  8
PLAN_1
  6
CONTINUOUS
 10
-1.906866
 20
2.512673
  0
VERTEX
  8
PLAN_1
  6
CONTINUOUS
 10
-1.915177
 20
2.515047
  0
VERTEX
  8
PLAN_1
  6
CONTINUOUS
 10
-1.923091
 20
2.517421
  0
VERTEX
  8
PLAN_1
  6
CONTINUOUS
 10
-1.931402
 20
2.519398
  0
VERTEX
  8
PLAN_1
  6
CONTINUOUS
 10
-1.939709
 20
2.520980
  0
VERTEX
  8
PLAN_1
  6
CONTINUOUS
 10
-1.948020
 20
2.522563
  0
VERTEX
  8
PLAN_1
  6
CONTINUOUS
 10
-1.956724
 20
2.523752
  0
VERTEX
  8
PLAN_1
  6
CONTINUOUS
 10
-1.965433
 20
2.524543
  0
VERTEX
  8
PLAN_1
  6
CONTINUOUS
 10
-1.974138
 20
2.524937
  0
VERTEX
  8
PLAN_1
  6
CONTINUOUS
 10
-1.982843
 20
2.524937
  0
VERTEX
  8
PLAN_1
  6
CONTINUOUS
 10
-1.995110
 20
2.524937
  0
VERTEX
  8
PLAN_1
  6
CONTINUOUS
 10
-2.006980
 20
2.523752
  0
VERTEX
  8
PLAN_1
  6
CONTINUOUS
 10
-2.019248
 20
2.522169
  0
VERTEX
  8
PLAN_1
  6
CONTINUOUS
 10
-2.030724
 20
2.520189
  0
VERTEX
  8
PLAN_1
  6
CONTINUOUS
 10
-2.042201
 20
2.517421
  0
VERTEX
  8
PLAN_1
  6
CONTINUOUS
 10
-2.053677
 20
2.514256
  0
VERTEX
  8
PLAN_1
  6
CONTINUOUS
 10
-2.064756
 20
2.510693
  0
VERTEX
  8
PLAN_1
  6
CONTINUOUS
 10
-2.075441
 20
2.506339
  0
VERTEX
  8
PLAN_1
  6
CONTINUOUS
 10
-2.086126
 20
2.501591
  0
VERTEX
  8
PLAN_1
  6
CONTINUOUS
 10
-2.096413
 20
2.496449
  0
VERTEX
  8
PLAN_1
  6
CONTINUOUS
 10
-2.106307
 20
2.490512
  0
VERTEX
  8
PLAN_1
  6
CONTINUOUS
 10
-2.115803
 20
2.484575
  0
VERTEX
  8
PLAN_1
  6
CONTINUOUS
 10
-2.125299
 20
2.477850
  0
VERTEX
  8
PLAN_1
  6
CONTINUOUS
 10
-2.134008
 20
2.470724
  0
VERTEX
  8
PLAN_1
  6
CONTINUOUS
 10
-2.142713
 20
2.463209
  0
VERTEX
  8
PLAN_1
  6
CONTINUOUS
 10
-2.151024
 20
2.455291
  0
VERTEX
  8
PLAN_1
  6
CONTINUOUS
 10
-2.158937
 20
2.446984
  0
VERTEX
  8
PLAN_1
  6
CONTINUOUS
 10
-2.166457
 20
2.438673
  0
VERTEX
  8
PLAN_1
  6
CONTINUOUS
 10
-2.173579
 20
2.429571
  0
VERTEX
  8
PLAN_1
  6
CONTINUOUS
 10
-2.179909
 20
2.420075
  0
VERTEX
  8
PLAN_1
  6
CONTINUOUS
 10
-2.186240
 20
2.410579
  0
VERTEX
  8
PLAN_1
  6
CONTINUOUS
 10
-2.192177
 20
2.400685
  0
VERTEX
  8
PLAN_1
  6
CONTINUOUS
 10
-2.197323
 20
2.390394
  0
VERTEX
  8
PLAN_1
  6
CONTINUOUS
 10
-2.202071
 20
2.379713
  0
VERTEX
  8
PLAN_1
  6
CONTINUOUS
 10
-2.206421
 20
2.369028
  0
VERTEX
  8
PLAN_1
  6
CONTINUOUS
 10
-2.209984
 20
2.357945
  0
VERTEX
  8
PLAN_1
  6
CONTINUOUS
 10
-2.213150
 20
2.346472
  0
VERTEX
  8
PLAN_1
  6
CONTINUOUS
 10
-2.215921
 20
2.334996
  0
VERTEX
  8
PLAN_1
  6
CONTINUOUS
 10
-2.217898
 20
2.323520
  0
VERTEX
  8
PLAN_1
  6
CONTINUOUS
 10
-2.219480
 20
2.311650
  0
VERTEX
  8
PLAN_1
  6
CONTINUOUS
 10
-2.220272
 20
2.299382
  0
VERTEX
  8
PLAN_1
  6
CONTINUOUS
 10
-2.220669
 20
2.287114
  0
VERTEX
  8
PLAN_1
  6
CONTINUOUS
 10
-2.220272
 20
2.274846
  0
VERTEX
  8
PLAN_1
  6
CONTINUOUS
 10
-2.219480
 20
2.262976
  0
VERTEX
  8
PLAN_1
  6
CONTINUOUS
 10
-2.217898
 20
2.251102
  0
VERTEX
  8
PLAN_1
  6
CONTINUOUS
 10
-2.215921
 20
2.239232
  0
VERTEX
  8
PLAN_1
  6
CONTINUOUS
 10
-2.213150
 20
2.227756
  0
VERTEX
  8
PLAN_1
  6
CONTINUOUS
 10
-2.209984
 20
2.216280
  0
VERTEX
  8
PLAN_1
  6
CONTINUOUS
 10
-2.206421
 20
2.205594
  0
VERTEX
  8
PLAN_1
  6
CONTINUOUS
 10
-2.202071
 20
2.194516
  0
VERTEX
  8
PLAN_1
  6
CONTINUOUS
 10
-2.197323
 20
2.184228
  0
VERTEX
  8
PLAN_1
  6
CONTINUOUS
 10
-2.192177
 20
2.173937
  0
VERTEX
  8
PLAN_1
  6
CONTINUOUS
 10
-2.186240
 20
2.164047
  0
VERTEX
  8
PLAN_1
  6
CONTINUOUS
 10
-2.179909
 20
2.154154
  0
VERTEX
  8
PLAN_1
  6
CONTINUOUS
 10
-2.173579
 20
2.145051
  0
VERTEX
  8
PLAN_1
  6
CONTINUOUS
 10
-2.166457
 20
2.135949
  0
VERTEX
  8
PLAN_1
  6
CONTINUOUS
 10
-2.158937
 20
2.127244
  0
VERTEX
  8
PLAN_1
  6
CONTINUOUS
 10
-2.151024
 20
2.118933
  0
VERTEX
  8
PLAN_1
  6
CONTINUOUS
 10
-2.142713
 20
2.111020
  0
VERTEX
  8
PLAN_1
  6
CONTINUOUS
 10
-2.134008
 20
2.103500
  0
VERTEX
  8
PLAN_1
  6
CONTINUOUS
 10
-2.125299
 20
2.096772
  0
VERTEX
  8
PLAN_1
  6
CONTINUOUS
 10
-2.115803
 20
2.090047
  0
VERTEX
  8
PLAN_1
  6
CONTINUOUS
 10
-2.106307
 20
2.083717
  0
VERTEX
  8
PLAN_1
  6
CONTINUOUS
 10
-2.096413
 20
2.078173
  0
VERTEX
  8
PLAN_1
  6
CONTINUOUS
 10
-2.086126
 20
2.072634
  0
VERTEX
  8
PLAN_1
  6
CONTINUOUS
 10
-2.075441
 20
2.067886
  0
VERTEX
  8
PLAN_1
  6
CONTINUOUS
 10
-2.064756
 20
2.063929
  0
VERTEX
  8
PLAN_1
  6
CONTINUOUS
 10
-2.053677
 20
2.059972
  0
VERTEX
  8
PLAN_1
  6
CONTINUOUS
 10
-2.042201
 20
2.056807
  0
VERTEX
  8
PLAN_1
  6
CONTINUOUS
 10
-2.030724
 20
2.054035
  0
VERTEX
  8
PLAN_1
  6
CONTINUOUS
 10
-2.019248
 20
2.052059
  0
VERTEX
  8
PLAN_1
  6
CONTINUOUS
 10
-2.006980
 20
2.050476
  0
VERTEX
  8
PLAN_1
  6
CONTINUOUS
 10
-1.995110
 20
2.049685
  0
VERTEX
  8
PLAN_1
  6
CONTINUOUS
 10
-1.982843
 20
2.049287
  0
VERTEX
  8
PLAN_1
  6
CONTINUOUS
 10
-1.973740
 20
2.049685
  0
VERTEX
  8
PLAN_1
  6
CONTINUOUS
 10
-1.965035
 20
2.050079
  0
VERTEX
  8
PLAN_1
  6
CONTINUOUS
 10
-1.956331
 20
2.050870
  0
VERTEX
  8
PLAN_1
  6
CONTINUOUS
 10
-1.947622
 20
2.052059
  0
VERTEX
  8
PLAN_1
  6
CONTINUOUS
 10
-1.938917
 20
2.053244
  0
VERTEX
  8
PLAN_1
  6
CONTINUOUS
 10
-1.930606
 20
2.055224
  0
VERTEX
  8
PLAN_1
  6
CONTINUOUS
 10
-1.922299
 20
2.057201
  0
VERTEX
  8
PLAN_1
  6
CONTINUOUS
 10
-1.913988
 20
2.059575
  0
VERTEX
  8
PLAN_1
  6
CONTINUOUS
 10
-1.906075
 20
2.061949
  0
VERTEX
  8
PLAN_1
  6
CONTINUOUS
 10
-1.898157
 20
2.065118
  0
VERTEX
  8
PLAN_1
  6
CONTINUOUS
 10
-1.890244
 20
2.068283
  0
VERTEX
  8
PLAN_1
  6
CONTINUOUS
 10
-1.882331
 20
2.071449
  0
VERTEX
  8
PLAN_1
  6
CONTINUOUS
 10
-1.874811
 20
2.075406
  0
VERTEX
  8
PLAN_1
  6
CONTINUOUS
 10
-1.867689
 20
2.079362
  0
VERTEX
  8
PLAN_1
  6
CONTINUOUS
 10
-1.860169
 20
2.083319
  0
VERTEX
  8
PLAN_1
  6
CONTINUOUS
 10
-1.853047
 20
2.088067
  0
VERTEX
  8
PLAN_1
  6
CONTINUOUS
 10
-1.846319
 20
2.092421
  0
VERTEX
  8
PLAN_1
  6
CONTINUOUS
 10
-1.839594
 20
2.097563
  0
VERTEX
  8
PLAN_1
  6
CONTINUOUS
 10
-1.832866
 20
2.102709
  0
VERTEX
  8
PLAN_1
  6
CONTINUOUS
 10
-1.826535
 20
2.107854
  0
VERTEX
  8
PLAN_1
  6
CONTINUOUS
 10
-1.820598
 20
2.113394
  0
VERTEX
  8
PLAN_1
  6
CONTINUOUS
 10
-1.814661
 20
2.119331
  0
VERTEX
  8
PLAN_1
  6
CONTINUOUS
 10
-1.808728
 20
2.125264
  0
VERTEX
  8
PLAN_1
  6
CONTINUOUS
 10
-1.803189
 20
2.131598
  0
VERTEX
  8
PLAN_1
  6
CONTINUOUS
 10
-1.798043
 20
2.137929
  0
VERTEX
  8
PLAN_1
  6
CONTINUOUS
 10
-1.792898
 20
2.144654
  0
VERTEX
  8
PLAN_1
  6
CONTINUOUS
 10
-1.787756
 20
2.151382
  0
VERTEX
  8
PLAN_1
  6
CONTINUOUS
 10
-1.783402
 20
2.158110
  0
VERTEX
  8
PLAN_1
  6
CONTINUOUS
 10
-1.778654
 20
2.165232
  0
VERTEX
  8
PLAN_1
  6
CONTINUOUS
 10
-1.774697
 20
2.172752
  0
VERTEX
  8
PLAN_1
  6
CONTINUOUS
 10
-1.770740
 20
2.179874
  0
VERTEX
  8
PLAN_1
  6
CONTINUOUS
 10
-1.767177
 20
2.187394
  0
SEQEND
  8
0
  0
POLYLINE
  8
PLAN_1
  6
CONTINUOUS
 66
     1
 40
0.008307
 41
0.008307
  0
VERTEX
  8
PLAN_1
  6
CONTINUOUS
 10
-1.768760
 20
2.390394
  0
VERTEX
  8
PLAN_1
  6
CONTINUOUS
 10
-2.117386
 20
2.390394
  0
VERTEX
  8
PLAN_1
  6
CONTINUOUS
 10
-2.117386
 20
2.187394
  0
VERTEX
  8
PLAN_1
  6
CONTINUOUS
 10
-1.767177
 20
2.187394
  0
SEQEND
  8
0
  0
POLYLINE
  8
PLAN_1
  6
CONTINUOUS
 66
     1
 40
0.008307
 41
0.008307
  0
VERTEX
  8
PLAN_1
  6
CONTINUOUS
 10
-1.768760
 20
2.390394
  0
VERTEX
  8
PLAN_1
  6
CONTINUOUS
 10
-1.726024
 20
2.390394
  0
VERTEX
  8
PLAN_1
  6
CONTINUOUS
 10
-1.726024
 20
2.420075
  0
VERTEX
  8
PLAN_1
  6
CONTINUOUS
 10
-1.491362
 20
2.420075
  0
VERTEX
  8
PLAN_1
  6
CONTINUOUS
 10
-1.491362
 20
2.157713
  0
VERTEX
  8
PLAN_1
  6
CONTINUOUS
 10
-1.726024
 20
2.157713
  0
VERTEX
  8
PLAN_1
  6
CONTINUOUS
 10
-1.726024
 20
2.187394
  0
VERTEX
  8
PLAN_1
  6
CONTINUOUS
 10
-1.767177
 20
2.187394
  0
SEQEND
  8
0
  0
POLYLINE
  8
PLAN_1
  6
CONTINUOUS
 66
     1
 40
0.008307
 41
0.008307
  0
VERTEX
  8
PLAN_1
  6
CONTINUOUS
 10
-1.982843
 20
2.227756
  0
VERTEX
  8
PLAN_1
  6
CONTINUOUS
 10
-1.976512
 20
2.227756
  0
VERTEX
  8
PLAN_1
  6
CONTINUOUS
 10
-1.970575
 20
2.228941
  0
VERTEX
  8
PLAN_1
  6
CONTINUOUS
 10
-1.965035
 20
2.230130
  0
VERTEX
  8
PLAN_1
  6
CONTINUOUS
 10
-1.959496
 20
2.232504
  0
VERTEX
  8
PLAN_1
  6
CONTINUOUS
 10
-1.954350
 20
2.234878
  0
VERTEX
  8
PLAN_1
  6
CONTINUOUS
 10
-1.949602
 20
2.237650
  0
VERTEX
  8
PLAN_1
  6
CONTINUOUS
 10
-1.944854
 20
2.241209
  0
VERTEX
  8
PLAN_1
  6
CONTINUOUS
 10
-1.940898
 20
2.245165
  0
VERTEX
  8
PLAN_1
  6
CONTINUOUS
 10
-1.936941
 20
2.249126
  0
VERTEX
  8
PLAN_1
  6
CONTINUOUS
 10
-1.933378
 20
2.253874
  0
VERTEX
  8
PLAN_1
  6
CONTINUOUS
 10
-1.930606
 20
2.258622
  0
VERTEX
  8
PLAN_1
  6
CONTINUOUS
 10
-1.927839
 20
2.263768
  0
VERTEX
  8
PLAN_1
  6
CONTINUOUS
 10
-1.925858
 20
2.269307
  0
VERTEX
  8
PLAN_1
  6
CONTINUOUS
 10
-1.924673
 20
2.275240
  0
VERTEX
  8
PLAN_1
  6
CONTINUOUS
 10
-1.923484
 20
2.281177
  0
VERTEX
  8
PLAN_1
  6
CONTINUOUS
 10
-1.923091
 20
2.287114
  0
VERTEX
  8
PLAN_1
  6
CONTINUOUS
 10
-1.923484
 20
2.293047
  0
VERTEX
  8
PLAN_1
  6
CONTINUOUS
 10
-1.924673
 20
2.298984
  0
VERTEX
  8
PLAN_1
  6
CONTINUOUS
 10
-1.925858
 20
2.304921
  0
VERTEX
  8
PLAN_1
  6
CONTINUOUS
 10
-1.927839
 20
2.310063
  0
VERTEX
  8
PLAN_1
  6
CONTINUOUS
 10
-1.930606
 20
2.315606
  0
VERTEX
  8
PLAN_1
  6
CONTINUOUS
 10
-1.933378
 20
2.320354
  0
VERTEX
  8
PLAN_1
  6
CONTINUOUS
 10
-1.936941
 20
2.325102
  0
VERTEX
  8
PLAN_1
  6
CONTINUOUS
 10
-1.940898
 20
2.329059
  0
VERTEX
  8
PLAN_1
  6
CONTINUOUS
 10
-1.944854
 20
2.333016
  0
VERTEX
  8
PLAN_1
  6
CONTINUOUS
 10
-1.949602
 20
2.336579
  0
VERTEX
  8
PLAN_1
  6
CONTINUOUS
 10
-1.954350
 20
2.339346
  0
VERTEX
  8
PLAN_1
  6
CONTINUOUS
 10
-1.959496
 20
2.341720
  0
VERTEX
  8
PLAN_1
  6
CONTINUOUS
 10
-1.965035
 20
2.343701
  0
VERTEX
  8
PLAN_1
  6
CONTINUOUS
 10
-1.970575
 20
2.345283
  0
VERTEX
  8
PLAN_1
  6
CONTINUOUS
 10
-1.976512
 20
2.346075
  0
VERTEX
  8
PLAN_1
  6
CONTINUOUS
 10
-1.982843
 20
2.346472
  0
VERTEX
  8
PLAN_1
  6
CONTINUOUS
 10
-1.988780
 20
2.346075
  0
VERTEX
  8
PLAN_1
  6
CONTINUOUS
 10
-1.994713
 20
2.345283
  0
VERTEX
  8
PLAN_1
  6
CONTINUOUS
 10
-2.000256
 20
2.343701
  0
VERTEX
  8
PLAN_1
  6
CONTINUOUS
 10
-2.005795
 20
2.341720
  0
VERTEX
  8
PLAN_1
  6
CONTINUOUS
 10
-2.010937
 20
2.339346
  0
VERTEX
  8
PLAN_1
  6
CONTINUOUS
 10
-2.016083
 20
2.336579
  0
VERTEX
  8
PLAN_1
  6
CONTINUOUS
 10
-2.020437
 20
2.333016
  0
VERTEX
  8
PLAN_1
  6
CONTINUOUS
 10
-2.024787
 20
2.329059
  0
VERTEX
  8
PLAN_1
  6
CONTINUOUS
 10
-2.028744
 20
2.325102
  0
VERTEX
  8
PLAN_1
  6
CONTINUOUS
 10
-2.031913
 20
2.320354
  0
VERTEX
  8
PLAN_1
  6
CONTINUOUS
 10
-2.035079
 20
2.315606
  0
VERTEX
  8
PLAN_1
  6
CONTINUOUS
 10
-2.037453
 20
2.310063
  0
VERTEX
  8
PLAN_1
  6
CONTINUOUS
 10
-2.039429
 20
2.304921
  0
VERTEX
  8
PLAN_1
  6
CONTINUOUS
 10
-2.041012
 20
2.298984
  0
VERTEX
  8
PLAN_1
  6
CONTINUOUS
 10
-2.041803
 20
2.293047
  0
VERTEX
  8
PLAN_1
  6
CONTINUOUS
 10
-2.042201
 20
2.287114
  0
VERTEX
  8
PLAN_1
  6
CONTINUOUS
 10
-2.041803
 20
2.281177
  0
VERTEX
  8
PLAN_1
  6
CONTINUOUS
 10
-2.041012
 20
2.275240
  0
VERTEX
  8
PLAN_1
  6
CONTINUOUS
 10
-2.039429
 20
2.269307
  0
VERTEX
  8
PLAN_1
  6
CONTINUOUS
 10
-2.037453
 20
2.263768
  0
VERTEX
  8
PLAN_1
  6
CONTINUOUS
 10
-2.035079
 20
2.258622
  0
VERTEX
  8
PLAN_1
  6
CONTINUOUS
 10
-2.031913
 20
2.253874
  0
VERTEX
  8
PLAN_1
  6
CONTINUOUS
 10
-2.028744
 20
2.249126
  0
VERTEX
  8
PLAN_1
  6
CONTINUOUS
 10
-2.024787
 20
2.245165
  0
VERTEX
  8
PLAN_1
  6
CONTINUOUS
 10
-2.020437
 20
2.241209
  0
VERTEX
  8
PLAN_1
  6
CONTINUOUS
 10
-2.016083
 20
2.237650
  0
VERTEX
  8
PLAN_1
  6
CONTINUOUS
 10
-2.010937
 20
2.234878
  0
VERTEX
  8
PLAN_1
  6
CONTINUOUS
 10
-2.005795
 20
2.232504
  0
VERTEX
  8
PLAN_1
  6
CONTINUOUS
 10
-2.000256
 20
2.230130
  0
VERTEX
  8
PLAN_1
  6
CONTINUOUS
 10
-1.994713
 20
2.228941
  0
VERTEX
  8
PLAN_1
  6
CONTINUOUS
 10
-1.988780
 20
2.227756
  0
VERTEX
  8
PLAN_1
  6
CONTINUOUS
 10
-1.982843
 20
2.227756
  0
SEQEND
  8
0
  0
SOLID
  8
PLAN_1
 62
     2
 10
-1.813079
 20
2.454898
 11
-1.782610
 21
2.507921
 12
-1.813079
 22
2.454898
 13
-1.760449
 23
2.485366
  0
POLYLINE
  8
PLAN_1
 62
     2
  6
CONTINUOUS
 66
     1
 40
0.003000
 41
0.003000
  0
VERTEX
  8
PLAN_1
 62
     2
  6
CONTINUOUS
 10
-1.813079
 20
2.454898
  0
VERTEX
  8
PLAN_1
 62
     2
  6
CONTINUOUS
 10
-1.782610
 20
2.507921
  0
VERTEX
  8
PLAN_1
 62
     2
  6
CONTINUOUS
 10
-1.760449
 20
2.485366
  0
VERTEX
  8
PLAN_1
 62
     2
  6
CONTINUOUS
 10
-1.813079
 20
2.454898
  0
SEQEND
  8
0
  0
POLYLINE
  8
PLAN_1
 62
     2
  6
CONTINUOUS
 66
     1
 40
0.004350
 41
0.004350
  0
VERTEX
  8
PLAN_1
 62
     2
  6
CONTINUOUS
 10
-1.786567
 20
2.481409
  0
VERTEX
  8
PLAN_1
 62
     2
  6
CONTINUOUS
 10
-1.352862
 20
2.909972
  0
VERTEX
  8
PLAN_1
 62
     2
  6
CONTINUOUS
 10
-1.064780
 20
2.909972
  0
SEQEND
  8
0
  0
POLYLINE
  8
PLAN_1
 62
     2
  6
CONTINUOUS
 66
     1
 40
0.003000
 41
0.003000
  0
VERTEX
  8
PLAN_1
 62
     2
  6
CONTINUOUS
 10
-1.212780
 20
2.997819
  0
VERTEX
  8
PLAN_1
 62
     2
  6
CONTINUOUS
 10
-1.210799
 20
2.994654
  0
VERTEX
  8
PLAN_1
 62
     2
  6
CONTINUOUS
 10
-1.208823
 20
2.991488
  0
VERTEX
  8
PLAN_1
 62
     2
  6
CONTINUOUS
 10
-1.207236
 20
2.987929
  0
VERTEX
  8
PLAN_1
 62
     2
  6
CONTINUOUS
 10
-1.206051
 20
2.984760
  0
VERTEX
  8
PLAN_1
 62
     2
  6
CONTINUOUS
 10
-1.205260
 20
2.981201
  0
VERTEX
  8
PLAN_1
 62
     2
  6
CONTINUOUS
 10
-1.204862
 20
2.977638
  0
VERTEX
  8
PLAN_1
 62
     2
  6
CONTINUOUS
 10
-1.204469
 20
2.974472
  0
VERTEX
  8
PLAN_1
 62
     2
  6
CONTINUOUS
 10
-1.204469
 20
2.970913
  0
VERTEX
  8
PLAN_1
 62
     2
  6
CONTINUOUS
 10
-1.204469
 20
2.968142
  0
VERTEX
  8
PLAN_1
 62
     2
  6
CONTINUOUS
 10
-1.204862
 20
2.964579
  0
VERTEX
  8
PLAN_1
 62
     2
  6
CONTINUOUS
 10
-1.205260
 20
2.961413
  0
VERTEX
  8
PLAN_1
 62
     2
  6
CONTINUOUS
 10
-1.206051
 20
2.958248
  0
VERTEX
  8
PLAN_1
 62
     2
  6
CONTINUOUS
 10
-1.207236
 20
2.954689
  0
VERTEX
  8
PLAN_1
 62
     2
  6
CONTINUOUS
 10
-1.208425
 20
2.951520
  0
VERTEX
  8
PLAN_1
 62
     2
  6
CONTINUOUS
 10
-1.210008
 20
2.948354
  0
VERTEX
  8
PLAN_1
 62
     2
  6
CONTINUOUS
 10
-1.211988
 20
2.945189
  0
VERTEX
  8
PLAN_1
 62
     2
  6
CONTINUOUS
 10
-1.214362
 20
2.942421
  0
VERTEX
  8
PLAN_1
 62
     2
  6
CONTINUOUS
 10
-1.217130
 20
2.940047
  0
VERTEX
  8
PLAN_1
 62
     2
  6
CONTINUOUS
 10
-1.219902
 20
2.937673
  0
VERTEX
  8
PLAN_1
 62
     2
  6
CONTINUOUS
 10
-1.223461
 20
2.935693
  0
VERTEX
  8
PLAN_1
 62
     2
  6
CONTINUOUS
 10
-1.227024
 20
2.934110
  0
VERTEX
  8
PLAN_1
 62
     2
  6
CONTINUOUS
 10
-1.230980
 20
2.932921
  0
VERTEX
  8
PLAN_1
 62
     2
  6
CONTINUOUS
 10
-1.235728
 20
2.932130
  0
VERTEX
  8
PLAN_1
 62
     2
  6
CONTINUOUS
 10
-1.240874
 20
2.931736
  0
VERTEX
  8
PLAN_1
 62
     2
  6
CONTINUOUS
 10
-1.244831
 20
2.931736
  0
VERTEX
  8
PLAN_1
 62
     2
  6
CONTINUOUS
 10
-1.248394
 20
2.932528
  0
VERTEX
  8
PLAN_1
 62
     2
  6
CONTINUOUS
 10
-1.251953
 20
2.933319
  0
VERTEX
  8
PLAN_1
 62
     2
  6
CONTINUOUS
 10
-1.255118
 20
2.934110
  0
VERTEX
  8
PLAN_1
 62
     2
  6
CONTINUOUS
 10
-1.257890
 20
2.935693
  0
VERTEX
  8
PLAN_1
 62
     2
  6
CONTINUOUS
 10
-1.260661
 20
2.937276
  0
VERTEX
  8
PLAN_1
 62
     2
  6
CONTINUOUS
 10
-1.263035
 20
2.938858
  0
VERTEX
  8
PLAN_1
 62
     2
  6
CONTINUOUS
 10
-1.265409
 20
2.940839
  0
VERTEX
  8
PLAN_1
 62
     2
  6
CONTINUOUS
 10
-1.273717
 20
2.931736
  0
VERTEX
  8
PLAN_1
 62
     2
  6
CONTINUOUS
 10
-1.276886
 20
2.934504
  0
VERTEX
  8
PLAN_1
 62
     2
  6
CONTINUOUS
 10
-1.268177
 20
2.944004
  0
VERTEX
  8
PLAN_1
 62
     2
  6
CONTINUOUS
 10
-1.270551
 20
2.947169
  0
VERTEX
  8
PLAN_1
 62
     2
  6
CONTINUOUS
 10
-1.272531
 20
2.950335
  0
VERTEX
  8
PLAN_1
 62
     2
  6
CONTINUOUS
 10
-1.274114
 20
2.953898
  0
VERTEX
  8
PLAN_1
 62
     2
  6
CONTINUOUS
 10
-1.275303
 20
2.957457
  0
VERTEX
  8
PLAN_1
 62
     2
  6
CONTINUOUS
 10
-1.276094
 20
2.961020
  0
VERTEX
  8
PLAN_1
 62
     2
  6
CONTINUOUS
 10
-1.276488
 20
2.964185
  0
VERTEX
  8
PLAN_1
 62
     2
  6
CONTINUOUS
 10
-1.276886
 20
2.967744
  0
VERTEX
  8
PLAN_1
 62
     2
  6
CONTINUOUS
 10
-1.277280
 20
2.970913
  0
VERTEX
  8
PLAN_1
 62
     2
  6
CONTINUOUS
 10
-1.276886
 20
2.974079
  0
VERTEX
  8
PLAN_1
 62
     2
  6
CONTINUOUS
 10
-1.276886
 20
2.977244
  0
VERTEX
  8
PLAN_1
 62
     2
  6
CONTINUOUS
 10
-1.276094
 20
2.980803
  0
VERTEX
  8
PLAN_1
 62
     2
  6
CONTINUOUS
 10
-1.275303
 20
2.983969
  0
VERTEX
  8
PLAN_1
 62
     2
  6
CONTINUOUS
 10
-1.274114
 20
2.987138
  0
VERTEX
  8
PLAN_1
 62
     2
  6
CONTINUOUS
 10
-1.272925
 20
2.990697
  0
VERTEX
  8
PLAN_1
 62
     2
  6
CONTINUOUS
 10
-1.271343
 20
2.993862
  0
VERTEX
  8
PLAN_1
 62
     2
  6
CONTINUOUS
 10
-1.269366
 20
2.996634
  0
VERTEX
  8
PLAN_1
 62
     2
  6
CONTINUOUS
 10
-1.266992
 20
2.999402
  0
VERTEX
  8
PLAN_1
 62
     2
  6
CONTINUOUS
 10
-1.264618
 20
3.002173
  0
VERTEX
  8
PLAN_1
 62
     2
  6
CONTINUOUS
 10
-1.261453
 20
3.004547
  0
VERTEX
  8
PLAN_1
 62
     2
  6
CONTINUOUS
 10
-1.258287
 20
3.006528
  0
VERTEX
  8
PLAN_1
 62
     2
  6
CONTINUOUS
 10
-1.254327
 20
3.008110
  0
VERTEX
  8
PLAN_1
 62
     2
  6
CONTINUOUS
 10
-1.250370
 20
3.009295
  0
VERTEX
  8
PLAN_1
 62
     2
  6
CONTINUOUS
 10
-1.245622
 20
3.010087
  0
VERTEX
  8
PLAN_1
 62
     2
  6
CONTINUOUS
 10
-1.240874
 20
3.010484
  0
VERTEX
  8
PLAN_1
 62
     2
  6
CONTINUOUS
 10
-1.236520
 20
3.010087
  0
VERTEX
  8
PLAN_1
 62
     2
  6
CONTINUOUS
 10
-1.232961
 20
3.009693
  0
VERTEX
  8
PLAN_1
 62
     2
  6
CONTINUOUS
 10
-1.229398
 20
3.008902
  0
VERTEX
  8
PLAN_1
 62
     2
  6
CONTINUOUS
 10
-1.226232
 20
3.007713
  0
VERTEX
  8
PLAN_1
 62
     2
  6
CONTINUOUS
 10
-1.223067
 20
3.006528
  0
VERTEX
  8
PLAN_1
 62
     2
  6
CONTINUOUS
 10
-1.220295
 20
3.004945
  0
VERTEX
  8
PLAN_1
 62
     2
  6
CONTINUOUS
 10
-1.217921
 20
3.002965
  0
VERTEX
  8
PLAN_1
 62
     2
  6
CONTINUOUS
 10
-1.215945
 20
3.000984
  0
VERTEX
  8
PLAN_1
 62
     2
  6
CONTINUOUS
 10
-1.207236
 20
3.010484
  0
VERTEX
  8
PLAN_1
 62
     2
  6
CONTINUOUS
 10
-1.204071
 20
3.007319
  0
VERTEX
  8
PLAN_1
 62
     2
  6
CONTINUOUS
 10
-1.212780
 20
2.997819
  0
SEQEND
  8
0
  0
POLYLINE
  8
PLAN_1
 62
     2
  6
CONTINUOUS
 66
     1
 40
0.003000
 41
0.003000
  0
VERTEX
  8
PLAN_1
 62
     2
  6
CONTINUOUS
 10
-1.258681
 20
2.947961
  0
VERTEX
  8
PLAN_1
 62
     2
  6
CONTINUOUS
 10
-1.257098
 20
2.946378
  0
VERTEX
  8
PLAN_1
 62
     2
  6
CONTINUOUS
 10
-1.255118
 20
2.944795
  0
VERTEX
  8
PLAN_1
 62
     2
  6
CONTINUOUS
 10
-1.253142
 20
2.943606
  0
VERTEX
  8
PLAN_1
 62
     2
  6
CONTINUOUS
 10
-1.250768
 20
2.942421
  0
VERTEX
  8
PLAN_1
 62
     2
  6
CONTINUOUS
 10
-1.248394
 20
2.941630
  0
VERTEX
  8
PLAN_1
 62
     2
  6
CONTINUOUS
 10
-1.246020
 20
2.941232
  0
VERTEX
  8
PLAN_1
 62
     2
  6
CONTINUOUS
 10
-1.243646
 20
2.940839
  0
VERTEX
  8
PLAN_1
 62
     2
  6
CONTINUOUS
 10
-1.240874
 20
2.940839
  0
VERTEX
  8
PLAN_1
 62
     2
  6
CONTINUOUS
 10
-1.237709
 20
2.940839
  0
VERTEX
  8
PLAN_1
 62
     2
  6
CONTINUOUS
 10
-1.234937
 20
2.941232
  0
VERTEX
  8
PLAN_1
 62
     2
  6
CONTINUOUS
 10
-1.232169
 20
2.942024
  0
VERTEX
  8
PLAN_1
 62
     2
  6
CONTINUOUS
 10
-1.229795
 20
2.942815
  0
VERTEX
  8
PLAN_1
 62
     2
  6
CONTINUOUS
 10
-1.227421
 20
2.944004
  0
VERTEX
  8
PLAN_1
 62
     2
  6
CONTINUOUS
 10
-1.225441
 20
2.945587
  0
VERTEX
  8
PLAN_1
 62
     2
  6
CONTINUOUS
 10
-1.223461
 20
2.947169
  0
VERTEX
  8
PLAN_1
 62
     2
  6
CONTINUOUS
 10
-1.221484
 20
2.949146
  0
VERTEX
  8
PLAN_1
 62
     2
  6
CONTINUOUS
 10
-1.219902
 20
2.951520
  0
VERTEX
  8
PLAN_1
 62
     2
  6
CONTINUOUS
 10
-1.218713
 20
2.953898
  0
VERTEX
  8
PLAN_1
 62
     2
  6
CONTINUOUS
 10
-1.217528
 20
2.956272
  0
VERTEX
  8
PLAN_1
 62
     2
  6
CONTINUOUS
 10
-1.216339
 20
2.959039
  0
VERTEX
  8
PLAN_1
 62
     2
  6
CONTINUOUS
 10
-1.215547
 20
2.961811
  0
VERTEX
  8
PLAN_1
 62
     2
  6
CONTINUOUS
 10
-1.215154
 20
2.964579
  0
VERTEX
  8
PLAN_1
 62
     2
  6
CONTINUOUS
 10
-1.214756
 20
2.967744
  0
VERTEX
  8
PLAN_1
 62
     2
  6
CONTINUOUS
 10
-1.214756
 20
2.970913
  0
VERTEX
  8
PLAN_1
 62
     2
  6
CONTINUOUS
 10
-1.214756
 20
2.973681
  0
VERTEX
  8
PLAN_1
 62
     2
  6
CONTINUOUS
 10
-1.215154
 20
2.976453
  0
VERTEX
  8
PLAN_1
 62
     2
  6
CONTINUOUS
 10
-1.215547
 20
2.979220
  0
VERTEX
  8
PLAN_1
 62
     2
  6
CONTINUOUS
 10
-1.215945
 20
2.981594
  0
VERTEX
  8
PLAN_1
 62
     2
  6
CONTINUOUS
 10
-1.216736
 20
2.983969
  0
VERTEX
  8
PLAN_1
 62
     2
  6
CONTINUOUS
 10
-1.217528
 20
2.986346
  0
VERTEX
  8
PLAN_1
 62
     2
  6
CONTINUOUS
 10
-1.218713
 20
2.988323
  0
VERTEX
  8
PLAN_1
 62
     2
  6
CONTINUOUS
 10
-1.219902
 20
2.990303
  0
VERTEX
  8
PLAN_1
 62
     2
  6
CONTINUOUS
 10
-1.258681
 20
2.947961
  0
SEQEND
  8
0
  0
POLYLINE
  8
PLAN_1
 62
     2
  6
CONTINUOUS
 66
     1
 40
0.003000
 41
0.003000
  0
VERTEX
  8
PLAN_1
 62
     2
  6
CONTINUOUS
 10
-1.222669
 20
2.993862
  0
VERTEX
  8
PLAN_1
 62
     2
  6
CONTINUOUS
 10
-1.224252
 20
2.995445
  0
VERTEX
  8
PLAN_1
 62
     2
  6
CONTINUOUS
 10
-1.226232
 20
2.997028
  0
VERTEX
  8
PLAN_1
 62
     2
  6
CONTINUOUS
 10
-1.228213
 20
2.998217
  0
VERTEX
  8
PLAN_1
 62
     2
  6
CONTINUOUS
 10
-1.230587
 20
2.999402
  0
VERTEX
  8
PLAN_1
 62
     2
  6
CONTINUOUS
 10
-1.232961
 20
3.000193
  0
VERTEX
  8
PLAN_1
 62
     2
  6
CONTINUOUS
 10
-1.235335
 20
3.000984
  0
VERTEX
  8
PLAN_1
 62
     2
  6
CONTINUOUS
 10
-1.238102
 20
3.001382
  0
VERTEX
  8
PLAN_1
 62
     2
  6
CONTINUOUS
 10
-1.240874
 20
3.001382
  0
VERTEX
  8
PLAN_1
 62
     2
  6
CONTINUOUS
 10
-1.243646
 20
3.001382
  0
VERTEX
  8
PLAN_1
 62
     2
  6
CONTINUOUS
 10
-1.246413
 20
3.000984
  0
VERTEX
  8
PLAN_1
 62
     2
  6
CONTINUOUS
 10
-1.249185
 20
3.000193
  0
VERTEX
  8
PLAN_1
 62
     2
  6
CONTINUOUS
 10
-1.251559
 20
2.999008
  0
VERTEX
  8
PLAN_1
 62
     2
  6
CONTINUOUS
 10
-1.253933
 20
2.997819
  0
VERTEX
  8
PLAN_1
 62
     2
  6
CONTINUOUS
 10
-1.255909
 20
2.996634
  0
VERTEX
  8
PLAN_1
 62
     2
  6
CONTINUOUS
 10
-1.257890
 20
2.994654
  0
VERTEX
  8
PLAN_1
 62
     2
  6
CONTINUOUS
 10
-1.259870
 20
2.992677
  0
VERTEX
  8
PLAN_1
 62
     2
  6
CONTINUOUS
 10
-1.261453
 20
2.990697
  0
VERTEX
  8
PLAN_1
 62
     2
  6
CONTINUOUS
 10
-1.262638
 20
2.988323
  0
VERTEX
  8
PLAN_1
 62
     2
  6
CONTINUOUS
 10
-1.263827
 20
2.985949
  0
VERTEX
  8
PLAN_1
 62
     2
  6
CONTINUOUS
 10
-1.265012
 20
2.983177
  0
VERTEX
  8
PLAN_1
 62
     2
  6
CONTINUOUS
 10
-1.265803
 20
2.980409
  0
VERTEX
  8
PLAN_1
 62
     2
  6
CONTINUOUS
 10
-1.266201
 20
2.977244
  0
VERTEX
  8
PLAN_1
 62
     2
  6
CONTINUOUS
 10
-1.266594
 20
2.974472
  0
VERTEX
  8
PLAN_1
 62
     2
  6
CONTINUOUS
 10
-1.266594
 20
2.970913
  0
VERTEX
  8
PLAN_1
 62
     2
  6
CONTINUOUS
 10
-1.266594
 20
2.968142
  0
VERTEX
  8
PLAN_1
 62
     2
  6
CONTINUOUS
 10
-1.266201
 20
2.965370
  0
VERTEX
  8
PLAN_1
 62
     2
  6
CONTINUOUS
 10
-1.265803
 20
2.962996
  0
VERTEX
  8
PLAN_1
 62
     2
  6
CONTINUOUS
 10
-1.265409
 20
2.960228
  0
VERTEX
  8
PLAN_1
 62
     2
  6
CONTINUOUS
 10
-1.264618
 20
2.957854
  0
VERTEX
  8
PLAN_1
 62
     2
  6
CONTINUOUS
 10
-1.263827
 20
2.955874
  0
VERTEX
  8
PLAN_1
 62
     2
  6
CONTINUOUS
 10
-1.262638
 20
2.953500
  0
VERTEX
  8
PLAN_1
 62
     2
  6
CONTINUOUS
 10
-1.261453
 20
2.951520
  0
VERTEX
  8
PLAN_1
 62
     2
  6
CONTINUOUS
 10
-1.222669
 20
2.993862
  0
SEQEND
  8
0
  0
POLYLINE
  8
PLAN_1
 62
     2
  6
CONTINUOUS
 66
     1
 40
0.003000
 41
0.003000
  0
VERTEX
  8
PLAN_1
 62
     2
  6
CONTINUOUS
 10
-1.162917
 20
2.933713
  0
VERTEX
  8
PLAN_1
 62
     2
  6
CONTINUOUS
 10
-1.172811
 20
2.933713
  0
VERTEX
  8
PLAN_1
 62
     2
  6
CONTINUOUS
 10
-1.172811
 20
2.985555
  0
VERTEX
  8
PLAN_1
 62
     2
  6
CONTINUOUS
 10
-1.189827
 20
2.985555
  0
VERTEX
  8
PLAN_1
 62
     2
  6
CONTINUOUS
 10
-1.189827
 20
2.993071
  0
VERTEX
  8
PLAN_1
 62
     2
  6
CONTINUOUS
 10
-1.185472
 20
2.993071
  0
VERTEX
  8
PLAN_1
 62
     2
  6
CONTINUOUS
 10
-1.181913
 20
2.993862
  0
VERTEX
  8
PLAN_1
 62
     2
  6
CONTINUOUS
 10
-1.179142
 20
2.994654
  0
VERTEX
  8
PLAN_1
 62
     2
  6
CONTINUOUS
 10
-1.176374
 20
2.995843
  0
VERTEX
  8
PLAN_1
 62
     2
  6
CONTINUOUS
 10
-1.174394
 20
2.997425
  0
VERTEX
  8
PLAN_1
 62
     2
  6
CONTINUOUS
 10
-1.172811
 20
2.999799
  0
VERTEX
  8
PLAN_1
 62
     2
  6
CONTINUOUS
 10
-1.171228
 20
3.002965
  0
VERTEX
  8
PLAN_1
 62
     2
  6
CONTINUOUS
 10
-1.170039
 20
3.006921
  0
VERTEX
  8
PLAN_1
 62
     2
  6
CONTINUOUS
 10
-1.162917
 20
3.006921
  0
VERTEX
  8
PLAN_1
 62
     2
  6
CONTINUOUS
 10
-1.162917
 20
2.933713
  0
SEQEND
  8
0
  0
POLYLINE
  8
PLAN_1
 62
     2
  6
CONTINUOUS
 66
     1
 40
0.003000
 41
0.003000
  0
VERTEX
  8
PLAN_1
 62
     2
  6
CONTINUOUS
 10
-1.137591
 20
2.980803
  0
VERTEX
  8
PLAN_1
 62
     2
  6
CONTINUOUS
 10
-1.137591
 20
2.984760
  0
VERTEX
  8
PLAN_1
 62
     2
  6
CONTINUOUS
 10
-1.136799
 20
2.988720
  0
VERTEX
  8
PLAN_1
 62
     2
  6
CONTINUOUS
 10
-1.136008
 20
2.991886
  0
VERTEX
  8
PLAN_1
 62
     2
  6
CONTINUOUS
 10
-1.134823
 20
2.994654
  0
VERTEX
  8
PLAN_1
 62
     2
  6
CONTINUOUS
 10
-1.133634
 20
2.997425
  0
VERTEX
  8
PLAN_1
 62
     2
  6
CONTINUOUS
 10
-1.131657
 20
2.999402
  0
VERTEX
  8
PLAN_1
 62
     2
  6
CONTINUOUS
 10
-1.130075
 20
3.000984
  0
VERTEX
  8
PLAN_1
 62
     2
  6
CONTINUOUS
 10
-1.128094
 20
3.002571
  0
VERTEX
  8
PLAN_1
 62
     2
  6
CONTINUOUS
 10
-1.126118
 20
3.003756
  0
VERTEX
  8
PLAN_1
 62
     2
  6
CONTINUOUS
 10
-1.123740
 20
3.004945
  0
VERTEX
  8
PLAN_1
 62
     2
  6
CONTINUOUS
 10
-1.121764
 20
3.005736
  0
VERTEX
  8
PLAN_1
 62
     2
  6
CONTINUOUS
 10
-1.119783
 20
3.006130
  0
VERTEX
  8
PLAN_1
 62
     2
  6
CONTINUOUS
 10
-1.115827
 20
3.006528
  0
VERTEX
  8
PLAN_1
 62
     2
  6
CONTINUOUS
 10
-1.112268
 20
3.006921
  0
VERTEX
  8
PLAN_1
 62
     2
  6
CONTINUOUS
 10
-1.107913
 20
3.006528
  0
VERTEX
  8
PLAN_1
 62
     2
  6
CONTINUOUS
 10
-1.103559
 20
3.005339
  0
VERTEX
  8
PLAN_1
 62
     2
  6
CONTINUOUS
 10
-1.101583
 20
3.004547
  0
VERTEX
  8
PLAN_1
 62
     2
  6
CONTINUOUS
 10
-1.099602
 20
3.003362
  0
VERTEX
  8
PLAN_1
 62
     2
  6
CONTINUOUS
 10
-1.098020
 20
3.002173
  0
VERTEX
  8
PLAN_1
 62
     2
  6
CONTINUOUS
 10
-1.096043
 20
3.000984
  0
VERTEX
  8
PLAN_1
 62
     2
  6
CONTINUOUS
 10
-1.094854
 20
2.999402
  0
VERTEX
  8
PLAN_1
 62
     2
  6
CONTINUOUS
 10
-1.093272
 20
2.997819
  0
VERTEX
  8
PLAN_1
 62
     2
  6
CONTINUOUS
 10
-1.092480
 20
2.996236
  0
VERTEX
  8
PLAN_1
 62
     2
  6
CONTINUOUS
 10
-1.091291
 20
2.994260
  0
VERTEX
  8
PLAN_1
 62
     2
  6
CONTINUOUS
 10
-1.090500
 20
2.991886
  0
VERTEX
  8
PLAN_1
 62
     2
  6
CONTINUOUS
 10
-1.090106
 20
2.989906
  0
VERTEX
  8
PLAN_1
 62
     2
  6
CONTINUOUS
 10
-1.089709
 20
2.987531
  0
VERTEX
  8
PLAN_1
 62
     2
  6
CONTINUOUS
 10
-1.089709
 20
2.985157
  0
VERTEX
  8
PLAN_1
 62
     2
  6
CONTINUOUS
 10
-1.089709
 20
2.982783
  0
VERTEX
  8
PLAN_1
 62
     2
  6
CONTINUOUS
 10
-1.090106
 20
2.980409
  0
VERTEX
  8
PLAN_1
 62
     2
  6
CONTINUOUS
 10
-1.090500
 20
2.978429
  0
VERTEX
  8
PLAN_1
 62
     2
  6
CONTINUOUS
 10
-1.090898
 20
2.976453
  0
VERTEX
  8
PLAN_1
 62
     2
  6
CONTINUOUS
 10
-1.092874
 20
2.972890
  0
VERTEX
  8
PLAN_1
 62
     2
  6
CONTINUOUS
 10
-1.095252
 20
2.970122
  0
VERTEX
  8
PLAN_1
 62
     2
  6
CONTINUOUS
 10
-1.098020
 20
2.967350
  0
VERTEX
  8
PLAN_1
 62
     2
  6
CONTINUOUS
 10
-1.101583
 20
2.964976
  0
VERTEX
  8
PLAN_1
 62
     2
  6
CONTINUOUS
 10
-1.105142
 20
2.962602
  0
VERTEX
  8
PLAN_1
 62
     2
  6
CONTINUOUS
 10
-1.109098
 20
2.960622
  0
VERTEX
  8
PLAN_1
 62
     2
  6
CONTINUOUS
 10
-1.116618
 20
2.956272
  0
VERTEX
  8
PLAN_1
 62
     2
  6
CONTINUOUS
 10
-1.120181
 20
2.954291
  0
VERTEX
  8
PLAN_1
 62
     2
  6
CONTINUOUS
 10
-1.122949
 20
2.952311
  0
VERTEX
  8
PLAN_1
 62
     2
  6
CONTINUOUS
 10
-1.124929
 20
2.950335
  0
VERTEX
  8
PLAN_1
 62
     2
  6
CONTINUOUS
 10
-1.126512
 20
2.948354
  0
VERTEX
  8
PLAN_1
 62
     2
  6
CONTINUOUS
 10
-1.127701
 20
2.946378
  0
VERTEX
  8
PLAN_1
 62
     2
  6
CONTINUOUS
 10
-1.128492
 20
2.944795
  0
VERTEX
  8
PLAN_1
 62
     2
  6
CONTINUOUS
 10
-1.128886
 20
2.943606
  0
VERTEX
  8
PLAN_1
 62
     2
  6
CONTINUOUS
 10
-1.129283
 20
2.942421
  0
VERTEX
  8
PLAN_1
 62
     2
  6
CONTINUOUS
 10
-1.089709
 20
2.942421
  0
VERTEX
  8
PLAN_1
 62
     2
  6
CONTINUOUS
 10
-1.089709
 20
2.933713
  0
VERTEX
  8
PLAN_1
 62
     2
  6
CONTINUOUS
 10
-1.139571
 20
2.933713
  0
VERTEX
  8
PLAN_1
 62
     2
  6
CONTINUOUS
 10
-1.139173
 20
2.939256
  0
VERTEX
  8
PLAN_1
 62
     2
  6
CONTINUOUS
 10
-1.137988
 20
2.944004
  0
VERTEX
  8
PLAN_1
 62
     2
  6
CONTINUOUS
 10
-1.136406
 20
2.947961
  0
VERTEX
  8
PLAN_1
 62
     2
  6
CONTINUOUS
 10
-1.134425
 20
2.951917
  0
VERTEX
  8
PLAN_1
 62
     2
  6
CONTINUOUS
 10
-1.132051
 20
2.955083
  0
VERTEX
  8
PLAN_1
 62
     2
  6
CONTINUOUS
 10
-1.129283
 20
2.957854
  0
VERTEX
  8
PLAN_1
 62
     2
  6
CONTINUOUS
 10
-1.126118
 20
2.960622
  0
VERTEX
  8
PLAN_1
 62
     2
  6
CONTINUOUS
 10
-1.122555
 20
2.962602
  0
VERTEX
  8
PLAN_1
 62
     2
  6
CONTINUOUS
 10
-1.112661
 20
2.968535
  0
VERTEX
  8
PLAN_1
 62
     2
  6
CONTINUOUS
 10
-1.109894
 20
2.970122
  0
VERTEX
  8
PLAN_1
 62
     2
  6
CONTINUOUS
 10
-1.107516
 20
2.971705
  0
VERTEX
  8
PLAN_1
 62
     2
  6
CONTINUOUS
 10
-1.105142
 20
2.973287
  0
VERTEX
  8
PLAN_1
 62
     2
  6
CONTINUOUS
 10
-1.103165
 20
2.974870
  0
VERTEX
  8
PLAN_1
 62
     2
  6
CONTINUOUS
 10
-1.101583
 20
2.976846
  0
VERTEX
  8
PLAN_1
 62
     2
  6
CONTINUOUS
 10
-1.100394
 20
2.979220
  0
VERTEX
  8
PLAN_1
 62
     2
  6
CONTINUOUS
 10
-1.099602
 20
2.981992
  0
VERTEX
  8
PLAN_1
 62
     2
  6
CONTINUOUS
 10
-1.099209
 20
2.985555
  0
VERTEX
  8
PLAN_1
 62
     2
  6
CONTINUOUS
 10
-1.099602
 20
2.987531
  0
VERTEX
  8
PLAN_1
 62
     2
  6
CONTINUOUS
 10
-1.100000
 20
2.989906
  0
VERTEX
  8
PLAN_1
 62
     2
  6
CONTINUOUS
 10
-1.101185
 20
2.992280
  0
VERTEX
  8
PLAN_1
 62
     2
  6
CONTINUOUS
 10
-1.102374
 20
2.994260
  0
VERTEX
  8
PLAN_1
 62
     2
  6
CONTINUOUS
 10
-1.104350
 20
2.995843
  0
VERTEX
  8
PLAN_1
 62
     2
  6
CONTINUOUS
 10
-1.107122
 20
2.997425
  0
VERTEX
  8
PLAN_1
 62
     2
  6
CONTINUOUS
 10
-1.110287
 20
2.998217
  0
VERTEX
  8
PLAN_1
 62
     2
  6
CONTINUOUS
 10
-1.113850
 20
2.998610
  0
VERTEX
  8
PLAN_1
 62
     2
  6
CONTINUOUS
 10
-1.116224
 20
2.998610
  0
VERTEX
  8
PLAN_1
 62
     2
  6
CONTINUOUS
 10
-1.118201
 20
2.998217
  0
VERTEX
  8
PLAN_1
 62
     2
  6
CONTINUOUS
 10
-1.120181
 20
2.997425
  0
VERTEX
  8
PLAN_1
 62
     2
  6
CONTINUOUS
 10
-1.121764
 20
2.996634
  0
VERTEX
  8
PLAN_1
 62
     2
  6
CONTINUOUS
 10
-1.123346
 20
2.995445
  0
VERTEX
  8
PLAN_1
 62
     2
  6
CONTINUOUS
 10
-1.124531
 20
2.994260
  0
VERTEX
  8
PLAN_1
 62
     2
  6
CONTINUOUS
 10
-1.125323
 20
2.993071
  0
VERTEX
  8
PLAN_1
 62
     2
  6
CONTINUOUS
 10
-1.126118
 20
2.991488
  0
VERTEX
  8
PLAN_1
 62
     2
  6
CONTINUOUS
 10
-1.127303
 20
2.988720
  0
VERTEX
  8
PLAN_1
 62
     2
  6
CONTINUOUS
 10
-1.128094
 20
2.985555
  0
VERTEX
  8
PLAN_1
 62
     2
  6
CONTINUOUS
 10
-1.128492
 20
2.982783
  0
VERTEX
  8
PLAN_1
 62
     2
  6
CONTINUOUS
 10
-1.128492
 20
2.980803
  0
VERTEX
  8
PLAN_1
 62
     2
  6
CONTINUOUS
 10
-1.137591
 20
2.980803
  0
SEQEND
  8
0
  0
POLYLINE
  8
PLAN_1
 62
     2
  6
CONTINUOUS
 66
     1
 40
0.004350
 41
0.004350
  0
VERTEX
  8
PLAN_1
 62
     2
  6
CONTINUOUS
 10
-2.225020
 20
2.380898
  0
VERTEX
  8
PLAN_1
 62
     2
  6
CONTINUOUS
 10
-2.225020
 20
3.092791
  0
SEQEND
  8
0
  0
POLYLINE
  8
PLAN_1
 62
     2
  6
CONTINUOUS
 66
     1
 40
0.004350
 41
0.004350
  0
VERTEX
  8
PLAN_1
 62
     2
  6
CONTINUOUS
 10
0.278283
 20
2.736646
  0
VERTEX
  8
PLAN_1
 62
     2
  6
CONTINUOUS
 10
0.278283
 20
3.092791
  0
SEQEND
  8
0
  0
POLYLINE
  8
PLAN_1
 62
     2
  6
CONTINUOUS
 66
     1
 40
0.004350
 41
0.004350
  0
VERTEX
  8
PLAN_1
 62
     2
  6
CONTINUOUS
 10
-2.195343
 20
3.069445
  0
VERTEX
  8
PLAN_1
 62
     2
  6
CONTINUOUS
 10
0.248602
 20
3.069445
  0
SEQEND
  8
0
  0
SOLID
  8
PLAN_1
 62
     2
 10
0.278283
 20
3.069445
 11
0.219319
 21
3.084878
 12
0.278283
 22
3.069445
 13
0.219319
 23
3.053618
  0
POLYLINE
  8
PLAN_1
 62
     2
  6
CONTINUOUS
 66
     1
 40
0.003000
 41
0.003000
  0
VERTEX
  8
PLAN_1
 62
     2
  6
CONTINUOUS
 10
0.278283
 20
3.069445
  0
VERTEX
  8
PLAN_1
 62
     2
  6
CONTINUOUS
 10
0.219319
 20
3.084878
  0
VERTEX
  8
PLAN_1
 62
     2
  6
CONTINUOUS
 10
0.219319
 20
3.053618
  0
VERTEX
  8
PLAN_1
 62
     2
  6
CONTINUOUS
 10
0.278283
 20
3.069445
  0
SEQEND
  8
0
  0
SOLID
  8
PLAN_1
 62
     2
 10
-2.225020
 20
3.069445
 11
-2.166059
 21
3.084878
 12
-2.225020
 22
3.069445
 13
-2.166059
 23
3.053618
  0
POLYLINE
  8
PLAN_1
 62
     2
  6
CONTINUOUS
 66
     1
 40
0.003000
 41
0.003000
  0
VERTEX
  8
PLAN_1
 62
     2
  6
CONTINUOUS
 10
-2.225020
 20
3.069445
  0
VERTEX
  8
PLAN_1
 62
     2
  6
CONTINUOUS
 10
-2.166059
 20
3.084878
  0
VERTEX
  8
PLAN_1
 62
     2
  6
CONTINUOUS
 10
-2.166059
 20
3.053618
  0
VERTEX
  8
PLAN_1
 62
     2
  6
CONTINUOUS
 10
-2.225020
 20
3.069445
  0
SEQEND
  8
0
  0
POLYLINE
  8
PLAN_1
 62
     2
  6
CONTINUOUS
 66
     1
 40
0.003000
 41
0.003000
  0
VERTEX
  8
PLAN_1
 62
     2
  6
CONTINUOUS
 10
-1.031146
 20
3.146610
  0
VERTEX
  8
PLAN_1
 62
     2
  6
CONTINUOUS
 10
-1.031937
 20
3.148984
  0
VERTEX
  8
PLAN_1
 62
     2
  6
CONTINUOUS
 10
-1.032728
 20
3.150965
  0
VERTEX
  8
PLAN_1
 62
     2
  6
CONTINUOUS
 10
-1.033520
 20
3.152941
  0
VERTEX
  8
PLAN_1
 62
     2
  6
CONTINUOUS
 10
-1.035102
 20
3.154524
  0
VERTEX
  8
PLAN_1
 62
     2
  6
CONTINUOUS
 10
-1.036685
 20
3.156106
  0
VERTEX
  8
PLAN_1
 62
     2
  6
CONTINUOUS
 10
-1.038661
 20
3.156898
  0
VERTEX
  8
PLAN_1
 62
     2
  6
CONTINUOUS
 10
-1.041035
 20
3.157689
  0
VERTEX
  8
PLAN_1
 62
     2
  6
CONTINUOUS
 10
-1.043807
 20
3.157689
  0
VERTEX
  8
PLAN_1
 62
     2
  6
CONTINUOUS
 10
-1.046181
 20
3.157689
  0
VERTEX
  8
PLAN_1
 62
     2
  6
CONTINUOUS
 10
-1.048555
 20
3.156898
  0
VERTEX
  8
PLAN_1
 62
     2
  6
CONTINUOUS
 10
-1.050929
 20
3.156106
  0
VERTEX
  8
PLAN_1
 62
     2
  6
CONTINUOUS
 10
-1.052512
 20
3.154524
  0
VERTEX
  8
PLAN_1
 62
     2
  6
CONTINUOUS
 10
-1.054094
 20
3.152941
  0
VERTEX
  8
PLAN_1
 62
     2
  6
CONTINUOUS
 10
-1.055677
 20
3.151358
  0
VERTEX
  8
PLAN_1
 62
     2
  6
CONTINUOUS
 10
-1.056866
 20
3.149378
  0
VERTEX
  8
PLAN_1
 62
     2
  6
CONTINUOUS
 10
-1.058051
 20
3.147004
  0
VERTEX
  8
PLAN_1
 62
     2
  6
CONTINUOUS
 10
-1.059634
 20
3.142654
  0
VERTEX
  8
PLAN_1
 62
     2
  6
CONTINUOUS
 10
-1.060429
 20
3.138299
  0
VERTEX
  8
PLAN_1
 62
     2
  6
CONTINUOUS
 10
-1.061220
 20
3.133949
  0
VERTEX
  8
PLAN_1
 62
     2
  6
CONTINUOUS
 10
-1.061220
 20
3.130780
  0
VERTEX
  8
PLAN_1
 62
     2
  6
CONTINUOUS
 10
-1.060823
 20
3.130386
  0
VERTEX
  8
PLAN_1
 62
     2
  6
CONTINUOUS
 10
-1.060031
 20
3.131969
  0
VERTEX
  8
PLAN_1
 62
     2
  6
CONTINUOUS
 10
-1.058843
 20
3.133551
  0
VERTEX
  8
PLAN_1
 62
     2
  6
CONTINUOUS
 10
-1.057260
 20
3.135134
  0
VERTEX
  8
PLAN_1
 62
     2
  6
CONTINUOUS
 10
-1.055283
 20
3.136323
  0
VERTEX
  8
PLAN_1
 62
     2
  6
CONTINUOUS
 10
-1.052909
 20
3.137508
  0
VERTEX
  8
PLAN_1
 62
     2
  6
CONTINUOUS
 10
-1.050138
 20
3.138697
  0
VERTEX
  8
PLAN_1
 62
     2
  6
CONTINUOUS
 10
-1.046972
 20
3.139091
  0
VERTEX
  8
PLAN_1
 62
     2
  6
CONTINUOUS
 10
-1.043409
 20
3.139488
  0
VERTEX
  8
PLAN_1
 62
     2
  6
CONTINUOUS
 10
-1.040244
 20
3.139091
  0
VERTEX
  8
PLAN_1
 62
     2
  6
CONTINUOUS
 10
-1.036287
 20
3.138299
  0
VERTEX
  8
PLAN_1
 62
     2
  6
CONTINUOUS
 10
-1.032331
 20
3.136717
  0
VERTEX
  8
PLAN_1
 62
     2
  6
CONTINUOUS
 10
-1.028772
 20
3.134343
  0
VERTEX
  8
PLAN_1
 62
     2
  6
CONTINUOUS
 10
-1.027185
 20
3.133157
  0
VERTEX
  8
PLAN_1
 62
     2
  6
CONTINUOUS
 10
-1.025602
 20
3.131177
  0
VERTEX
  8
PLAN_1
 62
     2
  6
CONTINUOUS
 10
-1.024417
 20
3.129594
  0
VERTEX
  8
PLAN_1
 62
     2
  6
CONTINUOUS
 10
-1.023228
 20
3.127220
  0
VERTEX
  8
PLAN_1
 62
     2
  6
CONTINUOUS
 10
-1.022043
 20
3.124846
  0
VERTEX
  8
PLAN_1
 62
     2
  6
CONTINUOUS
 10
-1.021252
 20
3.122472
  0
VERTEX
  8
PLAN_1
 62
     2
  6
CONTINUOUS
 10
-1.020854
 20
3.119307
  0
VERTEX
  8
PLAN_1
 62
     2
  6
CONTINUOUS
 10
-1.020854
 20
3.116138
  0
VERTEX
  8
PLAN_1
 62
     2
  6
CONTINUOUS
 10
-1.020854
 20
3.113370
  0
VERTEX
  8
PLAN_1
 62
     2
  6
CONTINUOUS
 10
-1.021252
 20
3.110996
  0
VERTEX
  8
PLAN_1
 62
     2
  6
CONTINUOUS
 10
-1.021646
 20
3.108622
  0
VERTEX
  8
PLAN_1
 62
     2
  6
CONTINUOUS
 10
-1.022437
 20
3.106248
  0
VERTEX
  8
PLAN_1
 62
     2
  6
CONTINUOUS
 10
-1.023228
 20
3.104268
  0
VERTEX
  8
PLAN_1
 62
     2
  6
CONTINUOUS
 10
-1.024417
 20
3.101894
  0
VERTEX
  8
PLAN_1
 62
     2
  6
CONTINUOUS
 10
-1.026000
 20
3.099913
  0
VERTEX
  8
PLAN_1
 62
     2
  6
CONTINUOUS
 10
-1.027583
 20
3.097937
  0
VERTEX
  8
PLAN_1
 62
     2
  6
CONTINUOUS
 10
-1.029165
 20
3.096354
  0
VERTEX
  8
PLAN_1
 62
     2
  6
CONTINUOUS
 10
-1.030748
 20
3.095165
  0
VERTEX
  8
PLAN_1
 62
     2
  6
CONTINUOUS
 10
-1.032331
 20
3.093980
  0
VERTEX
  8
PLAN_1
 62
     2
  6
CONTINUOUS
 10
-1.034705
 20
3.092791
  0
VERTEX
  8
PLAN_1
 62
     2
  6
CONTINUOUS
 10
-1.036685
 20
3.092000
  0
VERTEX
  8
PLAN_1
 62
     2
  6
CONTINUOUS
 10
-1.039453
 20
3.091209
  0
VERTEX
  8
PLAN_1
 62
     2
  6
CONTINUOUS
 10
-1.042618
 20
3.091209
  0
VERTEX
  8
PLAN_1
 62
     2
  6
CONTINUOUS
 10
-1.046181
 20
3.090815
  0
VERTEX
  8
PLAN_1
 62
     2
  6
CONTINUOUS
 10
-1.048555
 20
3.090815
  0
VERTEX
  8
PLAN_1
 62
     2
  6
CONTINUOUS
 10
-1.050929
 20
3.091209
  0
VERTEX
  8
PLAN_1
 62
     2
  6
CONTINUOUS
 10
-1.053303
 20
3.092000
  0
VERTEX
  8
PLAN_1
 62
     2
  6
CONTINUOUS
 10
-1.055677
 20
3.093189
  0
VERTEX
  8
PLAN_1
 62
     2
  6
CONTINUOUS
 10
-1.058449
 20
3.094374
  0
VERTEX
  8
PLAN_1
 62
     2
  6
CONTINUOUS
 10
-1.060823
 20
3.096354
  0
VERTEX
  8
PLAN_1
 62
     2
  6
CONTINUOUS
 10
-1.062803
 20
3.098728
  0
VERTEX
  8
PLAN_1
 62
     2
  6
CONTINUOUS
 10
-1.065177
 20
3.101500
  0
VERTEX
  8
PLAN_1
 62
     2
  6
CONTINUOUS
 10
-1.066362
 20
3.104268
  0
VERTEX
  8
PLAN_1
 62
     2
  6
CONTINUOUS
 10
-1.067945
 20
3.107039
  0
VERTEX
  8
PLAN_1
 62
     2
  6
CONTINUOUS
 10
-1.068736
 20
3.110205
  0
VERTEX
  8
PLAN_1
 62
     2
  6
CONTINUOUS
 10
-1.069528
 20
3.113370
  0
VERTEX
  8
PLAN_1
 62
     2
  6
CONTINUOUS
 10
-1.069925
 20
3.116535
  0
VERTEX
  8
PLAN_1
 62
     2
  6
CONTINUOUS
 10
-1.070319
 20
3.119701
  0
VERTEX
  8
PLAN_1
 62
     2
  6
CONTINUOUS
 10
-1.070717
 20
3.123264
  0
VERTEX
  8
PLAN_1
 62
     2
  6
CONTINUOUS
 10
-1.070717
 20
3.126823
  0
VERTEX
  8
PLAN_1
 62
     2
  6
CONTINUOUS
 10
-1.070319
 20
3.133157
  0
VERTEX
  8
PLAN_1
 62
     2
  6
CONTINUOUS
 10
-1.069528
 20
3.139882
  0
VERTEX
  8
PLAN_1
 62
     2
  6
CONTINUOUS
 10
-1.068736
 20
3.143047
  0
VERTEX
  8
PLAN_1
 62
     2
  6
CONTINUOUS
 10
-1.067945
 20
3.146213
  0
VERTEX
  8
PLAN_1
 62
     2
  6
CONTINUOUS
 10
-1.066760
 20
3.149378
  0
VERTEX
  8
PLAN_1
 62
     2
  6
CONTINUOUS
 10
-1.065177
 20
3.152547
  0
VERTEX
  8
PLAN_1
 62
     2
  6
CONTINUOUS
 10
-1.063594
 20
3.155315
  0
VERTEX
  8
PLAN_1
 62
     2
  6
CONTINUOUS
 10
-1.061614
 20
3.157689
  0
VERTEX
  8
PLAN_1
 62
     2
  6
CONTINUOUS
 10
-1.059634
 20
3.160063
  0
VERTEX
  8
PLAN_1
 62
     2
  6
CONTINUOUS
 10
-1.056866
 20
3.162043
  0
VERTEX
  8
PLAN_1
 62
     2
  6
CONTINUOUS
 10
-1.054094
 20
3.163626
  0
VERTEX
  8
PLAN_1
 62
     2
  6
CONTINUOUS
 10
-1.050929
 20
3.164811
  0
VERTEX
  8
PLAN_1
 62
     2
  6
CONTINUOUS
 10
-1.047370
 20
3.165602
  0
VERTEX
  8
PLAN_1
 62
     2
  6
CONTINUOUS
 10
-1.043409
 20
3.166000
  0
VERTEX
  8
PLAN_1
 62
     2
  6
CONTINUOUS
 10
-1.040244
 20
3.165602
  0
VERTEX
  8
PLAN_1
 62
     2
  6
CONTINUOUS
 10
-1.036685
 20
3.165209
  0
VERTEX
  8
PLAN_1
 62
     2
  6
CONTINUOUS
 10
-1.033520
 20
3.163626
  0
VERTEX
  8
PLAN_1
 62
     2
  6
CONTINUOUS
 10
-1.029957
 20
3.162043
  0
VERTEX
  8
PLAN_1
 62
     2
  6
CONTINUOUS
 10
-1.028772
 20
3.160461
  0
VERTEX
  8
PLAN_1
 62
     2
  6
CONTINUOUS
 10
-1.027185
 20
3.159272
  0
VERTEX
  8
PLAN_1
 62
     2
  6
CONTINUOUS
 10
-1.026000
 20
3.157689
  0
VERTEX
  8
PLAN_1
 62
     2
  6
CONTINUOUS
 10
-1.024811
 20
3.155713
  0
VERTEX
  8
PLAN_1
 62
     2
  6
CONTINUOUS
 10
-1.024020
 20
3.153732
  0
VERTEX
  8
PLAN_1
 62
     2
  6
CONTINUOUS
 10
-1.023228
 20
3.151756
  0
VERTEX
  8
PLAN_1
 62
     2
  6
CONTINUOUS
 10
-1.022437
 20
3.149378
  0
VERTEX
  8
PLAN_1
 62
     2
  6
CONTINUOUS
 10
-1.022437
 20
3.146610
  0
VERTEX
  8
PLAN_1
 62
     2
  6
CONTINUOUS
 10
-1.031146
 20
3.146610
  0
SEQEND
  8
0
  0
POLYLINE
  8
PLAN_1
 62
     2
  6
CONTINUOUS
 66
     1
 40
0.003000
 41
0.003000
  0
VERTEX
  8
PLAN_1
 62
     2
  6
CONTINUOUS
 10
-1.044598
 20
3.099122
  0
VERTEX
  8
PLAN_1
 62
     2
  6
CONTINUOUS
 10
-1.041433
 20
3.099520
  0
VERTEX
  8
PLAN_1
 62
     2
  6
CONTINUOUS
 10
-1.038661
 20
3.100311
  0
VERTEX
  8
PLAN_1
 62
     2
  6
CONTINUOUS
 10
-1.036287
 20
3.101894
  0
VERTEX
  8
PLAN_1
 62
     2
  6
CONTINUOUS
 10
-1.033913
 20
3.103874
  0
VERTEX
  8
PLAN_1
 62
     2
  6
CONTINUOUS
 10
-1.032331
 20
3.106248
  0
VERTEX
  8
PLAN_1
 62
     2
  6
CONTINUOUS
 10
-1.031146
 20
3.109016
  0
VERTEX
  8
PLAN_1
 62
     2
  6
CONTINUOUS
 10
-1.030354
 20
3.112181
  0
VERTEX
  8
PLAN_1
 62
     2
  6
CONTINUOUS
 10
-1.030354
 20
3.115744
  0
VERTEX
  8
PLAN_1
 62
     2
  6
CONTINUOUS
 10
-1.030354
 20
3.118516
  0
VERTEX
  8
PLAN_1
 62
     2
  6
CONTINUOUS
 10
-1.030748
 20
3.120890
  0
VERTEX
  8
PLAN_1
 62
     2
  6
CONTINUOUS
 10
-1.031937
 20
3.123657
  0
VERTEX
  8
PLAN_1
 62
     2
  6
CONTINUOUS
 10
-1.033122
 20
3.126031
  0
VERTEX
  8
PLAN_1
 62
     2
  6
CONTINUOUS
 10
-1.035496
 20
3.128012
  0
VERTEX
  8
PLAN_1
 62
     2
  6
CONTINUOUS
 10
-1.037870
 20
3.129594
  0
VERTEX
  8
PLAN_1
 62
     2
  6
CONTINUOUS
 10
-1.039453
 20
3.130386
  0
VERTEX
  8
PLAN_1
 62
     2
  6
CONTINUOUS
 10
-1.041035
 20
3.130780
  0
VERTEX
  8
PLAN_1
 62
     2
  6
CONTINUOUS
 10
-1.043016
 20
3.131177
  0
VERTEX
  8
PLAN_1
 62
     2
  6
CONTINUOUS
 10
-1.044996
 20
3.131177
  0
VERTEX
  8
PLAN_1
 62
     2
  6
CONTINUOUS
 10
-1.048555
 20
3.130780
  0
VERTEX
  8
PLAN_1
 62
     2
  6
CONTINUOUS
 10
-1.051720
 20
3.129988
  0
VERTEX
  8
PLAN_1
 62
     2
  6
CONTINUOUS
 10
-1.054094
 20
3.128406
  0
VERTEX
  8
PLAN_1
 62
     2
  6
CONTINUOUS
 10
-1.056075
 20
3.126429
  0
VERTEX
  8
PLAN_1
 62
     2
  6
CONTINUOUS
 10
-1.058051
 20
3.124055
  0
VERTEX
  8
PLAN_1
 62
     2
  6
CONTINUOUS
 10
-1.058843
 20
3.121283
  0
VERTEX
  8
PLAN_1
 62
     2
  6
CONTINUOUS
 10
-1.059634
 20
3.118516
  0
VERTEX
  8
PLAN_1
 62
     2
  6
CONTINUOUS
 10
-1.060031
 20
3.115346
  0
VERTEX
  8
PLAN_1
 62
     2
  6
CONTINUOUS
 10
-1.059634
 20
3.112579
  0
VERTEX
  8
PLAN_1
 62
     2
  6
CONTINUOUS
 10
-1.058843
 20
3.109413
  0
VERTEX
  8
PLAN_1
 62
     2
  6
CONTINUOUS
 10
-1.058051
 20
3.106642
  0
VERTEX
  8
PLAN_1
 62
     2
  6
CONTINUOUS
 10
-1.056075
 20
3.104268
  0
VERTEX
  8
PLAN_1
 62
     2
  6
CONTINUOUS
 10
-1.054094
 20
3.102291
  0
VERTEX
  8
PLAN_1
 62
     2
  6
CONTINUOUS
 10
-1.051327
 20
3.100709
  0
VERTEX
  8
PLAN_1
 62
     2
  6
CONTINUOUS
 10
-1.048161
 20
3.099520
  0
VERTEX
  8
PLAN_1
 62
     2
  6
CONTINUOUS
 10
-1.044598
 20
3.099122
  0
SEQEND
  8
0
  0
POLYLINE
  8
PLAN_1
 62
     2
  6
CONTINUOUS
 66
     1
 40
0.003000
 41
0.003000
  0
VERTEX
  8
PLAN_1
 62
     2
  6
CONTINUOUS
 10
-0.993551
 20
3.134343
  0
VERTEX
  8
PLAN_1
 62
     2
  6
CONTINUOUS
 10
-0.992760
 20
3.134343
  0
VERTEX
  8
PLAN_1
 62
     2
  6
CONTINUOUS
 10
-0.992362
 20
3.134343
  0
VERTEX
  8
PLAN_1
 62
     2
  6
CONTINUOUS
 10
-0.991571
 20
3.134343
  0
VERTEX
  8
PLAN_1
 62
     2
  6
CONTINUOUS
 10
-0.991177
 20
3.134343
  0
VERTEX
  8
PLAN_1
 62
     2
  6
CONTINUOUS
 10
-0.990386
 20
3.134343
  0
VERTEX
  8
PLAN_1
 62
     2
  6
CONTINUOUS
 10
-0.989988
 20
3.134343
  0
VERTEX
  8
PLAN_1
 62
     2
  6
CONTINUOUS
 10
-0.989197
 20
3.134343
  0
VERTEX
  8
PLAN_1
 62
     2
  6
CONTINUOUS
 10
-0.988803
 20
3.134343
  0
VERTEX
  8
PLAN_1
 62
     2
  6
CONTINUOUS
 10
-0.986031
 20
3.134343
  0
VERTEX
  8
PLAN_1
 62
     2
  6
CONTINUOUS
 10
-0.983657
 20
3.134740
  0
VERTEX
  8
PLAN_1
 62
     2
  6
CONTINUOUS
 10
-0.981283
 20
3.135531
  0
VERTEX
  8
PLAN_1
 62
     2
  6
CONTINUOUS
 10
-0.978909
 20
3.136717
  0
VERTEX
  8
PLAN_1
 62
     2
  6
CONTINUOUS
 10
-0.977327
 20
3.138299
  0
VERTEX
  8
PLAN_1
 62
     2
  6
CONTINUOUS
 10
-0.975744
 20
3.140673
  0
VERTEX
  8
PLAN_1
 62
     2
  6
CONTINUOUS
 10
-0.974953
 20
3.143047
  0
VERTEX
  8
PLAN_1
 62
     2
  6
CONTINUOUS
 10
-0.974555
 20
3.146213
  0
VERTEX
  8
PLAN_1
 62
     2
  6
CONTINUOUS
 10
-0.974953
 20
3.147795
  0
VERTEX
  8
PLAN_1
 62
     2
  6
CONTINUOUS
 10
-0.975346
 20
3.149776
  0
VERTEX
  8
PLAN_1
 62
     2
  6
CONTINUOUS
 10
-0.976138
 20
3.151756
  0
VERTEX
  8
PLAN_1
 62
     2
  6
CONTINUOUS
 10
-0.977327
 20
3.153732
  0
VERTEX
  8
PLAN_1
 62
     2
  6
CONTINUOUS
 10
-0.979307
 20
3.155315
  0
VERTEX
  8
PLAN_1
 62
     2
  6
CONTINUOUS
 10
-0.981681
 20
3.156504
  0
VERTEX
  8
PLAN_1
 62
     2
  6
CONTINUOUS
 10
-0.984449
 20
3.157295
  0
VERTEX
  8
PLAN_1
 62
     2
  6
CONTINUOUS
 10
-0.988012
 20
3.157689
  0
VERTEX
  8
PLAN_1
 62
     2
  6
CONTINUOUS
 10
-0.990386
 20
3.157689
  0
VERTEX
  8
PLAN_1
 62
     2
  6
CONTINUOUS
 10
-0.992362
 20
3.157295
  0
VERTEX
  8
PLAN_1
 62
     2
  6
CONTINUOUS
 10
-0.994343
 20
3.156898
  0
VERTEX
  8
PLAN_1
 62
     2
  6
CONTINUOUS
 10
-0.995925
 20
3.156106
  0
VERTEX
  8
PLAN_1
 62
     2
  6
CONTINUOUS
 10
-0.997114
 20
3.155315
  0
VERTEX
  8
PLAN_1
 62
     2
  6
CONTINUOUS
 10
-0.998299
 20
3.154130
  0
VERTEX
  8
PLAN_1
 62
     2
  6
CONTINUOUS
 10
-0.999091
 20
3.152941
  0
VERTEX
  8
PLAN_1
 62
     2
  6
CONTINUOUS
 10
-0.999882
 20
3.151756
  0
VERTEX
  8
PLAN_1
 62
     2
  6
CONTINUOUS
 10
-1.001071
 20
3.149378
  0
VERTEX
  8
PLAN_1
 62
     2
  6
CONTINUOUS
 10
-1.001862
 20
3.146610
  0
VERTEX
  8
PLAN_1
 62
     2
  6
CONTINUOUS
 10
-1.002256
 20
3.144236
  0
VERTEX
  8
PLAN_1
 62
     2
  6
CONTINUOUS
 10
-1.002654
 20
3.142256
  0
VERTEX
  8
PLAN_1
 62
     2
  6
CONTINUOUS
 10
-1.011358
 20
3.142256
  0
VERTEX
  8
PLAN_1
 62
     2
  6
CONTINUOUS
 10
-1.011358
 20
3.146213
  0
VERTEX
  8
PLAN_1
 62
     2
  6
CONTINUOUS
 10
-1.010567
 20
3.150173
  0
VERTEX
  8
PLAN_1
 62
     2
  6
CONTINUOUS
 10
-1.009776
 20
3.152547
  0
VERTEX
  8
PLAN_1
 62
     2
  6
CONTINUOUS
 10
-1.008984
 20
3.154524
  0
VERTEX
  8
PLAN_1
 62
     2
  6
CONTINUOUS
 10
-1.008193
 20
3.156106
  0
VERTEX
  8
PLAN_1
 62
     2
  6
CONTINUOUS
 10
-1.007004
 20
3.158087
  0
VERTEX
  8
PLAN_1
 62
     2
  6
CONTINUOUS
 10
-1.005421
 20
3.159669
  0
VERTEX
  8
PLAN_1
 62
     2
  6
CONTINUOUS
 10
-1.003839
 20
3.161252
  0
VERTEX
  8
PLAN_1
 62
     2
  6
CONTINUOUS
 10
-1.001862
 20
3.162437
  0
VERTEX
  8
PLAN_1
 62
     2
  6
CONTINUOUS
 10
-0.999488
 20
3.163626
  0
VERTEX
  8
PLAN_1
 62
     2
  6
CONTINUOUS
 10
-0.997114
 20
3.164811
  0
VERTEX
  8
PLAN_1
 62
     2
  6
CONTINUOUS
 10
-0.994343
 20
3.165602
  0
VERTEX
  8
PLAN_1
 62
     2
  6
CONTINUOUS
 10
-0.991177
 20
3.166000
  0
VERTEX
  8
PLAN_1
 62
     2
  6
CONTINUOUS
 10
-0.987614
 20
3.166000
  0
VERTEX
  8
PLAN_1
 62
     2
  6
CONTINUOUS
 10
-0.982866
 20
3.165602
  0
VERTEX
  8
PLAN_1
 62
     2
  6
CONTINUOUS
 10
-0.978118
 20
3.164417
  0
VERTEX
  8
PLAN_1
 62
     2
  6
CONTINUOUS
 10
-0.976138
 20
3.163626
  0
VERTEX
  8
PLAN_1
 62
     2
  6
CONTINUOUS
 10
-0.974555
 20
3.162835
  0
VERTEX
  8
PLAN_1
 62
     2
  6
CONTINUOUS
 10
-0.972579
 20
3.161646
  0
VERTEX
  8
PLAN_1
 62
     2
  6
CONTINUOUS
 10
-0.971390
 20
3.160461
  0
VERTEX
  8
PLAN_1
 62
     2
  6
CONTINUOUS
 10
-0.969807
 20
3.159272
  0
VERTEX
  8
PLAN_1
 62
     2
  6
CONTINUOUS
 10
-0.968622
 20
3.157689
  0
VERTEX
  8
PLAN_1
 62
     2
  6
CONTINUOUS
 10
-0.967433
 20
3.156106
  0
VERTEX
  8
PLAN_1
 62
     2
  6
CONTINUOUS
 10
-0.966642
 20
3.154524
  0
VERTEX
  8
PLAN_1
 62
     2
  6
CONTINUOUS
 10
-0.966248
 20
3.152547
  0
VERTEX
  8
PLAN_1
 62
     2
  6
CONTINUOUS
 10
-0.965457
 20
3.150965
  0
VERTEX
  8
PLAN_1
 62
     2
  6
CONTINUOUS
 10
-0.965457
 20
3.148984
  0
VERTEX
  8
PLAN_1
 62
     2
  6
CONTINUOUS
 10
-0.965059
 20
3.146610
  0
VERTEX
  8
PLAN_1
 62
     2
  6
CONTINUOUS
 10
-0.965457
 20
3.143445
  0
VERTEX
  8
PLAN_1
 62
     2
  6
CONTINUOUS
 10
-0.966248
 20
3.140673
  0
VERTEX
  8
PLAN_1
 62
     2
  6
CONTINUOUS
 10
-0.967039
 20
3.138299
  0
VERTEX
  8
PLAN_1
 62
     2
  6
CONTINUOUS
 10
-0.968224
 20
3.136323
  0
VERTEX
  8
PLAN_1
 62
     2
  6
CONTINUOUS
 10
-0.969807
 20
3.134343
  0
VERTEX
  8
PLAN_1
 62
     2
  6
CONTINUOUS
 10
-0.971390
 20
3.133157
  0
VERTEX
  8
PLAN_1
 62
     2
  6
CONTINUOUS
 10
-0.972972
 20
3.132362
  0
VERTEX
  8
PLAN_1
 62
     2
  6
CONTINUOUS
 10
-0.974555
 20
3.131571
  0
VERTEX
  8
PLAN_1
 62
     2
  6
CONTINUOUS
 10
-0.972181
 20
3.130386
  0
VERTEX
  8
PLAN_1
 62
     2
  6
CONTINUOUS
 10
-0.969807
 20
3.129197
  0
VERTEX
  8
PLAN_1
 62
     2
  6
CONTINUOUS
 10
-0.967433
 20
3.127614
  0
VERTEX
  8
PLAN_1
 62
     2
  6
CONTINUOUS
 10
-0.965850
 20
3.125638
  0
VERTEX
  8
PLAN_1
 62
     2
  6
CONTINUOUS
 10
-0.964268
 20
3.123657
  0
VERTEX
  8
PLAN_1
 62
     2
  6
CONTINUOUS
 10
-0.963476
 20
3.120890
  0
VERTEX
  8
PLAN_1
 62
     2
  6
CONTINUOUS
 10
-0.962685
 20
3.117724
  0
VERTEX
  8
PLAN_1
 62
     2
  6
CONTINUOUS
 10
-0.962291
 20
3.114555
  0
VERTEX
  8
PLAN_1
 62
     2
  6
CONTINUOUS
 10
-0.962685
 20
3.109807
  0
VERTEX
  8
PLAN_1
 62
     2
  6
CONTINUOUS
 10
-0.963874
 20
3.105850
  0
VERTEX
  8
PLAN_1
 62
     2
  6
CONTINUOUS
 10
-0.964665
 20
3.103476
  0
VERTEX
  8
PLAN_1
 62
     2
  6
CONTINUOUS
 10
-0.965850
 20
3.101894
  0
VERTEX
  8
PLAN_1
 62
     2
  6
CONTINUOUS
 10
-0.967039
 20
3.099913
  0
VERTEX
  8
PLAN_1
 62
     2
  6
CONTINUOUS
 10
-0.968622
 20
3.098331
  0
VERTEX
  8
PLAN_1
 62
     2
  6
CONTINUOUS
 10
-0.970205
 20
3.096748
  0
VERTEX
  8
PLAN_1
 62
     2
  6
CONTINUOUS
 10
-0.972181
 20
3.095165
  0
VERTEX
  8
PLAN_1
 62
     2
  6
CONTINUOUS
 10
-0.974555
 20
3.093980
  0
VERTEX
  8
PLAN_1
 62
     2
  6
CONTINUOUS
 10
-0.976929
 20
3.092791
  0
VERTEX
  8
PLAN_1
 62
     2
  6
CONTINUOUS
 10
-0.979307
 20
3.092000
  0
VERTEX
  8
PLAN_1
 62
     2
  6
CONTINUOUS
 10
-0.982075
 20
3.091209
  0
VERTEX
  8
PLAN_1
 62
     2
  6
CONTINUOUS
 10
-0.985240
 20
3.091209
  0
VERTEX
  8
PLAN_1
 62
     2
  6
CONTINUOUS
 10
-0.988803
 20
3.090815
  0
VERTEX
  8
PLAN_1
 62
     2
  6
CONTINUOUS
 10
-0.990780
 20
3.090815
  0
VERTEX
  8
PLAN_1
 62
     2
  6
CONTINUOUS
 10
-0.992760
 20
3.091209
  0
VERTEX
  8
PLAN_1
 62
     2
  6
CONTINUOUS
 10
-0.994343
 20
3.091209
  0
VERTEX
  8
PLAN_1
 62
     2
  6
CONTINUOUS
 10
-0.996323
 20
3.091606
  0
VERTEX
  8
PLAN_1
 62
     2
  6
CONTINUOUS
 10
-0.997906
 20
3.092398
  0
VERTEX
  8
PLAN_1
 62
     2
  6
CONTINUOUS
 10
-0.999488
 20
3.092791
  0
VERTEX
  8
PLAN_1
 62
     2
  6
CONTINUOUS
 10
-1.001071
 20
3.093583
  0
VERTEX
  8
PLAN_1
 62
     2
  6
CONTINUOUS
 10
-1.002256
 20
3.093980
  0
VERTEX
  8
PLAN_1
 62
     2
  6
CONTINUOUS
 10
-1.005028
 20
3.095957
  0
VERTEX
  8
PLAN_1
 62
     2
  6
CONTINUOUS
 10
-1.007402
 20
3.097937
  0
VERTEX
  8
PLAN_1
 62
     2
  6
CONTINUOUS
 10
-1.008984
 20
3.100311
  0
VERTEX
  8
PLAN_1
 62
     2
  6
CONTINUOUS
 10
-1.010567
 20
3.103083
  0
VERTEX
  8
PLAN_1
 62
     2
  6
CONTINUOUS
 10
-1.011756
 20
3.105850
  0
VERTEX
  8
PLAN_1
 62
     2
  6
CONTINUOUS
 10
-1.012547
 20
3.109016
  0
VERTEX
  8
PLAN_1
 62
     2
  6
CONTINUOUS
 10
-1.012941
 20
3.112181
  0
VERTEX
  8
PLAN_1
 62
     2
  6
CONTINUOUS
 10
-1.013339
 20
3.115346
  0
VERTEX
  8
PLAN_1
 62
     2
  6
CONTINUOUS
 10
-1.003839
 20
3.115346
  0
VERTEX
  8
PLAN_1
 62
     2
  6
CONTINUOUS
 10
-1.003445
 20
3.112579
  0
VERTEX
  8
PLAN_1
 62
     2
  6
CONTINUOUS
 10
-1.003047
 20
3.109807
  0
VERTEX
  8
PLAN_1
 62
     2
  6
CONTINUOUS
 10
-1.002256
 20
3.107039
  0
VERTEX
  8
PLAN_1
 62
     2
  6
CONTINUOUS
 10
-1.001071
 20
3.104665
  0
VERTEX
  8
PLAN_1
 62
     2
  6
CONTINUOUS
 10
-0.999882
 20
3.103476
  0
VERTEX
  8
PLAN_1
 62
     2
  6
CONTINUOUS
 10
-0.999091
 20
3.102291
  0
VERTEX
  8
PLAN_1
 62
     2
  6
CONTINUOUS
 10
-0.997906
 20
3.101500
  0
VERTEX
  8
PLAN_1
 62
     2
  6
CONTINUOUS
 10
-0.996323
 20
3.100709
  0
VERTEX
  8
PLAN_1
 62
     2
  6
CONTINUOUS
 10
-0.994740
 20
3.099913
  0
VERTEX
  8
PLAN_1
 62
     2
  6
CONTINUOUS
 10
-0.992760
 20
3.099520
  0
VERTEX
  8
PLAN_1
 62
     2
  6
CONTINUOUS
 10
-0.990386
 20
3.099122
  0
VERTEX
  8
PLAN_1
 62
     2
  6
CONTINUOUS
 10
-0.988012
 20
3.099122
  0
VERTEX
  8
PLAN_1
 62
     2
  6
CONTINUOUS
 10
-0.984846
 20
3.099520
  0
VERTEX
  8
PLAN_1
 62
     2
  6
CONTINUOUS
 10
-0.981681
 20
3.100311
  0
VERTEX
  8
PLAN_1
 62
     2
  6
CONTINUOUS
 10
-0.978909
 20
3.101500
  0
VERTEX
  8
PLAN_1
 62
     2
  6
CONTINUOUS
 10
-0.976535
 20
3.103083
  0
VERTEX
  8
PLAN_1
 62
     2
  6
CONTINUOUS
 10
-0.974953
 20
3.105059
  0
VERTEX
  8
PLAN_1
 62
     2
  6
CONTINUOUS
 10
-0.973370
 20
3.107433
  0
VERTEX
  8
PLAN_1
 62
     2
  6
CONTINUOUS
 10
-0.972579
 20
3.110205
  0
VERTEX
  8
PLAN_1
 62
     2
  6
CONTINUOUS
 10
-0.972181
 20
3.113370
  0
VERTEX
  8
PLAN_1
 62
     2
  6
CONTINUOUS
 10
-0.972181
 20
3.115346
  0
VERTEX
  8
PLAN_1
 62
     2
  6
CONTINUOUS
 10
-0.972579
 20
3.117327
  0
VERTEX
  8
PLAN_1
 62
     2
  6
CONTINUOUS
 10
-0.973370
 20
3.118909
  0
VERTEX
  8
PLAN_1
 62
     2
  6
CONTINUOUS
 10
-0.974161
 20
3.120492
  0
VERTEX
  8
PLAN_1
 62
     2
  6
CONTINUOUS
 10
-0.974953
 20
3.121681
  0
VERTEX
  8
PLAN_1
 62
     2
  6
CONTINUOUS
 10
-0.976138
 20
3.122866
  0
VERTEX
  8
PLAN_1
 62
     2
  6
CONTINUOUS
 10
-0.976929
 20
3.123657
  0
VERTEX
  8
PLAN_1
 62
     2
  6
CONTINUOUS
 10
-0.978516
 20
3.124449
  0
VERTEX
  8
PLAN_1
 62
     2
  6
CONTINUOUS
 10
-0.981283
 20
3.125638
  0
VERTEX
  8
PLAN_1
 62
     2
  6
CONTINUOUS
 10
-0.984055
 20
3.126429
  0
VERTEX
  8
PLAN_1
 62
     2
  6
CONTINUOUS
 10
-0.986823
 20
3.126429
  0
VERTEX
  8
PLAN_1
 62
     2
  6
CONTINUOUS
 10
-0.989197
 20
3.126823
  0
VERTEX
  8
PLAN_1
 62
     2
  6
CONTINUOUS
 10
-0.989594
 20
3.126823
  0
VERTEX
  8
PLAN_1
 62
     2
  6
CONTINUOUS
 10
-0.990386
 20
3.126823
  0
VERTEX
  8
PLAN_1
 62
     2
  6
CONTINUOUS
 10
-0.990780
 20
3.126823
  0
VERTEX
  8
PLAN_1
 62
     2
  6
CONTINUOUS
 10
-0.991177
 20
3.126429
  0
VERTEX
  8
PLAN_1
 62
     2
  6
CONTINUOUS
 10
-0.991969
 20
3.126429
  0
VERTEX
  8
PLAN_1
 62
     2
  6
CONTINUOUS
 10
-0.992362
 20
3.126429
  0
VERTEX
  8
PLAN_1
 62
     2
  6
CONTINUOUS
 10
-0.992760
 20
3.126429
  0
VERTEX
  8
PLAN_1
 62
     2
  6
CONTINUOUS
 10
-0.993551
 20
3.126429
  0
VERTEX
  8
PLAN_1
 62
     2
  6
CONTINUOUS
 10
-0.993551
 20
3.134343
  0
SEQEND
  8
0
  0
POLYLINE
  8
PLAN_1
 62
     2
  6
CONTINUOUS
 66
     1
 40
0.003000
 41
0.003000
  0
VERTEX
  8
PLAN_1
 62
     2
  6
CONTINUOUS
 10
-0.949626
 20
3.103874
  0
VERTEX
  8
PLAN_1
 62
     2
  6
CONTINUOUS
 10
-0.938941
 20
3.103874
  0
VERTEX
  8
PLAN_1
 62
     2
  6
CONTINUOUS
 10
-0.938941
 20
3.093583
  0
VERTEX
  8
PLAN_1
 62
     2
  6
CONTINUOUS
 10
-0.938941
 20
3.091209
  0
VERTEX
  8
PLAN_1
 62
     2
  6
CONTINUOUS
 10
-0.939339
 20
3.088835
  0
VERTEX
  8
PLAN_1
 62
     2
  6
CONTINUOUS
 10
-0.939732
 20
3.086858
  0
VERTEX
  8
PLAN_1
 62
     2
  6
CONTINUOUS
 10
-0.940524
 20
3.085276
  0
VERTEX
  8
PLAN_1
 62
     2
  6
CONTINUOUS
 10
-0.941713
 20
3.082504
  0
VERTEX
  8
PLAN_1
 62
     2
  6
CONTINUOUS
 10
-0.943689
 20
3.080524
  0
VERTEX
  8
PLAN_1
 62
     2
  6
CONTINUOUS
 10
-0.945272
 20
3.078941
  0
VERTEX
  8
PLAN_1
 62
     2
  6
CONTINUOUS
 10
-0.947252
 20
3.078150
  0
VERTEX
  8
PLAN_1
 62
     2
  6
CONTINUOUS
 10
-0.948835
 20
3.077756
  0
VERTEX
  8
PLAN_1
 62
     2
  6
CONTINUOUS
 10
-0.949626
 20
3.077756
  0
VERTEX
  8
PLAN_1
 62
     2
  6
CONTINUOUS
 10
-0.949626
 20
3.082504
  0
VERTEX
  8
PLAN_1
 62
     2
  6
CONTINUOUS
 10
-0.948441
 20
3.082898
  0
VERTEX
  8
PLAN_1
 62
     2
  6
CONTINUOUS
 10
-0.947252
 20
3.083295
  0
VERTEX
  8
PLAN_1
 62
     2
  6
CONTINUOUS
 10
-0.946067
 20
3.084484
  0
VERTEX
  8
PLAN_1
 62
     2
  6
CONTINUOUS
 10
-0.945272
 20
3.086067
  0
VERTEX
  8
PLAN_1
 62
     2
  6
CONTINUOUS
 10
-0.944878
 20
3.087650
  0
VERTEX
  8
PLAN_1
 62
     2
  6
CONTINUOUS
 10
-0.944480
 20
3.089232
  0
VERTEX
  8
PLAN_1
 62
     2
  6
CONTINUOUS
 10
-0.944480
 20
3.091209
  0
VERTEX
  8
PLAN_1
 62
     2
  6
CONTINUOUS
 10
-0.944087
 20
3.092791
  0
VERTEX
  8
PLAN_1
 62
     2
  6
CONTINUOUS
 10
-0.949626
 20
3.092791
  0
VERTEX
  8
PLAN_1
 62
     2
  6
CONTINUOUS
 10
-0.949626
 20
3.103874
  0
SEQEND
  8
0
  0
POLYLINE
  8
PLAN_1
 62
     2
  6
CONTINUOUS
 66
     1
 40
0.003000
 41
0.003000
  0
VERTEX
  8
PLAN_1
 62
     2
  6
CONTINUOUS
 10
-0.886709
 20
3.146610
  0
VERTEX
  8
PLAN_1
 62
     2
  6
CONTINUOUS
 10
-0.887102
 20
3.148984
  0
VERTEX
  8
PLAN_1
 62
     2
  6
CONTINUOUS
 10
-0.887894
 20
3.150965
  0
VERTEX
  8
PLAN_1
 62
     2
  6
CONTINUOUS
 10
-0.889083
 20
3.152941
  0
VERTEX
  8
PLAN_1
 62
     2
  6
CONTINUOUS
 10
-0.890268
 20
3.154524
  0
VERTEX
  8
PLAN_1
 62
     2
  6
CONTINUOUS
 10
-0.891850
 20
3.156106
  0
VERTEX
  8
PLAN_1
 62
     2
  6
CONTINUOUS
 10
-0.893831
 20
3.156898
  0
VERTEX
  8
PLAN_1
 62
     2
  6
CONTINUOUS
 10
-0.896205
 20
3.157689
  0
VERTEX
  8
PLAN_1
 62
     2
  6
CONTINUOUS
 10
-0.898976
 20
3.157689
  0
VERTEX
  8
PLAN_1
 62
     2
  6
CONTINUOUS
 10
-0.901744
 20
3.157689
  0
VERTEX
  8
PLAN_1
 62
     2
  6
CONTINUOUS
 10
-0.904118
 20
3.156898
  0
VERTEX
  8
PLAN_1
 62
     2
  6
CONTINUOUS
 10
-0.906098
 20
3.156106
  0
VERTEX
  8
PLAN_1
 62
     2
  6
CONTINUOUS
 10
-0.907681
 20
3.154524
  0
VERTEX
  8
PLAN_1
 62
     2
  6
CONTINUOUS
 10
-0.909657
 20
3.152941
  0
VERTEX
  8
PLAN_1
 62
     2
  6
CONTINUOUS
 10
-0.910846
 20
3.151358
  0
VERTEX
  8
PLAN_1
 62
     2
  6
CONTINUOUS
 10
-0.912031
 20
3.149378
  0
VERTEX
  8
PLAN_1
 62
     2
  6
CONTINUOUS
 10
-0.913220
 20
3.147004
  0
VERTEX
  8
PLAN_1
 62
     2
  6
CONTINUOUS
 10
-0.914803
 20
3.142654
  0
VERTEX
  8
PLAN_1
 62
     2
  6
CONTINUOUS
 10
-0.915594
 20
3.138299
  0
VERTEX
  8
PLAN_1
 62
     2
  6
CONTINUOUS
 10
-0.916386
 20
3.133949
  0
VERTEX
  8
PLAN_1
 62
     2
  6
CONTINUOUS
 10
-0.916386
 20
3.130780
  0
VERTEX
  8
PLAN_1
 62
     2
  6
CONTINUOUS
 10
-0.916386
 20
3.130386
  0
VERTEX
  8
PLAN_1
 62
     2
  6
CONTINUOUS
 10
-0.915201
 20
3.131969
  0
VERTEX
  8
PLAN_1
 62
     2
  6
CONTINUOUS
 10
-0.914012
 20
3.133551
  0
VERTEX
  8
PLAN_1
 62
     2
  6
CONTINUOUS
 10
-0.912429
 20
3.135134
  0
VERTEX
  8
PLAN_1
 62
     2
  6
CONTINUOUS
 10
-0.910449
 20
3.136323
  0
VERTEX
  8
PLAN_1
 62
     2
  6
CONTINUOUS
 10
-0.908075
 20
3.137508
  0
VERTEX
  8
PLAN_1
 62
     2
  6
CONTINUOUS
 10
-0.905307
 20
3.138697
  0
VERTEX
  8
PLAN_1
 62
     2
  6
CONTINUOUS
 10
-0.902535
 20
3.139091
  0
VERTEX
  8
PLAN_1
 62
     2
  6
CONTINUOUS
 10
-0.898976
 20
3.139488
  0
VERTEX
  8
PLAN_1
 62
     2
  6
CONTINUOUS
 10
-0.895413
 20
3.139091
  0
VERTEX
  8
PLAN_1
 62
     2
  6
CONTINUOUS
 10
-0.891457
 20
3.138299
  0
VERTEX
  8
PLAN_1
 62
     2
  6
CONTINUOUS
 10
-0.887894
 20
3.136717
  0
VERTEX
  8
PLAN_1
 62
     2
  6
CONTINUOUS
 10
-0.883937
 20
3.134343
  0
VERTEX
  8
PLAN_1
 62
     2
  6
CONTINUOUS
 10
-0.882354
 20
3.133157
  0
VERTEX
  8
PLAN_1
 62
     2
  6
CONTINUOUS
 10
-0.880772
 20
3.131177
  0
VERTEX
  8
PLAN_1
 62
     2
  6
CONTINUOUS
 10
-0.879583
 20
3.129594
  0
VERTEX
  8
PLAN_1
 62
     2
  6
CONTINUOUS
 10
-0.878398
 20
3.127220
  0
VERTEX
  8
PLAN_1
 62
     2
  6
CONTINUOUS
 10
-0.877209
 20
3.124846
  0
VERTEX
  8
PLAN_1
 62
     2
  6
CONTINUOUS
 10
-0.876815
 20
3.122472
  0
VERTEX
  8
PLAN_1
 62
     2
  6
CONTINUOUS
 10
-0.876024
 20
3.119307
  0
VERTEX
  8
PLAN_1
 62
     2
  6
CONTINUOUS
 10
-0.876024
 20
3.116138
  0
VERTEX
  8
PLAN_1
 62
     2
  6
CONTINUOUS
 10
-0.876024
 20
3.113370
  0
VERTEX
  8
PLAN_1
 62
     2
  6
CONTINUOUS
 10
-0.876417
 20
3.110996
  0
VERTEX
  8
PLAN_1
 62
     2
  6
CONTINUOUS
 10
-0.876815
 20
3.108622
  0
VERTEX
  8
PLAN_1
 62
     2
  6
CONTINUOUS
 10
-0.877606
 20
3.106248
  0
VERTEX
  8
PLAN_1
 62
     2
  6
CONTINUOUS
 10
-0.878398
 20
3.104268
  0
VERTEX
  8
PLAN_1
 62
     2
  6
CONTINUOUS
 10
-0.879583
 20
3.101894
  0
VERTEX
  8
PLAN_1
 62
     2
  6
CONTINUOUS
 10
-0.881169
 20
3.099913
  0
VERTEX
  8
PLAN_1
 62
     2
  6
CONTINUOUS
 10
-0.883146
 20
3.097937
  0
VERTEX
  8
PLAN_1
 62
     2
  6
CONTINUOUS
 10
-0.884335
 20
3.096354
  0
VERTEX
  8
PLAN_1
 62
     2
  6
CONTINUOUS
 10
-0.885917
 20
3.095165
  0
VERTEX
  8
PLAN_1
 62
     2
  6
CONTINUOUS
 10
-0.887894
 20
3.093980
  0
VERTEX
  8
PLAN_1
 62
     2
  6
CONTINUOUS
 10
-0.889874
 20
3.092791
  0
VERTEX
  8
PLAN_1
 62
     2
  6
CONTINUOUS
 10
-0.892248
 20
3.092000
  0
VERTEX
  8
PLAN_1
 62
     2
  6
CONTINUOUS
 10
-0.894622
 20
3.091209
  0
VERTEX
  8
PLAN_1
 62
     2
  6
CONTINUOUS
 10
-0.897787
 20
3.091209
  0
VERTEX
  8
PLAN_1
 62
     2
  6
CONTINUOUS
 10
-0.901350
 20
3.090815
  0
VERTEX
  8
PLAN_1
 62
     2
  6
CONTINUOUS
 10
-0.903724
 20
3.090815
  0
VERTEX
  8
PLAN_1
 62
     2
  6
CONTINUOUS
 10
-0.906098
 20
3.091209
  0
VERTEX
  8
PLAN_1
 62
     2
  6
CONTINUOUS
 10
-0.908472
 20
3.092000
  0
VERTEX
  8
PLAN_1
 62
     2
  6
CONTINUOUS
 10
-0.911240
 20
3.093189
  0
VERTEX
  8
PLAN_1
 62
     2
  6
CONTINUOUS
 10
-0.913618
 20
3.094374
  0
VERTEX
  8
PLAN_1
 62
     2
  6
CONTINUOUS
 10
-0.915992
 20
3.096354
  0
VERTEX
  8
PLAN_1
 62
     2
  6
CONTINUOUS
 10
-0.918366
 20
3.098728
  0
VERTEX
  8
PLAN_1
 62
     2
  6
CONTINUOUS
 10
-0.920343
 20
3.101500
  0
VERTEX
  8
PLAN_1
 62
     2
  6
CONTINUOUS
 10
-0.921925
 20
3.104268
  0
VERTEX
  8
PLAN_1
 62
     2
  6
CONTINUOUS
 10
-0.923114
 20
3.107039
  0
VERTEX
  8
PLAN_1
 62
     2
  6
CONTINUOUS
 10
-0.923906
 20
3.110205
  0
VERTEX
  8
PLAN_1
 62
     2
  6
CONTINUOUS
 10
-0.924697
 20
3.113370
  0
VERTEX
  8
PLAN_1
 62
     2
  6
CONTINUOUS
 10
-0.925488
 20
3.116535
  0
VERTEX
  8
PLAN_1
 62
     2
  6
CONTINUOUS
 10
-0.925488
 20
3.119701
  0
VERTEX
  8
PLAN_1
 62
     2
  6
CONTINUOUS
 10
-0.925882
 20
3.123264
  0
VERTEX
  8
PLAN_1
 62
     2
  6
CONTINUOUS
 10
-0.925882
 20
3.126823
  0
VERTEX
  8
PLAN_1
 62
     2
  6
CONTINUOUS
 10
-0.925488
 20
3.133157
  0
VERTEX
  8
PLAN_1
 62
     2
  6
CONTINUOUS
 10
-0.924697
 20
3.139882
  0
VERTEX
  8
PLAN_1
 62
     2
  6
CONTINUOUS
 10
-0.923906
 20
3.143047
  0
VERTEX
  8
PLAN_1
 62
     2
  6
CONTINUOUS
 10
-0.923114
 20
3.146213
  0
VERTEX
  8
PLAN_1
 62
     2
  6
CONTINUOUS
 10
-0.921925
 20
3.149378
  0
VERTEX
  8
PLAN_1
 62
     2
  6
CONTINUOUS
 10
-0.920740
 20
3.152547
  0
VERTEX
  8
PLAN_1
 62
     2
  6
CONTINUOUS
 10
-0.919157
 20
3.155315
  0
VERTEX
  8
PLAN_1
 62
     2
  6
CONTINUOUS
 10
-0.917177
 20
3.157689
  0
VERTEX
  8
PLAN_1
 62
     2
  6
CONTINUOUS
 10
-0.914803
 20
3.160063
  0
VERTEX
  8
PLAN_1
 62
     2
  6
CONTINUOUS
 10
-0.912429
 20
3.162043
  0
VERTEX
  8
PLAN_1
 62
     2
  6
CONTINUOUS
 10
-0.909657
 20
3.163626
  0
VERTEX
  8
PLAN_1
 62
     2
  6
CONTINUOUS
 10
-0.906492
 20
3.164811
  0
VERTEX
  8
PLAN_1
 62
     2
  6
CONTINUOUS
 10
-0.902933
 20
3.165602
  0
VERTEX
  8
PLAN_1
 62
     2
  6
CONTINUOUS
 10
-0.898976
 20
3.166000
  0
VERTEX
  8
PLAN_1
 62
     2
  6
CONTINUOUS
 10
-0.895413
 20
3.165602
  0
VERTEX
  8
PLAN_1
 62
     2
  6
CONTINUOUS
 10
-0.892248
 20
3.165209
  0
VERTEX
  8
PLAN_1
 62
     2
  6
CONTINUOUS
 10
-0.888685
 20
3.163626
  0
VERTEX
  8
PLAN_1
 62
     2
  6
CONTINUOUS
 10
-0.885520
 20
3.162043
  0
VERTEX
  8
PLAN_1
 62
     2
  6
CONTINUOUS
 10
-0.883937
 20
3.160461
  0
VERTEX
  8
PLAN_1
 62
     2
  6
CONTINUOUS
 10
-0.882354
 20
3.159272
  0
VERTEX
  8
PLAN_1
 62
     2
  6
CONTINUOUS
 10
-0.881169
 20
3.157689
  0
VERTEX
  8
PLAN_1
 62
     2
  6
CONTINUOUS
 10
-0.879980
 20
3.155713
  0
VERTEX
  8
PLAN_1
 62
     2
  6
CONTINUOUS
 10
-0.879189
 20
3.153732
  0
VERTEX
  8
PLAN_1
 62
     2
  6
CONTINUOUS
 10
-0.878398
 20
3.151756
  0
VERTEX
  8
PLAN_1
 62
     2
  6
CONTINUOUS
 10
-0.878000
 20
3.149378
  0
VERTEX
  8
PLAN_1
 62
     2
  6
CONTINUOUS
 10
-0.877606
 20
3.146610
  0
VERTEX
  8
PLAN_1
 62
     2
  6
CONTINUOUS
 10
-0.886709
 20
3.146610
  0
SEQEND
  8
0
  0
POLYLINE
  8
PLAN_1
 62
     2
  6
CONTINUOUS
 66
     1
 40
0.003000
 41
0.003000
  0
VERTEX
  8
PLAN_1
 62
     2
  6
CONTINUOUS
 10
-0.899768
 20
3.099122
  0
VERTEX
  8
PLAN_1
 62
     2
  6
CONTINUOUS
 10
-0.896602
 20
3.099520
  0
VERTEX
  8
PLAN_1
 62
     2
  6
CONTINUOUS
 10
-0.893831
 20
3.100311
  0
VERTEX
  8
PLAN_1
 62
     2
  6
CONTINUOUS
 10
-0.891457
 20
3.101894
  0
VERTEX
  8
PLAN_1
 62
     2
  6
CONTINUOUS
 10
-0.889476
 20
3.103874
  0
VERTEX
  8
PLAN_1
 62
     2
  6
CONTINUOUS
 10
-0.887894
 20
3.106248
  0
VERTEX
  8
PLAN_1
 62
     2
  6
CONTINUOUS
 10
-0.886311
 20
3.109016
  0
VERTEX
  8
PLAN_1
 62
     2
  6
CONTINUOUS
 10
-0.885917
 20
3.112181
  0
VERTEX
  8
PLAN_1
 62
     2
  6
CONTINUOUS
 10
-0.885520
 20
3.115744
  0
VERTEX
  8
PLAN_1
 62
     2
  6
CONTINUOUS
 10
-0.885520
 20
3.118516
  0
VERTEX
  8
PLAN_1
 62
     2
  6
CONTINUOUS
 10
-0.886311
 20
3.120890
  0
VERTEX
  8
PLAN_1
 62
     2
  6
CONTINUOUS
 10
-0.887102
 20
3.123657
  0
VERTEX
  8
PLAN_1
 62
     2
  6
CONTINUOUS
 10
-0.888685
 20
3.126031
  0
VERTEX
  8
PLAN_1
 62
     2
  6
CONTINUOUS
 10
-0.890665
 20
3.128012
  0
VERTEX
  8
PLAN_1
 62
     2
  6
CONTINUOUS
 10
-0.893039
 20
3.129594
  0
VERTEX
  8
PLAN_1
 62
     2
  6
CONTINUOUS
 10
-0.894622
 20
3.130386
  0
VERTEX
  8
PLAN_1
 62
     2
  6
CONTINUOUS
 10
-0.896205
 20
3.130780
  0
VERTEX
  8
PLAN_1
 62
     2
  6
CONTINUOUS
 10
-0.898185
 20
3.131177
  0
VERTEX
  8
PLAN_1
 62
     2
  6
CONTINUOUS
 10
-0.900161
 20
3.131177
  0
VERTEX
  8
PLAN_1
 62
     2
  6
CONTINUOUS
 10
-0.903724
 20
3.130780
  0
VERTEX
  8
PLAN_1
 62
     2
  6
CONTINUOUS
 10
-0.906890
 20
3.129988
  0
VERTEX
  8
PLAN_1
 62
     2
  6
CONTINUOUS
 10
-0.909264
 20
3.128406
  0
VERTEX
  8
PLAN_1
 62
     2
  6
CONTINUOUS
 10
-0.911638
 20
3.126429
  0
VERTEX
  8
PLAN_1
 62
     2
  6
CONTINUOUS
 10
-0.913220
 20
3.124055
  0
VERTEX
  8
PLAN_1
 62
     2
  6
CONTINUOUS
 10
-0.914409
 20
3.121283
  0
VERTEX
  8
PLAN_1
 62
     2
  6
CONTINUOUS
 10
-0.914803
 20
3.118516
  0
VERTEX
  8
PLAN_1
 62
     2
  6
CONTINUOUS
 10
-0.915201
 20
3.115346
  0
VERTEX
  8
PLAN_1
 62
     2
  6
CONTINUOUS
 10
-0.915201
 20
3.112579
  0
VERTEX
  8
PLAN_1
 62
     2
  6
CONTINUOUS
 10
-0.914409
 20
3.109413
  0
VERTEX
  8
PLAN_1
 62
     2
  6
CONTINUOUS
 10
-0.913220
 20
3.106642
  0
VERTEX
  8
PLAN_1
 62
     2
  6
CONTINUOUS
 10
-0.911638
 20
3.104268
  0
VERTEX
  8
PLAN_1
 62
     2
  6
CONTINUOUS
 10
-0.909264
 20
3.102291
  0
VERTEX
  8
PLAN_1
 62
     2
  6
CONTINUOUS
 10
-0.906890
 20
3.100709
  0
VERTEX
  8
PLAN_1
 62
     2
  6
CONTINUOUS
 10
-0.903724
 20
3.099520
  0
VERTEX
  8
PLAN_1
 62
     2
  6
CONTINUOUS
 10
-0.899768
 20
3.099122
  0
SEQEND
  8
0
  0
ENDSEC
  0
EOF
