  0
SECTION
  2
HEADER
  9
$ACADVER
  1
AC1006
  9
$EXTMIN
 10
-1.955374
 20
-3.400476
  9
$EXTMAX
 10
1.952000
 20
3.399000
  9
$LTSCALE
 40
0.000394
  9
$PDMODE
 70
    35
  9
$PDSIZE
 40
0.000315
  0
ENDSEC
  0
SECTION
  2
TABLES
  0
TABLE
  2
LTYPE
 70
     9
  0
LTYPE
  2
CONTINUOUS
 70
    64
  3
Solid line
 72
    65
 73
     0
 40
0.000000
  0
LTYPE
  2
DASHED
 70
    64
  3
__ __ __ __ __ __ __ __ __ __ __ __ __ __ __
 72
    65
 73
     2
 40
0.000003
 49
0.000002
 49
-0.000001
  0
LTYPE
  2
HIDDEN
 70
    64
  3
 _ _ _ _ _ _ _ _ _ _ _ _ _ _ _ _ _ _ _ _ _ _
 72
    65
 73
     2
 40
0.000001
 49
0.000001
 49
-0.000000
  0
LTYPE
  2
CENTER
 70
    64
  3
____ _ ____ _ ____ _ ____ _ ____ _ ____ _ ____
 72
    65
 73
     4
 40
0.000008
 49
0.000005
 49
-0.000001
 49
0.000001
 49
-0.000001
  0
LTYPE
  2
PHANTOM
 70
    64
  3
_____ _ _ _____ _ _ _____ _ _ _____ _ _ ____
 72
    65
 73
     6
 40
0.000010
 49
0.000005
 49
-0.000001
 49
0.000001
 49
-0.000001
 49
0.000001
 49
-0.000001
  0
LTYPE
  2
DOT
 70
    64
  3
...............................................
 72
    65
 73
     2
 40
0.000001
 49
0.000000
 49
-0.000001
  0
LTYPE
  2
DASHDOT
 70
    64
  3
__ . __ . __ . __ . __ . __ . __ . __ . __ . __
 72
    65
 73
     4
 40
0.000004
 49
0.000002
 49
-0.000001
 49
0.000000
 49
-0.000001
  0
LTYPE
  2
BORDER
 70
    64
  3
__ __ . __ __ . __ __ . __ __ . __ __ . __ __
 72
    65
 73
     6
 40
0.000007
 49
0.000002
 49
-0.000001
 49
0.000002
 49
-0.000001
 49
0.000000
 49
-0.000001
  0
LTYPE
  2
DIVIDE
 70
    64
  3
__ . . __ . . __ . . __ . . __ . . __ . . __
 72
    65
 73
     6
 40
0.000005
 49
0.000002
 49
-0.000001
 49
0.000000
 49
-0.000001
 49
0.000000
 49
-0.000001
  0
LTYPE
  2
DOTDOT
 70
    64
  3
 . .  . .  . .  . .  . .  . . 
 72
    65
 73
     5
 40
0.000002
 49
-0.000001
 49
0.000000
 49
-0.000001
 49
0.000000
 49
-0.000001
  0
ENDTAB
  0
TABLE
  2
STYLE
 70
     0
  0
ENDTAB
  0
TABLE
  2
LAYER
 70
     3
  0
LAYER
  2
FOREGROUND
 70
    64
 62
     7
  6
CONTINUOUS
  0
LAYER
  2
BACKGROUND
 70
    65
 62
    -7
  6
CONTINUOUS
  0
LAYER
  2
PLAN_1
 70
    64
 62
     7
  6
CONTINUOUS
  0
ENDTAB
  0
ENDSEC
  0
SECTION
  2
ENTITIES
  0
POLYLINE
  8
PLAN_1
  6
CONTINUOUS
 66
     1
 40
0.003000
 41
0.003000
  0
VERTEX
  8
PLAN_1
  6
CONTINUOUS
 10
0.164161
 20
-3.365630
  0
VERTEX
  8
PLAN_1
  6
CONTINUOUS
 10
0.007350
 20
-3.365630
  0
VERTEX
  8
PLAN_1
  6
CONTINUOUS
 10
0.007350
 20
-3.343106
  0
VERTEX
  8
PLAN_1
  6
CONTINUOUS
 10
0.129315
 20
-3.190543
  0
VERTEX
  8
PLAN_1
  6
CONTINUOUS
 10
0.016272
 20
-3.190543
  0
VERTEX
  8
PLAN_1
  6
CONTINUOUS
 10
0.016272
 20
-3.166323
  0
VERTEX
  8
PLAN_1
  6
CONTINUOUS
 10
0.164161
 20
-3.166323
  0
VERTEX
  8
PLAN_1
  6
CONTINUOUS
 10
0.164161
 20
-3.189693
  0
VERTEX
  8
PLAN_1
  6
CONTINUOUS
 10
0.041346
 20
-3.341831
  0
VERTEX
  8
PLAN_1
  6
CONTINUOUS
 10
0.164161
 20
-3.341831
  0
VERTEX
  8
PLAN_1
  6
CONTINUOUS
 10
0.164161
 20
-3.365630
  0
SEQEND
  8
0
  0
POLYLINE
  8
PLAN_1
  6
CONTINUOUS
 66
     1
 40
0.003000
 41
0.003000
  0
VERTEX
  8
PLAN_1
  6
CONTINUOUS
 10
0.331173
 20
-3.226665
  0
VERTEX
  8
PLAN_1
  6
CONTINUOUS
 10
0.329898
 20
-3.220291
  0
VERTEX
  8
PLAN_1
  6
CONTINUOUS
 10
0.327776
 20
-3.214768
  0
VERTEX
  8
PLAN_1
  6
CONTINUOUS
 10
0.325224
 20
-3.209669
  0
VERTEX
  8
PLAN_1
  6
CONTINUOUS
 10
0.322252
 20
-3.205417
  0
VERTEX
  8
PLAN_1
  6
CONTINUOUS
 10
0.318850
 20
-3.201594
  0
VERTEX
  8
PLAN_1
  6
CONTINUOUS
 10
0.315449
 20
-3.198193
  0
VERTEX
  8
PLAN_1
  6
CONTINUOUS
 10
0.311626
 20
-3.195220
  0
VERTEX
  8
PLAN_1
  6
CONTINUOUS
 10
0.307803
 20
-3.192669
  0
VERTEX
  8
PLAN_1
  6
CONTINUOUS
 10
0.303976
 20
-3.190543
  0
VERTEX
  8
PLAN_1
  6
CONTINUOUS
 10
0.299728
 20
-3.188843
  0
VERTEX
  8
PLAN_1
  6
CONTINUOUS
 10
0.295476
 20
-3.187571
  0
VERTEX
  8
PLAN_1
  6
CONTINUOUS
 10
0.291228
 20
-3.186720
  0
VERTEX
  8
PLAN_1
  6
CONTINUOUS
 10
0.283154
 20
-3.185445
  0
VERTEX
  8
PLAN_1
  6
CONTINUOUS
 10
0.275504
 20
-3.185020
  0
VERTEX
  8
PLAN_1
  6
CONTINUOUS
 10
0.268705
 20
-3.185445
  0
VERTEX
  8
PLAN_1
  6
CONTINUOUS
 10
0.262331
 20
-3.186295
  0
VERTEX
  8
PLAN_1
  6
CONTINUOUS
 10
0.255957
 20
-3.187996
  0
VERTEX
  8
PLAN_1
  6
CONTINUOUS
 10
0.250004
 20
-3.190118
  0
VERTEX
  8
PLAN_1
  6
CONTINUOUS
 10
0.244480
 20
-3.193094
  0
VERTEX
  8
PLAN_1
  6
CONTINUOUS
 10
0.238957
 20
-3.196492
  0
VERTEX
  8
PLAN_1
  6
CONTINUOUS
 10
0.233858
 20
-3.200319
  0
VERTEX
  8
PLAN_1
  6
CONTINUOUS
 10
0.229606
 20
-3.204992
  0
VERTEX
  8
PLAN_1
  6
CONTINUOUS
 10
0.225358
 20
-3.210094
  0
VERTEX
  8
PLAN_1
  6
CONTINUOUS
 10
0.221531
 20
-3.216043
  0
VERTEX
  8
PLAN_1
  6
CONTINUOUS
 10
0.218134
 20
-3.222843
  0
VERTEX
  8
PLAN_1
  6
CONTINUOUS
 10
0.215583
 20
-3.229642
  0
VERTEX
  8
PLAN_1
  6
CONTINUOUS
 10
0.213457
 20
-3.237291
  0
VERTEX
  8
PLAN_1
  6
CONTINUOUS
 10
0.211760
 20
-3.245791
  0
VERTEX
  8
PLAN_1
  6
CONTINUOUS
 10
0.210484
 20
-3.254713
  0
VERTEX
  8
PLAN_1
  6
CONTINUOUS
 10
0.210484
 20
-3.264063
  0
VERTEX
  8
PLAN_1
  6
CONTINUOUS
 10
0.210484
 20
-3.272988
  0
VERTEX
  8
PLAN_1
  6
CONTINUOUS
 10
0.211335
 20
-3.281063
  0
VERTEX
  8
PLAN_1
  6
CONTINUOUS
 10
0.212185
 20
-3.289138
  0
VERTEX
  8
PLAN_1
  6
CONTINUOUS
 10
0.213882
 20
-3.296787
  0
VERTEX
  8
PLAN_1
  6
CONTINUOUS
 10
0.215583
 20
-3.304437
  0
VERTEX
  8
PLAN_1
  6
CONTINUOUS
 10
0.218134
 20
-3.311236
  0
VERTEX
  8
PLAN_1
  6
CONTINUOUS
 10
0.221106
 20
-3.317610
  0
VERTEX
  8
PLAN_1
  6
CONTINUOUS
 10
0.224933
 20
-3.323134
  0
VERTEX
  8
PLAN_1
  6
CONTINUOUS
 10
0.227059
 20
-3.326110
  0
VERTEX
  8
PLAN_1
  6
CONTINUOUS
 10
0.229181
 20
-3.328657
  0
VERTEX
  8
PLAN_1
  6
CONTINUOUS
 10
0.231307
 20
-3.331209
  0
VERTEX
  8
PLAN_1
  6
CONTINUOUS
 10
0.233858
 20
-3.333335
  0
VERTEX
  8
PLAN_1
  6
CONTINUOUS
 10
0.236406
 20
-3.335457
  0
VERTEX
  8
PLAN_1
  6
CONTINUOUS
 10
0.239382
 20
-3.337583
  0
VERTEX
  8
PLAN_1
  6
CONTINUOUS
 10
0.241933
 20
-3.339283
  0
VERTEX
  8
PLAN_1
  6
CONTINUOUS
 10
0.245331
 20
-3.340984
  0
VERTEX
  8
PLAN_1
  6
CONTINUOUS
 10
0.248307
 20
-3.342256
  0
VERTEX
  8
PLAN_1
  6
CONTINUOUS
 10
0.252130
 20
-3.343531
  0
VERTEX
  8
PLAN_1
  6
CONTINUOUS
 10
0.255531
 20
-3.344807
  0
VERTEX
  8
PLAN_1
  6
CONTINUOUS
 10
0.259354
 20
-3.345657
  0
VERTEX
  8
PLAN_1
  6
CONTINUOUS
 10
0.263181
 20
-3.346083
  0
VERTEX
  8
PLAN_1
  6
CONTINUOUS
 10
0.267429
 20
-3.346933
  0
VERTEX
  8
PLAN_1
  6
CONTINUOUS
 10
0.271677
 20
-3.346933
  0
VERTEX
  8
PLAN_1
  6
CONTINUOUS
 10
0.276354
 20
-3.347358
  0
VERTEX
  8
PLAN_1
  6
CONTINUOUS
 10
0.279752
 20
-3.346933
  0
VERTEX
  8
PLAN_1
  6
CONTINUOUS
 10
0.283579
 20
-3.346933
  0
VERTEX
  8
PLAN_1
  6
CONTINUOUS
 10
0.287402
 20
-3.346083
  0
VERTEX
  8
PLAN_1
  6
CONTINUOUS
 10
0.291228
 20
-3.345232
  0
VERTEX
  8
PLAN_1
  6
CONTINUOUS
 10
0.295476
 20
-3.343957
  0
VERTEX
  8
PLAN_1
  6
CONTINUOUS
 10
0.299728
 20
-3.342256
  0
VERTEX
  8
PLAN_1
  6
CONTINUOUS
 10
0.303976
 20
-3.340134
  0
VERTEX
  8
PLAN_1
  6
CONTINUOUS
 10
0.307803
 20
-3.337157
  0
VERTEX
  8
PLAN_1
  6
CONTINUOUS
 10
0.312051
 20
-3.334185
  0
VERTEX
  8
PLAN_1
  6
CONTINUOUS
 10
0.315874
 20
-3.330358
  0
VERTEX
  8
PLAN_1
  6
CONTINUOUS
 10
0.319701
 20
-3.325685
  0
VERTEX
  8
PLAN_1
  6
CONTINUOUS
 10
0.323098
 20
-3.320583
  0
VERTEX
  8
PLAN_1
  6
CONTINUOUS
 10
0.326075
 20
-3.314634
  0
VERTEX
  8
PLAN_1
  6
CONTINUOUS
 10
0.329051
 20
-3.308260
  0
VERTEX
  8
PLAN_1
  6
CONTINUOUS
 10
0.331173
 20
-3.300610
  0
VERTEX
  8
PLAN_1
  6
CONTINUOUS
 10
0.333299
 20
-3.292535
  0
VERTEX
  8
PLAN_1
  6
CONTINUOUS
 10
0.359220
 20
-3.292535
  0
VERTEX
  8
PLAN_1
  6
CONTINUOUS
 10
0.358374
 20
-3.299335
  0
VERTEX
  8
PLAN_1
  6
CONTINUOUS
 10
0.356673
 20
-3.305709
  0
VERTEX
  8
PLAN_1
  6
CONTINUOUS
 10
0.354972
 20
-3.311661
  0
VERTEX
  8
PLAN_1
  6
CONTINUOUS
 10
0.352846
 20
-3.317610
  0
VERTEX
  8
PLAN_1
  6
CONTINUOUS
 10
0.350724
 20
-3.322709
  0
VERTEX
  8
PLAN_1
  6
CONTINUOUS
 10
0.348598
 20
-3.327807
  0
VERTEX
  8
PLAN_1
  6
CONTINUOUS
 10
0.346047
 20
-3.332484
  0
VERTEX
  8
PLAN_1
  6
CONTINUOUS
 10
0.343075
 20
-3.336732
  0
VERTEX
  8
PLAN_1
  6
CONTINUOUS
 10
0.340098
 20
-3.340559
  0
VERTEX
  8
PLAN_1
  6
CONTINUOUS
 10
0.337122
 20
-3.343957
  0
VERTEX
  8
PLAN_1
  6
CONTINUOUS
 10
0.334150
 20
-3.347358
  0
VERTEX
  8
PLAN_1
  6
CONTINUOUS
 10
0.330748
 20
-3.350331
  0
VERTEX
  8
PLAN_1
  6
CONTINUOUS
 10
0.327350
 20
-3.353307
  0
VERTEX
  8
PLAN_1
  6
CONTINUOUS
 10
0.324374
 20
-3.355858
  0
VERTEX
  8
PLAN_1
  6
CONTINUOUS
 10
0.320551
 20
-3.357980
  0
VERTEX
  8
PLAN_1
  6
CONTINUOUS
 10
0.317150
 20
-3.360106
  0
VERTEX
  8
PLAN_1
  6
CONTINUOUS
 10
0.310350
 20
-3.363504
  0
VERTEX
  8
PLAN_1
  6
CONTINUOUS
 10
0.303551
 20
-3.366055
  0
VERTEX
  8
PLAN_1
  6
CONTINUOUS
 10
0.296752
 20
-3.368181
  0
VERTEX
  8
PLAN_1
  6
CONTINUOUS
 10
0.290803
 20
-3.369457
  0
VERTEX
  8
PLAN_1
  6
CONTINUOUS
 10
0.279752
 20
-3.370732
  0
VERTEX
  8
PLAN_1
  6
CONTINUOUS
 10
0.272102
 20
-3.371154
  0
VERTEX
  8
PLAN_1
  6
CONTINUOUS
 10
0.263606
 20
-3.370732
  0
VERTEX
  8
PLAN_1
  6
CONTINUOUS
 10
0.255531
 20
-3.369457
  0
VERTEX
  8
PLAN_1
  6
CONTINUOUS
 10
0.247031
 20
-3.367756
  0
VERTEX
  8
PLAN_1
  6
CONTINUOUS
 10
0.238957
 20
-3.365205
  0
VERTEX
  8
PLAN_1
  6
CONTINUOUS
 10
0.235130
 20
-3.363504
  0
VERTEX
  8
PLAN_1
  6
CONTINUOUS
 10
0.231307
 20
-3.361807
  0
VERTEX
  8
PLAN_1
  6
CONTINUOUS
 10
0.227484
 20
-3.360106
  0
VERTEX
  8
PLAN_1
  6
CONTINUOUS
 10
0.224083
 20
-3.357555
  0
VERTEX
  8
PLAN_1
  6
CONTINUOUS
 10
0.220260
 20
-3.355433
  0
VERTEX
  8
PLAN_1
  6
CONTINUOUS
 10
0.216858
 20
-3.352882
  0
VERTEX
  8
PLAN_1
  6
CONTINUOUS
 10
0.213457
 20
-3.349906
  0
VERTEX
  8
PLAN_1
  6
CONTINUOUS
 10
0.210484
 20
-3.346933
  0
VERTEX
  8
PLAN_1
  6
CONTINUOUS
 10
0.207508
 20
-3.343531
  0
VERTEX
  8
PLAN_1
  6
CONTINUOUS
 10
0.204535
 20
-3.340134
  0
VERTEX
  8
PLAN_1
  6
CONTINUOUS
 10
0.201559
 20
-3.336307
  0
VERTEX
  8
PLAN_1
  6
CONTINUOUS
 10
0.199008
 20
-3.332059
  0
VERTEX
  8
PLAN_1
  6
CONTINUOUS
 10
0.196461
 20
-3.328232
  0
VERTEX
  8
PLAN_1
  6
CONTINUOUS
 10
0.194335
 20
-3.323559
  0
VERTEX
  8
PLAN_1
  6
CONTINUOUS
 10
0.192209
 20
-3.318886
  0
VERTEX
  8
PLAN_1
  6
CONTINUOUS
 10
0.190087
 20
-3.313783
  0
VERTEX
  8
PLAN_1
  6
CONTINUOUS
 10
0.188386
 20
-3.308685
  0
VERTEX
  8
PLAN_1
  6
CONTINUOUS
 10
0.187110
 20
-3.303161
  0
VERTEX
  8
PLAN_1
  6
CONTINUOUS
 10
0.185835
 20
-3.297638
  0
VERTEX
  8
PLAN_1
  6
CONTINUOUS
 10
0.184559
 20
-3.291685
  0
VERTEX
  8
PLAN_1
  6
CONTINUOUS
 10
0.183713
 20
-3.285311
  0
VERTEX
  8
PLAN_1
  6
CONTINUOUS
 10
0.183287
 20
-3.278937
  0
VERTEX
  8
PLAN_1
  6
CONTINUOUS
 10
0.182862
 20
-3.272138
  0
VERTEX
  8
PLAN_1
  6
CONTINUOUS
 10
0.182437
 20
-3.264913
  0
VERTEX
  8
PLAN_1
  6
CONTINUOUS
 10
0.182862
 20
-3.253866
  0
VERTEX
  8
PLAN_1
  6
CONTINUOUS
 10
0.184134
 20
-3.242815
  0
VERTEX
  8
PLAN_1
  6
CONTINUOUS
 10
0.184984
 20
-3.237717
  0
VERTEX
  8
PLAN_1
  6
CONTINUOUS
 10
0.186260
 20
-3.232614
  0
VERTEX
  8
PLAN_1
  6
CONTINUOUS
 10
0.187535
 20
-3.227941
  0
VERTEX
  8
PLAN_1
  6
CONTINUOUS
 10
0.188811
 20
-3.222843
  0
VERTEX
  8
PLAN_1
  6
CONTINUOUS
 10
0.190512
 20
-3.218165
  0
VERTEX
  8
PLAN_1
  6
CONTINUOUS
 10
0.192634
 20
-3.213917
  0
VERTEX
  8
PLAN_1
  6
CONTINUOUS
 10
0.194335
 20
-3.209669
  0
VERTEX
  8
PLAN_1
  6
CONTINUOUS
 10
0.196886
 20
-3.205417
  0
VERTEX
  8
PLAN_1
  6
CONTINUOUS
 10
0.199008
 20
-3.201169
  0
VERTEX
  8
PLAN_1
  6
CONTINUOUS
 10
0.201559
 20
-3.197343
  0
VERTEX
  8
PLAN_1
  6
CONTINUOUS
 10
0.204535
 20
-3.193520
  0
VERTEX
  8
PLAN_1
  6
CONTINUOUS
 10
0.207508
 20
-3.190118
  0
VERTEX
  8
PLAN_1
  6
CONTINUOUS
 10
0.210484
 20
-3.186720
  0
VERTEX
  8
PLAN_1
  6
CONTINUOUS
 10
0.213457
 20
-3.183744
  0
VERTEX
  8
PLAN_1
  6
CONTINUOUS
 10
0.217283
 20
-3.180772
  0
VERTEX
  8
PLAN_1
  6
CONTINUOUS
 10
0.220681
 20
-3.177795
  0
VERTEX
  8
PLAN_1
  6
CONTINUOUS
 10
0.224508
 20
-3.175244
  0
VERTEX
  8
PLAN_1
  6
CONTINUOUS
 10
0.228331
 20
-3.173122
  0
VERTEX
  8
PLAN_1
  6
CONTINUOUS
 10
0.232157
 20
-3.170996
  0
VERTEX
  8
PLAN_1
  6
CONTINUOUS
 10
0.236406
 20
-3.168870
  0
VERTEX
  8
PLAN_1
  6
CONTINUOUS
 10
0.241083
 20
-3.167169
  0
VERTEX
  8
PLAN_1
  6
CONTINUOUS
 10
0.245331
 20
-3.165472
  0
VERTEX
  8
PLAN_1
  6
CONTINUOUS
 10
0.250004
 20
-3.164197
  0
VERTEX
  8
PLAN_1
  6
CONTINUOUS
 10
0.255106
 20
-3.163346
  0
VERTEX
  8
PLAN_1
  6
CONTINUOUS
 10
0.259780
 20
-3.162496
  0
VERTEX
  8
PLAN_1
  6
CONTINUOUS
 10
0.264878
 20
-3.161646
  0
VERTEX
  8
PLAN_1
  6
CONTINUOUS
 10
0.269980
 20
-3.161220
  0
VERTEX
  8
PLAN_1
  6
CONTINUOUS
 10
0.275504
 20
-3.161220
  0
VERTEX
  8
PLAN_1
  6
CONTINUOUS
 10
0.284854
 20
-3.161646
  0
VERTEX
  8
PLAN_1
  6
CONTINUOUS
 10
0.293776
 20
-3.162496
  0
VERTEX
  8
PLAN_1
  6
CONTINUOUS
 10
0.301850
 20
-3.164622
  0
VERTEX
  8
PLAN_1
  6
CONTINUOUS
 10
0.309500
 20
-3.166744
  0
VERTEX
  8
PLAN_1
  6
CONTINUOUS
 10
0.316724
 20
-3.169720
  0
VERTEX
  8
PLAN_1
  6
CONTINUOUS
 10
0.323098
 20
-3.173122
  0
VERTEX
  8
PLAN_1
  6
CONTINUOUS
 10
0.329051
 20
-3.176945
  0
VERTEX
  8
PLAN_1
  6
CONTINUOUS
 10
0.334150
 20
-3.181193
  0
VERTEX
  8
PLAN_1
  6
CONTINUOUS
 10
0.339248
 20
-3.186295
  0
VERTEX
  8
PLAN_1
  6
CONTINUOUS
 10
0.343500
 20
-3.191394
  0
VERTEX
  8
PLAN_1
  6
CONTINUOUS
 10
0.346898
 20
-3.196492
  0
VERTEX
  8
PLAN_1
  6
CONTINUOUS
 10
0.350299
 20
-3.202445
  0
VERTEX
  8
PLAN_1
  6
CONTINUOUS
 10
0.352846
 20
-3.207969
  0
VERTEX
  8
PLAN_1
  6
CONTINUOUS
 10
0.354972
 20
-3.213917
  0
VERTEX
  8
PLAN_1
  6
CONTINUOUS
 10
0.356248
 20
-3.220291
  0
VERTEX
  8
PLAN_1
  6
CONTINUOUS
 10
0.357524
 20
-3.226665
  0
VERTEX
  8
PLAN_1
  6
CONTINUOUS
 10
0.331173
 20
-3.226665
  0
SEQEND
  8
0
  0
POLYLINE
  8
PLAN_1
  6
CONTINUOUS
 66
     1
 40
0.003000
 41
0.003000
  0
VERTEX
  8
PLAN_1
  6
CONTINUOUS
 10
0.418717
 20
-3.365630
  0
VERTEX
  8
PLAN_1
  6
CONTINUOUS
 10
0.391945
 20
-3.365630
  0
VERTEX
  8
PLAN_1
  6
CONTINUOUS
 10
0.391945
 20
-3.166323
  0
VERTEX
  8
PLAN_1
  6
CONTINUOUS
 10
0.418717
 20
-3.166323
  0
VERTEX
  8
PLAN_1
  6
CONTINUOUS
 10
0.418717
 20
-3.263213
  0
VERTEX
  8
PLAN_1
  6
CONTINUOUS
 10
0.515610
 20
-3.166323
  0
VERTEX
  8
PLAN_1
  6
CONTINUOUS
 10
0.552583
 20
-3.166323
  0
VERTEX
  8
PLAN_1
  6
CONTINUOUS
 10
0.469713
 20
-3.247063
  0
VERTEX
  8
PLAN_1
  6
CONTINUOUS
 10
0.554709
 20
-3.365630
  0
VERTEX
  8
PLAN_1
  6
CONTINUOUS
 10
0.519858
 20
-3.365630
  0
VERTEX
  8
PLAN_1
  6
CONTINUOUS
 10
0.450165
 20
-3.265764
  0
VERTEX
  8
PLAN_1
  6
CONTINUOUS
 10
0.418717
 20
-3.295937
  0
VERTEX
  8
PLAN_1
  6
CONTINUOUS
 10
0.418717
 20
-3.365630
  0
SEQEND
  8
0
  0
POLYLINE
  8
PLAN_1
  6
CONTINUOUS
 66
     1
 40
0.003000
 41
0.003000
  0
VERTEX
  8
PLAN_1
  6
CONTINUOUS
 10
0.662224
 20
-3.365630
  0
VERTEX
  8
PLAN_1
  6
CONTINUOUS
 10
0.635028
 20
-3.365630
  0
VERTEX
  8
PLAN_1
  6
CONTINUOUS
 10
0.635028
 20
-3.285736
  0
VERTEX
  8
PLAN_1
  6
CONTINUOUS
 10
0.559807
 20
-3.166323
  0
VERTEX
  8
PLAN_1
  6
CONTINUOUS
 10
0.591256
 20
-3.166323
  0
VERTEX
  8
PLAN_1
  6
CONTINUOUS
 10
0.648626
 20
-3.262362
  0
VERTEX
  8
PLAN_1
  6
CONTINUOUS
 10
0.705571
 20
-3.166323
  0
VERTEX
  8
PLAN_1
  6
CONTINUOUS
 10
0.737445
 20
-3.166323
  0
VERTEX
  8
PLAN_1
  6
CONTINUOUS
 10
0.662224
 20
-3.285736
  0
VERTEX
  8
PLAN_1
  6
CONTINUOUS
 10
0.662224
 20
-3.365630
  0
SEQEND
  8
0
  0
POLYLINE
  8
PLAN_1
  6
CONTINUOUS
 66
     1
 40
0.003000
 41
0.003000
  0
VERTEX
  8
PLAN_1
  6
CONTINUOUS
 10
0.782063
 20
-3.252165
  0
VERTEX
  8
PLAN_1
  6
CONTINUOUS
 10
0.785465
 20
-3.250039
  0
VERTEX
  8
PLAN_1
  6
CONTINUOUS
 10
0.788866
 20
-3.247488
  0
VERTEX
  8
PLAN_1
  6
CONTINUOUS
 10
0.793114
 20
-3.245791
  0
VERTEX
  8
PLAN_1
  6
CONTINUOUS
 10
0.797362
 20
-3.243665
  0
VERTEX
  8
PLAN_1
  6
CONTINUOUS
 10
0.802465
 20
-3.242390
  0
VERTEX
  8
PLAN_1
  6
CONTINUOUS
 10
0.807563
 20
-3.241114
  0
VERTEX
  8
PLAN_1
  6
CONTINUOUS
 10
0.813512
 20
-3.240264
  0
VERTEX
  8
PLAN_1
  6
CONTINUOUS
 10
0.819886
 20
-3.240264
  0
VERTEX
  8
PLAN_1
  6
CONTINUOUS
 10
0.825835
 20
-3.240264
  0
VERTEX
  8
PLAN_1
  6
CONTINUOUS
 10
0.831787
 20
-3.241114
  0
VERTEX
  8
PLAN_1
  6
CONTINUOUS
 10
0.837311
 20
-3.242390
  0
VERTEX
  8
PLAN_1
  6
CONTINUOUS
 10
0.843260
 20
-3.244091
  0
VERTEX
  8
PLAN_1
  6
CONTINUOUS
 10
0.848783
 20
-3.246642
  0
VERTEX
  8
PLAN_1
  6
CONTINUOUS
 10
0.853886
 20
-3.249189
  0
VERTEX
  8
PLAN_1
  6
CONTINUOUS
 10
0.858984
 20
-3.252591
  0
VERTEX
  8
PLAN_1
  6
CONTINUOUS
 10
0.863657
 20
-3.256413
  0
VERTEX
  8
PLAN_1
  6
CONTINUOUS
 10
0.867909
 20
-3.260240
  0
VERTEX
  8
PLAN_1
  6
CONTINUOUS
 10
0.872157
 20
-3.264913
  0
VERTEX
  8
PLAN_1
  6
CONTINUOUS
 10
0.875559
 20
-3.270012
  0
VERTEX
  8
PLAN_1
  6
CONTINUOUS
 10
0.878531
 20
-3.275961
  0
VERTEX
  8
PLAN_1
  6
CONTINUOUS
 10
0.880657
 20
-3.281913
  0
VERTEX
  8
PLAN_1
  6
CONTINUOUS
 10
0.882358
 20
-3.288287
  0
VERTEX
  8
PLAN_1
  6
CONTINUOUS
 10
0.883634
 20
-3.295087
  0
VERTEX
  8
PLAN_1
  6
CONTINUOUS
 10
0.884055
 20
-3.302311
  0
VERTEX
  8
PLAN_1
  6
CONTINUOUS
 10
0.883634
 20
-3.306984
  0
VERTEX
  8
PLAN_1
  6
CONTINUOUS
 10
0.883209
 20
-3.311661
  0
VERTEX
  8
PLAN_1
  6
CONTINUOUS
 10
0.882783
 20
-3.316760
  0
VERTEX
  8
PLAN_1
  6
CONTINUOUS
 10
0.881508
 20
-3.322283
  0
VERTEX
  8
PLAN_1
  6
CONTINUOUS
 10
0.879807
 20
-3.327807
  0
VERTEX
  8
PLAN_1
  6
CONTINUOUS
 10
0.877681
 20
-3.333760
  0
VERTEX
  8
PLAN_1
  6
CONTINUOUS
 10
0.874709
 20
-3.339283
  0
VERTEX
  8
PLAN_1
  6
CONTINUOUS
 10
0.871307
 20
-3.344807
  0
VERTEX
  8
PLAN_1
  6
CONTINUOUS
 10
0.867484
 20
-3.350331
  0
VERTEX
  8
PLAN_1
  6
CONTINUOUS
 10
0.862382
 20
-3.355008
  0
VERTEX
  8
PLAN_1
  6
CONTINUOUS
 10
0.859409
 20
-3.357555
  0
VERTEX
  8
PLAN_1
  6
CONTINUOUS
 10
0.856433
 20
-3.359681
  0
VERTEX
  8
PLAN_1
  6
CONTINUOUS
 10
0.853461
 20
-3.361382
  0
VERTEX
  8
PLAN_1
  6
CONTINUOUS
 10
0.850059
 20
-3.363504
  0
VERTEX
  8
PLAN_1
  6
CONTINUOUS
 10
0.846236
 20
-3.365205
  0
VERTEX
  8
PLAN_1
  6
CONTINUOUS
 10
0.842409
 20
-3.366480
  0
VERTEX
  8
PLAN_1
  6
CONTINUOUS
 10
0.838161
 20
-3.367756
  0
VERTEX
  8
PLAN_1
  6
CONTINUOUS
 10
0.833909
 20
-3.369031
  0
VERTEX
  8
PLAN_1
  6
CONTINUOUS
 10
0.828811
 20
-3.369882
  0
VERTEX
  8
PLAN_1
  6
CONTINUOUS
 10
0.824138
 20
-3.370732
  0
VERTEX
  8
PLAN_1
  6
CONTINUOUS
 10
0.818610
 20
-3.370732
  0
VERTEX
  8
PLAN_1
  6
CONTINUOUS
 10
0.813087
 20
-3.371154
  0
VERTEX
  8
PLAN_1
  6
CONTINUOUS
 10
0.808413
 20
-3.370732
  0
VERTEX
  8
PLAN_1
  6
CONTINUOUS
 10
0.803315
 20
-3.370732
  0
VERTEX
  8
PLAN_1
  6
CONTINUOUS
 10
0.798213
 20
-3.369882
  0
VERTEX
  8
PLAN_1
  6
CONTINUOUS
 10
0.793114
 20
-3.368606
  0
VERTEX
  8
PLAN_1
  6
CONTINUOUS
 10
0.788016
 20
-3.367331
  0
VERTEX
  8
PLAN_1
  6
CONTINUOUS
 10
0.783339
 20
-3.365630
  0
VERTEX
  8
PLAN_1
  6
CONTINUOUS
 10
0.778240
 20
-3.363083
  0
VERTEX
  8
PLAN_1
  6
CONTINUOUS
 10
0.773992
 20
-3.360531
  0
VERTEX
  8
PLAN_1
  6
CONTINUOUS
 10
0.769315
 20
-3.357130
  0
VERTEX
  8
PLAN_1
  6
CONTINUOUS
 10
0.765492
 20
-3.353307
  0
VERTEX
  8
PLAN_1
  6
CONTINUOUS
 10
0.761665
 20
-3.349055
  0
VERTEX
  8
PLAN_1
  6
CONTINUOUS
 10
0.758268
 20
-3.343957
  0
VERTEX
  8
PLAN_1
  6
CONTINUOUS
 10
0.755717
 20
-3.338433
  0
VERTEX
  8
PLAN_1
  6
CONTINUOUS
 10
0.753165
 20
-3.332059
  0
VERTEX
  8
PLAN_1
  6
CONTINUOUS
 10
0.751469
 20
-3.324835
  0
VERTEX
  8
PLAN_1
  6
CONTINUOUS
 10
0.750193
 20
-3.317185
  0
VERTEX
  8
PLAN_1
  6
CONTINUOUS
 10
0.775264
 20
-3.317185
  0
VERTEX
  8
PLAN_1
  6
CONTINUOUS
 10
0.776114
 20
-3.321433
  0
VERTEX
  8
PLAN_1
  6
CONTINUOUS
 10
0.776965
 20
-3.325260
  0
VERTEX
  8
PLAN_1
  6
CONTINUOUS
 10
0.778240
 20
-3.328657
  0
VERTEX
  8
PLAN_1
  6
CONTINUOUS
 10
0.779941
 20
-3.332059
  0
VERTEX
  8
PLAN_1
  6
CONTINUOUS
 10
0.781642
 20
-3.335031
  0
VERTEX
  8
PLAN_1
  6
CONTINUOUS
 10
0.783764
 20
-3.337583
  0
VERTEX
  8
PLAN_1
  6
CONTINUOUS
 10
0.786315
 20
-3.340134
  0
VERTEX
  8
PLAN_1
  6
CONTINUOUS
 10
0.788866
 20
-3.342256
  0
VERTEX
  8
PLAN_1
  6
CONTINUOUS
 10
0.791839
 20
-3.343957
  0
VERTEX
  8
PLAN_1
  6
CONTINUOUS
 10
0.794815
 20
-3.345657
  0
VERTEX
  8
PLAN_1
  6
CONTINUOUS
 10
0.797787
 20
-3.346933
  0
VERTEX
  8
PLAN_1
  6
CONTINUOUS
 10
0.801189
 20
-3.348209
  0
VERTEX
  8
PLAN_1
  6
CONTINUOUS
 10
0.805012
 20
-3.349055
  0
VERTEX
  8
PLAN_1
  6
CONTINUOUS
 10
0.808839
 20
-3.349480
  0
VERTEX
  8
PLAN_1
  6
CONTINUOUS
 10
0.812661
 20
-3.349906
  0
VERTEX
  8
PLAN_1
  6
CONTINUOUS
 10
0.816913
 20
-3.349906
  0
VERTEX
  8
PLAN_1
  6
CONTINUOUS
 10
0.821587
 20
-3.349906
  0
VERTEX
  8
PLAN_1
  6
CONTINUOUS
 10
0.825835
 20
-3.349055
  0
VERTEX
  8
PLAN_1
  6
CONTINUOUS
 10
0.830087
 20
-3.347783
  0
VERTEX
  8
PLAN_1
  6
CONTINUOUS
 10
0.833909
 20
-3.346508
  0
VERTEX
  8
PLAN_1
  6
CONTINUOUS
 10
0.837311
 20
-3.344382
  0
VERTEX
  8
PLAN_1
  6
CONTINUOUS
 10
0.840709
 20
-3.342256
  0
VERTEX
  8
PLAN_1
  6
CONTINUOUS
 10
0.844110
 20
-3.339709
  0
VERTEX
  8
PLAN_1
  6
CONTINUOUS
 10
0.846661
 20
-3.336732
  0
VERTEX
  8
PLAN_1
  6
CONTINUOUS
 10
0.849209
 20
-3.333760
  0
VERTEX
  8
PLAN_1
  6
CONTINUOUS
 10
0.851335
 20
-3.330358
  0
VERTEX
  8
PLAN_1
  6
CONTINUOUS
 10
0.853461
 20
-3.326535
  0
VERTEX
  8
PLAN_1
  6
CONTINUOUS
 10
0.855157
 20
-3.322709
  0
VERTEX
  8
PLAN_1
  6
CONTINUOUS
 10
0.856008
 20
-3.318461
  0
VERTEX
  8
PLAN_1
  6
CONTINUOUS
 10
0.857283
 20
-3.314209
  0
VERTEX
  8
PLAN_1
  6
CONTINUOUS
 10
0.857709
 20
-3.309961
  0
VERTEX
  8
PLAN_1
  6
CONTINUOUS
 10
0.857709
 20
-3.305283
  0
VERTEX
  8
PLAN_1
  6
CONTINUOUS
 10
0.857709
 20
-3.300185
  0
VERTEX
  8
PLAN_1
  6
CONTINUOUS
 10
0.856858
 20
-3.295512
  0
VERTEX
  8
PLAN_1
  6
CONTINUOUS
 10
0.856008
 20
-3.290835
  0
VERTEX
  8
PLAN_1
  6
CONTINUOUS
 10
0.854311
 20
-3.286587
  0
VERTEX
  8
PLAN_1
  6
CONTINUOUS
 10
0.852610
 20
-3.282764
  0
VERTEX
  8
PLAN_1
  6
CONTINUOUS
 10
0.850484
 20
-3.279362
  0
VERTEX
  8
PLAN_1
  6
CONTINUOUS
 10
0.847933
 20
-3.275961
  0
VERTEX
  8
PLAN_1
  6
CONTINUOUS
 10
0.845386
 20
-3.272988
  0
VERTEX
  8
PLAN_1
  6
CONTINUOUS
 10
0.841984
 20
-3.270437
  0
VERTEX
  8
PLAN_1
  6
CONTINUOUS
 10
0.839012
 20
-3.268315
  0
VERTEX
  8
PLAN_1
  6
CONTINUOUS
 10
0.835185
 20
-3.266189
  0
VERTEX
  8
PLAN_1
  6
CONTINUOUS
 10
0.831362
 20
-3.264913
  0
VERTEX
  8
PLAN_1
  6
CONTINUOUS
 10
0.827535
 20
-3.263638
  0
VERTEX
  8
PLAN_1
  6
CONTINUOUS
 10
0.823287
 20
-3.262787
  0
VERTEX
  8
PLAN_1
  6
CONTINUOUS
 10
0.819035
 20
-3.262362
  0
VERTEX
  8
PLAN_1
  6
CONTINUOUS
 10
0.814362
 20
-3.261937
  0
VERTEX
  8
PLAN_1
  6
CONTINUOUS
 10
0.809264
 20
-3.262362
  0
VERTEX
  8
PLAN_1
  6
CONTINUOUS
 10
0.804161
 20
-3.263213
  0
VERTEX
  8
PLAN_1
  6
CONTINUOUS
 10
0.799488
 20
-3.264913
  0
VERTEX
  8
PLAN_1
  6
CONTINUOUS
 10
0.794815
 20
-3.266614
  0
VERTEX
  8
PLAN_1
  6
CONTINUOUS
 10
0.790138
 20
-3.269587
  0
VERTEX
  8
PLAN_1
  6
CONTINUOUS
 10
0.785890
 20
-3.272563
  0
VERTEX
  8
PLAN_1
  6
CONTINUOUS
 10
0.782063
 20
-3.276386
  0
VERTEX
  8
PLAN_1
  6
CONTINUOUS
 10
0.778665
 20
-3.280638
  0
VERTEX
  8
PLAN_1
  6
CONTINUOUS
 10
0.757417
 20
-3.279362
  0
VERTEX
  8
PLAN_1
  6
CONTINUOUS
 10
0.772291
 20
-3.174819
  0
VERTEX
  8
PLAN_1
  6
CONTINUOUS
 10
0.873008
 20
-3.174819
  0
VERTEX
  8
PLAN_1
  6
CONTINUOUS
 10
0.873008
 20
-3.198618
  0
VERTEX
  8
PLAN_1
  6
CONTINUOUS
 10
0.790563
 20
-3.198618
  0
VERTEX
  8
PLAN_1
  6
CONTINUOUS
 10
0.782063
 20
-3.252165
  0
SEQEND
  8
0
  0
POLYLINE
  8
PLAN_1
  6
CONTINUOUS
 66
     1
 40
0.003000
 41
0.003000
  0
VERTEX
  8
PLAN_1
  6
CONTINUOUS
 10
0.995398
 20
-3.365630
  0
VERTEX
  8
PLAN_1
  6
CONTINUOUS
 10
0.969051
 20
-3.365630
  0
VERTEX
  8
PLAN_1
  6
CONTINUOUS
 10
0.969051
 20
-3.227091
  0
VERTEX
  8
PLAN_1
  6
CONTINUOUS
 10
0.923579
 20
-3.227091
  0
VERTEX
  8
PLAN_1
  6
CONTINUOUS
 10
0.923579
 20
-3.207969
  0
VERTEX
  8
PLAN_1
  6
CONTINUOUS
 10
0.934630
 20
-3.207118
  0
VERTEX
  8
PLAN_1
  6
CONTINUOUS
 10
0.943976
 20
-3.205417
  0
VERTEX
  8
PLAN_1
  6
CONTINUOUS
 10
0.948228
 20
-3.204567
  0
VERTEX
  8
PLAN_1
  6
CONTINUOUS
 10
0.952051
 20
-3.203717
  0
VERTEX
  8
PLAN_1
  6
CONTINUOUS
 10
0.955453
 20
-3.202020
  0
VERTEX
  8
PLAN_1
  6
CONTINUOUS
 10
0.958850
 20
-3.200319
  0
VERTEX
  8
PLAN_1
  6
CONTINUOUS
 10
0.961827
 20
-3.198193
  0
VERTEX
  8
PLAN_1
  6
CONTINUOUS
 10
0.964374
 20
-3.196067
  0
VERTEX
  8
PLAN_1
  6
CONTINUOUS
 10
0.966925
 20
-3.193094
  0
VERTEX
  8
PLAN_1
  6
CONTINUOUS
 10
0.969051
 20
-3.189693
  0
VERTEX
  8
PLAN_1
  6
CONTINUOUS
 10
0.971177
 20
-3.185870
  0
VERTEX
  8
PLAN_1
  6
CONTINUOUS
 10
0.972874
 20
-3.181193
  0
VERTEX
  8
PLAN_1
  6
CONTINUOUS
 10
0.974575
 20
-3.176520
  0
VERTEX
  8
PLAN_1
  6
CONTINUOUS
 10
0.976276
 20
-3.170571
  0
VERTEX
  8
PLAN_1
  6
CONTINUOUS
 10
0.995398
 20
-3.170571
  0
VERTEX
  8
PLAN_1
  6
CONTINUOUS
 10
0.995398
 20
-3.365630
  0
SEQEND
  8
0
  0
SOLID
  8
PLAN_1
 10
1.049795
 20
-3.400476
 11
1.049795
 21
-3.386453
 12
1.204484
 22
-3.400476
 13
1.204484
 23
-3.386453
  0
POLYLINE
  8
PLAN_1
  6
CONTINUOUS
 66
     1
 40
0.003000
 41
0.003000
  0
VERTEX
  8
PLAN_1
  6
CONTINUOUS
 10
1.049795
 20
-3.400476
  0
VERTEX
  8
PLAN_1
  6
CONTINUOUS
 10
1.049795
 20
-3.386453
  0
VERTEX
  8
PLAN_1
  6
CONTINUOUS
 10
1.204484
 20
-3.386453
  0
VERTEX
  8
PLAN_1
  6
CONTINUOUS
 10
1.204484
 20
-3.400476
  0
VERTEX
  8
PLAN_1
  6
CONTINUOUS
 10
1.049795
 20
-3.400476
  0
SEQEND
  8
0
  0
POLYLINE
  8
PLAN_1
  6
CONTINUOUS
 66
     1
 40
0.003000
 41
0.003000
  0
VERTEX
  8
PLAN_1
  6
CONTINUOUS
 10
1.255055
 20
-3.365630
  0
VERTEX
  8
PLAN_1
  6
CONTINUOUS
 10
1.228280
 20
-3.365630
  0
VERTEX
  8
PLAN_1
  6
CONTINUOUS
 10
1.228280
 20
-3.166323
  0
VERTEX
  8
PLAN_1
  6
CONTINUOUS
 10
1.365969
 20
-3.166323
  0
VERTEX
  8
PLAN_1
  6
CONTINUOUS
 10
1.365969
 20
-3.190543
  0
VERTEX
  8
PLAN_1
  6
CONTINUOUS
 10
1.255055
 20
-3.190543
  0
VERTEX
  8
PLAN_1
  6
CONTINUOUS
 10
1.255055
 20
-3.251315
  0
VERTEX
  8
PLAN_1
  6
CONTINUOUS
 10
1.352795
 20
-3.251315
  0
VERTEX
  8
PLAN_1
  6
CONTINUOUS
 10
1.352795
 20
-3.275114
  0
VERTEX
  8
PLAN_1
  6
CONTINUOUS
 10
1.255055
 20
-3.275114
  0
VERTEX
  8
PLAN_1
  6
CONTINUOUS
 10
1.255055
 20
-3.365630
  0
SEQEND
  8
0
  0
SOLID
  8
PLAN_1
 10
1.385520
 20
-3.365630
 11
1.356622
 21
-3.365630
 12
1.385520
 22
-3.336307
 13
1.356622
 23
-3.336307
  0
POLYLINE
  8
PLAN_1
  6
CONTINUOUS
 66
     1
 40
0.003000
 41
0.003000
  0
VERTEX
  8
PLAN_1
  6
CONTINUOUS
 10
1.385520
 20
-3.365630
  0
VERTEX
  8
PLAN_1
  6
CONTINUOUS
 10
1.356622
 20
-3.365630
  0
VERTEX
  8
PLAN_1
  6
CONTINUOUS
 10
1.356622
 20
-3.336307
  0
VERTEX
  8
PLAN_1
  6
CONTINUOUS
 10
1.385520
 20
-3.336307
  0
VERTEX
  8
PLAN_1
  6
CONTINUOUS
 10
1.385520
 20
-3.365630
  0
SEQEND
  8
0
  0
POLYLINE
  8
PLAN_1
  6
CONTINUOUS
 66
     1
 40
0.003000
 41
0.003000
  0
VERTEX
  8
PLAN_1
  6
CONTINUOUS
 10
1.580579
 20
-3.365630
  0
VERTEX
  8
PLAN_1
  6
CONTINUOUS
 10
1.433539
 20
-3.365630
  0
VERTEX
  8
PLAN_1
  6
CONTINUOUS
 10
1.433539
 20
-3.166323
  0
VERTEX
  8
PLAN_1
  6
CONTINUOUS
 10
1.578453
 20
-3.166323
  0
VERTEX
  8
PLAN_1
  6
CONTINUOUS
 10
1.578453
 20
-3.190543
  0
VERTEX
  8
PLAN_1
  6
CONTINUOUS
 10
1.460311
 20
-3.190543
  0
VERTEX
  8
PLAN_1
  6
CONTINUOUS
 10
1.460311
 20
-3.251315
  0
VERTEX
  8
PLAN_1
  6
CONTINUOUS
 10
1.569528
 20
-3.251315
  0
VERTEX
  8
PLAN_1
  6
CONTINUOUS
 10
1.569528
 20
-3.275114
  0
VERTEX
  8
PLAN_1
  6
CONTINUOUS
 10
1.460311
 20
-3.275114
  0
VERTEX
  8
PLAN_1
  6
CONTINUOUS
 10
1.460311
 20
-3.341831
  0
VERTEX
  8
PLAN_1
  6
CONTINUOUS
 10
1.580579
 20
-3.341831
  0
VERTEX
  8
PLAN_1
  6
CONTINUOUS
 10
1.580579
 20
-3.365630
  0
SEQEND
  8
0
  0
POLYLINE
  8
PLAN_1
  6
CONTINUOUS
 66
     1
 40
0.003000
 41
0.003000
  0
VERTEX
  8
PLAN_1
  6
CONTINUOUS
 10
1.645598
 20
-3.365630
  0
VERTEX
  8
PLAN_1
  6
CONTINUOUS
 10
1.618402
 20
-3.365630
  0
VERTEX
  8
PLAN_1
  6
CONTINUOUS
 10
1.618402
 20
-3.166323
  0
VERTEX
  8
PLAN_1
  6
CONTINUOUS
 10
1.708067
 20
-3.166323
  0
VERTEX
  8
PLAN_1
  6
CONTINUOUS
 10
1.714870
 20
-3.166744
  0
VERTEX
  8
PLAN_1
  6
CONTINUOUS
 10
1.721244
 20
-3.167594
  0
VERTEX
  8
PLAN_1
  6
CONTINUOUS
 10
1.727193
 20
-3.168870
  0
VERTEX
  8
PLAN_1
  6
CONTINUOUS
 10
1.733142
 20
-3.170571
  0
VERTEX
  8
PLAN_1
  6
CONTINUOUS
 10
1.738240
 20
-3.173122
  0
VERTEX
  8
PLAN_1
  6
CONTINUOUS
 10
1.743343
 20
-3.175669
  0
VERTEX
  8
PLAN_1
  6
CONTINUOUS
 10
1.747591
 20
-3.179071
  0
VERTEX
  8
PLAN_1
  6
CONTINUOUS
 10
1.751839
 20
-3.182469
  0
VERTEX
  8
PLAN_1
  6
CONTINUOUS
 10
1.755240
 20
-3.186295
  0
VERTEX
  8
PLAN_1
  6
CONTINUOUS
 10
1.758217
 20
-3.190543
  0
VERTEX
  8
PLAN_1
  6
CONTINUOUS
 10
1.761189
 20
-3.195220
  0
VERTEX
  8
PLAN_1
  6
CONTINUOUS
 10
1.763315
 20
-3.200319
  0
VERTEX
  8
PLAN_1
  6
CONTINUOUS
 10
1.765016
 20
-3.205417
  0
VERTEX
  8
PLAN_1
  6
CONTINUOUS
 10
1.766287
 20
-3.210941
  0
VERTEX
  8
PLAN_1
  6
CONTINUOUS
 10
1.767138
 20
-3.216469
  0
VERTEX
  8
PLAN_1
  6
CONTINUOUS
 10
1.767138
 20
-3.222417
  0
VERTEX
  8
PLAN_1
  6
CONTINUOUS
 10
1.767138
 20
-3.227941
  0
VERTEX
  8
PLAN_1
  6
CONTINUOUS
 10
1.766713
 20
-3.233039
  0
VERTEX
  8
PLAN_1
  6
CONTINUOUS
 10
1.765441
 20
-3.238567
  0
VERTEX
  8
PLAN_1
  6
CONTINUOUS
 10
1.764165
 20
-3.243665
  0
VERTEX
  8
PLAN_1
  6
CONTINUOUS
 10
1.762465
 20
-3.248764
  0
VERTEX
  8
PLAN_1
  6
CONTINUOUS
 10
1.759913
 20
-3.253441
  0
VERTEX
  8
PLAN_1
  6
CONTINUOUS
 10
1.757366
 20
-3.258114
  0
VERTEX
  8
PLAN_1
  6
CONTINUOUS
 10
1.753965
 20
-3.262362
  0
VERTEX
  8
PLAN_1
  6
CONTINUOUS
 10
1.750142
 20
-3.266614
  0
VERTEX
  8
PLAN_1
  6
CONTINUOUS
 10
1.745890
 20
-3.270437
  0
VERTEX
  8
PLAN_1
  6
CONTINUOUS
 10
1.741217
 20
-3.273413
  0
VERTEX
  8
PLAN_1
  6
CONTINUOUS
 10
1.735693
 20
-3.276386
  0
VERTEX
  8
PLAN_1
  6
CONTINUOUS
 10
1.729740
 20
-3.278512
  0
VERTEX
  8
PLAN_1
  6
CONTINUOUS
 10
1.723366
 20
-3.280213
  0
VERTEX
  8
PLAN_1
  6
CONTINUOUS
 10
1.716142
 20
-3.281488
  0
VERTEX
  8
PLAN_1
  6
CONTINUOUS
 10
1.708067
 20
-3.281488
  0
VERTEX
  8
PLAN_1
  6
CONTINUOUS
 10
1.645598
 20
-3.281488
  0
VERTEX
  8
PLAN_1
  6
CONTINUOUS
 10
1.645598
 20
-3.365630
  0
SEQEND
  8
0
  0
POLYLINE
  8
PLAN_1
  6
CONTINUOUS
 66
     1
 40
0.003000
 41
0.003000
  0
VERTEX
  8
PLAN_1
  6
CONTINUOUS
 10
1.645598
 20
-3.258539
  0
VERTEX
  8
PLAN_1
  6
CONTINUOUS
 10
1.699146
 20
-3.258539
  0
VERTEX
  8
PLAN_1
  6
CONTINUOUS
 10
1.703394
 20
-3.258539
  0
VERTEX
  8
PLAN_1
  6
CONTINUOUS
 10
1.707646
 20
-3.258114
  0
VERTEX
  8
PLAN_1
  6
CONTINUOUS
 10
1.711894
 20
-3.257689
  0
VERTEX
  8
PLAN_1
  6
CONTINUOUS
 10
1.715717
 20
-3.256839
  0
VERTEX
  8
PLAN_1
  6
CONTINUOUS
 10
1.719118
 20
-3.255988
  0
VERTEX
  8
PLAN_1
  6
CONTINUOUS
 10
1.722516
 20
-3.254287
  0
VERTEX
  8
PLAN_1
  6
CONTINUOUS
 10
1.725492
 20
-3.253016
  0
VERTEX
  8
PLAN_1
  6
CONTINUOUS
 10
1.728469
 20
-3.250890
  0
VERTEX
  8
PLAN_1
  6
CONTINUOUS
 10
1.731016
 20
-3.248764
  0
VERTEX
  8
PLAN_1
  6
CONTINUOUS
 10
1.733142
 20
-3.246217
  0
VERTEX
  8
PLAN_1
  6
CONTINUOUS
 10
1.735268
 20
-3.243240
  0
VERTEX
  8
PLAN_1
  6
CONTINUOUS
 10
1.736543
 20
-3.239839
  0
VERTEX
  8
PLAN_1
  6
CONTINUOUS
 10
1.737815
 20
-3.236016
  0
VERTEX
  8
PLAN_1
  6
CONTINUOUS
 10
1.738665
 20
-3.232193
  0
VERTEX
  8
PLAN_1
  6
CONTINUOUS
 10
1.739516
 20
-3.227516
  0
VERTEX
  8
PLAN_1
  6
CONTINUOUS
 10
1.739516
 20
-3.222843
  0
VERTEX
  8
PLAN_1
  6
CONTINUOUS
 10
1.739516
 20
-3.218165
  0
VERTEX
  8
PLAN_1
  6
CONTINUOUS
 10
1.738665
 20
-3.214343
  0
VERTEX
  8
PLAN_1
  6
CONTINUOUS
 10
1.737815
 20
-3.210516
  0
VERTEX
  8
PLAN_1
  6
CONTINUOUS
 10
1.736543
 20
-3.207118
  0
VERTEX
  8
PLAN_1
  6
CONTINUOUS
 10
1.734843
 20
-3.204142
  0
VERTEX
  8
PLAN_1
  6
CONTINUOUS
 10
1.733142
 20
-3.201169
  0
VERTEX
  8
PLAN_1
  6
CONTINUOUS
 10
1.730591
 20
-3.199043
  0
VERTEX
  8
PLAN_1
  6
CONTINUOUS
 10
1.728043
 20
-3.196917
  0
VERTEX
  8
PLAN_1
  6
CONTINUOUS
 10
1.725492
 20
-3.194795
  0
VERTEX
  8
PLAN_1
  6
CONTINUOUS
 10
1.722516
 20
-3.193520
  0
VERTEX
  8
PLAN_1
  6
CONTINUOUS
 10
1.719118
 20
-3.192244
  0
VERTEX
  8
PLAN_1
  6
CONTINUOUS
 10
1.715717
 20
-3.191394
  0
VERTEX
  8
PLAN_1
  6
CONTINUOUS
 10
1.711894
 20
-3.190543
  0
VERTEX
  8
PLAN_1
  6
CONTINUOUS
 10
1.708067
 20
-3.190118
  0
VERTEX
  8
PLAN_1
  6
CONTINUOUS
 10
1.704244
 20
-3.189693
  0
VERTEX
  8
PLAN_1
  6
CONTINUOUS
 10
1.699996
 20
-3.189693
  0
VERTEX
  8
PLAN_1
  6
CONTINUOUS
 10
1.645598
 20
-3.189693
  0
VERTEX
  8
PLAN_1
  6
CONTINUOUS
 10
1.645598
 20
-3.258539
  0
SEQEND
  8
0
  0
POLYLINE
  8
PLAN_1
  6
CONTINUOUS
 66
     1
 40
0.003000
 41
0.003000
  0
VERTEX
  8
PLAN_1
  6
CONTINUOUS
 10
1.921402
 20
-3.224965
  0
VERTEX
  8
PLAN_1
  6
CONTINUOUS
 10
1.920551
 20
-3.219441
  0
VERTEX
  8
PLAN_1
  6
CONTINUOUS
 10
1.919701
 20
-3.214343
  0
VERTEX
  8
PLAN_1
  6
CONTINUOUS
 10
1.918004
 20
-3.209669
  0
VERTEX
  8
PLAN_1
  6
CONTINUOUS
 10
1.915878
 20
-3.205417
  0
VERTEX
  8
PLAN_1
  6
CONTINUOUS
 10
1.913752
 20
-3.201594
  0
VERTEX
  8
PLAN_1
  6
CONTINUOUS
 10
1.910780
 20
-3.198618
  0
VERTEX
  8
PLAN_1
  6
CONTINUOUS
 10
1.907803
 20
-3.195646
  0
VERTEX
  8
PLAN_1
  6
CONTINUOUS
 10
1.904406
 20
-3.193094
  0
VERTEX
  8
PLAN_1
  6
CONTINUOUS
 10
1.900579
 20
-3.190969
  0
VERTEX
  8
PLAN_1
  6
CONTINUOUS
 10
1.896756
 20
-3.188843
  0
VERTEX
  8
PLAN_1
  6
CONTINUOUS
 10
1.892929
 20
-3.187571
  0
VERTEX
  8
PLAN_1
  6
CONTINUOUS
 10
1.888681
 20
-3.186295
  0
VERTEX
  8
PLAN_1
  6
CONTINUOUS
 10
1.884429
 20
-3.185445
  0
VERTEX
  8
PLAN_1
  6
CONTINUOUS
 10
1.880181
 20
-3.184594
  0
VERTEX
  8
PLAN_1
  6
CONTINUOUS
 10
1.875929
 20
-3.184594
  0
VERTEX
  8
PLAN_1
  6
CONTINUOUS
 10
1.871681
 20
-3.184169
  0
VERTEX
  8
PLAN_1
  6
CONTINUOUS
 10
1.864882
 20
-3.184594
  0
VERTEX
  8
PLAN_1
  6
CONTINUOUS
 10
1.857657
 20
-3.185445
  0
VERTEX
  8
PLAN_1
  6
CONTINUOUS
 10
1.853831
 20
-3.186295
  0
VERTEX
  8
PLAN_1
  6
CONTINUOUS
 10
1.850008
 20
-3.187571
  0
VERTEX
  8
PLAN_1
  6
CONTINUOUS
 10
1.846185
 20
-3.188843
  0
VERTEX
  8
PLAN_1
  6
CONTINUOUS
 10
1.842783
 20
-3.190543
  0
VERTEX
  8
PLAN_1
  6
CONTINUOUS
 10
1.839382
 20
-3.192669
  0
VERTEX
  8
PLAN_1
  6
CONTINUOUS
 10
1.836409
 20
-3.194795
  0
VERTEX
  8
PLAN_1
  6
CONTINUOUS
 10
1.833433
 20
-3.197768
  0
VERTEX
  8
PLAN_1
  6
CONTINUOUS
 10
1.830886
 20
-3.201169
  0
VERTEX
  8
PLAN_1
  6
CONTINUOUS
 10
1.829185
 20
-3.204992
  0
VERTEX
  8
PLAN_1
  6
CONTINUOUS
 10
1.827484
 20
-3.209244
  0
VERTEX
  8
PLAN_1
  6
CONTINUOUS
 10
1.826634
 20
-3.213917
  0
VERTEX
  8
PLAN_1
  6
CONTINUOUS
 10
1.826209
 20
-3.219441
  0
VERTEX
  8
PLAN_1
  6
CONTINUOUS
 10
1.826209
 20
-3.222417
  0
VERTEX
  8
PLAN_1
  6
CONTINUOUS
 10
1.826634
 20
-3.224965
  0
VERTEX
  8
PLAN_1
  6
CONTINUOUS
 10
1.827484
 20
-3.227516
  0
VERTEX
  8
PLAN_1
  6
CONTINUOUS
 10
1.828335
 20
-3.230067
  0
VERTEX
  8
PLAN_1
  6
CONTINUOUS
 10
1.829610
 20
-3.232193
  0
VERTEX
  8
PLAN_1
  6
CONTINUOUS
 10
1.830886
 20
-3.233890
  0
VERTEX
  8
PLAN_1
  6
CONTINUOUS
 10
1.832157
 20
-3.235591
  0
VERTEX
  8
PLAN_1
  6
CONTINUOUS
 10
1.833858
 20
-3.237291
  0
VERTEX
  8
PLAN_1
  6
CONTINUOUS
 10
1.837260
 20
-3.239839
  0
VERTEX
  8
PLAN_1
  6
CONTINUOUS
 10
1.841083
 20
-3.241965
  0
VERTEX
  8
PLAN_1
  6
CONTINUOUS
 10
1.845335
 20
-3.243240
  0
VERTEX
  8
PLAN_1
  6
CONTINUOUS
 10
1.850008
 20
-3.244516
  0
VERTEX
  8
PLAN_1
  6
CONTINUOUS
 10
1.906953
 20
-3.257689
  0
VERTEX
  8
PLAN_1
  6
CONTINUOUS
 10
1.911630
 20
-3.258965
  0
VERTEX
  8
PLAN_1
  6
CONTINUOUS
 10
1.916303
 20
-3.260240
  0
VERTEX
  8
PLAN_1
  6
CONTINUOUS
 10
1.920551
 20
-3.261937
  0
VERTEX
  8
PLAN_1
  6
CONTINUOUS
 10
1.924803
 20
-3.264063
  0
VERTEX
  8
PLAN_1
  6
CONTINUOUS
 10
1.928626
 20
-3.266189
  0
VERTEX
  8
PLAN_1
  6
CONTINUOUS
 10
1.932453
 20
-3.268736
  0
VERTEX
  8
PLAN_1
  6
CONTINUOUS
 10
1.935850
 20
-3.271713
  0
VERTEX
  8
PLAN_1
  6
CONTINUOUS
 10
1.939252
 20
-3.274689
  0
VERTEX
  8
PLAN_1
  6
CONTINUOUS
 10
1.941799
 20
-3.278087
  0
VERTEX
  8
PLAN_1
  6
CONTINUOUS
 10
1.944350
 20
-3.281488
  0
VERTEX
  8
PLAN_1
  6
CONTINUOUS
 10
1.946902
 20
-3.285736
  0
VERTEX
  8
PLAN_1
  6
CONTINUOUS
 10
1.948598
 20
-3.289988
  0
VERTEX
  8
PLAN_1
  6
CONTINUOUS
 10
1.949874
 20
-3.294661
  0
VERTEX
  8
PLAN_1
  6
CONTINUOUS
 10
1.951150
 20
-3.299760
  0
VERTEX
  8
PLAN_1
  6
CONTINUOUS
 10
1.951575
 20
-3.305283
  0
VERTEX
  8
PLAN_1
  6
CONTINUOUS
 10
1.952000
 20
-3.310811
  0
VERTEX
  8
PLAN_1
  6
CONTINUOUS
 10
1.952000
 20
-3.315059
  0
VERTEX
  8
PLAN_1
  6
CONTINUOUS
 10
1.951575
 20
-3.319311
  0
VERTEX
  8
PLAN_1
  6
CONTINUOUS
 10
1.950724
 20
-3.323134
  0
VERTEX
  8
PLAN_1
  6
CONTINUOUS
 10
1.949874
 20
-3.326961
  0
VERTEX
  8
PLAN_1
  6
CONTINUOUS
 10
1.949024
 20
-3.330358
  0
VERTEX
  8
PLAN_1
  6
CONTINUOUS
 10
1.947752
 20
-3.333760
  0
VERTEX
  8
PLAN_1
  6
CONTINUOUS
 10
1.946051
 20
-3.337157
  0
VERTEX
  8
PLAN_1
  6
CONTINUOUS
 10
1.944776
 20
-3.340134
  0
VERTEX
  8
PLAN_1
  6
CONTINUOUS
 10
1.942650
 20
-3.343106
  0
VERTEX
  8
PLAN_1
  6
CONTINUOUS
 10
1.940953
 20
-3.345657
  0
VERTEX
  8
PLAN_1
  6
CONTINUOUS
 10
1.938827
 20
-3.348209
  0
VERTEX
  8
PLAN_1
  6
CONTINUOUS
 10
1.936276
 20
-3.350756
  0
VERTEX
  8
PLAN_1
  6
CONTINUOUS
 10
1.931177
 20
-3.355008
  0
VERTEX
  8
PLAN_1
  6
CONTINUOUS
 10
1.925654
 20
-3.358831
  0
VERTEX
  8
PLAN_1
  6
CONTINUOUS
 10
1.919701
 20
-3.361807
  0
VERTEX
  8
PLAN_1
  6
CONTINUOUS
 10
1.913752
 20
-3.364354
  0
VERTEX
  8
PLAN_1
  6
CONTINUOUS
 10
1.907378
 20
-3.366480
  0
VERTEX
  8
PLAN_1
  6
CONTINUOUS
 10
1.900579
 20
-3.368181
  0
VERTEX
  8
PLAN_1
  6
CONTINUOUS
 10
1.893780
 20
-3.369457
  0
VERTEX
  8
PLAN_1
  6
CONTINUOUS
 10
1.886980
 20
-3.370307
  0
VERTEX
  8
PLAN_1
  6
CONTINUOUS
 10
1.880606
 20
-3.370732
  0
VERTEX
  8
PLAN_1
  6
CONTINUOUS
 10
1.874232
 20
-3.371154
  0
VERTEX
  8
PLAN_1
  6
CONTINUOUS
 10
1.867433
 20
-3.370732
  0
VERTEX
  8
PLAN_1
  6
CONTINUOUS
 10
1.861055
 20
-3.370732
  0
VERTEX
  8
PLAN_1
  6
CONTINUOUS
 10
1.855531
 20
-3.369882
  0
VERTEX
  8
PLAN_1
  6
CONTINUOUS
 10
1.850433
 20
-3.369031
  0
VERTEX
  8
PLAN_1
  6
CONTINUOUS
 10
1.845335
 20
-3.368181
  0
VERTEX
  8
PLAN_1
  6
CONTINUOUS
 10
1.841083
 20
-3.367331
  0
VERTEX
  8
PLAN_1
  6
CONTINUOUS
 10
1.837260
 20
-3.366055
  0
VERTEX
  8
PLAN_1
  6
CONTINUOUS
 10
1.833433
 20
-3.364354
  0
VERTEX
  8
PLAN_1
  6
CONTINUOUS
 10
1.827059
 20
-3.361382
  0
VERTEX
  8
PLAN_1
  6
CONTINUOUS
 10
1.821961
 20
-3.358406
  0
VERTEX
  8
PLAN_1
  6
CONTINUOUS
 10
1.817283
 20
-3.355008
  0
VERTEX
  8
PLAN_1
  6
CONTINUOUS
 10
1.813886
 20
-3.352031
  0
VERTEX
  8
PLAN_1
  6
CONTINUOUS
 10
1.810909
 20
-3.349055
  0
VERTEX
  8
PLAN_1
  6
CONTINUOUS
 10
1.807937
 20
-3.346083
  0
VERTEX
  8
PLAN_1
  6
CONTINUOUS
 10
1.805811
 20
-3.343106
  0
VERTEX
  8
PLAN_1
  6
CONTINUOUS
 10
1.803685
 20
-3.340134
  0
VERTEX
  8
PLAN_1
  6
CONTINUOUS
 10
1.801563
 20
-3.337157
  0
VERTEX
  8
PLAN_1
  6
CONTINUOUS
 10
1.799862
 20
-3.334185
  0
VERTEX
  8
PLAN_1
  6
CONTINUOUS
 10
1.798587
 20
-3.331209
  0
VERTEX
  8
PLAN_1
  6
CONTINUOUS
 10
1.797311
 20
-3.327807
  0
VERTEX
  8
PLAN_1
  6
CONTINUOUS
 10
1.795610
 20
-3.321433
  0
VERTEX
  8
PLAN_1
  6
CONTINUOUS
 10
1.794339
 20
-3.315059
  0
VERTEX
  8
PLAN_1
  6
CONTINUOUS
 10
1.793913
 20
-3.308260
  0
VERTEX
  8
PLAN_1
  6
CONTINUOUS
 10
1.793488
 20
-3.301461
  0
VERTEX
  8
PLAN_1
  6
CONTINUOUS
 10
1.818984
 20
-3.301461
  0
VERTEX
  8
PLAN_1
  6
CONTINUOUS
 10
1.818984
 20
-3.307835
  0
VERTEX
  8
PLAN_1
  6
CONTINUOUS
 10
1.820260
 20
-3.313783
  0
VERTEX
  8
PLAN_1
  6
CONTINUOUS
 10
1.821535
 20
-3.319311
  0
VERTEX
  8
PLAN_1
  6
CONTINUOUS
 10
1.823661
 20
-3.323984
  0
VERTEX
  8
PLAN_1
  6
CONTINUOUS
 10
1.826209
 20
-3.328232
  0
VERTEX
  8
PLAN_1
  6
CONTINUOUS
 10
1.829610
 20
-3.332059
  0
VERTEX
  8
PLAN_1
  6
CONTINUOUS
 10
1.833008
 20
-3.335457
  0
VERTEX
  8
PLAN_1
  6
CONTINUOUS
 10
1.836835
 20
-3.338433
  0
VERTEX
  8
PLAN_1
  6
CONTINUOUS
 10
1.840657
 20
-3.340559
  0
VERTEX
  8
PLAN_1
  6
CONTINUOUS
 10
1.845335
 20
-3.342681
  0
VERTEX
  8
PLAN_1
  6
CONTINUOUS
 10
1.849583
 20
-3.344382
  0
VERTEX
  8
PLAN_1
  6
CONTINUOUS
 10
1.854256
 20
-3.345657
  0
VERTEX
  8
PLAN_1
  6
CONTINUOUS
 10
1.859358
 20
-3.346933
  0
VERTEX
  8
PLAN_1
  6
CONTINUOUS
 10
1.864031
 20
-3.347358
  0
VERTEX
  8
PLAN_1
  6
CONTINUOUS
 10
1.868705
 20
-3.347783
  0
VERTEX
  8
PLAN_1
  6
CONTINUOUS
 10
1.873807
 20
-3.348209
  0
VERTEX
  8
PLAN_1
  6
CONTINUOUS
 10
1.881457
 20
-3.347783
  0
VERTEX
  8
PLAN_1
  6
CONTINUOUS
 10
1.889957
 20
-3.346933
  0
VERTEX
  8
PLAN_1
  6
CONTINUOUS
 10
1.894630
 20
-3.346083
  0
VERTEX
  8
PLAN_1
  6
CONTINUOUS
 10
1.898878
 20
-3.344807
  0
VERTEX
  8
PLAN_1
  6
CONTINUOUS
 10
1.903130
 20
-3.343531
  0
VERTEX
  8
PLAN_1
  6
CONTINUOUS
 10
1.906953
 20
-3.341831
  0
VERTEX
  8
PLAN_1
  6
CONTINUOUS
 10
1.910780
 20
-3.340134
  0
VERTEX
  8
PLAN_1
  6
CONTINUOUS
 10
1.914602
 20
-3.337583
  0
VERTEX
  8
PLAN_1
  6
CONTINUOUS
 10
1.917579
 20
-3.335031
  0
VERTEX
  8
PLAN_1
  6
CONTINUOUS
 10
1.920551
 20
-3.331634
  0
VERTEX
  8
PLAN_1
  6
CONTINUOUS
 10
1.922677
 20
-3.328232
  0
VERTEX
  8
PLAN_1
  6
CONTINUOUS
 10
1.924378
 20
-3.323984
  0
VERTEX
  8
PLAN_1
  6
CONTINUOUS
 10
1.925654
 20
-3.319732
  0
VERTEX
  8
PLAN_1
  6
CONTINUOUS
 10
1.926079
 20
-3.314634
  0
VERTEX
  8
PLAN_1
  6
CONTINUOUS
 10
1.925654
 20
-3.310811
  0
VERTEX
  8
PLAN_1
  6
CONTINUOUS
 10
1.925228
 20
-3.307409
  0
VERTEX
  8
PLAN_1
  6
CONTINUOUS
 10
1.924803
 20
-3.304012
  0
VERTEX
  8
PLAN_1
  6
CONTINUOUS
 10
1.923953
 20
-3.301461
  0
VERTEX
  8
PLAN_1
  6
CONTINUOUS
 10
1.922677
 20
-3.298484
  0
VERTEX
  8
PLAN_1
  6
CONTINUOUS
 10
1.920976
 20
-3.296362
  0
VERTEX
  8
PLAN_1
  6
CONTINUOUS
 10
1.919276
 20
-3.293811
  0
VERTEX
  8
PLAN_1
  6
CONTINUOUS
 10
1.917154
 20
-3.292110
  0
VERTEX
  8
PLAN_1
  6
CONTINUOUS
 10
1.914177
 20
-3.289988
  0
VERTEX
  8
PLAN_1
  6
CONTINUOUS
 10
1.911205
 20
-3.288287
  0
VERTEX
  8
PLAN_1
  6
CONTINUOUS
 10
1.907803
 20
-3.286587
  0
VERTEX
  8
PLAN_1
  6
CONTINUOUS
 10
1.903980
 20
-3.284886
  0
VERTEX
  8
PLAN_1
  6
CONTINUOUS
 10
1.894630
 20
-3.281913
  0
VERTEX
  8
PLAN_1
  6
CONTINUOUS
 10
1.883579
 20
-3.279362
  0
VERTEX
  8
PLAN_1
  6
CONTINUOUS
 10
1.842783
 20
-3.269587
  0
VERTEX
  8
PLAN_1
  6
CONTINUOUS
 10
1.837260
 20
-3.268315
  0
VERTEX
  8
PLAN_1
  6
CONTINUOUS
 10
1.830461
 20
-3.266189
  0
VERTEX
  8
PLAN_1
  6
CONTINUOUS
 10
1.827059
 20
-3.264488
  0
VERTEX
  8
PLAN_1
  6
CONTINUOUS
 10
1.823661
 20
-3.262787
  0
VERTEX
  8
PLAN_1
  6
CONTINUOUS
 10
1.819835
 20
-3.260665
  0
VERTEX
  8
PLAN_1
  6
CONTINUOUS
 10
1.816437
 20
-3.258114
  0
VERTEX
  8
PLAN_1
  6
CONTINUOUS
 10
1.813035
 20
-3.255563
  0
VERTEX
  8
PLAN_1
  6
CONTINUOUS
 10
1.810059
 20
-3.252165
  0
VERTEX
  8
PLAN_1
  6
CONTINUOUS
 10
1.807512
 20
-3.248339
  0
VERTEX
  8
PLAN_1
  6
CONTINUOUS
 10
1.804961
 20
-3.244516
  0
VERTEX
  8
PLAN_1
  6
CONTINUOUS
 10
1.802835
 20
-3.239839
  0
VERTEX
  8
PLAN_1
  6
CONTINUOUS
 10
1.801563
 20
-3.234740
  0
VERTEX
  8
PLAN_1
  6
CONTINUOUS
 10
1.800713
 20
-3.229217
  0
VERTEX
  8
PLAN_1
  6
CONTINUOUS
 10
1.800287
 20
-3.222843
  0
VERTEX
  8
PLAN_1
  6
CONTINUOUS
 10
1.800287
 20
-3.216894
  0
VERTEX
  8
PLAN_1
  6
CONTINUOUS
 10
1.801138
 20
-3.211366
  0
VERTEX
  8
PLAN_1
  6
CONTINUOUS
 10
1.802413
 20
-3.205843
  0
VERTEX
  8
PLAN_1
  6
CONTINUOUS
 10
1.804110
 20
-3.200319
  0
VERTEX
  8
PLAN_1
  6
CONTINUOUS
 10
1.806236
 20
-3.194795
  0
VERTEX
  8
PLAN_1
  6
CONTINUOUS
 10
1.809213
 20
-3.189693
  0
VERTEX
  8
PLAN_1
  6
CONTINUOUS
 10
1.812610
 20
-3.185020
  0
VERTEX
  8
PLAN_1
  6
CONTINUOUS
 10
1.816437
 20
-3.180346
  0
VERTEX
  8
PLAN_1
  6
CONTINUOUS
 10
1.820685
 20
-3.176094
  0
VERTEX
  8
PLAN_1
  6
CONTINUOUS
 10
1.825783
 20
-3.172697
  0
VERTEX
  8
PLAN_1
  6
CONTINUOUS
 10
1.831311
 20
-3.169295
  0
VERTEX
  8
PLAN_1
  6
CONTINUOUS
 10
1.837685
 20
-3.166323
  0
VERTEX
  8
PLAN_1
  6
CONTINUOUS
 10
1.844484
 20
-3.164197
  0
VERTEX
  8
PLAN_1
  6
CONTINUOUS
 10
1.852134
 20
-3.162496
  0
VERTEX
  8
PLAN_1
  6
CONTINUOUS
 10
1.860209
 20
-3.161646
  0
VERTEX
  8
PLAN_1
  6
CONTINUOUS
 10
1.868705
 20
-3.161220
  0
VERTEX
  8
PLAN_1
  6
CONTINUOUS
 10
1.875083
 20
-3.161220
  0
VERTEX
  8
PLAN_1
  6
CONTINUOUS
 10
1.881031
 20
-3.161646
  0
VERTEX
  8
PLAN_1
  6
CONTINUOUS
 10
1.886555
 20
-3.162496
  0
VERTEX
  8
PLAN_1
  6
CONTINUOUS
 10
1.892079
 20
-3.162921
  0
VERTEX
  8
PLAN_1
  6
CONTINUOUS
 10
1.897181
 20
-3.164197
  0
VERTEX
  8
PLAN_1
  6
CONTINUOUS
 10
1.901854
 20
-3.165047
  0
VERTEX
  8
PLAN_1
  6
CONTINUOUS
 10
1.906102
 20
-3.166744
  0
VERTEX
  8
PLAN_1
  6
CONTINUOUS
 10
1.909929
 20
-3.168020
  0
VERTEX
  8
PLAN_1
  6
CONTINUOUS
 10
1.913752
 20
-3.169720
  0
VERTEX
  8
PLAN_1
  6
CONTINUOUS
 10
1.917579
 20
-3.171421
  0
VERTEX
  8
PLAN_1
  6
CONTINUOUS
 10
1.920551
 20
-3.173547
  0
VERTEX
  8
PLAN_1
  6
CONTINUOUS
 10
1.923528
 20
-3.175669
  0
VERTEX
  8
PLAN_1
  6
CONTINUOUS
 10
1.926500
 20
-3.177795
  0
VERTEX
  8
PLAN_1
  6
CONTINUOUS
 10
1.929051
 20
-3.179921
  0
VERTEX
  8
PLAN_1
  6
CONTINUOUS
 10
1.931177
 20
-3.182469
  0
VERTEX
  8
PLAN_1
  6
CONTINUOUS
 10
1.933303
 20
-3.185020
  0
VERTEX
  8
PLAN_1
  6
CONTINUOUS
 10
1.936701
 20
-3.189693
  0
VERTEX
  8
PLAN_1
  6
CONTINUOUS
 10
1.939677
 20
-3.195220
  0
VERTEX
  8
PLAN_1
  6
CONTINUOUS
 10
1.941799
 20
-3.200319
  0
VERTEX
  8
PLAN_1
  6
CONTINUOUS
 10
1.943500
 20
-3.205417
  0
VERTEX
  8
PLAN_1
  6
CONTINUOUS
 10
1.944776
 20
-3.210941
  0
VERTEX
  8
PLAN_1
  6
CONTINUOUS
 10
1.945626
 20
-3.215618
  0
VERTEX
  8
PLAN_1
  6
CONTINUOUS
 10
1.946051
 20
-3.220291
  0
VERTEX
  8
PLAN_1
  6
CONTINUOUS
 10
1.946476
 20
-3.224965
  0
VERTEX
  8
PLAN_1
  6
CONTINUOUS
 10
1.921402
 20
-3.224965
  0
SEQEND
  8
0
  0
POLYLINE
  8
PLAN_1
 62
     5
  6
CONTINUOUS
 66
     1
 40
0.003000
 41
0.003000
  0
VERTEX
  8
PLAN_1
 62
     5
  6
CONTINUOUS
 10
-1.953874
 20
1.144972
  0
VERTEX
  8
PLAN_1
 62
     5
  6
CONTINUOUS
 10
-1.953874
 20
1.153472
  0
SEQEND
  8
0
  0
POLYLINE
  8
PLAN_1
 62
     5
  6
CONTINUOUS
 66
     1
 40
0.003000
 41
0.003000
  0
VERTEX
  8
PLAN_1
 62
     5
  6
CONTINUOUS
 10
-1.953874
 20
1.161547
  0
VERTEX
  8
PLAN_1
 62
     5
  6
CONTINUOUS
 10
-1.953874
 20
1.170047
  0
SEQEND
  8
0
  0
POLYLINE
  8
PLAN_1
 62
     5
  6
CONTINUOUS
 66
     1
 40
0.003000
 41
0.003000
  0
VERTEX
  8
PLAN_1
 62
     5
  6
CONTINUOUS
 10
-1.953874
 20
1.178547
  0
VERTEX
  8
PLAN_1
 62
     5
  6
CONTINUOUS
 10
-1.953874
 20
1.186618
  0
SEQEND
  8
0
  0
POLYLINE
  8
PLAN_1
 62
     5
  6
CONTINUOUS
 66
     1
 40
0.003000
 41
0.003000
  0
VERTEX
  8
PLAN_1
 62
     5
  6
CONTINUOUS
 10
-1.953874
 20
1.195118
  0
VERTEX
  8
PLAN_1
 62
     5
  6
CONTINUOUS
 10
-1.953874
 20
1.203193
  0
SEQEND
  8
0
  0
POLYLINE
  8
PLAN_1
 62
     5
  6
CONTINUOUS
 66
     1
 40
0.003000
 41
0.003000
  0
VERTEX
  8
PLAN_1
 62
     5
  6
CONTINUOUS
 10
-1.953874
 20
1.211693
  0
VERTEX
  8
PLAN_1
 62
     5
  6
CONTINUOUS
 10
-1.953874
 20
1.220193
  0
SEQEND
  8
0
  0
POLYLINE
  8
PLAN_1
 62
     5
  6
CONTINUOUS
 66
     1
 40
0.003000
 41
0.003000
  0
VERTEX
  8
PLAN_1
 62
     5
  6
CONTINUOUS
 10
-1.953874
 20
1.228268
  0
VERTEX
  8
PLAN_1
 62
     5
  6
CONTINUOUS
 10
-1.953874
 20
1.236768
  0
SEQEND
  8
0
  0
POLYLINE
  8
PLAN_1
 62
     5
  6
CONTINUOUS
 66
     1
 40
0.003000
 41
0.003000
  0
VERTEX
  8
PLAN_1
 62
     5
  6
CONTINUOUS
 10
-1.953874
 20
1.244839
  0
VERTEX
  8
PLAN_1
 62
     5
  6
CONTINUOUS
 10
-1.953874
 20
1.253339
  0
SEQEND
  8
0
  0
POLYLINE
  8
PLAN_1
 62
     5
  6
CONTINUOUS
 66
     1
 40
0.003000
 41
0.003000
  0
VERTEX
  8
PLAN_1
 62
     5
  6
CONTINUOUS
 10
-1.953874
 20
1.261413
  0
VERTEX
  8
PLAN_1
 62
     5
  6
CONTINUOUS
 10
-1.953874
 20
1.269913
  0
SEQEND
  8
0
  0
POLYLINE
  8
PLAN_1
 62
     5
  6
CONTINUOUS
 66
     1
 40
0.003000
 41
0.003000
  0
VERTEX
  8
PLAN_1
 62
     5
  6
CONTINUOUS
 10
-1.953874
 20
1.278413
  0
VERTEX
  8
PLAN_1
 62
     5
  6
CONTINUOUS
 10
-1.953874
 20
1.286488
  0
SEQEND
  8
0
  0
POLYLINE
  8
PLAN_1
 62
     5
  6
CONTINUOUS
 66
     1
 40
0.003000
 41
0.003000
  0
VERTEX
  8
PLAN_1
 62
     5
  6
CONTINUOUS
 10
-1.953874
 20
1.294988
  0
VERTEX
  8
PLAN_1
 62
     5
  6
CONTINUOUS
 10
-1.953874
 20
1.303059
  0
SEQEND
  8
0
  0
POLYLINE
  8
PLAN_1
 62
     5
  6
CONTINUOUS
 66
     1
 40
0.003000
 41
0.003000
  0
VERTEX
  8
PLAN_1
 62
     5
  6
CONTINUOUS
 10
-1.953874
 20
1.311559
  0
VERTEX
  8
PLAN_1
 62
     5
  6
CONTINUOUS
 10
-1.953874
 20
1.320059
  0
SEQEND
  8
0
  0
POLYLINE
  8
PLAN_1
 62
     5
  6
CONTINUOUS
 66
     1
 40
0.003000
 41
0.003000
  0
VERTEX
  8
PLAN_1
 62
     5
  6
CONTINUOUS
 10
-1.953874
 20
1.328134
  0
VERTEX
  8
PLAN_1
 62
     5
  6
CONTINUOUS
 10
-1.953874
 20
1.336634
  0
SEQEND
  8
0
  0
POLYLINE
  8
PLAN_1
 62
     5
  6
CONTINUOUS
 66
     1
 40
0.003000
 41
0.003000
  0
VERTEX
  8
PLAN_1
 62
     5
  6
CONTINUOUS
 10
-1.953874
 20
1.344709
  0
VERTEX
  8
PLAN_1
 62
     5
  6
CONTINUOUS
 10
-1.953874
 20
1.353209
  0
SEQEND
  8
0
  0
POLYLINE
  8
PLAN_1
 62
     5
  6
CONTINUOUS
 66
     1
 40
0.003000
 41
0.003000
  0
VERTEX
  8
PLAN_1
 62
     5
  6
CONTINUOUS
 10
-1.953874
 20
1.361705
  0
VERTEX
  8
PLAN_1
 62
     5
  6
CONTINUOUS
 10
-1.953874
 20
1.369780
  0
SEQEND
  8
0
  0
POLYLINE
  8
PLAN_1
 62
     5
  6
CONTINUOUS
 66
     1
 40
0.003000
 41
0.003000
  0
VERTEX
  8
PLAN_1
 62
     5
  6
CONTINUOUS
 10
-1.953874
 20
1.378280
  0
VERTEX
  8
PLAN_1
 62
     5
  6
CONTINUOUS
 10
-1.953874
 20
1.386354
  0
SEQEND
  8
0
  0
POLYLINE
  8
PLAN_1
 62
     5
  6
CONTINUOUS
 66
     1
 40
0.003000
 41
0.003000
  0
VERTEX
  8
PLAN_1
 62
     5
  6
CONTINUOUS
 10
-1.953874
 20
1.394854
  0
VERTEX
  8
PLAN_1
 62
     5
  6
CONTINUOUS
 10
-1.953874
 20
1.403354
  0
SEQEND
  8
0
  0
POLYLINE
  8
PLAN_1
 62
     5
  6
CONTINUOUS
 66
     1
 40
0.003000
 41
0.003000
  0
VERTEX
  8
PLAN_1
 62
     5
  6
CONTINUOUS
 10
-1.953874
 20
1.411429
  0
VERTEX
  8
PLAN_1
 62
     5
  6
CONTINUOUS
 10
-1.953874
 20
1.419925
  0
SEQEND
  8
0
  0
POLYLINE
  8
PLAN_1
 62
     5
  6
CONTINUOUS
 66
     1
 40
0.003000
 41
0.003000
  0
VERTEX
  8
PLAN_1
 62
     5
  6
CONTINUOUS
 10
-1.953874
 20
1.428000
  0
VERTEX
  8
PLAN_1
 62
     5
  6
CONTINUOUS
 10
-1.953874
 20
1.436500
  0
SEQEND
  8
0
  0
POLYLINE
  8
PLAN_1
 62
     5
  6
CONTINUOUS
 66
     1
 40
0.003000
 41
0.003000
  0
VERTEX
  8
PLAN_1
 62
     5
  6
CONTINUOUS
 10
-1.953874
 20
1.445000
  0
VERTEX
  8
PLAN_1
 62
     5
  6
CONTINUOUS
 10
-1.953874
 20
1.453075
  0
SEQEND
  8
0
  0
POLYLINE
  8
PLAN_1
 62
     5
  6
CONTINUOUS
 66
     1
 40
0.003000
 41
0.003000
  0
VERTEX
  8
PLAN_1
 62
     5
  6
CONTINUOUS
 10
-1.953874
 20
1.461575
  0
VERTEX
  8
PLAN_1
 62
     5
  6
CONTINUOUS
 10
-1.953874
 20
1.469650
  0
SEQEND
  8
0
  0
POLYLINE
  8
PLAN_1
 62
     5
  6
CONTINUOUS
 66
     1
 40
0.003000
 41
0.003000
  0
VERTEX
  8
PLAN_1
 62
     5
  6
CONTINUOUS
 10
-1.953874
 20
1.478146
  0
VERTEX
  8
PLAN_1
 62
     5
  6
CONTINUOUS
 10
-1.953874
 20
1.486646
  0
SEQEND
  8
0
  0
POLYLINE
  8
PLAN_1
 62
     5
  6
CONTINUOUS
 66
     1
 40
0.003000
 41
0.003000
  0
VERTEX
  8
PLAN_1
 62
     5
  6
CONTINUOUS
 10
-1.953874
 20
1.494720
  0
VERTEX
  8
PLAN_1
 62
     5
  6
CONTINUOUS
 10
-1.953874
 20
1.503220
  0
SEQEND
  8
0
  0
POLYLINE
  8
PLAN_1
 62
     5
  6
CONTINUOUS
 66
     1
 40
0.003000
 41
0.003000
  0
VERTEX
  8
PLAN_1
 62
     5
  6
CONTINUOUS
 10
-1.953874
 20
1.511295
  0
VERTEX
  8
PLAN_1
 62
     5
  6
CONTINUOUS
 10
-1.953874
 20
1.518520
  0
SEQEND
  8
0
  0
POLYLINE
  8
PLAN_1
 62
     5
  6
CONTINUOUS
 66
     1
 40
0.003000
 41
0.003000
  0
VERTEX
  8
PLAN_1
 62
     5
  6
CONTINUOUS
 10
-1.953874
 20
1.511295
  0
VERTEX
  8
PLAN_1
 62
     5
  6
CONTINUOUS
 10
-1.953874
 20
1.518520
  0
SEQEND
  8
0
  0
POLYLINE
  8
PLAN_1
 62
     5
  6
CONTINUOUS
 66
     1
 40
0.003000
 41
0.003000
  0
VERTEX
  8
PLAN_1
 62
     5
  6
CONTINUOUS
 10
-1.953874
 20
1.518520
  0
VERTEX
  8
PLAN_1
 62
     5
  6
CONTINUOUS
 10
-1.953874
 20
1.520646
  0
VERTEX
  8
PLAN_1
 62
     5
  6
CONTINUOUS
 10
-1.953874
 20
1.522768
  0
VERTEX
  8
PLAN_1
 62
     5
  6
CONTINUOUS
 10
-1.953449
 20
1.524894
  0
VERTEX
  8
PLAN_1
 62
     5
  6
CONTINUOUS
 10
-1.953024
 20
1.526594
  0
SEQEND
  8
0
  0
POLYLINE
  8
PLAN_1
 62
     5
  6
CONTINUOUS
 66
     1
 40
0.003000
 41
0.003000
  0
VERTEX
  8
PLAN_1
 62
     5
  6
CONTINUOUS
 10
-1.948350
 20
1.533819
  0
VERTEX
  8
PLAN_1
 62
     5
  6
CONTINUOUS
 10
-1.946224
 20
1.535520
  0
VERTEX
  8
PLAN_1
 62
     5
  6
CONTINUOUS
 10
-1.942827
 20
1.537217
  0
VERTEX
  8
PLAN_1
 62
     5
  6
CONTINUOUS
 10
-1.941126
 20
1.537642
  0
SEQEND
  8
0
  0
POLYLINE
  8
PLAN_1
 62
     5
  6
CONTINUOUS
 66
     1
 40
0.003000
 41
0.003000
  0
VERTEX
  8
PLAN_1
 62
     5
  6
CONTINUOUS
 10
-1.935177
 20
1.538917
  0
VERTEX
  8
PLAN_1
 62
     5
  6
CONTINUOUS
 10
-1.926677
 20
1.538917
  0
SEQEND
  8
0
  0
POLYLINE
  8
PLAN_1
 62
     5
  6
CONTINUOUS
 66
     1
 40
0.003000
 41
0.003000
  0
VERTEX
  8
PLAN_1
 62
     5
  6
CONTINUOUS
 10
-1.918602
 20
1.538917
  0
VERTEX
  8
PLAN_1
 62
     5
  6
CONTINUOUS
 10
-1.910102
 20
1.538917
  0
SEQEND
  8
0
  0
POLYLINE
  8
PLAN_1
 62
     5
  6
CONTINUOUS
 66
     1
 40
0.003000
 41
0.003000
  0
VERTEX
  8
PLAN_1
 62
     5
  6
CONTINUOUS
 10
-1.902028
 20
1.538917
  0
VERTEX
  8
PLAN_1
 62
     5
  6
CONTINUOUS
 10
-1.893531
 20
1.538917
  0
SEQEND
  8
0
  0
POLYLINE
  8
PLAN_1
 62
     5
  6
CONTINUOUS
 66
     1
 40
0.003000
 41
0.003000
  0
VERTEX
  8
PLAN_1
 62
     5
  6
CONTINUOUS
 10
-1.885031
 20
1.538917
  0
VERTEX
  8
PLAN_1
 62
     5
  6
CONTINUOUS
 10
-1.876957
 20
1.538917
  0
SEQEND
  8
0
  0
POLYLINE
  8
PLAN_1
 62
     5
  6
CONTINUOUS
 66
     1
 40
0.003000
 41
0.003000
  0
VERTEX
  8
PLAN_1
 62
     5
  6
CONTINUOUS
 10
-1.868457
 20
1.538917
  0
VERTEX
  8
PLAN_1
 62
     5
  6
CONTINUOUS
 10
-1.860382
 20
1.538917
  0
SEQEND
  8
0
  0
POLYLINE
  8
PLAN_1
 62
     5
  6
CONTINUOUS
 66
     1
 40
0.003000
 41
0.003000
  0
VERTEX
  8
PLAN_1
 62
     5
  6
CONTINUOUS
 10
-1.851882
 20
1.538917
  0
VERTEX
  8
PLAN_1
 62
     5
  6
CONTINUOUS
 10
-1.843382
 20
1.538917
  0
SEQEND
  8
0
  0
POLYLINE
  8
PLAN_1
 62
     5
  6
CONTINUOUS
 66
     1
 40
0.003000
 41
0.003000
  0
VERTEX
  8
PLAN_1
 62
     5
  6
CONTINUOUS
 10
-1.835311
 20
1.538917
  0
VERTEX
  8
PLAN_1
 62
     5
  6
CONTINUOUS
 10
-1.826811
 20
1.538917
  0
SEQEND
  8
0
  0
POLYLINE
  8
PLAN_1
 62
     5
  6
CONTINUOUS
 66
     1
 40
0.003000
 41
0.003000
  0
VERTEX
  8
PLAN_1
 62
     5
  6
CONTINUOUS
 10
-1.818736
 20
1.538917
  0
VERTEX
  8
PLAN_1
 62
     5
  6
CONTINUOUS
 10
-1.810236
 20
1.538917
  0
SEQEND
  8
0
  0
POLYLINE
  8
PLAN_1
 62
     5
  6
CONTINUOUS
 66
     1
 40
0.003000
 41
0.003000
  0
VERTEX
  8
PLAN_1
 62
     5
  6
CONTINUOUS
 10
-1.801736
 20
1.538917
  0
VERTEX
  8
PLAN_1
 62
     5
  6
CONTINUOUS
 10
-1.793661
 20
1.538917
  0
SEQEND
  8
0
  0
POLYLINE
  8
PLAN_1
 62
     5
  6
CONTINUOUS
 66
     1
 40
0.003000
 41
0.003000
  0
VERTEX
  8
PLAN_1
 62
     5
  6
CONTINUOUS
 10
-1.785161
 20
1.538917
  0
VERTEX
  8
PLAN_1
 62
     5
  6
CONTINUOUS
 10
-1.777091
 20
1.538917
  0
SEQEND
  8
0
  0
POLYLINE
  8
PLAN_1
 62
     5
  6
CONTINUOUS
 66
     1
 40
0.003000
 41
0.003000
  0
VERTEX
  8
PLAN_1
 62
     5
  6
CONTINUOUS
 10
-1.768591
 20
1.538917
  0
VERTEX
  8
PLAN_1
 62
     5
  6
CONTINUOUS
 10
-1.760091
 20
1.538917
  0
SEQEND
  8
0
  0
POLYLINE
  8
PLAN_1
 62
     5
  6
CONTINUOUS
 66
     1
 40
0.003000
 41
0.003000
  0
VERTEX
  8
PLAN_1
 62
     5
  6
CONTINUOUS
 10
-1.752016
 20
1.538917
  0
VERTEX
  8
PLAN_1
 62
     5
  6
CONTINUOUS
 10
-1.743516
 20
1.538917
  0
SEQEND
  8
0
  0
POLYLINE
  8
PLAN_1
 62
     5
  6
CONTINUOUS
 66
     1
 40
0.003000
 41
0.003000
  0
VERTEX
  8
PLAN_1
 62
     5
  6
CONTINUOUS
 10
-1.735441
 20
1.538917
  0
VERTEX
  8
PLAN_1
 62
     5
  6
CONTINUOUS
 10
-1.726941
 20
1.538917
  0
SEQEND
  8
0
  0
POLYLINE
  8
PLAN_1
 62
     5
  6
CONTINUOUS
 66
     1
 40
0.003000
 41
0.003000
  0
VERTEX
  8
PLAN_1
 62
     5
  6
CONTINUOUS
 10
-1.718445
 20
1.538917
  0
VERTEX
  8
PLAN_1
 62
     5
  6
CONTINUOUS
 10
-1.710370
 20
1.538917
  0
SEQEND
  8
0
  0
POLYLINE
  8
PLAN_1
 62
     5
  6
CONTINUOUS
 66
     1
 40
0.003000
 41
0.003000
  0
VERTEX
  8
PLAN_1
 62
     5
  6
CONTINUOUS
 10
-1.701870
 20
1.538917
  0
VERTEX
  8
PLAN_1
 62
     5
  6
CONTINUOUS
 10
-1.693795
 20
1.538917
  0
SEQEND
  8
0
  0
POLYLINE
  8
PLAN_1
 62
     5
  6
CONTINUOUS
 66
     1
 40
0.003000
 41
0.003000
  0
VERTEX
  8
PLAN_1
 62
     5
  6
CONTINUOUS
 10
-1.685295
 20
1.538917
  0
VERTEX
  8
PLAN_1
 62
     5
  6
CONTINUOUS
 10
-1.676795
 20
1.538917
  0
SEQEND
  8
0
  0
POLYLINE
  8
PLAN_1
 62
     5
  6
CONTINUOUS
 66
     1
 40
0.003000
 41
0.003000
  0
VERTEX
  8
PLAN_1
 62
     5
  6
CONTINUOUS
 10
-1.668720
 20
1.538917
  0
VERTEX
  8
PLAN_1
 62
     5
  6
CONTINUOUS
 10
-1.660224
 20
1.538917
  0
SEQEND
  8
0
  0
POLYLINE
  8
PLAN_1
 62
     5
  6
CONTINUOUS
 66
     1
 40
0.003000
 41
0.003000
  0
VERTEX
  8
PLAN_1
 62
     5
  6
CONTINUOUS
 10
-1.652150
 20
1.538917
  0
VERTEX
  8
PLAN_1
 62
     5
  6
CONTINUOUS
 10
-1.643650
 20
1.538917
  0
SEQEND
  8
0
  0
POLYLINE
  8
PLAN_1
 62
     5
  6
CONTINUOUS
 66
     1
 40
0.003000
 41
0.003000
  0
VERTEX
  8
PLAN_1
 62
     5
  6
CONTINUOUS
 10
-1.635575
 20
1.538917
  0
VERTEX
  8
PLAN_1
 62
     5
  6
CONTINUOUS
 10
-1.627075
 20
1.538917
  0
SEQEND
  8
0
  0
POLYLINE
  8
PLAN_1
 62
     5
  6
CONTINUOUS
 66
     1
 40
0.003000
 41
0.003000
  0
VERTEX
  8
PLAN_1
 62
     5
  6
CONTINUOUS
 10
-1.618575
 20
1.538917
  0
VERTEX
  8
PLAN_1
 62
     5
  6
CONTINUOUS
 10
-1.610500
 20
1.538917
  0
SEQEND
  8
0
  0
POLYLINE
  8
PLAN_1
 62
     5
  6
CONTINUOUS
 66
     1
 40
0.003000
 41
0.003000
  0
VERTEX
  8
PLAN_1
 62
     5
  6
CONTINUOUS
 10
-1.602004
 20
1.538917
  0
VERTEX
  8
PLAN_1
 62
     5
  6
CONTINUOUS
 10
-1.593929
 20
1.538917
  0
SEQEND
  8
0
  0
POLYLINE
  8
PLAN_1
 62
     5
  6
CONTINUOUS
 66
     1
 40
0.003000
 41
0.003000
  0
VERTEX
  8
PLAN_1
 62
     5
  6
CONTINUOUS
 10
-1.585429
 20
1.538917
  0
VERTEX
  8
PLAN_1
 62
     5
  6
CONTINUOUS
 10
-1.576929
 20
1.538917
  0
SEQEND
  8
0
  0
POLYLINE
  8
PLAN_1
 62
     5
  6
CONTINUOUS
 66
     1
 40
0.003000
 41
0.003000
  0
VERTEX
  8
PLAN_1
 62
     5
  6
CONTINUOUS
 10
-1.568854
 20
1.538917
  0
VERTEX
  8
PLAN_1
 62
     5
  6
CONTINUOUS
 10
-1.560354
 20
1.538917
  0
SEQEND
  8
0
  0
POLYLINE
  8
PLAN_1
 62
     5
  6
CONTINUOUS
 66
     1
 40
0.003000
 41
0.003000
  0
VERTEX
  8
PLAN_1
 62
     5
  6
CONTINUOUS
 10
-1.552280
 20
1.538917
  0
VERTEX
  8
PLAN_1
 62
     5
  6
CONTINUOUS
 10
-1.543783
 20
1.538917
  0
SEQEND
  8
0
  0
POLYLINE
  8
PLAN_1
 62
     5
  6
CONTINUOUS
 66
     1
 40
0.003000
 41
0.003000
  0
VERTEX
  8
PLAN_1
 62
     5
  6
CONTINUOUS
 10
-1.535283
 20
1.538917
  0
VERTEX
  8
PLAN_1
 62
     5
  6
CONTINUOUS
 10
-1.527209
 20
1.538917
  0
SEQEND
  8
0
  0
POLYLINE
  8
PLAN_1
 62
     5
  6
CONTINUOUS
 66
     1
 40
0.003000
 41
0.003000
  0
VERTEX
  8
PLAN_1
 62
     5
  6
CONTINUOUS
 10
-1.518709
 20
1.538917
  0
VERTEX
  8
PLAN_1
 62
     5
  6
CONTINUOUS
 10
-1.510634
 20
1.538917
  0
SEQEND
  8
0
  0
POLYLINE
  8
PLAN_1
 62
     5
  6
CONTINUOUS
 66
     1
 40
0.003000
 41
0.003000
  0
VERTEX
  8
PLAN_1
 62
     5
  6
CONTINUOUS
 10
-1.502134
 20
1.538917
  0
VERTEX
  8
PLAN_1
 62
     5
  6
CONTINUOUS
 10
-1.493634
 20
1.538917
  0
SEQEND
  8
0
  0
POLYLINE
  8
PLAN_1
 62
     5
  6
CONTINUOUS
 66
     1
 40
0.003000
 41
0.003000
  0
VERTEX
  8
PLAN_1
 62
     5
  6
CONTINUOUS
 10
-1.485563
 20
1.538917
  0
VERTEX
  8
PLAN_1
 62
     5
  6
CONTINUOUS
 10
-1.477063
 20
1.538917
  0
SEQEND
  8
0
  0
POLYLINE
  8
PLAN_1
 62
     5
  6
CONTINUOUS
 66
     1
 40
0.003000
 41
0.003000
  0
VERTEX
  8
PLAN_1
 62
     5
  6
CONTINUOUS
 10
-1.468988
 20
1.538917
  0
VERTEX
  8
PLAN_1
 62
     5
  6
CONTINUOUS
 10
-1.460488
 20
1.538917
  0
SEQEND
  8
0
  0
POLYLINE
  8
PLAN_1
 62
     5
  6
CONTINUOUS
 66
     1
 40
0.003000
 41
0.003000
  0
VERTEX
  8
PLAN_1
 62
     5
  6
CONTINUOUS
 10
-1.451988
 20
1.538917
  0
VERTEX
  8
PLAN_1
 62
     5
  6
CONTINUOUS
 10
-1.443913
 20
1.538917
  0
SEQEND
  8
0
  0
POLYLINE
  8
PLAN_1
 62
     5
  6
CONTINUOUS
 66
     1
 40
0.003000
 41
0.003000
  0
VERTEX
  8
PLAN_1
 62
     5
  6
CONTINUOUS
 10
-1.435413
 20
1.538917
  0
VERTEX
  8
PLAN_1
 62
     5
  6
CONTINUOUS
 10
-1.427343
 20
1.538917
  0
SEQEND
  8
0
  0
POLYLINE
  8
PLAN_1
 62
     5
  6
CONTINUOUS
 66
     1
 40
0.003000
 41
0.003000
  0
VERTEX
  8
PLAN_1
 62
     5
  6
CONTINUOUS
 10
-1.418843
 20
1.538917
  0
VERTEX
  8
PLAN_1
 62
     5
  6
CONTINUOUS
 10
-1.410343
 20
1.538917
  0
SEQEND
  8
0
  0
POLYLINE
  8
PLAN_1
 62
     5
  6
CONTINUOUS
 66
     1
 40
0.003000
 41
0.003000
  0
VERTEX
  8
PLAN_1
 62
     5
  6
CONTINUOUS
 10
-1.402268
 20
1.538917
  0
VERTEX
  8
PLAN_1
 62
     5
  6
CONTINUOUS
 10
-1.393768
 20
1.538917
  0
SEQEND
  8
0
  0
POLYLINE
  8
PLAN_1
 62
     5
  6
CONTINUOUS
 66
     1
 40
0.003000
 41
0.003000
  0
VERTEX
  8
PLAN_1
 62
     5
  6
CONTINUOUS
 10
-1.385693
 20
1.538917
  0
VERTEX
  8
PLAN_1
 62
     5
  6
CONTINUOUS
 10
-1.380169
 20
1.538917
  0
SEQEND
  8
0
  0
POLYLINE
  8
PLAN_1
 62
     5
  6
CONTINUOUS
 66
     1
 40
0.003000
 41
0.003000
  0
VERTEX
  8
PLAN_1
 62
     5
  6
CONTINUOUS
 10
-1.385693
 20
1.538917
  0
VERTEX
  8
PLAN_1
 62
     5
  6
CONTINUOUS
 10
-1.380169
 20
1.538917
  0
SEQEND
  8
0
  0
POLYLINE
  8
PLAN_1
 62
     5
  6
CONTINUOUS
 66
     1
 40
0.003000
 41
0.003000
  0
VERTEX
  8
PLAN_1
 62
     5
  6
CONTINUOUS
 10
-1.262453
 20
1.538917
  0
VERTEX
  8
PLAN_1
 62
     5
  6
CONTINUOUS
 10
-1.253953
 20
1.538917
  0
SEQEND
  8
0
  0
POLYLINE
  8
PLAN_1
 62
     5
  6
CONTINUOUS
 66
     1
 40
0.003000
 41
0.003000
  0
VERTEX
  8
PLAN_1
 62
     5
  6
CONTINUOUS
 10
-1.245878
 20
1.538917
  0
VERTEX
  8
PLAN_1
 62
     5
  6
CONTINUOUS
 10
-1.237382
 20
1.538917
  0
SEQEND
  8
0
  0
POLYLINE
  8
PLAN_1
 62
     5
  6
CONTINUOUS
 66
     1
 40
0.003000
 41
0.003000
  0
VERTEX
  8
PLAN_1
 62
     5
  6
CONTINUOUS
 10
-1.229307
 20
1.538917
  0
VERTEX
  8
PLAN_1
 62
     5
  6
CONTINUOUS
 10
-1.220807
 20
1.538917
  0
SEQEND
  8
0
  0
POLYLINE
  8
PLAN_1
 62
     5
  6
CONTINUOUS
 66
     1
 40
0.003000
 41
0.003000
  0
VERTEX
  8
PLAN_1
 62
     5
  6
CONTINUOUS
 10
-1.212307
 20
1.538917
  0
VERTEX
  8
PLAN_1
 62
     5
  6
CONTINUOUS
 10
-1.204232
 20
1.538917
  0
SEQEND
  8
0
  0
POLYLINE
  8
PLAN_1
 62
     5
  6
CONTINUOUS
 66
     1
 40
0.003000
 41
0.003000
  0
VERTEX
  8
PLAN_1
 62
     5
  6
CONTINUOUS
 10
-1.195732
 20
1.538917
  0
VERTEX
  8
PLAN_1
 62
     5
  6
CONTINUOUS
 10
-1.187657
 20
1.538917
  0
SEQEND
  8
0
  0
POLYLINE
  8
PLAN_1
 62
     5
  6
CONTINUOUS
 66
     1
 40
0.003000
 41
0.003000
  0
VERTEX
  8
PLAN_1
 62
     5
  6
CONTINUOUS
 10
-1.179161
 20
1.538917
  0
VERTEX
  8
PLAN_1
 62
     5
  6
CONTINUOUS
 10
-1.170661
 20
1.538917
  0
SEQEND
  8
0
  0
POLYLINE
  8
PLAN_1
 62
     5
  6
CONTINUOUS
 66
     1
 40
0.003000
 41
0.003000
  0
VERTEX
  8
PLAN_1
 62
     5
  6
CONTINUOUS
 10
-1.162587
 20
1.538917
  0
VERTEX
  8
PLAN_1
 62
     5
  6
CONTINUOUS
 10
-1.154087
 20
1.538917
  0
SEQEND
  8
0
  0
POLYLINE
  8
PLAN_1
 62
     5
  6
CONTINUOUS
 66
     1
 40
0.003000
 41
0.003000
  0
VERTEX
  8
PLAN_1
 62
     5
  6
CONTINUOUS
 10
-1.146012
 20
1.538917
  0
VERTEX
  8
PLAN_1
 62
     5
  6
CONTINUOUS
 10
-1.143461
 20
1.538917
  0
SEQEND
  8
0
  0
POLYLINE
  8
PLAN_1
 62
     5
  6
CONTINUOUS
 66
     1
 40
0.003000
 41
0.003000
  0
VERTEX
  8
PLAN_1
 62
     5
  6
CONTINUOUS
 10
-1.146012
 20
1.538917
  0
VERTEX
  8
PLAN_1
 62
     5
  6
CONTINUOUS
 10
-1.143461
 20
1.538917
  0
SEQEND
  8
0
  0
POLYLINE
  8
PLAN_1
 62
     5
  6
CONTINUOUS
 66
     1
 40
0.003000
 41
0.003000
  0
VERTEX
  8
PLAN_1
 62
     5
  6
CONTINUOUS
 10
-1.143461
 20
1.538917
  0
VERTEX
  8
PLAN_1
 62
     5
  6
CONTINUOUS
 10
-1.139213
 20
1.538492
  0
VERTEX
  8
PLAN_1
 62
     5
  6
CONTINUOUS
 10
-1.135390
 20
1.537217
  0
SEQEND
  8
0
  0
POLYLINE
  8
PLAN_1
 62
     5
  6
CONTINUOUS
 66
     1
 40
0.003000
 41
0.003000
  0
VERTEX
  8
PLAN_1
 62
     5
  6
CONTINUOUS
 10
-1.128587
 20
1.532118
  0
VERTEX
  8
PLAN_1
 62
     5
  6
CONTINUOUS
 10
-1.126465
 20
1.529992
  0
VERTEX
  8
PLAN_1
 62
     5
  6
CONTINUOUS
 10
-1.124339
 20
1.526594
  0
VERTEX
  8
PLAN_1
 62
     5
  6
CONTINUOUS
 10
-1.123913
 20
1.525319
  0
SEQEND
  8
0
  0
POLYLINE
  8
PLAN_1
 62
     5
  6
CONTINUOUS
 66
     1
 40
0.003000
 41
0.003000
  0
VERTEX
  8
PLAN_1
 62
     5
  6
CONTINUOUS
 10
-1.122213
 20
1.518945
  0
VERTEX
  8
PLAN_1
 62
     5
  6
CONTINUOUS
 10
-1.122213
 20
1.510445
  0
SEQEND
  8
0
  0
POLYLINE
  8
PLAN_1
 62
     5
  6
CONTINUOUS
 66
     1
 40
0.003000
 41
0.003000
  0
VERTEX
  8
PLAN_1
 62
     5
  6
CONTINUOUS
 10
-1.122213
 20
1.501945
  0
VERTEX
  8
PLAN_1
 62
     5
  6
CONTINUOUS
 10
-1.122213
 20
1.493870
  0
SEQEND
  8
0
  0
POLYLINE
  8
PLAN_1
 62
     5
  6
CONTINUOUS
 66
     1
 40
0.003000
 41
0.003000
  0
VERTEX
  8
PLAN_1
 62
     5
  6
CONTINUOUS
 10
-1.122213
 20
1.485370
  0
VERTEX
  8
PLAN_1
 62
     5
  6
CONTINUOUS
 10
-1.122213
 20
1.477299
  0
SEQEND
  8
0
  0
POLYLINE
  8
PLAN_1
 62
     5
  6
CONTINUOUS
 66
     1
 40
0.003000
 41
0.003000
  0
VERTEX
  8
PLAN_1
 62
     5
  6
CONTINUOUS
 10
-1.122213
 20
1.468799
  0
VERTEX
  8
PLAN_1
 62
     5
  6
CONTINUOUS
 10
-1.122213
 20
1.460299
  0
SEQEND
  8
0
  0
POLYLINE
  8
PLAN_1
 62
     5
  6
CONTINUOUS
 66
     1
 40
0.003000
 41
0.003000
  0
VERTEX
  8
PLAN_1
 62
     5
  6
CONTINUOUS
 10
-1.122213
 20
1.452224
  0
VERTEX
  8
PLAN_1
 62
     5
  6
CONTINUOUS
 10
-1.122213
 20
1.443724
  0
SEQEND
  8
0
  0
POLYLINE
  8
PLAN_1
 62
     5
  6
CONTINUOUS
 66
     1
 40
0.003000
 41
0.003000
  0
VERTEX
  8
PLAN_1
 62
     5
  6
CONTINUOUS
 10
-1.122213
 20
1.435650
  0
VERTEX
  8
PLAN_1
 62
     5
  6
CONTINUOUS
 10
-1.122213
 20
1.427150
  0
SEQEND
  8
0
  0
POLYLINE
  8
PLAN_1
 62
     5
  6
CONTINUOUS
 66
     1
 40
0.003000
 41
0.003000
  0
VERTEX
  8
PLAN_1
 62
     5
  6
CONTINUOUS
 10
-1.122213
 20
1.418654
  0
VERTEX
  8
PLAN_1
 62
     5
  6
CONTINUOUS
 10
-1.122213
 20
1.410579
  0
SEQEND
  8
0
  0
POLYLINE
  8
PLAN_1
 62
     5
  6
CONTINUOUS
 66
     1
 40
0.003000
 41
0.003000
  0
VERTEX
  8
PLAN_1
 62
     5
  6
CONTINUOUS
 10
-1.122213
 20
1.402079
  0
VERTEX
  8
PLAN_1
 62
     5
  6
CONTINUOUS
 10
-1.122213
 20
1.394004
  0
SEQEND
  8
0
  0
POLYLINE
  8
PLAN_1
 62
     5
  6
CONTINUOUS
 66
     1
 40
0.003000
 41
0.003000
  0
VERTEX
  8
PLAN_1
 62
     5
  6
CONTINUOUS
 10
-1.122213
 20
1.385504
  0
VERTEX
  8
PLAN_1
 62
     5
  6
CONTINUOUS
 10
-1.122213
 20
1.377004
  0
SEQEND
  8
0
  0
POLYLINE
  8
PLAN_1
 62
     5
  6
CONTINUOUS
 66
     1
 40
0.003000
 41
0.003000
  0
VERTEX
  8
PLAN_1
 62
     5
  6
CONTINUOUS
 10
-1.122213
 20
1.368929
  0
VERTEX
  8
PLAN_1
 62
     5
  6
CONTINUOUS
 10
-1.122213
 20
1.360433
  0
SEQEND
  8
0
  0
POLYLINE
  8
PLAN_1
 62
     5
  6
CONTINUOUS
 66
     1
 40
0.003000
 41
0.003000
  0
VERTEX
  8
PLAN_1
 62
     5
  6
CONTINUOUS
 10
-1.122213
 20
1.352358
  0
VERTEX
  8
PLAN_1
 62
     5
  6
CONTINUOUS
 10
-1.122213
 20
1.343858
  0
SEQEND
  8
0
  0
POLYLINE
  8
PLAN_1
 62
     5
  6
CONTINUOUS
 66
     1
 40
0.003000
 41
0.003000
  0
VERTEX
  8
PLAN_1
 62
     5
  6
CONTINUOUS
 10
-1.122213
 20
1.335358
  0
VERTEX
  8
PLAN_1
 62
     5
  6
CONTINUOUS
 10
-1.122213
 20
1.327283
  0
SEQEND
  8
0
  0
POLYLINE
  8
PLAN_1
 62
     5
  6
CONTINUOUS
 66
     1
 40
0.003000
 41
0.003000
  0
VERTEX
  8
PLAN_1
 62
     5
  6
CONTINUOUS
 10
-1.122213
 20
1.318783
  0
VERTEX
  8
PLAN_1
 62
     5
  6
CONTINUOUS
 10
-1.122213
 20
1.310709
  0
SEQEND
  8
0
  0
POLYLINE
  8
PLAN_1
 62
     5
  6
CONTINUOUS
 66
     1
 40
0.003000
 41
0.003000
  0
VERTEX
  8
PLAN_1
 62
     5
  6
CONTINUOUS
 10
-1.122213
 20
1.302213
  0
VERTEX
  8
PLAN_1
 62
     5
  6
CONTINUOUS
 10
-1.122213
 20
1.294138
  0
SEQEND
  8
0
  0
POLYLINE
  8
PLAN_1
 62
     5
  6
CONTINUOUS
 66
     1
 40
0.003000
 41
0.003000
  0
VERTEX
  8
PLAN_1
 62
     5
  6
CONTINUOUS
 10
-1.122213
 20
1.285638
  0
VERTEX
  8
PLAN_1
 62
     5
  6
CONTINUOUS
 10
-1.122213
 20
1.277138
  0
SEQEND
  8
0
  0
POLYLINE
  8
PLAN_1
 62
     5
  6
CONTINUOUS
 66
     1
 40
0.003000
 41
0.003000
  0
VERTEX
  8
PLAN_1
 62
     5
  6
CONTINUOUS
 10
-1.122213
 20
1.269063
  0
VERTEX
  8
PLAN_1
 62
     5
  6
CONTINUOUS
 10
-1.122213
 20
1.260563
  0
SEQEND
  8
0
  0
POLYLINE
  8
PLAN_1
 62
     5
  6
CONTINUOUS
 66
     1
 40
0.003000
 41
0.003000
  0
VERTEX
  8
PLAN_1
 62
     5
  6
CONTINUOUS
 10
-1.122213
 20
1.252488
  0
VERTEX
  8
PLAN_1
 62
     5
  6
CONTINUOUS
 10
-1.122213
 20
1.243992
  0
SEQEND
  8
0
  0
POLYLINE
  8
PLAN_1
 62
     5
  6
CONTINUOUS
 66
     1
 40
0.003000
 41
0.003000
  0
VERTEX
  8
PLAN_1
 62
     5
  6
CONTINUOUS
 10
-1.122213
 20
1.235492
  0
VERTEX
  8
PLAN_1
 62
     5
  6
CONTINUOUS
 10
-1.122213
 20
1.227417
  0
SEQEND
  8
0
  0
POLYLINE
  8
PLAN_1
 62
     5
  6
CONTINUOUS
 66
     1
 40
0.003000
 41
0.003000
  0
VERTEX
  8
PLAN_1
 62
     5
  6
CONTINUOUS
 10
-1.122213
 20
1.218917
  0
VERTEX
  8
PLAN_1
 62
     5
  6
CONTINUOUS
 10
-1.122213
 20
1.210843
  0
SEQEND
  8
0
  0
POLYLINE
  8
PLAN_1
 62
     5
  6
CONTINUOUS
 66
     1
 40
0.003000
 41
0.003000
  0
VERTEX
  8
PLAN_1
 62
     5
  6
CONTINUOUS
 10
-1.122213
 20
1.202343
  0
VERTEX
  8
PLAN_1
 62
     5
  6
CONTINUOUS
 10
-1.122213
 20
1.193843
  0
SEQEND
  8
0
  0
POLYLINE
  8
PLAN_1
 62
     5
  6
CONTINUOUS
 66
     1
 40
0.003000
 41
0.003000
  0
VERTEX
  8
PLAN_1
 62
     5
  6
CONTINUOUS
 10
-1.122213
 20
1.185772
  0
VERTEX
  8
PLAN_1
 62
     5
  6
CONTINUOUS
 10
-1.122213
 20
1.177272
  0
SEQEND
  8
0
  0
POLYLINE
  8
PLAN_1
 62
     5
  6
CONTINUOUS
 66
     1
 40
0.003000
 41
0.003000
  0
VERTEX
  8
PLAN_1
 62
     5
  6
CONTINUOUS
 10
-1.122213
 20
1.169197
  0
VERTEX
  8
PLAN_1
 62
     5
  6
CONTINUOUS
 10
-1.122213
 20
1.160697
  0
SEQEND
  8
0
  0
POLYLINE
  8
PLAN_1
 62
     5
  6
CONTINUOUS
 66
     1
 40
0.003000
 41
0.003000
  0
VERTEX
  8
PLAN_1
 62
     5
  6
CONTINUOUS
 10
-1.122213
 20
1.152197
  0
VERTEX
  8
PLAN_1
 62
     5
  6
CONTINUOUS
 10
-1.122213
 20
1.144972
  0
SEQEND
  8
0
  0
POLYLINE
  8
PLAN_1
 62
     5
  6
CONTINUOUS
 66
     1
 40
0.003000
 41
0.003000
  0
VERTEX
  8
PLAN_1
 62
     5
  6
CONTINUOUS
 10
-1.122213
 20
1.152197
  0
VERTEX
  8
PLAN_1
 62
     5
  6
CONTINUOUS
 10
-1.122213
 20
1.144972
  0
SEQEND
  8
0
  0
POLYLINE
  8
PLAN_1
 62
     5
  6
CONTINUOUS
 66
     1
 40
0.003000
 41
0.003000
  0
VERTEX
  8
PLAN_1
 62
     5
  6
CONTINUOUS
 10
-1.254378
 20
1.400378
  0
VERTEX
  8
PLAN_1
 62
     5
  6
CONTINUOUS
 10
-1.245878
 20
1.400378
  0
SEQEND
  8
0
  0
POLYLINE
  8
PLAN_1
 62
     5
  6
CONTINUOUS
 66
     1
 40
0.003000
 41
0.003000
  0
VERTEX
  8
PLAN_1
 62
     5
  6
CONTINUOUS
 10
-1.237807
 20
1.400378
  0
VERTEX
  8
PLAN_1
 62
     5
  6
CONTINUOUS
 10
-1.229307
 20
1.400378
  0
SEQEND
  8
0
  0
POLYLINE
  8
PLAN_1
 62
     5
  6
CONTINUOUS
 66
     1
 40
0.003000
 41
0.003000
  0
VERTEX
  8
PLAN_1
 62
     5
  6
CONTINUOUS
 10
-1.221232
 20
1.400378
  0
VERTEX
  8
PLAN_1
 62
     5
  6
CONTINUOUS
 10
-1.212732
 20
1.400378
  0
SEQEND
  8
0
  0
POLYLINE
  8
PLAN_1
 62
     5
  6
CONTINUOUS
 66
     1
 40
0.003000
 41
0.003000
  0
VERTEX
  8
PLAN_1
 62
     5
  6
CONTINUOUS
 10
-1.204232
 20
1.400378
  0
VERTEX
  8
PLAN_1
 62
     5
  6
CONTINUOUS
 10
-1.196157
 20
1.400378
  0
SEQEND
  8
0
  0
POLYLINE
  8
PLAN_1
 62
     5
  6
CONTINUOUS
 66
     1
 40
0.003000
 41
0.003000
  0
VERTEX
  8
PLAN_1
 62
     5
  6
CONTINUOUS
 10
-1.187657
 20
1.400378
  0
VERTEX
  8
PLAN_1
 62
     5
  6
CONTINUOUS
 10
-1.179583
 20
1.400378
  0
SEQEND
  8
0
  0
POLYLINE
  8
PLAN_1
 62
     5
  6
CONTINUOUS
 66
     1
 40
0.003000
 41
0.003000
  0
VERTEX
  8
PLAN_1
 62
     5
  6
CONTINUOUS
 10
-1.171087
 20
1.400378
  0
VERTEX
  8
PLAN_1
 62
     5
  6
CONTINUOUS
 10
-1.162587
 20
1.400378
  0
SEQEND
  8
0
  0
POLYLINE
  8
PLAN_1
 62
     5
  6
CONTINUOUS
 66
     1
 40
0.003000
 41
0.003000
  0
VERTEX
  8
PLAN_1
 62
     5
  6
CONTINUOUS
 10
-1.218256
 20
1.333232
  0
VERTEX
  8
PLAN_1
 62
     5
  6
CONTINUOUS
 10
-1.218256
 20
1.341732
  0
SEQEND
  8
0
  0
POLYLINE
  8
PLAN_1
 62
     5
  6
CONTINUOUS
 66
     1
 40
0.003000
 41
0.003000
  0
VERTEX
  8
PLAN_1
 62
     5
  6
CONTINUOUS
 10
-1.218256
 20
1.349807
  0
VERTEX
  8
PLAN_1
 62
     5
  6
CONTINUOUS
 10
-1.218256
 20
1.358307
  0
SEQEND
  8
0
  0
POLYLINE
  8
PLAN_1
 62
     5
  6
CONTINUOUS
 66
     1
 40
0.003000
 41
0.003000
  0
VERTEX
  8
PLAN_1
 62
     5
  6
CONTINUOUS
 10
-1.218256
 20
1.366807
  0
VERTEX
  8
PLAN_1
 62
     5
  6
CONTINUOUS
 10
-1.218256
 20
1.374882
  0
SEQEND
  8
0
  0
POLYLINE
  8
PLAN_1
 62
     5
  6
CONTINUOUS
 66
     1
 40
0.003000
 41
0.003000
  0
VERTEX
  8
PLAN_1
 62
     5
  6
CONTINUOUS
 10
-1.218256
 20
1.383378
  0
VERTEX
  8
PLAN_1
 62
     5
  6
CONTINUOUS
 10
-1.218256
 20
1.391453
  0
SEQEND
  8
0
  0
POLYLINE
  8
PLAN_1
 62
     5
  6
CONTINUOUS
 66
     1
 40
0.003000
 41
0.003000
  0
VERTEX
  8
PLAN_1
 62
     5
  6
CONTINUOUS
 10
-1.218256
 20
1.399953
  0
VERTEX
  8
PLAN_1
 62
     5
  6
CONTINUOUS
 10
-1.218256
 20
1.408453
  0
SEQEND
  8
0
  0
POLYLINE
  8
PLAN_1
 62
     5
  6
CONTINUOUS
 66
     1
 40
0.003000
 41
0.003000
  0
VERTEX
  8
PLAN_1
 62
     5
  6
CONTINUOUS
 10
-1.218256
 20
1.416528
  0
VERTEX
  8
PLAN_1
 62
     5
  6
CONTINUOUS
 10
-1.218256
 20
1.425028
  0
SEQEND
  8
0
  0
POLYLINE
  8
PLAN_1
 62
     5
  6
CONTINUOUS
 66
     1
 40
0.003000
 41
0.003000
  0
VERTEX
  8
PLAN_1
 62
     5
  6
CONTINUOUS
 10
-1.218256
 20
1.433102
  0
VERTEX
  8
PLAN_1
 62
     5
  6
CONTINUOUS
 10
-1.218256
 20
1.441598
  0
SEQEND
  8
0
  0
POLYLINE
  8
PLAN_1
 62
     5
  6
CONTINUOUS
 66
     1
 40
0.003000
 41
0.003000
  0
VERTEX
  8
PLAN_1
 62
     5
  6
CONTINUOUS
 10
-1.218256
 20
1.450098
  0
VERTEX
  8
PLAN_1
 62
     5
  6
CONTINUOUS
 10
-1.218256
 20
1.458173
  0
SEQEND
  8
0
  0
POLYLINE
  8
PLAN_1
 62
     5
  6
CONTINUOUS
 66
     1
 40
0.003000
 41
0.003000
  0
VERTEX
  8
PLAN_1
 62
     5
  6
CONTINUOUS
 10
-1.218256
 20
1.466673
  0
VERTEX
  8
PLAN_1
 62
     5
  6
CONTINUOUS
 10
-1.218256
 20
1.470500
  0
SEQEND
  8
0
  0
POLYLINE
  8
PLAN_1
 62
     5
  6
CONTINUOUS
 66
     1
 40
0.003000
 41
0.003000
  0
VERTEX
  8
PLAN_1
 62
     5
  6
CONTINUOUS
 10
-1.218256
 20
1.466673
  0
VERTEX
  8
PLAN_1
 62
     5
  6
CONTINUOUS
 10
-1.218256
 20
1.470500
  0
SEQEND
  8
0
  0
POLYLINE
  8
PLAN_1
 62
     5
  6
CONTINUOUS
 66
     1
 40
0.003000
 41
0.003000
  0
VERTEX
  8
PLAN_1
 62
     5
  6
CONTINUOUS
 10
-1.932201
 20
1.399953
  0
VERTEX
  8
PLAN_1
 62
     5
  6
CONTINUOUS
 10
-1.923701
 20
1.399953
  0
SEQEND
  8
0
  0
POLYLINE
  8
PLAN_1
 62
     5
  6
CONTINUOUS
 66
     1
 40
0.003000
 41
0.003000
  0
VERTEX
  8
PLAN_1
 62
     5
  6
CONTINUOUS
 10
-1.915630
 20
1.399953
  0
VERTEX
  8
PLAN_1
 62
     5
  6
CONTINUOUS
 10
-1.907130
 20
1.399953
  0
SEQEND
  8
0
  0
POLYLINE
  8
PLAN_1
 62
     5
  6
CONTINUOUS
 66
     1
 40
0.003000
 41
0.003000
  0
VERTEX
  8
PLAN_1
 62
     5
  6
CONTINUOUS
 10
-1.898630
 20
1.399953
  0
VERTEX
  8
PLAN_1
 62
     5
  6
CONTINUOUS
 10
-1.890555
 20
1.399953
  0
SEQEND
  8
0
  0
POLYLINE
  8
PLAN_1
 62
     5
  6
CONTINUOUS
 66
     1
 40
0.003000
 41
0.003000
  0
VERTEX
  8
PLAN_1
 62
     5
  6
CONTINUOUS
 10
-1.882055
 20
1.399953
  0
VERTEX
  8
PLAN_1
 62
     5
  6
CONTINUOUS
 10
-1.873980
 20
1.399953
  0
SEQEND
  8
0
  0
POLYLINE
  8
PLAN_1
 62
     5
  6
CONTINUOUS
 66
     1
 40
0.003000
 41
0.003000
  0
VERTEX
  8
PLAN_1
 62
     5
  6
CONTINUOUS
 10
-1.865480
 20
1.399953
  0
VERTEX
  8
PLAN_1
 62
     5
  6
CONTINUOUS
 10
-1.856984
 20
1.399953
  0
SEQEND
  8
0
  0
POLYLINE
  8
PLAN_1
 62
     5
  6
CONTINUOUS
 66
     1
 40
0.003000
 41
0.003000
  0
VERTEX
  8
PLAN_1
 62
     5
  6
CONTINUOUS
 10
-1.848909
 20
1.399953
  0
VERTEX
  8
PLAN_1
 62
     5
  6
CONTINUOUS
 10
-1.840409
 20
1.399953
  0
SEQEND
  8
0
  0
POLYLINE
  8
PLAN_1
 62
     5
  6
CONTINUOUS
 66
     1
 40
0.003000
 41
0.003000
  0
VERTEX
  8
PLAN_1
 62
     5
  6
CONTINUOUS
 10
-1.832335
 20
1.399953
  0
VERTEX
  8
PLAN_1
 62
     5
  6
CONTINUOUS
 10
-1.823835
 20
1.399953
  0
SEQEND
  8
0
  0
POLYLINE
  8
PLAN_1
 62
     5
  6
CONTINUOUS
 66
     1
 40
0.003000
 41
0.003000
  0
VERTEX
  8
PLAN_1
 62
     5
  6
CONTINUOUS
 10
-1.815335
 20
1.399953
  0
VERTEX
  8
PLAN_1
 62
     5
  6
CONTINUOUS
 10
-1.807260
 20
1.399953
  0
SEQEND
  8
0
  0
POLYLINE
  8
PLAN_1
 62
     5
  6
CONTINUOUS
 66
     1
 40
0.003000
 41
0.003000
  0
VERTEX
  8
PLAN_1
 62
     5
  6
CONTINUOUS
 10
-1.798764
 20
1.399953
  0
VERTEX
  8
PLAN_1
 62
     5
  6
CONTINUOUS
 10
-1.790689
 20
1.399953
  0
SEQEND
  8
0
  0
POLYLINE
  8
PLAN_1
 62
     5
  6
CONTINUOUS
 66
     1
 40
0.003000
 41
0.003000
  0
VERTEX
  8
PLAN_1
 62
     5
  6
CONTINUOUS
 10
-1.862083
 20
1.325583
  0
VERTEX
  8
PLAN_1
 62
     5
  6
CONTINUOUS
 10
-1.862083
 20
1.334083
  0
SEQEND
  8
0
  0
POLYLINE
  8
PLAN_1
 62
     5
  6
CONTINUOUS
 66
     1
 40
0.003000
 41
0.003000
  0
VERTEX
  8
PLAN_1
 62
     5
  6
CONTINUOUS
 10
-1.862083
 20
1.342583
  0
VERTEX
  8
PLAN_1
 62
     5
  6
CONTINUOUS
 10
-1.862083
 20
1.350657
  0
SEQEND
  8
0
  0
POLYLINE
  8
PLAN_1
 62
     5
  6
CONTINUOUS
 66
     1
 40
0.003000
 41
0.003000
  0
VERTEX
  8
PLAN_1
 62
     5
  6
CONTINUOUS
 10
-1.862083
 20
1.359157
  0
VERTEX
  8
PLAN_1
 62
     5
  6
CONTINUOUS
 10
-1.862083
 20
1.367232
  0
SEQEND
  8
0
  0
POLYLINE
  8
PLAN_1
 62
     5
  6
CONTINUOUS
 66
     1
 40
0.003000
 41
0.003000
  0
VERTEX
  8
PLAN_1
 62
     5
  6
CONTINUOUS
 10
-1.862083
 20
1.375732
  0
VERTEX
  8
PLAN_1
 62
     5
  6
CONTINUOUS
 10
-1.862083
 20
1.384228
  0
SEQEND
  8
0
  0
POLYLINE
  8
PLAN_1
 62
     5
  6
CONTINUOUS
 66
     1
 40
0.003000
 41
0.003000
  0
VERTEX
  8
PLAN_1
 62
     5
  6
CONTINUOUS
 10
-1.862083
 20
1.392303
  0
VERTEX
  8
PLAN_1
 62
     5
  6
CONTINUOUS
 10
-1.862083
 20
1.400803
  0
SEQEND
  8
0
  0
POLYLINE
  8
PLAN_1
 62
     5
  6
CONTINUOUS
 66
     1
 40
0.003000
 41
0.003000
  0
VERTEX
  8
PLAN_1
 62
     5
  6
CONTINUOUS
 10
-1.862083
 20
1.408878
  0
VERTEX
  8
PLAN_1
 62
     5
  6
CONTINUOUS
 10
-1.862083
 20
1.417378
  0
SEQEND
  8
0
  0
POLYLINE
  8
PLAN_1
 62
     5
  6
CONTINUOUS
 66
     1
 40
0.003000
 41
0.003000
  0
VERTEX
  8
PLAN_1
 62
     5
  6
CONTINUOUS
 10
-1.862083
 20
1.425453
  0
VERTEX
  8
PLAN_1
 62
     5
  6
CONTINUOUS
 10
-1.862083
 20
1.433953
  0
SEQEND
  8
0
  0
POLYLINE
  8
PLAN_1
 62
     5
  6
CONTINUOUS
 66
     1
 40
0.003000
 41
0.003000
  0
VERTEX
  8
PLAN_1
 62
     5
  6
CONTINUOUS
 10
-1.862083
 20
1.442449
  0
VERTEX
  8
PLAN_1
 62
     5
  6
CONTINUOUS
 10
-1.862083
 20
1.450524
  0
SEQEND
  8
0
  0
POLYLINE
  8
PLAN_1
 62
     5
  6
CONTINUOUS
 66
     1
 40
0.003000
 41
0.003000
  0
VERTEX
  8
PLAN_1
 62
     5
  6
CONTINUOUS
 10
-1.862083
 20
1.459024
  0
VERTEX
  8
PLAN_1
 62
     5
  6
CONTINUOUS
 10
-1.862083
 20
1.467098
  0
SEQEND
  8
0
  0
POLYLINE
  8
PLAN_1
 62
     5
  6
CONTINUOUS
 66
     1
 40
0.003000
 41
0.003000
  0
VERTEX
  8
PLAN_1
 62
     5
  6
CONTINUOUS
 10
-1.862083
 20
1.475598
  0
VERTEX
  8
PLAN_1
 62
     5
  6
CONTINUOUS
 10
-1.862083
 20
1.484098
  0
SEQEND
  8
0
  0
POLYLINE
  8
PLAN_1
  6
CONTINUOUS
 66
     1
 40
0.008496
 41
0.008496
  0
VERTEX
  8
PLAN_1
  6
CONTINUOUS
 10
-1.883756
 20
1.639209
  0
VERTEX
  8
PLAN_1
  6
CONTINUOUS
 10
-1.712067
 20
1.639209
  0
VERTEX
  8
PLAN_1
  6
CONTINUOUS
 10
-1.712067
 20
1.538917
  0
SEQEND
  8
0
  0
POLYLINE
  8
PLAN_1
  6
CONTINUOUS
 66
     1
 40
0.008496
 41
0.008496
  0
VERTEX
  8
PLAN_1
  6
CONTINUOUS
 10
-1.759240
 20
1.639209
  0
VERTEX
  8
PLAN_1
  6
CONTINUOUS
 10
-1.759240
 20
1.538917
  0
SEQEND
  8
0
  0
POLYLINE
  8
PLAN_1
  6
CONTINUOUS
 66
     1
 40
0.008496
 41
0.008496
  0
VERTEX
  8
PLAN_1
  6
CONTINUOUS
 10
-1.435413
 20
1.320909
  0
VERTEX
  8
PLAN_1
  6
CONTINUOUS
 10
-1.435413
 20
1.345134
  0
VERTEX
  8
PLAN_1
  6
CONTINUOUS
 10
-1.644925
 20
1.345134
  0
VERTEX
  8
PLAN_1
  6
CONTINUOUS
 10
-1.644925
 20
1.320909
  0
VERTEX
  8
PLAN_1
  6
CONTINUOUS
 10
-1.435413
 20
1.320909
  0
SEQEND
  8
0
  0
POLYLINE
  8
PLAN_1
  6
CONTINUOUS
 66
     1
 40
0.008496
 41
0.008496
  0
VERTEX
  8
PLAN_1
  6
CONTINUOUS
 10
-1.262453
 20
2.682504
  0
VERTEX
  8
PLAN_1
  6
CONTINUOUS
 10
-1.262453
 20
3.148693
  0
VERTEX
  8
PLAN_1
  6
CONTINUOUS
 10
-1.380169
 20
3.148693
  0
VERTEX
  8
PLAN_1
  6
CONTINUOUS
 10
-1.380169
 20
2.614937
  0
SEQEND
  8
0
  0
POLYLINE
  8
PLAN_1
  6
CONTINUOUS
 66
     1
 40
0.004248
 41
0.004248
  0
VERTEX
  8
PLAN_1
  6
CONTINUOUS
 10
-1.504260
 20
2.541417
  0
VERTEX
  8
PLAN_1
  6
CONTINUOUS
 10
-1.103091
 20
2.775150
  0
SEQEND
  8
0
  0
POLYLINE
  8
PLAN_1
  6
CONTINUOUS
 66
     1
 40
0.008496
 41
0.008496
  0
VERTEX
  8
PLAN_1
  6
CONTINUOUS
 10
-1.196583
 20
1.638783
  0
VERTEX
  8
PLAN_1
  6
CONTINUOUS
 10
-1.196583
 20
1.538917
  0
VERTEX
  8
PLAN_1
  6
CONTINUOUS
 10
-1.258630
 20
1.538917
  0
SEQEND
  8
0
  0
POLYLINE
  8
PLAN_1
  6
CONTINUOUS
 66
     1
 40
0.008496
 41
0.008496
  0
VERTEX
  8
PLAN_1
  6
CONTINUOUS
 10
-1.262453
 20
2.028480
  0
VERTEX
  8
PLAN_1
  6
CONTINUOUS
 10
-1.196583
 20
2.028480
  0
VERTEX
  8
PLAN_1
  6
CONTINUOUS
 10
-1.196583
 20
1.638783
  0
SEQEND
  8
0
  0
POLYLINE
  8
PLAN_1
  6
CONTINUOUS
 66
     1
 40
0.008496
 41
0.008496
  0
VERTEX
  8
PLAN_1
  6
CONTINUOUS
 10
-1.380169
 20
2.028480
  0
VERTEX
  8
PLAN_1
  6
CONTINUOUS
 10
-1.884181
 20
2.028480
  0
VERTEX
  8
PLAN_1
  6
CONTINUOUS
 10
-1.884181
 20
1.538917
  0
VERTEX
  8
PLAN_1
  6
CONTINUOUS
 10
-1.822134
 20
1.538917
  0
SEQEND
  8
0
  0
POLYLINE
  8
PLAN_1
  6
CONTINUOUS
 66
     1
 40
0.008496
 41
0.008496
  0
VERTEX
  8
PLAN_1
  6
CONTINUOUS
 10
-1.196583
 20
1.638783
  0
VERTEX
  8
PLAN_1
  6
CONTINUOUS
 10
-1.262453
 20
1.638783
  0
SEQEND
  8
0
  0
POLYLINE
  8
PLAN_1
  6
CONTINUOUS
 66
     1
 40
0.008496
 41
0.008496
  0
VERTEX
  8
PLAN_1
  6
CONTINUOUS
 10
-1.196157
 20
1.638783
  0
VERTEX
  8
PLAN_1
  6
CONTINUOUS
 10
-1.196583
 20
1.638783
  0
SEQEND
  8
0
  0
POLYLINE
  8
PLAN_1
  6
CONTINUOUS
 66
     1
 40
0.008496
 41
0.008496
  0
VERTEX
  8
PLAN_1
  6
CONTINUOUS
 10
-1.822134
 20
1.538917
  0
VERTEX
  8
PLAN_1
  6
CONTINUOUS
 10
-1.822134
 20
1.527020
  0
VERTEX
  8
PLAN_1
  6
CONTINUOUS
 10
-1.713343
 20
1.527020
  0
SEQEND
  8
0
  0
POLYLINE
  8
PLAN_1
  6
CONTINUOUS
 66
     1
 40
0.008496
 41
0.008496
  0
VERTEX
  8
PLAN_1
  6
CONTINUOUS
 10
-1.262453
 20
1.527020
  0
VERTEX
  8
PLAN_1
  6
CONTINUOUS
 10
-1.258630
 20
1.527020
  0
VERTEX
  8
PLAN_1
  6
CONTINUOUS
 10
-1.258630
 20
1.538917
  0
SEQEND
  8
0
  0
POLYLINE
  8
PLAN_1
  6
CONTINUOUS
 66
     1
 40
0.008496
 41
0.008496
  0
VERTEX
  8
PLAN_1
  6
CONTINUOUS
 10
-1.262453
 20
1.538917
  0
VERTEX
  8
PLAN_1
  6
CONTINUOUS
 10
-1.258630
 20
1.538917
  0
SEQEND
  8
0
  0
POLYLINE
  8
PLAN_1
  6
CONTINUOUS
 66
     1
 40
0.008496
 41
0.008496
  0
VERTEX
  8
PLAN_1
  6
CONTINUOUS
 10
-1.822134
 20
1.538917
  0
VERTEX
  8
PLAN_1
  6
CONTINUOUS
 10
-1.380169
 20
1.538917
  0
SEQEND
  8
0
  0
POLYLINE
  8
PLAN_1
  6
CONTINUOUS
 66
     1
 40
0.008496
 41
0.008496
  0
VERTEX
  8
PLAN_1
  6
CONTINUOUS
 10
-1.713343
 20
1.527020
  0
VERTEX
  8
PLAN_1
  6
CONTINUOUS
 10
-1.713343
 20
1.345134
  0
VERTEX
  8
PLAN_1
  6
CONTINUOUS
 10
-1.380169
 20
1.345134
  0
SEQEND
  8
0
  0
POLYLINE
  8
PLAN_1
  6
CONTINUOUS
 66
     1
 40
0.008496
 41
0.008496
  0
VERTEX
  8
PLAN_1
  6
CONTINUOUS
 10
-1.713343
 20
1.527020
  0
VERTEX
  8
PLAN_1
  6
CONTINUOUS
 10
-1.380169
 20
1.527020
  0
SEQEND
  8
0
  0
POLYLINE
  8
PLAN_1
  6
CONTINUOUS
 66
     1
 40
0.008496
 41
0.008496
  0
VERTEX
  8
PLAN_1
  6
CONTINUOUS
 10
-1.380169
 20
1.538917
  0
VERTEX
  8
PLAN_1
  6
CONTINUOUS
 10
-1.380169
 20
1.697429
  0
SEQEND
  8
0
  0
POLYLINE
  8
PLAN_1
  6
CONTINUOUS
 66
     1
 40
0.008496
 41
0.008496
  0
VERTEX
  8
PLAN_1
  6
CONTINUOUS
 10
-1.380169
 20
1.345134
  0
VERTEX
  8
PLAN_1
  6
CONTINUOUS
 10
-1.380169
 20
1.527020
  0
SEQEND
  8
0
  0
POLYLINE
  8
PLAN_1
  6
CONTINUOUS
 66
     1
 40
0.008496
 41
0.008496
  0
VERTEX
  8
PLAN_1
  6
CONTINUOUS
 10
-1.380169
 20
2.028480
  0
VERTEX
  8
PLAN_1
  6
CONTINUOUS
 10
-1.380169
 20
1.992358
  0
SEQEND
  8
0
  0
POLYLINE
  8
PLAN_1
  6
CONTINUOUS
 66
     1
 40
0.008496
 41
0.008496
  0
VERTEX
  8
PLAN_1
  6
CONTINUOUS
 10
-1.262453
 20
1.966858
  0
VERTEX
  8
PLAN_1
  6
CONTINUOUS
 10
-1.262453
 20
2.028480
  0
SEQEND
  8
0
  0
POLYLINE
  8
PLAN_1
  6
CONTINUOUS
 66
     1
 40
0.008496
 41
0.008496
  0
VERTEX
  8
PLAN_1
  6
CONTINUOUS
 10
-1.380169
 20
2.028480
  0
VERTEX
  8
PLAN_1
  6
CONTINUOUS
 10
-1.380169
 20
2.526969
  0
SEQEND
  8
0
  0
POLYLINE
  8
PLAN_1
  6
CONTINUOUS
 66
     1
 40
0.008496
 41
0.008496
  0
VERTEX
  8
PLAN_1
  6
CONTINUOUS
 10
-1.380169
 20
1.345134
  0
VERTEX
  8
PLAN_1
  6
CONTINUOUS
 10
-1.380169
 20
1.312409
  0
VERTEX
  8
PLAN_1
  6
CONTINUOUS
 10
-1.262453
 20
1.312409
  0
VERTEX
  8
PLAN_1
  6
CONTINUOUS
 10
-1.262453
 20
1.527020
  0
SEQEND
  8
0
  0
POLYLINE
  8
PLAN_1
  6
CONTINUOUS
 66
     1
 40
0.008496
 41
0.008496
  0
VERTEX
  8
PLAN_1
  6
CONTINUOUS
 10
-1.262453
 20
1.527020
  0
VERTEX
  8
PLAN_1
  6
CONTINUOUS
 10
-1.262453
 20
1.538917
  0
SEQEND
  8
0
  0
POLYLINE
  8
PLAN_1
  6
CONTINUOUS
 66
     1
 40
0.008496
 41
0.008496
  0
VERTEX
  8
PLAN_1
  6
CONTINUOUS
 10
-1.380169
 20
1.527020
  0
VERTEX
  8
PLAN_1
  6
CONTINUOUS
 10
-1.380169
 20
1.538917
  0
SEQEND
  8
0
  0
POLYLINE
  8
PLAN_1
  6
CONTINUOUS
 66
     1
 40
0.008496
 41
0.008496
  0
VERTEX
  8
PLAN_1
  6
CONTINUOUS
 10
-1.262453
 20
1.732280
  0
VERTEX
  8
PLAN_1
  6
CONTINUOUS
 10
-1.262453
 20
1.638783
  0
SEQEND
  8
0
  0
POLYLINE
  8
PLAN_1
  6
CONTINUOUS
 66
     1
 40
0.008496
 41
0.008496
  0
VERTEX
  8
PLAN_1
  6
CONTINUOUS
 10
-1.262453
 20
2.028480
  0
VERTEX
  8
PLAN_1
  6
CONTINUOUS
 10
-1.262453
 20
2.594535
  0
SEQEND
  8
0
  0
POLYLINE
  8
PLAN_1
  6
CONTINUOUS
 66
     1
 40
0.008496
 41
0.008496
  0
VERTEX
  8
PLAN_1
  6
CONTINUOUS
 10
-1.262453
 20
1.638783
  0
VERTEX
  8
PLAN_1
  6
CONTINUOUS
 10
-1.262453
 20
1.538917
  0
SEQEND
  8
0
  0
POLYLINE
  8
PLAN_1
  6
CONTINUOUS
 66
     1
 40
0.008496
 41
0.008496
  0
VERTEX
  8
PLAN_1
  6
CONTINUOUS
 10
-1.380169
 20
1.992358
  0
VERTEX
  8
PLAN_1
  6
CONTINUOUS
 10
-1.522110
 20
2.024232
  0
SEQEND
  8
0
  0
POLYLINE
  8
PLAN_1
  6
CONTINUOUS
 66
     1
 40
0.008496
 41
0.008496
  0
VERTEX
  8
PLAN_1
  6
CONTINUOUS
 10
-1.522110
 20
2.024232
  0
VERTEX
  8
PLAN_1
  6
CONTINUOUS
 10
-1.522531
 20
2.024232
  0
VERTEX
  8
PLAN_1
  6
CONTINUOUS
 10
-1.523807
 20
2.024232
  0
VERTEX
  8
PLAN_1
  6
CONTINUOUS
 10
-1.525933
 20
2.024232
  0
VERTEX
  8
PLAN_1
  6
CONTINUOUS
 10
-1.528909
 20
2.024654
  0
VERTEX
  8
PLAN_1
  6
CONTINUOUS
 10
-1.531882
 20
2.024654
  0
VERTEX
  8
PLAN_1
  6
CONTINUOUS
 10
-1.535283
 20
2.025079
  0
VERTEX
  8
PLAN_1
  6
CONTINUOUS
 10
-1.538256
 20
2.025079
  0
VERTEX
  8
PLAN_1
  6
CONTINUOUS
 10
-1.541657
 20
2.025079
  0
VERTEX
  8
PLAN_1
  6
CONTINUOUS
 10
-1.551008
 20
2.025079
  0
VERTEX
  8
PLAN_1
  6
CONTINUOUS
 10
-1.560354
 20
2.024232
  0
VERTEX
  8
PLAN_1
  6
CONTINUOUS
 10
-1.569705
 20
2.022957
  0
VERTEX
  8
PLAN_1
  6
CONTINUOUS
 10
-1.579055
 20
2.021256
  0
VERTEX
  8
PLAN_1
  6
CONTINUOUS
 10
-1.587976
 20
2.019130
  0
VERTEX
  8
PLAN_1
  6
CONTINUOUS
 10
-1.596902
 20
2.016583
  0
VERTEX
  8
PLAN_1
  6
CONTINUOUS
 10
-1.605402
 20
2.014031
  0
VERTEX
  8
PLAN_1
  6
CONTINUOUS
 10
-1.613902
 20
2.010630
  0
VERTEX
  8
PLAN_1
  6
CONTINUOUS
 10
-1.622402
 20
2.006807
  0
VERTEX
  8
PLAN_1
  6
CONTINUOUS
 10
-1.630476
 20
2.002559
  0
VERTEX
  8
PLAN_1
  6
CONTINUOUS
 10
-1.638126
 20
1.998307
  0
VERTEX
  8
PLAN_1
  6
CONTINUOUS
 10
-1.645776
 20
1.993209
  0
VERTEX
  8
PLAN_1
  6
CONTINUOUS
 10
-1.653000
 20
1.988110
  0
VERTEX
  8
PLAN_1
  6
CONTINUOUS
 10
-1.660224
 20
1.982583
  0
VERTEX
  8
PLAN_1
  6
CONTINUOUS
 10
-1.666598
 20
1.976634
  0
VERTEX
  8
PLAN_1
  6
CONTINUOUS
 10
-1.673398
 20
1.970685
  0
VERTEX
  8
PLAN_1
  6
CONTINUOUS
 10
-1.679346
 20
1.964311
  0
VERTEX
  8
PLAN_1
  6
CONTINUOUS
 10
-1.685295
 20
1.957512
  0
VERTEX
  8
PLAN_1
  6
CONTINUOUS
 10
-1.690819
 20
1.950287
  0
VERTEX
  8
PLAN_1
  6
CONTINUOUS
 10
-1.695921
 20
1.943063
  0
VERTEX
  8
PLAN_1
  6
CONTINUOUS
 10
-1.701020
 20
1.935413
  0
VERTEX
  8
PLAN_1
  6
CONTINUOUS
 10
-1.705268
 20
1.927764
  0
VERTEX
  8
PLAN_1
  6
CONTINUOUS
 10
-1.709520
 20
1.919689
  0
VERTEX
  8
PLAN_1
  6
CONTINUOUS
 10
-1.713343
 20
1.911189
  0
VERTEX
  8
PLAN_1
  6
CONTINUOUS
 10
-1.716744
 20
1.902689
  0
VERTEX
  8
PLAN_1
  6
CONTINUOUS
 10
-1.719291
 20
1.894189
  0
VERTEX
  8
PLAN_1
  6
CONTINUOUS
 10
-1.721843
 20
1.885268
  0
VERTEX
  8
PLAN_1
  6
CONTINUOUS
 10
-1.723969
 20
1.876343
  0
VERTEX
  8
PLAN_1
  6
CONTINUOUS
 10
-1.725669
 20
1.866992
  0
VERTEX
  8
PLAN_1
  6
CONTINUOUS
 10
-1.726941
 20
1.857642
  0
VERTEX
  8
PLAN_1
  6
CONTINUOUS
 10
-1.727791
 20
1.848295
  0
VERTEX
  8
PLAN_1
  6
CONTINUOUS
 10
-1.727791
 20
1.838945
  0
VERTEX
  8
PLAN_1
  6
CONTINUOUS
 10
-1.727791
 20
1.829169
  0
VERTEX
  8
PLAN_1
  6
CONTINUOUS
 10
-1.726941
 20
1.819823
  0
VERTEX
  8
PLAN_1
  6
CONTINUOUS
 10
-1.725669
 20
1.810472
  0
VERTEX
  8
PLAN_1
  6
CONTINUOUS
 10
-1.723969
 20
1.801122
  0
VERTEX
  8
PLAN_1
  6
CONTINUOUS
 10
-1.721843
 20
1.792197
  0
VERTEX
  8
PLAN_1
  6
CONTINUOUS
 10
-1.719291
 20
1.783276
  0
VERTEX
  8
PLAN_1
  6
CONTINUOUS
 10
-1.716744
 20
1.774776
  0
VERTEX
  8
PLAN_1
  6
CONTINUOUS
 10
-1.713343
 20
1.766276
  0
VERTEX
  8
PLAN_1
  6
CONTINUOUS
 10
-1.709520
 20
1.758201
  0
VERTEX
  8
PLAN_1
  6
CONTINUOUS
 10
-1.705268
 20
1.750126
  0
VERTEX
  8
PLAN_1
  6
CONTINUOUS
 10
-1.701020
 20
1.742051
  0
VERTEX
  8
PLAN_1
  6
CONTINUOUS
 10
-1.695921
 20
1.734402
  0
VERTEX
  8
PLAN_1
  6
CONTINUOUS
 10
-1.690819
 20
1.727177
  0
VERTEX
  8
PLAN_1
  6
CONTINUOUS
 10
-1.685295
 20
1.720378
  0
VERTEX
  8
PLAN_1
  6
CONTINUOUS
 10
-1.679346
 20
1.713579
  0
VERTEX
  8
PLAN_1
  6
CONTINUOUS
 10
-1.673398
 20
1.707205
  0
VERTEX
  8
PLAN_1
  6
CONTINUOUS
 10
-1.666598
 20
1.700831
  0
VERTEX
  8
PLAN_1
  6
CONTINUOUS
 10
-1.660224
 20
1.694882
  0
VERTEX
  8
PLAN_1
  6
CONTINUOUS
 10
-1.653000
 20
1.689354
  0
VERTEX
  8
PLAN_1
  6
CONTINUOUS
 10
-1.645776
 20
1.684256
  0
VERTEX
  8
PLAN_1
  6
CONTINUOUS
 10
-1.638126
 20
1.679583
  0
VERTEX
  8
PLAN_1
  6
CONTINUOUS
 10
-1.630476
 20
1.674906
  0
VERTEX
  8
PLAN_1
  6
CONTINUOUS
 10
-1.622402
 20
1.670657
  0
VERTEX
  8
PLAN_1
  6
CONTINUOUS
 10
-1.613902
 20
1.667260
  0
VERTEX
  8
PLAN_1
  6
CONTINUOUS
 10
-1.605402
 20
1.663858
  0
VERTEX
  8
PLAN_1
  6
CONTINUOUS
 10
-1.596902
 20
1.660882
  0
VERTEX
  8
PLAN_1
  6
CONTINUOUS
 10
-1.587976
 20
1.658335
  0
VERTEX
  8
PLAN_1
  6
CONTINUOUS
 10
-1.579055
 20
1.656209
  0
VERTEX
  8
PLAN_1
  6
CONTINUOUS
 10
-1.569705
 20
1.654508
  0
VERTEX
  8
PLAN_1
  6
CONTINUOUS
 10
-1.560354
 20
1.653232
  0
VERTEX
  8
PLAN_1
  6
CONTINUOUS
 10
-1.551008
 20
1.652807
  0
VERTEX
  8
PLAN_1
  6
CONTINUOUS
 10
-1.541657
 20
1.652386
  0
VERTEX
  8
PLAN_1
  6
CONTINUOUS
 10
-1.539531
 20
1.652386
  0
VERTEX
  8
PLAN_1
  6
CONTINUOUS
 10
-1.537406
 20
1.652386
  0
VERTEX
  8
PLAN_1
  6
CONTINUOUS
 10
-1.535283
 20
1.652386
  0
VERTEX
  8
PLAN_1
  6
CONTINUOUS
 10
-1.533157
 20
1.652807
  0
VERTEX
  8
PLAN_1
  6
CONTINUOUS
 10
-1.531457
 20
1.652807
  0
VERTEX
  8
PLAN_1
  6
CONTINUOUS
 10
-1.529335
 20
1.652807
  0
VERTEX
  8
PLAN_1
  6
CONTINUOUS
 10
-1.527209
 20
1.652807
  0
VERTEX
  8
PLAN_1
  6
CONTINUOUS
 10
-1.525508
 20
1.653232
  0
SEQEND
  8
0
  0
POLYLINE
  8
PLAN_1
  6
CONTINUOUS
 66
     1
 40
0.008496
 41
0.008496
  0
VERTEX
  8
PLAN_1
  6
CONTINUOUS
 10
-1.525508
 20
1.653232
  0
VERTEX
  8
PLAN_1
  6
CONTINUOUS
 10
-1.380169
 20
1.697429
  0
SEQEND
  8
0
  0
POLYLINE
  8
PLAN_1
  6
CONTINUOUS
 66
     1
 40
0.008496
 41
0.008496
  0
VERTEX
  8
PLAN_1
  6
CONTINUOUS
 10
-1.262453
 20
1.732280
  0
VERTEX
  8
PLAN_1
  6
CONTINUOUS
 10
-1.261177
 20
1.732280
  0
VERTEX
  8
PLAN_1
  6
CONTINUOUS
 10
-1.260327
 20
1.732280
  0
VERTEX
  8
PLAN_1
  6
CONTINUOUS
 10
-1.259055
 20
1.732280
  0
VERTEX
  8
PLAN_1
  6
CONTINUOUS
 10
-1.257780
 20
1.732280
  0
VERTEX
  8
PLAN_1
  6
CONTINUOUS
 10
-1.256929
 20
1.732705
  0
VERTEX
  8
PLAN_1
  6
CONTINUOUS
 10
-1.255654
 20
1.732705
  0
VERTEX
  8
PLAN_1
  6
CONTINUOUS
 10
-1.254378
 20
1.732705
  0
VERTEX
  8
PLAN_1
  6
CONTINUOUS
 10
-1.253528
 20
1.732705
  0
SEQEND
  8
0
  0
POLYLINE
  8
PLAN_1
  6
CONTINUOUS
 66
     1
 40
0.008496
 41
0.008496
  0
VERTEX
  8
PLAN_1
  6
CONTINUOUS
 10
-1.253528
 20
1.732705
  0
VERTEX
  8
PLAN_1
  6
CONTINUOUS
 10
-1.253528
 20
1.966858
  0
VERTEX
  8
PLAN_1
  6
CONTINUOUS
 10
-1.262453
 20
1.966858
  0
SEQEND
  8
0
  0
POLYLINE
  8
PLAN_1
  6
CONTINUOUS
 66
     1
 40
0.008496
 41
0.008496
  0
VERTEX
  8
PLAN_1
  6
CONTINUOUS
 10
-1.262453
 20
1.732280
  0
VERTEX
  8
PLAN_1
  6
CONTINUOUS
 10
-1.262878
 20
1.732280
  0
VERTEX
  8
PLAN_1
  6
CONTINUOUS
 10
-1.263303
 20
1.732280
  0
VERTEX
  8
PLAN_1
  6
CONTINUOUS
 10
-1.263728
 20
1.732280
  0
VERTEX
  8
PLAN_1
  6
CONTINUOUS
 10
-1.264154
 20
1.732280
  0
VERTEX
  8
PLAN_1
  6
CONTINUOUS
 10
-1.264579
 20
1.732280
  0
VERTEX
  8
PLAN_1
  6
CONTINUOUS
 10
-1.265004
 20
1.732280
  0
VERTEX
  8
PLAN_1
  6
CONTINUOUS
 10
-1.265429
 20
1.732280
  0
VERTEX
  8
PLAN_1
  6
CONTINUOUS
 10
-1.265854
 20
1.732280
  0
SEQEND
  8
0
  0
POLYLINE
  8
PLAN_1
  6
CONTINUOUS
 66
     1
 40
0.008496
 41
0.008496
  0
VERTEX
  8
PLAN_1
  6
CONTINUOUS
 10
-1.265854
 20
1.732280
  0
VERTEX
  8
PLAN_1
  6
CONTINUOUS
 10
-1.380169
 20
1.697429
  0
SEQEND
  8
0
  0
POLYLINE
  8
PLAN_1
  6
CONTINUOUS
 66
     1
 40
0.008496
 41
0.008496
  0
VERTEX
  8
PLAN_1
  6
CONTINUOUS
 10
-1.380169
 20
1.992358
  0
VERTEX
  8
PLAN_1
  6
CONTINUOUS
 10
-1.267551
 20
1.966858
  0
VERTEX
  8
PLAN_1
  6
CONTINUOUS
 10
-1.262453
 20
1.966858
  0
SEQEND
  8
0
  0
POLYLINE
  8
PLAN_1
  6
CONTINUOUS
 66
     1
 40
0.008496
 41
0.008496
  0
VERTEX
  8
PLAN_1
  6
CONTINUOUS
 10
-1.270528
 20
1.966858
  0
VERTEX
  8
PLAN_1
  6
CONTINUOUS
 10
-1.270528
 20
1.734402
  0
SEQEND
  8
0
  0
POLYLINE
  8
PLAN_1
  6
CONTINUOUS
 66
     1
 40
0.008496
 41
0.008496
  0
VERTEX
  8
PLAN_1
  6
CONTINUOUS
 10
-1.636425
 20
1.962185
  0
VERTEX
  8
PLAN_1
  6
CONTINUOUS
 10
-1.665323
 20
1.933287
  0
VERTEX
  8
PLAN_1
  6
CONTINUOUS
 10
-1.661496
 20
1.888240
  0
VERTEX
  8
PLAN_1
  6
CONTINUOUS
 10
-1.694646
 20
1.858917
  0
VERTEX
  8
PLAN_1
  6
CONTINUOUS
 10
-1.694646
 20
1.818122
  0
VERTEX
  8
PLAN_1
  6
CONTINUOUS
 10
-1.660224
 20
1.788799
  0
VERTEX
  8
PLAN_1
  6
CONTINUOUS
 10
-1.662772
 20
1.744602
  0
VERTEX
  8
PLAN_1
  6
CONTINUOUS
 10
-1.633874
 20
1.715705
  0
VERTEX
  8
PLAN_1
  6
CONTINUOUS
 10
-1.589252
 20
1.719528
  0
VERTEX
  8
PLAN_1
  6
CONTINUOUS
 10
-1.559929
 20
1.686382
  0
VERTEX
  8
PLAN_1
  6
CONTINUOUS
 10
-1.519134
 20
1.686382
  0
VERTEX
  8
PLAN_1
  6
CONTINUOUS
 10
-1.490661
 20
1.720803
  0
VERTEX
  8
PLAN_1
  6
CONTINUOUS
 10
-1.446039
 20
1.718256
  0
VERTEX
  8
PLAN_1
  6
CONTINUOUS
 10
-1.417567
 20
1.747154
  0
VERTEX
  8
PLAN_1
  6
CONTINUOUS
 10
-1.421390
 20
1.791772
  0
VERTEX
  8
PLAN_1
  6
CONTINUOUS
 10
-1.388244
 20
1.821094
  0
VERTEX
  8
PLAN_1
  6
CONTINUOUS
 10
-1.388244
 20
1.861894
  0
VERTEX
  8
PLAN_1
  6
CONTINUOUS
 10
-1.422665
 20
1.890366
  0
VERTEX
  8
PLAN_1
  6
CONTINUOUS
 10
-1.420114
 20
1.934563
  0
VERTEX
  8
PLAN_1
  6
CONTINUOUS
 10
-1.449016
 20
1.963461
  0
VERTEX
  8
PLAN_1
  6
CONTINUOUS
 10
-1.492362
 20
1.960059
  0
VERTEX
  8
PLAN_1
  6
CONTINUOUS
 10
-1.522110
 20
1.993209
  0
VERTEX
  8
PLAN_1
  6
CONTINUOUS
 10
-1.562906
 20
1.993209
  0
VERTEX
  8
PLAN_1
  6
CONTINUOUS
 10
-1.592228
 20
1.960484
  0
VERTEX
  8
PLAN_1
  6
CONTINUOUS
 10
-1.636425
 20
1.962185
  0
SEQEND
  8
0
  0
POLYLINE
  8
PLAN_1
  6
CONTINUOUS
 66
     1
 40
0.008496
 41
0.008496
  0
VERTEX
  8
PLAN_1
  6
CONTINUOUS
 10
-1.543358
 20
1.957087
  0
VERTEX
  8
PLAN_1
  6
CONTINUOUS
 10
-1.439665
 20
1.901413
  0
VERTEX
  8
PLAN_1
  6
CONTINUOUS
 10
-1.439665
 20
1.778598
  0
VERTEX
  8
PLAN_1
  6
CONTINUOUS
 10
-1.543358
 20
1.721228
  0
VERTEX
  8
PLAN_1
  6
CONTINUOUS
 10
-1.641949
 20
1.778598
  0
VERTEX
  8
PLAN_1
  6
CONTINUOUS
 10
-1.641949
 20
1.901413
  0
VERTEX
  8
PLAN_1
  6
CONTINUOUS
 10
-1.543358
 20
1.957087
  0
SEQEND
  8
0
  0
POLYLINE
  8
PLAN_1
  6
CONTINUOUS
 66
     1
 40
0.008496
 41
0.008496
  0
VERTEX
  8
PLAN_1
  6
CONTINUOUS
 10
-1.541657
 20
1.774350
  0
VERTEX
  8
PLAN_1
  6
CONTINUOUS
 10
-1.534858
 20
1.774776
  0
VERTEX
  8
PLAN_1
  6
CONTINUOUS
 10
-1.528484
 20
1.775626
  0
VERTEX
  8
PLAN_1
  6
CONTINUOUS
 10
-1.522110
 20
1.777323
  0
VERTEX
  8
PLAN_1
  6
CONTINUOUS
 10
-1.516157
 20
1.779449
  0
VERTEX
  8
PLAN_1
  6
CONTINUOUS
 10
-1.510209
 20
1.782425
  0
VERTEX
  8
PLAN_1
  6
CONTINUOUS
 10
-1.505110
 20
1.785398
  0
VERTEX
  8
PLAN_1
  6
CONTINUOUS
 10
-1.500012
 20
1.789224
  0
VERTEX
  8
PLAN_1
  6
CONTINUOUS
 10
-1.495335
 20
1.793472
  0
VERTEX
  8
PLAN_1
  6
CONTINUOUS
 10
-1.491087
 20
1.798150
  0
VERTEX
  8
PLAN_1
  6
CONTINUOUS
 10
-1.487260
 20
1.803248
  0
VERTEX
  8
PLAN_1
  6
CONTINUOUS
 10
-1.484287
 20
1.808772
  0
VERTEX
  8
PLAN_1
  6
CONTINUOUS
 10
-1.481311
 20
1.814295
  0
VERTEX
  8
PLAN_1
  6
CONTINUOUS
 10
-1.479185
 20
1.820248
  0
VERTEX
  8
PLAN_1
  6
CONTINUOUS
 10
-1.477488
 20
1.826622
  0
VERTEX
  8
PLAN_1
  6
CONTINUOUS
 10
-1.476638
 20
1.832996
  0
VERTEX
  8
PLAN_1
  6
CONTINUOUS
 10
-1.476213
 20
1.839795
  0
VERTEX
  8
PLAN_1
  6
CONTINUOUS
 10
-1.476638
 20
1.846169
  0
VERTEX
  8
PLAN_1
  6
CONTINUOUS
 10
-1.477488
 20
1.852969
  0
VERTEX
  8
PLAN_1
  6
CONTINUOUS
 10
-1.479185
 20
1.858917
  0
VERTEX
  8
PLAN_1
  6
CONTINUOUS
 10
-1.481311
 20
1.864866
  0
VERTEX
  8
PLAN_1
  6
CONTINUOUS
 10
-1.484287
 20
1.870819
  0
VERTEX
  8
PLAN_1
  6
CONTINUOUS
 10
-1.487260
 20
1.875917
  0
VERTEX
  8
PLAN_1
  6
CONTINUOUS
 10
-1.491087
 20
1.881016
  0
VERTEX
  8
PLAN_1
  6
CONTINUOUS
 10
-1.495335
 20
1.885693
  0
VERTEX
  8
PLAN_1
  6
CONTINUOUS
 10
-1.500012
 20
1.889941
  0
VERTEX
  8
PLAN_1
  6
CONTINUOUS
 10
-1.505110
 20
1.893764
  0
VERTEX
  8
PLAN_1
  6
CONTINUOUS
 10
-1.510209
 20
1.897165
  0
VERTEX
  8
PLAN_1
  6
CONTINUOUS
 10
-1.516157
 20
1.899717
  0
VERTEX
  8
PLAN_1
  6
CONTINUOUS
 10
-1.522110
 20
1.901839
  0
VERTEX
  8
PLAN_1
  6
CONTINUOUS
 10
-1.528484
 20
1.903539
  0
VERTEX
  8
PLAN_1
  6
CONTINUOUS
 10
-1.534858
 20
1.904390
  0
VERTEX
  8
PLAN_1
  6
CONTINUOUS
 10
-1.541657
 20
1.904815
  0
VERTEX
  8
PLAN_1
  6
CONTINUOUS
 10
-1.548031
 20
1.904390
  0
VERTEX
  8
PLAN_1
  6
CONTINUOUS
 10
-1.554406
 20
1.903539
  0
VERTEX
  8
PLAN_1
  6
CONTINUOUS
 10
-1.560780
 20
1.901839
  0
VERTEX
  8
PLAN_1
  6
CONTINUOUS
 10
-1.566728
 20
1.899717
  0
VERTEX
  8
PLAN_1
  6
CONTINUOUS
 10
-1.572681
 20
1.897165
  0
VERTEX
  8
PLAN_1
  6
CONTINUOUS
 10
-1.577780
 20
1.893764
  0
VERTEX
  8
PLAN_1
  6
CONTINUOUS
 10
-1.582878
 20
1.889941
  0
VERTEX
  8
PLAN_1
  6
CONTINUOUS
 10
-1.587555
 20
1.885693
  0
VERTEX
  8
PLAN_1
  6
CONTINUOUS
 10
-1.591803
 20
1.881016
  0
VERTEX
  8
PLAN_1
  6
CONTINUOUS
 10
-1.595626
 20
1.875917
  0
VERTEX
  8
PLAN_1
  6
CONTINUOUS
 10
-1.598602
 20
1.870819
  0
VERTEX
  8
PLAN_1
  6
CONTINUOUS
 10
-1.601579
 20
1.864866
  0
VERTEX
  8
PLAN_1
  6
CONTINUOUS
 10
-1.603701
 20
1.858917
  0
VERTEX
  8
PLAN_1
  6
CONTINUOUS
 10
-1.605402
 20
1.852969
  0
VERTEX
  8
PLAN_1
  6
CONTINUOUS
 10
-1.606252
 20
1.846169
  0
VERTEX
  8
PLAN_1
  6
CONTINUOUS
 10
-1.606677
 20
1.839795
  0
VERTEX
  8
PLAN_1
  6
CONTINUOUS
 10
-1.606252
 20
1.832996
  0
VERTEX
  8
PLAN_1
  6
CONTINUOUS
 10
-1.605402
 20
1.826622
  0
VERTEX
  8
PLAN_1
  6
CONTINUOUS
 10
-1.603701
 20
1.820248
  0
VERTEX
  8
PLAN_1
  6
CONTINUOUS
 10
-1.601579
 20
1.814295
  0
VERTEX
  8
PLAN_1
  6
CONTINUOUS
 10
-1.598602
 20
1.808772
  0
VERTEX
  8
PLAN_1
  6
CONTINUOUS
 10
-1.595626
 20
1.803248
  0
VERTEX
  8
PLAN_1
  6
CONTINUOUS
 10
-1.591803
 20
1.798150
  0
VERTEX
  8
PLAN_1
  6
CONTINUOUS
 10
-1.587555
 20
1.793472
  0
VERTEX
  8
PLAN_1
  6
CONTINUOUS
 10
-1.582878
 20
1.789224
  0
VERTEX
  8
PLAN_1
  6
CONTINUOUS
 10
-1.577780
 20
1.785398
  0
VERTEX
  8
PLAN_1
  6
CONTINUOUS
 10
-1.572681
 20
1.782425
  0
VERTEX
  8
PLAN_1
  6
CONTINUOUS
 10
-1.566728
 20
1.779449
  0
VERTEX
  8
PLAN_1
  6
CONTINUOUS
 10
-1.560780
 20
1.777323
  0
VERTEX
  8
PLAN_1
  6
CONTINUOUS
 10
-1.554406
 20
1.775626
  0
VERTEX
  8
PLAN_1
  6
CONTINUOUS
 10
-1.548031
 20
1.774776
  0
VERTEX
  8
PLAN_1
  6
CONTINUOUS
 10
-1.541657
 20
1.774350
  0
SEQEND
  8
0
  0
POLYLINE
  8
PLAN_1
  6
CONTINUOUS
 66
     1
 40
0.008496
 41
0.008496
  0
VERTEX
  8
PLAN_1
  6
CONTINUOUS
 10
-1.541657
 20
1.784547
  0
VERTEX
  8
PLAN_1
  6
CONTINUOUS
 10
-1.535709
 20
1.784547
  0
VERTEX
  8
PLAN_1
  6
CONTINUOUS
 10
-1.530181
 20
1.785398
  0
VERTEX
  8
PLAN_1
  6
CONTINUOUS
 10
-1.525083
 20
1.787098
  0
VERTEX
  8
PLAN_1
  6
CONTINUOUS
 10
-1.519984
 20
1.788799
  0
VERTEX
  8
PLAN_1
  6
CONTINUOUS
 10
-1.515307
 20
1.790925
  0
VERTEX
  8
PLAN_1
  6
CONTINUOUS
 10
-1.510634
 20
1.793898
  0
VERTEX
  8
PLAN_1
  6
CONTINUOUS
 10
-1.506386
 20
1.796874
  0
VERTEX
  8
PLAN_1
  6
CONTINUOUS
 10
-1.502559
 20
1.800697
  0
VERTEX
  8
PLAN_1
  6
CONTINUOUS
 10
-1.498736
 20
1.804524
  0
VERTEX
  8
PLAN_1
  6
CONTINUOUS
 10
-1.495760
 20
1.808772
  0
VERTEX
  8
PLAN_1
  6
CONTINUOUS
 10
-1.492787
 20
1.813445
  0
VERTEX
  8
PLAN_1
  6
CONTINUOUS
 10
-1.490661
 20
1.818122
  0
VERTEX
  8
PLAN_1
  6
CONTINUOUS
 10
-1.488961
 20
1.823220
  0
VERTEX
  8
PLAN_1
  6
CONTINUOUS
 10
-1.487260
 20
1.828319
  0
VERTEX
  8
PLAN_1
  6
CONTINUOUS
 10
-1.486409
 20
1.833846
  0
VERTEX
  8
PLAN_1
  6
CONTINUOUS
 10
-1.486409
 20
1.839795
  0
VERTEX
  8
PLAN_1
  6
CONTINUOUS
 10
-1.486409
 20
1.845319
  0
VERTEX
  8
PLAN_1
  6
CONTINUOUS
 10
-1.487260
 20
1.850843
  0
VERTEX
  8
PLAN_1
  6
CONTINUOUS
 10
-1.488961
 20
1.855945
  0
VERTEX
  8
PLAN_1
  6
CONTINUOUS
 10
-1.490661
 20
1.861043
  0
VERTEX
  8
PLAN_1
  6
CONTINUOUS
 10
-1.492787
 20
1.865717
  0
VERTEX
  8
PLAN_1
  6
CONTINUOUS
 10
-1.495760
 20
1.870394
  0
VERTEX
  8
PLAN_1
  6
CONTINUOUS
 10
-1.498736
 20
1.874642
  0
VERTEX
  8
PLAN_1
  6
CONTINUOUS
 10
-1.502559
 20
1.878469
  0
VERTEX
  8
PLAN_1
  6
CONTINUOUS
 10
-1.506386
 20
1.882291
  0
VERTEX
  8
PLAN_1
  6
CONTINUOUS
 10
-1.510634
 20
1.885268
  0
VERTEX
  8
PLAN_1
  6
CONTINUOUS
 10
-1.515307
 20
1.888240
  0
VERTEX
  8
PLAN_1
  6
CONTINUOUS
 10
-1.519984
 20
1.890366
  0
VERTEX
  8
PLAN_1
  6
CONTINUOUS
 10
-1.525083
 20
1.892067
  0
VERTEX
  8
PLAN_1
  6
CONTINUOUS
 10
-1.530181
 20
1.893764
  0
VERTEX
  8
PLAN_1
  6
CONTINUOUS
 10
-1.535709
 20
1.894614
  0
VERTEX
  8
PLAN_1
  6
CONTINUOUS
 10
-1.541657
 20
1.894614
  0
VERTEX
  8
PLAN_1
  6
CONTINUOUS
 10
-1.547181
 20
1.894614
  0
VERTEX
  8
PLAN_1
  6
CONTINUOUS
 10
-1.552705
 20
1.893764
  0
VERTEX
  8
PLAN_1
  6
CONTINUOUS
 10
-1.557807
 20
1.892067
  0
VERTEX
  8
PLAN_1
  6
CONTINUOUS
 10
-1.562906
 20
1.890366
  0
VERTEX
  8
PLAN_1
  6
CONTINUOUS
 10
-1.567579
 20
1.888240
  0
VERTEX
  8
PLAN_1
  6
CONTINUOUS
 10
-1.572256
 20
1.885268
  0
VERTEX
  8
PLAN_1
  6
CONTINUOUS
 10
-1.576504
 20
1.882291
  0
VERTEX
  8
PLAN_1
  6
CONTINUOUS
 10
-1.580331
 20
1.878469
  0
VERTEX
  8
PLAN_1
  6
CONTINUOUS
 10
-1.584154
 20
1.874642
  0
VERTEX
  8
PLAN_1
  6
CONTINUOUS
 10
-1.587130
 20
1.870394
  0
VERTEX
  8
PLAN_1
  6
CONTINUOUS
 10
-1.590102
 20
1.865717
  0
VERTEX
  8
PLAN_1
  6
CONTINUOUS
 10
-1.592228
 20
1.861043
  0
VERTEX
  8
PLAN_1
  6
CONTINUOUS
 10
-1.594354
 20
1.855945
  0
VERTEX
  8
PLAN_1
  6
CONTINUOUS
 10
-1.595626
 20
1.850843
  0
VERTEX
  8
PLAN_1
  6
CONTINUOUS
 10
-1.596476
 20
1.845319
  0
VERTEX
  8
PLAN_1
  6
CONTINUOUS
 10
-1.596476
 20
1.839795
  0
VERTEX
  8
PLAN_1
  6
CONTINUOUS
 10
-1.596476
 20
1.833846
  0
VERTEX
  8
PLAN_1
  6
CONTINUOUS
 10
-1.595626
 20
1.828319
  0
VERTEX
  8
PLAN_1
  6
CONTINUOUS
 10
-1.594354
 20
1.823220
  0
VERTEX
  8
PLAN_1
  6
CONTINUOUS
 10
-1.592228
 20
1.818122
  0
VERTEX
  8
PLAN_1
  6
CONTINUOUS
 10
-1.590102
 20
1.813445
  0
VERTEX
  8
PLAN_1
  6
CONTINUOUS
 10
-1.587130
 20
1.808772
  0
VERTEX
  8
PLAN_1
  6
CONTINUOUS
 10
-1.584154
 20
1.804524
  0
VERTEX
  8
PLAN_1
  6
CONTINUOUS
 10
-1.580331
 20
1.800697
  0
VERTEX
  8
PLAN_1
  6
CONTINUOUS
 10
-1.576504
 20
1.796874
  0
VERTEX
  8
PLAN_1
  6
CONTINUOUS
 10
-1.572256
 20
1.793898
  0
VERTEX
  8
PLAN_1
  6
CONTINUOUS
 10
-1.567579
 20
1.790925
  0
VERTEX
  8
PLAN_1
  6
CONTINUOUS
 10
-1.562906
 20
1.788799
  0
VERTEX
  8
PLAN_1
  6
CONTINUOUS
 10
-1.557807
 20
1.787098
  0
VERTEX
  8
PLAN_1
  6
CONTINUOUS
 10
-1.552705
 20
1.785398
  0
VERTEX
  8
PLAN_1
  6
CONTINUOUS
 10
-1.547181
 20
1.784547
  0
VERTEX
  8
PLAN_1
  6
CONTINUOUS
 10
-1.541657
 20
1.784547
  0
SEQEND
  8
0
  0
POLYLINE
  8
PLAN_1
 62
     5
  6
CONTINUOUS
 66
     1
 40
0.003000
 41
0.003000
  0
VERTEX
  8
PLAN_1
 62
     5
  6
CONTINUOUS
 10
-1.611776
 20
1.837669
  0
VERTEX
  8
PLAN_1
 62
     5
  6
CONTINUOUS
 10
-1.603276
 20
1.837669
  0
SEQEND
  8
0
  0
POLYLINE
  8
PLAN_1
 62
     5
  6
CONTINUOUS
 66
     1
 40
0.003000
 41
0.003000
  0
VERTEX
  8
PLAN_1
 62
     5
  6
CONTINUOUS
 10
-1.595201
 20
1.837669
  0
VERTEX
  8
PLAN_1
 62
     5
  6
CONTINUOUS
 10
-1.586705
 20
1.837669
  0
SEQEND
  8
0
  0
POLYLINE
  8
PLAN_1
 62
     5
  6
CONTINUOUS
 66
     1
 40
0.003000
 41
0.003000
  0
VERTEX
  8
PLAN_1
 62
     5
  6
CONTINUOUS
 10
-1.578630
 20
1.837669
  0
VERTEX
  8
PLAN_1
 62
     5
  6
CONTINUOUS
 10
-1.570130
 20
1.837669
  0
SEQEND
  8
0
  0
POLYLINE
  8
PLAN_1
 62
     5
  6
CONTINUOUS
 66
     1
 40
0.003000
 41
0.003000
  0
VERTEX
  8
PLAN_1
 62
     5
  6
CONTINUOUS
 10
-1.561630
 20
1.837669
  0
VERTEX
  8
PLAN_1
 62
     5
  6
CONTINUOUS
 10
-1.553555
 20
1.837669
  0
SEQEND
  8
0
  0
POLYLINE
  8
PLAN_1
 62
     5
  6
CONTINUOUS
 66
     1
 40
0.003000
 41
0.003000
  0
VERTEX
  8
PLAN_1
 62
     5
  6
CONTINUOUS
 10
-1.545055
 20
1.837669
  0
VERTEX
  8
PLAN_1
 62
     5
  6
CONTINUOUS
 10
-1.536980
 20
1.837669
  0
SEQEND
  8
0
  0
POLYLINE
  8
PLAN_1
 62
     5
  6
CONTINUOUS
 66
     1
 40
0.003000
 41
0.003000
  0
VERTEX
  8
PLAN_1
 62
     5
  6
CONTINUOUS
 10
-1.528484
 20
1.837669
  0
VERTEX
  8
PLAN_1
 62
     5
  6
CONTINUOUS
 10
-1.519984
 20
1.837669
  0
SEQEND
  8
0
  0
POLYLINE
  8
PLAN_1
 62
     5
  6
CONTINUOUS
 66
     1
 40
0.003000
 41
0.003000
  0
VERTEX
  8
PLAN_1
 62
     5
  6
CONTINUOUS
 10
-1.511909
 20
1.837669
  0
VERTEX
  8
PLAN_1
 62
     5
  6
CONTINUOUS
 10
-1.503409
 20
1.837669
  0
SEQEND
  8
0
  0
POLYLINE
  8
PLAN_1
 62
     5
  6
CONTINUOUS
 66
     1
 40
0.003000
 41
0.003000
  0
VERTEX
  8
PLAN_1
 62
     5
  6
CONTINUOUS
 10
-1.495335
 20
1.837669
  0
VERTEX
  8
PLAN_1
 62
     5
  6
CONTINUOUS
 10
-1.486835
 20
1.837669
  0
SEQEND
  8
0
  0
POLYLINE
  8
PLAN_1
 62
     5
  6
CONTINUOUS
 66
     1
 40
0.003000
 41
0.003000
  0
VERTEX
  8
PLAN_1
 62
     5
  6
CONTINUOUS
 10
-1.478339
 20
1.837669
  0
VERTEX
  8
PLAN_1
 62
     5
  6
CONTINUOUS
 10
-1.470264
 20
1.837669
  0
SEQEND
  8
0
  0
POLYLINE
  8
PLAN_1
 62
     5
  6
CONTINUOUS
 66
     1
 40
0.003000
 41
0.003000
  0
VERTEX
  8
PLAN_1
 62
     5
  6
CONTINUOUS
 10
-1.461764
 20
1.837669
  0
VERTEX
  8
PLAN_1
 62
     5
  6
CONTINUOUS
 10
-1.453689
 20
1.837669
  0
SEQEND
  8
0
  0
POLYLINE
  8
PLAN_1
 62
     5
  6
CONTINUOUS
 66
     1
 40
0.003000
 41
0.003000
  0
VERTEX
  8
PLAN_1
 62
     5
  6
CONTINUOUS
 10
-1.445189
 20
1.837669
  0
VERTEX
  8
PLAN_1
 62
     5
  6
CONTINUOUS
 10
-1.436689
 20
1.837669
  0
SEQEND
  8
0
  0
POLYLINE
  8
PLAN_1
 62
     5
  6
CONTINUOUS
 66
     1
 40
0.003000
 41
0.003000
  0
VERTEX
  8
PLAN_1
 62
     5
  6
CONTINUOUS
 10
-1.428614
 20
1.837669
  0
VERTEX
  8
PLAN_1
 62
     5
  6
CONTINUOUS
 10
-1.420114
 20
1.837669
  0
SEQEND
  8
0
  0
POLYLINE
  8
PLAN_1
 62
     5
  6
CONTINUOUS
 66
     1
 40
0.003000
 41
0.003000
  0
VERTEX
  8
PLAN_1
 62
     5
  6
CONTINUOUS
 10
-1.412043
 20
1.837669
  0
VERTEX
  8
PLAN_1
 62
     5
  6
CONTINUOUS
 10
-1.403543
 20
1.837669
  0
SEQEND
  8
0
  0
POLYLINE
  8
PLAN_1
 62
     5
  6
CONTINUOUS
 66
     1
 40
0.003000
 41
0.003000
  0
VERTEX
  8
PLAN_1
 62
     5
  6
CONTINUOUS
 10
-1.395043
 20
1.837669
  0
VERTEX
  8
PLAN_1
 62
     5
  6
CONTINUOUS
 10
-1.386969
 20
1.837669
  0
SEQEND
  8
0
  0
POLYLINE
  8
PLAN_1
 62
     5
  6
CONTINUOUS
 66
     1
 40
0.003000
 41
0.003000
  0
VERTEX
  8
PLAN_1
 62
     5
  6
CONTINUOUS
 10
-1.378469
 20
1.837669
  0
VERTEX
  8
PLAN_1
 62
     5
  6
CONTINUOUS
 10
-1.370394
 20
1.837669
  0
SEQEND
  8
0
  0
POLYLINE
  8
PLAN_1
 62
     5
  6
CONTINUOUS
 66
     1
 40
0.003000
 41
0.003000
  0
VERTEX
  8
PLAN_1
 62
     5
  6
CONTINUOUS
 10
-1.361894
 20
1.837669
  0
VERTEX
  8
PLAN_1
 62
     5
  6
CONTINUOUS
 10
-1.353823
 20
1.837669
  0
SEQEND
  8
0
  0
POLYLINE
  8
PLAN_1
 62
     5
  6
CONTINUOUS
 66
     1
 40
0.003000
 41
0.003000
  0
VERTEX
  8
PLAN_1
 62
     5
  6
CONTINUOUS
 10
-1.345323
 20
1.837669
  0
VERTEX
  8
PLAN_1
 62
     5
  6
CONTINUOUS
 10
-1.336823
 20
1.837669
  0
SEQEND
  8
0
  0
POLYLINE
  8
PLAN_1
 62
     5
  6
CONTINUOUS
 66
     1
 40
0.003000
 41
0.003000
  0
VERTEX
  8
PLAN_1
 62
     5
  6
CONTINUOUS
 10
-1.328748
 20
1.837669
  0
VERTEX
  8
PLAN_1
 62
     5
  6
CONTINUOUS
 10
-1.320248
 20
1.837669
  0
SEQEND
  8
0
  0
POLYLINE
  8
PLAN_1
 62
     5
  6
CONTINUOUS
 66
     1
 40
0.003000
 41
0.003000
  0
VERTEX
  8
PLAN_1
 62
     5
  6
CONTINUOUS
 10
-1.312173
 20
1.837669
  0
VERTEX
  8
PLAN_1
 62
     5
  6
CONTINUOUS
 10
-1.303673
 20
1.837669
  0
SEQEND
  8
0
  0
POLYLINE
  8
PLAN_1
 62
     5
  6
CONTINUOUS
 66
     1
 40
0.003000
 41
0.003000
  0
VERTEX
  8
PLAN_1
 62
     5
  6
CONTINUOUS
 10
-1.295177
 20
1.837669
  0
VERTEX
  8
PLAN_1
 62
     5
  6
CONTINUOUS
 10
-1.287102
 20
1.837669
  0
SEQEND
  8
0
  0
POLYLINE
  8
PLAN_1
 62
     5
  6
CONTINUOUS
 66
     1
 40
0.003000
 41
0.003000
  0
VERTEX
  8
PLAN_1
 62
     5
  6
CONTINUOUS
 10
-1.278602
 20
1.837669
  0
VERTEX
  8
PLAN_1
 62
     5
  6
CONTINUOUS
 10
-1.270528
 20
1.837669
  0
SEQEND
  8
0
  0
POLYLINE
  8
PLAN_1
 62
     5
  6
CONTINUOUS
 66
     1
 40
0.003000
 41
0.003000
  0
VERTEX
  8
PLAN_1
 62
     5
  6
CONTINUOUS
 10
-1.262028
 20
1.837669
  0
VERTEX
  8
PLAN_1
 62
     5
  6
CONTINUOUS
 10
-1.253528
 20
1.837669
  0
SEQEND
  8
0
  0
POLYLINE
  8
PLAN_1
 62
     5
  6
CONTINUOUS
 66
     1
 40
0.003000
 41
0.003000
  0
VERTEX
  8
PLAN_1
 62
     5
  6
CONTINUOUS
 10
-1.245453
 20
1.837669
  0
VERTEX
  8
PLAN_1
 62
     5
  6
CONTINUOUS
 10
-1.236957
 20
1.837669
  0
SEQEND
  8
0
  0
POLYLINE
  8
PLAN_1
 62
     5
  6
CONTINUOUS
 66
     1
 40
0.003000
 41
0.003000
  0
VERTEX
  8
PLAN_1
 62
     5
  6
CONTINUOUS
 10
-1.228882
 20
1.837669
  0
VERTEX
  8
PLAN_1
 62
     5
  6
CONTINUOUS
 10
-1.220382
 20
1.837669
  0
SEQEND
  8
0
  0
POLYLINE
  8
PLAN_1
 62
     5
  6
CONTINUOUS
 66
     1
 40
0.003000
 41
0.003000
  0
VERTEX
  8
PLAN_1
 62
     5
  6
CONTINUOUS
 10
-1.541657
 20
1.770949
  0
VERTEX
  8
PLAN_1
 62
     5
  6
CONTINUOUS
 10
-1.541657
 20
1.779024
  0
SEQEND
  8
0
  0
POLYLINE
  8
PLAN_1
 62
     5
  6
CONTINUOUS
 66
     1
 40
0.003000
 41
0.003000
  0
VERTEX
  8
PLAN_1
 62
     5
  6
CONTINUOUS
 10
-1.541657
 20
1.787524
  0
VERTEX
  8
PLAN_1
 62
     5
  6
CONTINUOUS
 10
-1.541657
 20
1.795598
  0
SEQEND
  8
0
  0
POLYLINE
  8
PLAN_1
 62
     5
  6
CONTINUOUS
 66
     1
 40
0.003000
 41
0.003000
  0
VERTEX
  8
PLAN_1
 62
     5
  6
CONTINUOUS
 10
-1.541657
 20
1.804098
  0
VERTEX
  8
PLAN_1
 62
     5
  6
CONTINUOUS
 10
-1.541657
 20
1.812598
  0
SEQEND
  8
0
  0
POLYLINE
  8
PLAN_1
 62
     5
  6
CONTINUOUS
 66
     1
 40
0.003000
 41
0.003000
  0
VERTEX
  8
PLAN_1
 62
     5
  6
CONTINUOUS
 10
-1.541657
 20
1.820669
  0
VERTEX
  8
PLAN_1
 62
     5
  6
CONTINUOUS
 10
-1.541657
 20
1.829169
  0
SEQEND
  8
0
  0
POLYLINE
  8
PLAN_1
 62
     5
  6
CONTINUOUS
 66
     1
 40
0.003000
 41
0.003000
  0
VERTEX
  8
PLAN_1
 62
     5
  6
CONTINUOUS
 10
-1.541657
 20
1.837244
  0
VERTEX
  8
PLAN_1
 62
     5
  6
CONTINUOUS
 10
-1.541657
 20
1.845744
  0
SEQEND
  8
0
  0
POLYLINE
  8
PLAN_1
 62
     5
  6
CONTINUOUS
 66
     1
 40
0.003000
 41
0.003000
  0
VERTEX
  8
PLAN_1
 62
     5
  6
CONTINUOUS
 10
-1.541657
 20
1.854244
  0
VERTEX
  8
PLAN_1
 62
     5
  6
CONTINUOUS
 10
-1.541657
 20
1.862319
  0
SEQEND
  8
0
  0
POLYLINE
  8
PLAN_1
 62
     5
  6
CONTINUOUS
 66
     1
 40
0.003000
 41
0.003000
  0
VERTEX
  8
PLAN_1
 62
     5
  6
CONTINUOUS
 10
-1.541657
 20
1.870819
  0
VERTEX
  8
PLAN_1
 62
     5
  6
CONTINUOUS
 10
-1.541657
 20
1.878890
  0
SEQEND
  8
0
  0
POLYLINE
  8
PLAN_1
 62
     5
  6
CONTINUOUS
 66
     1
 40
0.003000
 41
0.003000
  0
VERTEX
  8
PLAN_1
 62
     5
  6
CONTINUOUS
 10
-1.541657
 20
1.887390
  0
VERTEX
  8
PLAN_1
 62
     5
  6
CONTINUOUS
 10
-1.541657
 20
1.895890
  0
SEQEND
  8
0
  0
POLYLINE
  8
PLAN_1
 62
     5
  6
CONTINUOUS
 66
     1
 40
0.003000
 41
0.003000
  0
VERTEX
  8
PLAN_1
 62
     5
  6
CONTINUOUS
 10
-1.541657
 20
1.903965
  0
VERTEX
  8
PLAN_1
 62
     5
  6
CONTINUOUS
 10
-1.541657
 20
1.907791
  0
SEQEND
  8
0
  0
POLYLINE
  8
PLAN_1
 62
     5
  6
CONTINUOUS
 66
     1
 40
0.003000
 41
0.003000
  0
VERTEX
  8
PLAN_1
 62
     5
  6
CONTINUOUS
 10
-1.541657
 20
1.903965
  0
VERTEX
  8
PLAN_1
 62
     5
  6
CONTINUOUS
 10
-1.541657
 20
1.907791
  0
SEQEND
  8
0
  0
POLYLINE
  8
PLAN_1
  6
CONTINUOUS
 66
     1
 40
0.004248
 41
0.004248
  0
VERTEX
  8
PLAN_1
  6
CONTINUOUS
 10
-1.504260
 20
2.456421
  0
VERTEX
  8
PLAN_1
  6
CONTINUOUS
 10
-1.103091
 20
2.690154
  0
SEQEND
  8
0
  0
POLYLINE
  8
PLAN_1
 62
     2
  6
CONTINUOUS
 66
     1
 40
0.004248
 41
0.004248
  0
VERTEX
  8
PLAN_1
 62
     2
  6
CONTINUOUS
 10
-0.803488
 20
1.344283
  0
VERTEX
  8
PLAN_1
 62
     2
  6
CONTINUOUS
 10
-0.803488
 20
3.119370
  0
SEQEND
  8
0
  0
SOLID
  8
PLAN_1
 62
     2
 10
-0.803488
 20
3.148693
 11
-0.819213
 21
3.089622
 12
-0.803488
 22
3.148693
 13
-0.787764
 23
3.089622
  0
POLYLINE
  8
PLAN_1
 62
     2
  6
CONTINUOUS
 66
     1
 40
0.003000
 41
0.003000
  0
VERTEX
  8
PLAN_1
 62
     2
  6
CONTINUOUS
 10
-0.803488
 20
3.148693
  0
VERTEX
  8
PLAN_1
 62
     2
  6
CONTINUOUS
 10
-0.819213
 20
3.089622
  0
VERTEX
  8
PLAN_1
 62
     2
  6
CONTINUOUS
 10
-0.787764
 20
3.089622
  0
VERTEX
  8
PLAN_1
 62
     2
  6
CONTINUOUS
 10
-0.803488
 20
3.148693
  0
SEQEND
  8
0
  0
SOLID
  8
PLAN_1
 62
     2
 10
-0.803488
 20
1.314961
 11
-0.819213
 21
1.374031
 12
-0.803488
 22
1.314961
 13
-0.787764
 23
1.374031
  0
POLYLINE
  8
PLAN_1
 62
     2
  6
CONTINUOUS
 66
     1
 40
0.003000
 41
0.003000
  0
VERTEX
  8
PLAN_1
 62
     2
  6
CONTINUOUS
 10
-0.803488
 20
1.314961
  0
VERTEX
  8
PLAN_1
 62
     2
  6
CONTINUOUS
 10
-0.819213
 20
1.374031
  0
VERTEX
  8
PLAN_1
 62
     2
  6
CONTINUOUS
 10
-0.787764
 20
1.374031
  0
VERTEX
  8
PLAN_1
 62
     2
  6
CONTINUOUS
 10
-0.803488
 20
1.314961
  0
SEQEND
  8
0
  0
POLYLINE
  8
PLAN_1
 62
     2
  6
CONTINUOUS
 66
     1
 40
0.003000
 41
0.003000
  0
VERTEX
  8
PLAN_1
 62
     2
  6
CONTINUOUS
 10
-0.826862
 20
2.182319
  0
VERTEX
  8
PLAN_1
 62
     2
  6
CONTINUOUS
 10
-0.826862
 20
2.172543
  0
VERTEX
  8
PLAN_1
 62
     2
  6
CONTINUOUS
 10
-0.879134
 20
2.172543
  0
VERTEX
  8
PLAN_1
 62
     2
  6
CONTINUOUS
 10
-0.879134
 20
2.155547
  0
VERTEX
  8
PLAN_1
 62
     2
  6
CONTINUOUS
 10
-0.886358
 20
2.155547
  0
VERTEX
  8
PLAN_1
 62
     2
  6
CONTINUOUS
 10
-0.886783
 20
2.159795
  0
VERTEX
  8
PLAN_1
 62
     2
  6
CONTINUOUS
 10
-0.887209
 20
2.163193
  0
VERTEX
  8
PLAN_1
 62
     2
  6
CONTINUOUS
 10
-0.888055
 20
2.166169
  0
VERTEX
  8
PLAN_1
 62
     2
  6
CONTINUOUS
 10
-0.888906
 20
2.168720
  0
VERTEX
  8
PLAN_1
 62
     2
  6
CONTINUOUS
 10
-0.890606
 20
2.170843
  0
VERTEX
  8
PLAN_1
 62
     2
  6
CONTINUOUS
 10
-0.893157
 20
2.172543
  0
VERTEX
  8
PLAN_1
 62
     2
  6
CONTINUOUS
 10
-0.896130
 20
2.173819
  0
VERTEX
  8
PLAN_1
 62
     2
  6
CONTINUOUS
 10
-0.900382
 20
2.175094
  0
VERTEX
  8
PLAN_1
 62
     2
  6
CONTINUOUS
 10
-0.900382
 20
2.182319
  0
VERTEX
  8
PLAN_1
 62
     2
  6
CONTINUOUS
 10
-0.826862
 20
2.182319
  0
SEQEND
  8
0
  0
POLYLINE
  8
PLAN_1
 62
     2
  6
CONTINUOUS
 66
     1
 40
0.003000
 41
0.003000
  0
VERTEX
  8
PLAN_1
 62
     2
  6
CONTINUOUS
 10
-0.874031
 20
2.207390
  0
VERTEX
  8
PLAN_1
 62
     2
  6
CONTINUOUS
 10
-0.878283
 20
2.207815
  0
VERTEX
  8
PLAN_1
 62
     2
  6
CONTINUOUS
 10
-0.882106
 20
2.208240
  0
VERTEX
  8
PLAN_1
 62
     2
  6
CONTINUOUS
 10
-0.885083
 20
2.209091
  0
VERTEX
  8
PLAN_1
 62
     2
  6
CONTINUOUS
 10
-0.888055
 20
2.210366
  0
VERTEX
  8
PLAN_1
 62
     2
  6
CONTINUOUS
 10
-0.890606
 20
2.211642
  0
VERTEX
  8
PLAN_1
 62
     2
  6
CONTINUOUS
 10
-0.892732
 20
2.213343
  0
VERTEX
  8
PLAN_1
 62
     2
  6
CONTINUOUS
 10
-0.894433
 20
2.215039
  0
VERTEX
  8
PLAN_1
 62
     2
  6
CONTINUOUS
 10
-0.896130
 20
2.217165
  0
VERTEX
  8
PLAN_1
 62
     2
  6
CONTINUOUS
 10
-0.898256
 20
2.221417
  0
VERTEX
  8
PLAN_1
 62
     2
  6
CONTINUOUS
 10
-0.899531
 20
2.225665
  0
VERTEX
  8
PLAN_1
 62
     2
  6
CONTINUOUS
 10
-0.899957
 20
2.229488
  0
VERTEX
  8
PLAN_1
 62
     2
  6
CONTINUOUS
 10
-0.900382
 20
2.232890
  0
VERTEX
  8
PLAN_1
 62
     2
  6
CONTINUOUS
 10
-0.899957
 20
2.237563
  0
VERTEX
  8
PLAN_1
 62
     2
  6
CONTINUOUS
 10
-0.898681
 20
2.241815
  0
VERTEX
  8
PLAN_1
 62
     2
  6
CONTINUOUS
 10
-0.896980
 20
2.245638
  0
VERTEX
  8
PLAN_1
 62
     2
  6
CONTINUOUS
 10
-0.894433
 20
2.249039
  0
VERTEX
  8
PLAN_1
 62
     2
  6
CONTINUOUS
 10
-0.892732
 20
2.250315
  0
VERTEX
  8
PLAN_1
 62
     2
  6
CONTINUOUS
 10
-0.891457
 20
2.251587
  0
VERTEX
  8
PLAN_1
 62
     2
  6
CONTINUOUS
 10
-0.889331
 20
2.252862
  0
VERTEX
  8
PLAN_1
 62
     2
  6
CONTINUOUS
 10
-0.887634
 20
2.253713
  0
VERTEX
  8
PLAN_1
 62
     2
  6
CONTINUOUS
 10
-0.885508
 20
2.254563
  0
VERTEX
  8
PLAN_1
 62
     2
  6
CONTINUOUS
 10
-0.883382
 20
2.255413
  0
VERTEX
  8
PLAN_1
 62
     2
  6
CONTINUOUS
 10
-0.880831
 20
2.255413
  0
VERTEX
  8
PLAN_1
 62
     2
  6
CONTINUOUS
 10
-0.878283
 20
2.255839
  0
VERTEX
  8
PLAN_1
 62
     2
  6
CONTINUOUS
 10
-0.873606
 20
2.255413
  0
VERTEX
  8
PLAN_1
 62
     2
  6
CONTINUOUS
 10
-0.869783
 20
2.254138
  0
VERTEX
  8
PLAN_1
 62
     2
  6
CONTINUOUS
 10
-0.866382
 20
2.252437
  0
VERTEX
  8
PLAN_1
 62
     2
  6
CONTINUOUS
 10
-0.863409
 20
2.249890
  0
VERTEX
  8
PLAN_1
 62
     2
  6
CONTINUOUS
 10
-0.860858
 20
2.246913
  0
VERTEX
  8
PLAN_1
 62
     2
  6
CONTINUOUS
 10
-0.858311
 20
2.243937
  0
VERTEX
  8
PLAN_1
 62
     2
  6
CONTINUOUS
 10
-0.856185
 20
2.240114
  0
VERTEX
  8
PLAN_1
 62
     2
  6
CONTINUOUS
 10
-0.854059
 20
2.236287
  0
VERTEX
  8
PLAN_1
 62
     2
  6
CONTINUOUS
 10
-0.849811
 20
2.228642
  0
VERTEX
  8
PLAN_1
 62
     2
  6
CONTINUOUS
 10
-0.847685
 20
2.225240
  0
VERTEX
  8
PLAN_1
 62
     2
  6
CONTINUOUS
 10
-0.845559
 20
2.222264
  0
VERTEX
  8
PLAN_1
 62
     2
  6
CONTINUOUS
 10
-0.843437
 20
2.220142
  0
VERTEX
  8
PLAN_1
 62
     2
  6
CONTINUOUS
 10
-0.841736
 20
2.218441
  0
VERTEX
  8
PLAN_1
 62
     2
  6
CONTINUOUS
 10
-0.840035
 20
2.217591
  0
VERTEX
  8
PLAN_1
 62
     2
  6
CONTINUOUS
 10
-0.838335
 20
2.216740
  0
VERTEX
  8
PLAN_1
 62
     2
  6
CONTINUOUS
 10
-0.837059
 20
2.216315
  0
VERTEX
  8
PLAN_1
 62
     2
  6
CONTINUOUS
 10
-0.835787
 20
2.215890
  0
VERTEX
  8
PLAN_1
 62
     2
  6
CONTINUOUS
 10
-0.835787
 20
2.255839
  0
VERTEX
  8
PLAN_1
 62
     2
  6
CONTINUOUS
 10
-0.826862
 20
2.255839
  0
VERTEX
  8
PLAN_1
 62
     2
  6
CONTINUOUS
 10
-0.826862
 20
2.205693
  0
VERTEX
  8
PLAN_1
 62
     2
  6
CONTINUOUS
 10
-0.832386
 20
2.206118
  0
VERTEX
  8
PLAN_1
 62
     2
  6
CONTINUOUS
 10
-0.837059
 20
2.206965
  0
VERTEX
  8
PLAN_1
 62
     2
  6
CONTINUOUS
 10
-0.841311
 20
2.208665
  0
VERTEX
  8
PLAN_1
 62
     2
  6
CONTINUOUS
 10
-0.845134
 20
2.210791
  0
VERTEX
  8
PLAN_1
 62
     2
  6
CONTINUOUS
 10
-0.848535
 20
2.213343
  0
VERTEX
  8
PLAN_1
 62
     2
  6
CONTINUOUS
 10
-0.851087
 20
2.215890
  0
VERTEX
  8
PLAN_1
 62
     2
  6
CONTINUOUS
 10
-0.853634
 20
2.219291
  0
VERTEX
  8
PLAN_1
 62
     2
  6
CONTINUOUS
 10
-0.856185
 20
2.222689
  0
VERTEX
  8
PLAN_1
 62
     2
  6
CONTINUOUS
 10
-0.861709
 20
2.232465
  0
VERTEX
  8
PLAN_1
 62
     2
  6
CONTINUOUS
 10
-0.863409
 20
2.235441
  0
VERTEX
  8
PLAN_1
 62
     2
  6
CONTINUOUS
 10
-0.865110
 20
2.237988
  0
VERTEX
  8
PLAN_1
 62
     2
  6
CONTINUOUS
 10
-0.866382
 20
2.240114
  0
VERTEX
  8
PLAN_1
 62
     2
  6
CONTINUOUS
 10
-0.868508
 20
2.242240
  0
VERTEX
  8
PLAN_1
 62
     2
  6
CONTINUOUS
 10
-0.870209
 20
2.243512
  0
VERTEX
  8
PLAN_1
 62
     2
  6
CONTINUOUS
 10
-0.872760
 20
2.244787
  0
VERTEX
  8
PLAN_1
 62
     2
  6
CONTINUOUS
 10
-0.875307
 20
2.245638
  0
VERTEX
  8
PLAN_1
 62
     2
  6
CONTINUOUS
 10
-0.878709
 20
2.246063
  0
VERTEX
  8
PLAN_1
 62
     2
  6
CONTINUOUS
 10
-0.880831
 20
2.245638
  0
VERTEX
  8
PLAN_1
 62
     2
  6
CONTINUOUS
 10
-0.883382
 20
2.245213
  0
VERTEX
  8
PLAN_1
 62
     2
  6
CONTINUOUS
 10
-0.885508
 20
2.244362
  0
VERTEX
  8
PLAN_1
 62
     2
  6
CONTINUOUS
 10
-0.887634
 20
2.242665
  0
VERTEX
  8
PLAN_1
 62
     2
  6
CONTINUOUS
 10
-0.889331
 20
2.240539
  0
VERTEX
  8
PLAN_1
 62
     2
  6
CONTINUOUS
 10
-0.890606
 20
2.238413
  0
VERTEX
  8
PLAN_1
 62
     2
  6
CONTINUOUS
 10
-0.891457
 20
2.235016
  0
VERTEX
  8
PLAN_1
 62
     2
  6
CONTINUOUS
 10
-0.891882
 20
2.231614
  0
VERTEX
  8
PLAN_1
 62
     2
  6
CONTINUOUS
 10
-0.891882
 20
2.229063
  0
VERTEX
  8
PLAN_1
 62
     2
  6
CONTINUOUS
 10
-0.891457
 20
2.226941
  0
VERTEX
  8
PLAN_1
 62
     2
  6
CONTINUOUS
 10
-0.890606
 20
2.224815
  0
VERTEX
  8
PLAN_1
 62
     2
  6
CONTINUOUS
 10
-0.889756
 20
2.223539
  0
VERTEX
  8
PLAN_1
 62
     2
  6
CONTINUOUS
 10
-0.888906
 20
2.221839
  0
VERTEX
  8
PLAN_1
 62
     2
  6
CONTINUOUS
 10
-0.887634
 20
2.220567
  0
VERTEX
  8
PLAN_1
 62
     2
  6
CONTINUOUS
 10
-0.886358
 20
2.219717
  0
VERTEX
  8
PLAN_1
 62
     2
  6
CONTINUOUS
 10
-0.885083
 20
2.218866
  0
VERTEX
  8
PLAN_1
 62
     2
  6
CONTINUOUS
 10
-0.882106
 20
2.218016
  0
VERTEX
  8
PLAN_1
 62
     2
  6
CONTINUOUS
 10
-0.879134
 20
2.217165
  0
VERTEX
  8
PLAN_1
 62
     2
  6
CONTINUOUS
 10
-0.876157
 20
2.216740
  0
VERTEX
  8
PLAN_1
 62
     2
  6
CONTINUOUS
 10
-0.874031
 20
2.216740
  0
VERTEX
  8
PLAN_1
 62
     2
  6
CONTINUOUS
 10
-0.874031
 20
2.207390
  0
SEQEND
  8
0
  0
POLYLINE
  8
PLAN_1
 62
     2
  6
CONTINUOUS
 66
     1
 40
0.003000
 41
0.003000
  0
VERTEX
  8
PLAN_1
 62
     2
  6
CONTINUOUS
 10
-0.868508
 20
2.284311
  0
VERTEX
  8
PLAN_1
 62
     2
  6
CONTINUOUS
 10
-0.868508
 20
2.284736
  0
VERTEX
  8
PLAN_1
 62
     2
  6
CONTINUOUS
 10
-0.868508
 20
2.285161
  0
VERTEX
  8
PLAN_1
 62
     2
  6
CONTINUOUS
 10
-0.868508
 20
2.286012
  0
VERTEX
  8
PLAN_1
 62
     2
  6
CONTINUOUS
 10
-0.868508
 20
2.286437
  0
VERTEX
  8
PLAN_1
 62
     2
  6
CONTINUOUS
 10
-0.868508
 20
2.287283
  0
VERTEX
  8
PLAN_1
 62
     2
  6
CONTINUOUS
 10
-0.868508
 20
2.287709
  0
VERTEX
  8
PLAN_1
 62
     2
  6
CONTINUOUS
 10
-0.868508
 20
2.288134
  0
VERTEX
  8
PLAN_1
 62
     2
  6
CONTINUOUS
 10
-0.868508
 20
2.288984
  0
VERTEX
  8
PLAN_1
 62
     2
  6
CONTINUOUS
 10
-0.868508
 20
2.291535
  0
VERTEX
  8
PLAN_1
 62
     2
  6
CONTINUOUS
 10
-0.868933
 20
2.294087
  0
VERTEX
  8
PLAN_1
 62
     2
  6
CONTINUOUS
 10
-0.869783
 20
2.296634
  0
VERTEX
  8
PLAN_1
 62
     2
  6
CONTINUOUS
 10
-0.871059
 20
2.298335
  0
VERTEX
  8
PLAN_1
 62
     2
  6
CONTINUOUS
 10
-0.872760
 20
2.300461
  0
VERTEX
  8
PLAN_1
 62
     2
  6
CONTINUOUS
 10
-0.874882
 20
2.301732
  0
VERTEX
  8
PLAN_1
 62
     2
  6
CONTINUOUS
 10
-0.877433
 20
2.302583
  0
VERTEX
  8
PLAN_1
 62
     2
  6
CONTINUOUS
 10
-0.880409
 20
2.303008
  0
VERTEX
  8
PLAN_1
 62
     2
  6
CONTINUOUS
 10
-0.882106
 20
2.302583
  0
VERTEX
  8
PLAN_1
 62
     2
  6
CONTINUOUS
 10
-0.884232
 20
2.302157
  0
VERTEX
  8
PLAN_1
 62
     2
  6
CONTINUOUS
 10
-0.885933
 20
2.301311
  0
VERTEX
  8
PLAN_1
 62
     2
  6
CONTINUOUS
 10
-0.888055
 20
2.300035
  0
VERTEX
  8
PLAN_1
 62
     2
  6
CONTINUOUS
 10
-0.889331
 20
2.298335
  0
VERTEX
  8
PLAN_1
 62
     2
  6
CONTINUOUS
 10
-0.890606
 20
2.296209
  0
VERTEX
  8
PLAN_1
 62
     2
  6
CONTINUOUS
 10
-0.891457
 20
2.293236
  0
VERTEX
  8
PLAN_1
 62
     2
  6
CONTINUOUS
 10
-0.891882
 20
2.289409
  0
VERTEX
  8
PLAN_1
 62
     2
  6
CONTINUOUS
 10
-0.891882
 20
2.286862
  0
VERTEX
  8
PLAN_1
 62
     2
  6
CONTINUOUS
 10
-0.891457
 20
2.285161
  0
VERTEX
  8
PLAN_1
 62
     2
  6
CONTINUOUS
 10
-0.891031
 20
2.283035
  0
VERTEX
  8
PLAN_1
 62
     2
  6
CONTINUOUS
 10
-0.890181
 20
2.281760
  0
VERTEX
  8
PLAN_1
 62
     2
  6
CONTINUOUS
 10
-0.888480
 20
2.279213
  0
VERTEX
  8
PLAN_1
 62
     2
  6
CONTINUOUS
 10
-0.885933
 20
2.277512
  0
VERTEX
  8
PLAN_1
 62
     2
  6
CONTINUOUS
 10
-0.883382
 20
2.276236
  0
VERTEX
  8
PLAN_1
 62
     2
  6
CONTINUOUS
 10
-0.880831
 20
2.275811
  0
VERTEX
  8
PLAN_1
 62
     2
  6
CONTINUOUS
 10
-0.878283
 20
2.275386
  0
VERTEX
  8
PLAN_1
 62
     2
  6
CONTINUOUS
 10
-0.876157
 20
2.274961
  0
VERTEX
  8
PLAN_1
 62
     2
  6
CONTINUOUS
 10
-0.876157
 20
2.266035
  0
VERTEX
  8
PLAN_1
 62
     2
  6
CONTINUOUS
 10
-0.880409
 20
2.266461
  0
VERTEX
  8
PLAN_1
 62
     2
  6
CONTINUOUS
 10
-0.884657
 20
2.267311
  0
VERTEX
  8
PLAN_1
 62
     2
  6
CONTINUOUS
 10
-0.888480
 20
2.268587
  0
VERTEX
  8
PLAN_1
 62
     2
  6
CONTINUOUS
 10
-0.892307
 20
2.270713
  0
VERTEX
  8
PLAN_1
 62
     2
  6
CONTINUOUS
 10
-0.894008
 20
2.271988
  0
VERTEX
  8
PLAN_1
 62
     2
  6
CONTINUOUS
 10
-0.895280
 20
2.273685
  0
VERTEX
  8
PLAN_1
 62
     2
  6
CONTINUOUS
 10
-0.896980
 20
2.275811
  0
VERTEX
  8
PLAN_1
 62
     2
  6
CONTINUOUS
 10
-0.897831
 20
2.277937
  0
VERTEX
  8
PLAN_1
 62
     2
  6
CONTINUOUS
 10
-0.899106
 20
2.280484
  0
VERTEX
  8
PLAN_1
 62
     2
  6
CONTINUOUS
 10
-0.899531
 20
2.283035
  0
VERTEX
  8
PLAN_1
 62
     2
  6
CONTINUOUS
 10
-0.899957
 20
2.286437
  0
VERTEX
  8
PLAN_1
 62
     2
  6
CONTINUOUS
 10
-0.900382
 20
2.289835
  0
VERTEX
  8
PLAN_1
 62
     2
  6
CONTINUOUS
 10
-0.899957
 20
2.294933
  0
VERTEX
  8
PLAN_1
 62
     2
  6
CONTINUOUS
 10
-0.898681
 20
2.299185
  0
VERTEX
  8
PLAN_1
 62
     2
  6
CONTINUOUS
 10
-0.896980
 20
2.303008
  0
VERTEX
  8
PLAN_1
 62
     2
  6
CONTINUOUS
 10
-0.894858
 20
2.306409
  0
VERTEX
  8
PLAN_1
 62
     2
  6
CONTINUOUS
 10
-0.891882
 20
2.308961
  0
VERTEX
  8
PLAN_1
 62
     2
  6
CONTINUOUS
 10
-0.888480
 20
2.310657
  0
VERTEX
  8
PLAN_1
 62
     2
  6
CONTINUOUS
 10
-0.885083
 20
2.311933
  0
VERTEX
  8
PLAN_1
 62
     2
  6
CONTINUOUS
 10
-0.880831
 20
2.312358
  0
VERTEX
  8
PLAN_1
 62
     2
  6
CONTINUOUS
 10
-0.877858
 20
2.311933
  0
VERTEX
  8
PLAN_1
 62
     2
  6
CONTINUOUS
 10
-0.874882
 20
2.311508
  0
VERTEX
  8
PLAN_1
 62
     2
  6
CONTINUOUS
 10
-0.872335
 20
2.310232
  0
VERTEX
  8
PLAN_1
 62
     2
  6
CONTINUOUS
 10
-0.870209
 20
2.308961
  0
VERTEX
  8
PLAN_1
 62
     2
  6
CONTINUOUS
 10
-0.868933
 20
2.307685
  0
VERTEX
  8
PLAN_1
 62
     2
  6
CONTINUOUS
 10
-0.867232
 20
2.305984
  0
VERTEX
  8
PLAN_1
 62
     2
  6
CONTINUOUS
 10
-0.866382
 20
2.304709
  0
VERTEX
  8
PLAN_1
 62
     2
  6
CONTINUOUS
 10
-0.865961
 20
2.303008
  0
VERTEX
  8
PLAN_1
 62
     2
  6
CONTINUOUS
 10
-0.865535
 20
2.303008
  0
VERTEX
  8
PLAN_1
 62
     2
  6
CONTINUOUS
 10
-0.864685
 20
2.305559
  0
VERTEX
  8
PLAN_1
 62
     2
  6
CONTINUOUS
 10
-0.863409
 20
2.307685
  0
VERTEX
  8
PLAN_1
 62
     2
  6
CONTINUOUS
 10
-0.861709
 20
2.309807
  0
VERTEX
  8
PLAN_1
 62
     2
  6
CONTINUOUS
 10
-0.860008
 20
2.311508
  0
VERTEX
  8
PLAN_1
 62
     2
  6
CONTINUOUS
 10
-0.857886
 20
2.313209
  0
VERTEX
  8
PLAN_1
 62
     2
  6
CONTINUOUS
 10
-0.854909
 20
2.314059
  0
VERTEX
  8
PLAN_1
 62
     2
  6
CONTINUOUS
 10
-0.851933
 20
2.314909
  0
VERTEX
  8
PLAN_1
 62
     2
  6
CONTINUOUS
 10
-0.848535
 20
2.315335
  0
VERTEX
  8
PLAN_1
 62
     2
  6
CONTINUOUS
 10
-0.844283
 20
2.314909
  0
VERTEX
  8
PLAN_1
 62
     2
  6
CONTINUOUS
 10
-0.840035
 20
2.313634
  0
VERTEX
  8
PLAN_1
 62
     2
  6
CONTINUOUS
 10
-0.837909
 20
2.312783
  0
VERTEX
  8
PLAN_1
 62
     2
  6
CONTINUOUS
 10
-0.835787
 20
2.311508
  0
VERTEX
  8
PLAN_1
 62
     2
  6
CONTINUOUS
 10
-0.834087
 20
2.310232
  0
VERTEX
  8
PLAN_1
 62
     2
  6
CONTINUOUS
 10
-0.832386
 20
2.308961
  0
VERTEX
  8
PLAN_1
 62
     2
  6
CONTINUOUS
 10
-0.830685
 20
2.307260
  0
VERTEX
  8
PLAN_1
 62
     2
  6
CONTINUOUS
 10
-0.829413
 20
2.305134
  0
VERTEX
  8
PLAN_1
 62
     2
  6
CONTINUOUS
 10
-0.828138
 20
2.303008
  0
VERTEX
  8
PLAN_1
 62
     2
  6
CONTINUOUS
 10
-0.827287
 20
2.300886
  0
VERTEX
  8
PLAN_1
 62
     2
  6
CONTINUOUS
 10
-0.826437
 20
2.298335
  0
VERTEX
  8
PLAN_1
 62
     2
  6
CONTINUOUS
 10
-0.825587
 20
2.295358
  0
VERTEX
  8
PLAN_1
 62
     2
  6
CONTINUOUS
 10
-0.825161
 20
2.292386
  0
VERTEX
  8
PLAN_1
 62
     2
  6
CONTINUOUS
 10
-0.825161
 20
2.288984
  0
VERTEX
  8
PLAN_1
 62
     2
  6
CONTINUOUS
 10
-0.825161
 20
2.286862
  0
VERTEX
  8
PLAN_1
 62
     2
  6
CONTINUOUS
 10
-0.825161
 20
2.284736
  0
VERTEX
  8
PLAN_1
 62
     2
  6
CONTINUOUS
 10
-0.825587
 20
2.283035
  0
VERTEX
  8
PLAN_1
 62
     2
  6
CONTINUOUS
 10
-0.826012
 20
2.281335
  0
VERTEX
  8
PLAN_1
 62
     2
  6
CONTINUOUS
 10
-0.826437
 20
2.279638
  0
VERTEX
  8
PLAN_1
 62
     2
  6
CONTINUOUS
 10
-0.826862
 20
2.277937
  0
VERTEX
  8
PLAN_1
 62
     2
  6
CONTINUOUS
 10
-0.827713
 20
2.276661
  0
VERTEX
  8
PLAN_1
 62
     2
  6
CONTINUOUS
 10
-0.828138
 20
2.275386
  0
VERTEX
  8
PLAN_1
 62
     2
  6
CONTINUOUS
 10
-0.830260
 20
2.272413
  0
VERTEX
  8
PLAN_1
 62
     2
  6
CONTINUOUS
 10
-0.832386
 20
2.270287
  0
VERTEX
  8
PLAN_1
 62
     2
  6
CONTINUOUS
 10
-0.834512
 20
2.268587
  0
VERTEX
  8
PLAN_1
 62
     2
  6
CONTINUOUS
 10
-0.837484
 20
2.266886
  0
VERTEX
  8
PLAN_1
 62
     2
  6
CONTINUOUS
 10
-0.840035
 20
2.266035
  0
VERTEX
  8
PLAN_1
 62
     2
  6
CONTINUOUS
 10
-0.843012
 20
2.265189
  0
VERTEX
  8
PLAN_1
 62
     2
  6
CONTINUOUS
 10
-0.846409
 20
2.264764
  0
VERTEX
  8
PLAN_1
 62
     2
  6
CONTINUOUS
 10
-0.849386
 20
2.264339
  0
VERTEX
  8
PLAN_1
 62
     2
  6
CONTINUOUS
 10
-0.849386
 20
2.273685
  0
VERTEX
  8
PLAN_1
 62
     2
  6
CONTINUOUS
 10
-0.846835
 20
2.274110
  0
VERTEX
  8
PLAN_1
 62
     2
  6
CONTINUOUS
 10
-0.843862
 20
2.274535
  0
VERTEX
  8
PLAN_1
 62
     2
  6
CONTINUOUS
 10
-0.841311
 20
2.275386
  0
VERTEX
  8
PLAN_1
 62
     2
  6
CONTINUOUS
 10
-0.838760
 20
2.276661
  0
VERTEX
  8
PLAN_1
 62
     2
  6
CONTINUOUS
 10
-0.836638
 20
2.278787
  0
VERTEX
  8
PLAN_1
 62
     2
  6
CONTINUOUS
 10
-0.834937
 20
2.281335
  0
VERTEX
  8
PLAN_1
 62
     2
  6
CONTINUOUS
 10
-0.834087
 20
2.283035
  0
VERTEX
  8
PLAN_1
 62
     2
  6
CONTINUOUS
 10
-0.833661
 20
2.284736
  0
VERTEX
  8
PLAN_1
 62
     2
  6
CONTINUOUS
 10
-0.833236
 20
2.286862
  0
VERTEX
  8
PLAN_1
 62
     2
  6
CONTINUOUS
 10
-0.833236
 20
2.289409
  0
VERTEX
  8
PLAN_1
 62
     2
  6
CONTINUOUS
 10
-0.833661
 20
2.292811
  0
VERTEX
  8
PLAN_1
 62
     2
  6
CONTINUOUS
 10
-0.834512
 20
2.295783
  0
VERTEX
  8
PLAN_1
 62
     2
  6
CONTINUOUS
 10
-0.835787
 20
2.298760
  0
VERTEX
  8
PLAN_1
 62
     2
  6
CONTINUOUS
 10
-0.837059
 20
2.300886
  0
VERTEX
  8
PLAN_1
 62
     2
  6
CONTINUOUS
 10
-0.839185
 20
2.302583
  0
VERTEX
  8
PLAN_1
 62
     2
  6
CONTINUOUS
 10
-0.841736
 20
2.304283
  0
VERTEX
  8
PLAN_1
 62
     2
  6
CONTINUOUS
 10
-0.844283
 20
2.305134
  0
VERTEX
  8
PLAN_1
 62
     2
  6
CONTINUOUS
 10
-0.847260
 20
2.305559
  0
VERTEX
  8
PLAN_1
 62
     2
  6
CONTINUOUS
 10
-0.849811
 20
2.305134
  0
VERTEX
  8
PLAN_1
 62
     2
  6
CONTINUOUS
 10
-0.851508
 20
2.304709
  0
VERTEX
  8
PLAN_1
 62
     2
  6
CONTINUOUS
 10
-0.853209
 20
2.304283
  0
VERTEX
  8
PLAN_1
 62
     2
  6
CONTINUOUS
 10
-0.854909
 20
2.303433
  0
VERTEX
  8
PLAN_1
 62
     2
  6
CONTINUOUS
 10
-0.857035
 20
2.301732
  0
VERTEX
  8
PLAN_1
 62
     2
  6
CONTINUOUS
 10
-0.858732
 20
2.299185
  0
VERTEX
  8
PLAN_1
 62
     2
  6
CONTINUOUS
 10
-0.860008
 20
2.296634
  0
VERTEX
  8
PLAN_1
 62
     2
  6
CONTINUOUS
 10
-0.860433
 20
2.293661
  0
VERTEX
  8
PLAN_1
 62
     2
  6
CONTINUOUS
 10
-0.860858
 20
2.290685
  0
VERTEX
  8
PLAN_1
 62
     2
  6
CONTINUOUS
 10
-0.860858
 20
2.288134
  0
VERTEX
  8
PLAN_1
 62
     2
  6
CONTINUOUS
 10
-0.860858
 20
2.287709
  0
VERTEX
  8
PLAN_1
 62
     2
  6
CONTINUOUS
 10
-0.860858
 20
2.287283
  0
VERTEX
  8
PLAN_1
 62
     2
  6
CONTINUOUS
 10
-0.860858
 20
2.286862
  0
VERTEX
  8
PLAN_1
 62
     2
  6
CONTINUOUS
 10
-0.860858
 20
2.286012
  0
VERTEX
  8
PLAN_1
 62
     2
  6
CONTINUOUS
 10
-0.860858
 20
2.285587
  0
VERTEX
  8
PLAN_1
 62
     2
  6
CONTINUOUS
 10
-0.860858
 20
2.285161
  0
VERTEX
  8
PLAN_1
 62
     2
  6
CONTINUOUS
 10
-0.860858
 20
2.284736
  0
VERTEX
  8
PLAN_1
 62
     2
  6
CONTINUOUS
 10
-0.860858
 20
2.284311
  0
VERTEX
  8
PLAN_1
 62
     2
  6
CONTINUOUS
 10
-0.868508
 20
2.284311
  0
SEQEND
  8
0
  0
POLYLINE
  8
PLAN_1
 62
     2
  6
CONTINUOUS
 66
     1
 40
0.004248
 41
0.004248
  0
VERTEX
  8
PLAN_1
 62
     2
  6
CONTINUOUS
 10
-0.960728
 20
1.429701
  0
VERTEX
  8
PLAN_1
 62
     2
  6
CONTINUOUS
 10
-0.960728
 20
3.119370
  0
SEQEND
  8
0
  0
SOLID
  8
PLAN_1
 62
     2
 10
-0.960728
 20
3.148693
 11
-0.976449
 21
3.089622
 12
-0.960728
 22
3.148693
 13
-0.945004
 23
3.089622
  0
POLYLINE
  8
PLAN_1
 62
     2
  6
CONTINUOUS
 66
     1
 40
0.003000
 41
0.003000
  0
VERTEX
  8
PLAN_1
 62
     2
  6
CONTINUOUS
 10
-0.960728
 20
3.148693
  0
VERTEX
  8
PLAN_1
 62
     2
  6
CONTINUOUS
 10
-0.976449
 20
3.089622
  0
VERTEX
  8
PLAN_1
 62
     2
  6
CONTINUOUS
 10
-0.945004
 20
3.089622
  0
VERTEX
  8
PLAN_1
 62
     2
  6
CONTINUOUS
 10
-0.960728
 20
3.148693
  0
SEQEND
  8
0
  0
SOLID
  8
PLAN_1
 62
     2
 10
-0.960728
 20
1.400378
 11
-0.976449
 21
1.459449
 12
-0.960728
 22
1.400378
 13
-0.945004
 23
1.459449
  0
POLYLINE
  8
PLAN_1
 62
     2
  6
CONTINUOUS
 66
     1
 40
0.003000
 41
0.003000
  0
VERTEX
  8
PLAN_1
 62
     2
  6
CONTINUOUS
 10
-0.960728
 20
1.400378
  0
VERTEX
  8
PLAN_1
 62
     2
  6
CONTINUOUS
 10
-0.976449
 20
1.459449
  0
VERTEX
  8
PLAN_1
 62
     2
  6
CONTINUOUS
 10
-0.945004
 20
1.459449
  0
VERTEX
  8
PLAN_1
 62
     2
  6
CONTINUOUS
 10
-0.960728
 20
1.400378
  0
SEQEND
  8
0
  0
POLYLINE
  8
PLAN_1
 62
     2
  6
CONTINUOUS
 66
     1
 40
0.003000
 41
0.003000
  0
VERTEX
  8
PLAN_1
 62
     2
  6
CONTINUOUS
 10
-0.984524
 20
2.100724
  0
VERTEX
  8
PLAN_1
 62
     2
  6
CONTINUOUS
 10
-0.984524
 20
2.090949
  0
VERTEX
  8
PLAN_1
 62
     2
  6
CONTINUOUS
 10
-1.036370
 20
2.090949
  0
VERTEX
  8
PLAN_1
 62
     2
  6
CONTINUOUS
 10
-1.036370
 20
2.073953
  0
VERTEX
  8
PLAN_1
 62
     2
  6
CONTINUOUS
 10
-1.043594
 20
2.073953
  0
VERTEX
  8
PLAN_1
 62
     2
  6
CONTINUOUS
 10
-1.044020
 20
2.078201
  0
VERTEX
  8
PLAN_1
 62
     2
  6
CONTINUOUS
 10
-1.044445
 20
2.081602
  0
VERTEX
  8
PLAN_1
 62
     2
  6
CONTINUOUS
 10
-1.045295
 20
2.084575
  0
VERTEX
  8
PLAN_1
 62
     2
  6
CONTINUOUS
 10
-1.046571
 20
2.087126
  0
VERTEX
  8
PLAN_1
 62
     2
  6
CONTINUOUS
 10
-1.048268
 20
2.089252
  0
VERTEX
  8
PLAN_1
 62
     2
  6
CONTINUOUS
 10
-1.050394
 20
2.090949
  0
VERTEX
  8
PLAN_1
 62
     2
  6
CONTINUOUS
 10
-1.053795
 20
2.092224
  0
VERTEX
  8
PLAN_1
 62
     2
  6
CONTINUOUS
 10
-1.057618
 20
2.093500
  0
VERTEX
  8
PLAN_1
 62
     2
  6
CONTINUOUS
 10
-1.057618
 20
2.100724
  0
VERTEX
  8
PLAN_1
 62
     2
  6
CONTINUOUS
 10
-0.984524
 20
2.100724
  0
SEQEND
  8
0
  0
POLYLINE
  8
PLAN_1
 62
     2
  6
CONTINUOUS
 66
     1
 40
0.003000
 41
0.003000
  0
VERTEX
  8
PLAN_1
 62
     2
  6
CONTINUOUS
 10
-1.026173
 20
2.144496
  0
VERTEX
  8
PLAN_1
 62
     2
  6
CONTINUOUS
 10
-1.026173
 20
2.145346
  0
VERTEX
  8
PLAN_1
 62
     2
  6
CONTINUOUS
 10
-1.026173
 20
2.145772
  0
VERTEX
  8
PLAN_1
 62
     2
  6
CONTINUOUS
 10
-1.026173
 20
2.146197
  0
VERTEX
  8
PLAN_1
 62
     2
  6
CONTINUOUS
 10
-1.026173
 20
2.147047
  0
VERTEX
  8
PLAN_1
 62
     2
  6
CONTINUOUS
 10
-1.025748
 20
2.147472
  0
VERTEX
  8
PLAN_1
 62
     2
  6
CONTINUOUS
 10
-1.025748
 20
2.148323
  0
VERTEX
  8
PLAN_1
 62
     2
  6
CONTINUOUS
 10
-1.025748
 20
2.148744
  0
VERTEX
  8
PLAN_1
 62
     2
  6
CONTINUOUS
 10
-1.025748
 20
2.149169
  0
VERTEX
  8
PLAN_1
 62
     2
  6
CONTINUOUS
 10
-1.026173
 20
2.152146
  0
VERTEX
  8
PLAN_1
 62
     2
  6
CONTINUOUS
 10
-1.026594
 20
2.154697
  0
VERTEX
  8
PLAN_1
 62
     2
  6
CONTINUOUS
 10
-1.027445
 20
2.156819
  0
VERTEX
  8
PLAN_1
 62
     2
  6
CONTINUOUS
 10
-1.028295
 20
2.158945
  0
VERTEX
  8
PLAN_1
 62
     2
  6
CONTINUOUS
 10
-1.029996
 20
2.160646
  0
VERTEX
  8
PLAN_1
 62
     2
  6
CONTINUOUS
 10
-1.032122
 20
2.161921
  0
VERTEX
  8
PLAN_1
 62
     2
  6
CONTINUOUS
 10
-1.034669
 20
2.162772
  0
VERTEX
  8
PLAN_1
 62
     2
  6
CONTINUOUS
 10
-1.038071
 20
2.163193
  0
VERTEX
  8
PLAN_1
 62
     2
  6
CONTINUOUS
 10
-1.039772
 20
2.163193
  0
VERTEX
  8
PLAN_1
 62
     2
  6
CONTINUOUS
 10
-1.041469
 20
2.162772
  0
VERTEX
  8
PLAN_1
 62
     2
  6
CONTINUOUS
 10
-1.043594
 20
2.161921
  0
VERTEX
  8
PLAN_1
 62
     2
  6
CONTINUOUS
 10
-1.045295
 20
2.160646
  0
VERTEX
  8
PLAN_1
 62
     2
  6
CONTINUOUS
 10
-1.046996
 20
2.158945
  0
VERTEX
  8
PLAN_1
 62
     2
  6
CONTINUOUS
 10
-1.048268
 20
2.156394
  0
VERTEX
  8
PLAN_1
 62
     2
  6
CONTINUOUS
 10
-1.049118
 20
2.153421
  0
VERTEX
  8
PLAN_1
 62
     2
  6
CONTINUOUS
 10
-1.049543
 20
2.149594
  0
VERTEX
  8
PLAN_1
 62
     2
  6
CONTINUOUS
 10
-1.049118
 20
2.147472
  0
VERTEX
  8
PLAN_1
 62
     2
  6
CONTINUOUS
 10
-1.049118
 20
2.145346
  0
VERTEX
  8
PLAN_1
 62
     2
  6
CONTINUOUS
 10
-1.048268
 20
2.143646
  0
VERTEX
  8
PLAN_1
 62
     2
  6
CONTINUOUS
 10
-1.047846
 20
2.141945
  0
VERTEX
  8
PLAN_1
 62
     2
  6
CONTINUOUS
 10
-1.045720
 20
2.139823
  0
VERTEX
  8
PLAN_1
 62
     2
  6
CONTINUOUS
 10
-1.043594
 20
2.137697
  0
VERTEX
  8
PLAN_1
 62
     2
  6
CONTINUOUS
 10
-1.041043
 20
2.136846
  0
VERTEX
  8
PLAN_1
 62
     2
  6
CONTINUOUS
 10
-1.038496
 20
2.135996
  0
VERTEX
  8
PLAN_1
 62
     2
  6
CONTINUOUS
 10
-1.035945
 20
2.135571
  0
VERTEX
  8
PLAN_1
 62
     2
  6
CONTINUOUS
 10
-1.033819
 20
2.135571
  0
VERTEX
  8
PLAN_1
 62
     2
  6
CONTINUOUS
 10
-1.033819
 20
2.126650
  0
VERTEX
  8
PLAN_1
 62
     2
  6
CONTINUOUS
 10
-1.037646
 20
2.126650
  0
VERTEX
  8
PLAN_1
 62
     2
  6
CONTINUOUS
 10
-1.041894
 20
2.127496
  0
VERTEX
  8
PLAN_1
 62
     2
  6
CONTINUOUS
 10
-1.046146
 20
2.128772
  0
VERTEX
  8
PLAN_1
 62
     2
  6
CONTINUOUS
 10
-1.049543
 20
2.131323
  0
VERTEX
  8
PLAN_1
 62
     2
  6
CONTINUOUS
 10
-1.051244
 20
2.132598
  0
VERTEX
  8
PLAN_1
 62
     2
  6
CONTINUOUS
 10
-1.052945
 20
2.134295
  0
VERTEX
  8
PLAN_1
 62
     2
  6
CONTINUOUS
 10
-1.054220
 20
2.135996
  0
VERTEX
  8
PLAN_1
 62
     2
  6
CONTINUOUS
 10
-1.055496
 20
2.138547
  0
VERTEX
  8
PLAN_1
 62
     2
  6
CONTINUOUS
 10
-1.056343
 20
2.140673
  0
VERTEX
  8
PLAN_1
 62
     2
  6
CONTINUOUS
 10
-1.057193
 20
2.143646
  0
VERTEX
  8
PLAN_1
 62
     2
  6
CONTINUOUS
 10
-1.057618
 20
2.146622
  0
VERTEX
  8
PLAN_1
 62
     2
  6
CONTINUOUS
 10
-1.057618
 20
2.150020
  0
VERTEX
  8
PLAN_1
 62
     2
  6
CONTINUOUS
 10
-1.057193
 20
2.155122
  0
VERTEX
  8
PLAN_1
 62
     2
  6
CONTINUOUS
 10
-1.056343
 20
2.159795
  0
VERTEX
  8
PLAN_1
 62
     2
  6
CONTINUOUS
 10
-1.054646
 20
2.163618
  0
VERTEX
  8
PLAN_1
 62
     2
  6
CONTINUOUS
 10
-1.052094
 20
2.166594
  0
VERTEX
  8
PLAN_1
 62
     2
  6
CONTINUOUS
 10
-1.049543
 20
2.169146
  0
VERTEX
  8
PLAN_1
 62
     2
  6
CONTINUOUS
 10
-1.046146
 20
2.171268
  0
VERTEX
  8
PLAN_1
 62
     2
  6
CONTINUOUS
 10
-1.042319
 20
2.172543
  0
VERTEX
  8
PLAN_1
 62
     2
  6
CONTINUOUS
 10
-1.038496
 20
2.172543
  0
VERTEX
  8
PLAN_1
 62
     2
  6
CONTINUOUS
 10
-1.035094
 20
2.172543
  0
VERTEX
  8
PLAN_1
 62
     2
  6
CONTINUOUS
 10
-1.032122
 20
2.171693
  0
VERTEX
  8
PLAN_1
 62
     2
  6
CONTINUOUS
 10
-1.029996
 20
2.170843
  0
VERTEX
  8
PLAN_1
 62
     2
  6
CONTINUOUS
 10
-1.027870
 20
2.169571
  0
VERTEX
  8
PLAN_1
 62
     2
  6
CONTINUOUS
 10
-1.026173
 20
2.167870
  0
VERTEX
  8
PLAN_1
 62
     2
  6
CONTINUOUS
 10
-1.024898
 20
2.166594
  0
VERTEX
  8
PLAN_1
 62
     2
  6
CONTINUOUS
 10
-1.024047
 20
2.164894
  0
VERTEX
  8
PLAN_1
 62
     2
  6
CONTINUOUS
 10
-1.023197
 20
2.163193
  0
VERTEX
  8
PLAN_1
 62
     2
  6
CONTINUOUS
 10
-1.021921
 20
2.165744
  0
VERTEX
  8
PLAN_1
 62
     2
  6
CONTINUOUS
 10
-1.020646
 20
2.168295
  0
VERTEX
  8
PLAN_1
 62
     2
  6
CONTINUOUS
 10
-1.019370
 20
2.170421
  0
VERTEX
  8
PLAN_1
 62
     2
  6
CONTINUOUS
 10
-1.017248
 20
2.172118
  0
VERTEX
  8
PLAN_1
 62
     2
  6
CONTINUOUS
 10
-1.015122
 20
2.173394
  0
VERTEX
  8
PLAN_1
 62
     2
  6
CONTINUOUS
 10
-1.012571
 20
2.174669
  0
VERTEX
  8
PLAN_1
 62
     2
  6
CONTINUOUS
 10
-1.009598
 20
2.175520
  0
VERTEX
  8
PLAN_1
 62
     2
  6
CONTINUOUS
 10
-1.006197
 20
2.175520
  0
VERTEX
  8
PLAN_1
 62
     2
  6
CONTINUOUS
 10
-1.001524
 20
2.175094
  0
VERTEX
  8
PLAN_1
 62
     2
  6
CONTINUOUS
 10
-0.997272
 20
2.174244
  0
VERTEX
  8
PLAN_1
 62
     2
  6
CONTINUOUS
 10
-0.995150
 20
2.173394
  0
VERTEX
  8
PLAN_1
 62
     2
  6
CONTINUOUS
 10
-0.993449
 20
2.172118
  0
VERTEX
  8
PLAN_1
 62
     2
  6
CONTINUOUS
 10
-0.991323
 20
2.170843
  0
VERTEX
  8
PLAN_1
 62
     2
  6
CONTINUOUS
 10
-0.989626
 20
2.169571
  0
VERTEX
  8
PLAN_1
 62
     2
  6
CONTINUOUS
 10
-0.988350
 20
2.167870
  0
VERTEX
  8
PLAN_1
 62
     2
  6
CONTINUOUS
 10
-0.986650
 20
2.165744
  0
VERTEX
  8
PLAN_1
 62
     2
  6
CONTINUOUS
 10
-0.985374
 20
2.163618
  0
VERTEX
  8
PLAN_1
 62
     2
  6
CONTINUOUS
 10
-0.984524
 20
2.161071
  0
VERTEX
  8
PLAN_1
 62
     2
  6
CONTINUOUS
 10
-0.983673
 20
2.158520
  0
VERTEX
  8
PLAN_1
 62
     2
  6
CONTINUOUS
 10
-0.983248
 20
2.155547
  0
VERTEX
  8
PLAN_1
 62
     2
  6
CONTINUOUS
 10
-0.982823
 20
2.152571
  0
VERTEX
  8
PLAN_1
 62
     2
  6
CONTINUOUS
 10
-0.982402
 20
2.149169
  0
VERTEX
  8
PLAN_1
 62
     2
  6
CONTINUOUS
 10
-0.982402
 20
2.147047
  0
VERTEX
  8
PLAN_1
 62
     2
  6
CONTINUOUS
 10
-0.982823
 20
2.145346
  0
VERTEX
  8
PLAN_1
 62
     2
  6
CONTINUOUS
 10
-0.983248
 20
2.143646
  0
VERTEX
  8
PLAN_1
 62
     2
  6
CONTINUOUS
 10
-0.983248
 20
2.141945
  0
VERTEX
  8
PLAN_1
 62
     2
  6
CONTINUOUS
 10
-0.984098
 20
2.140248
  0
VERTEX
  8
PLAN_1
 62
     2
  6
CONTINUOUS
 10
-0.984524
 20
2.138547
  0
VERTEX
  8
PLAN_1
 62
     2
  6
CONTINUOUS
 10
-0.984949
 20
2.137272
  0
VERTEX
  8
PLAN_1
 62
     2
  6
CONTINUOUS
 10
-0.985799
 20
2.135571
  0
VERTEX
  8
PLAN_1
 62
     2
  6
CONTINUOUS
 10
-0.987500
 20
2.133024
  0
VERTEX
  8
PLAN_1
 62
     2
  6
CONTINUOUS
 10
-0.989626
 20
2.130472
  0
VERTEX
  8
PLAN_1
 62
     2
  6
CONTINUOUS
 10
-0.992173
 20
2.128772
  0
VERTEX
  8
PLAN_1
 62
     2
  6
CONTINUOUS
 10
-0.994724
 20
2.127496
  0
VERTEX
  8
PLAN_1
 62
     2
  6
CONTINUOUS
 10
-0.997697
 20
2.126224
  0
VERTEX
  8
PLAN_1
 62
     2
  6
CONTINUOUS
 10
-1.000673
 20
2.125799
  0
VERTEX
  8
PLAN_1
 62
     2
  6
CONTINUOUS
 10
-1.003650
 20
2.124949
  0
VERTEX
  8
PLAN_1
 62
     2
  6
CONTINUOUS
 10
-1.007047
 20
2.124949
  0
VERTEX
  8
PLAN_1
 62
     2
  6
CONTINUOUS
 10
-1.007047
 20
2.134295
  0
VERTEX
  8
PLAN_1
 62
     2
  6
CONTINUOUS
 10
-1.004075
 20
2.134295
  0
VERTEX
  8
PLAN_1
 62
     2
  6
CONTINUOUS
 10
-1.001524
 20
2.134720
  0
VERTEX
  8
PLAN_1
 62
     2
  6
CONTINUOUS
 10
-0.998547
 20
2.135571
  0
VERTEX
  8
PLAN_1
 62
     2
  6
CONTINUOUS
 10
-0.996425
 20
2.137272
  0
VERTEX
  8
PLAN_1
 62
     2
  6
CONTINUOUS
 10
-0.993874
 20
2.138972
  0
VERTEX
  8
PLAN_1
 62
     2
  6
CONTINUOUS
 10
-0.992173
 20
2.141520
  0
VERTEX
  8
PLAN_1
 62
     2
  6
CONTINUOUS
 10
-0.991748
 20
2.143220
  0
VERTEX
  8
PLAN_1
 62
     2
  6
CONTINUOUS
 10
-0.991323
 20
2.145346
  0
VERTEX
  8
PLAN_1
 62
     2
  6
CONTINUOUS
 10
-0.990898
 20
2.147472
  0
VERTEX
  8
PLAN_1
 62
     2
  6
CONTINUOUS
 10
-0.990898
 20
2.150020
  0
VERTEX
  8
PLAN_1
 62
     2
  6
CONTINUOUS
 10
-0.990898
 20
2.153421
  0
VERTEX
  8
PLAN_1
 62
     2
  6
CONTINUOUS
 10
-0.991748
 20
2.156394
  0
VERTEX
  8
PLAN_1
 62
     2
  6
CONTINUOUS
 10
-0.993024
 20
2.158945
  0
VERTEX
  8
PLAN_1
 62
     2
  6
CONTINUOUS
 10
-0.994724
 20
2.161496
  0
VERTEX
  8
PLAN_1
 62
     2
  6
CONTINUOUS
 10
-0.996850
 20
2.163193
  0
VERTEX
  8
PLAN_1
 62
     2
  6
CONTINUOUS
 10
-0.998972
 20
2.164469
  0
VERTEX
  8
PLAN_1
 62
     2
  6
CONTINUOUS
 10
-1.001949
 20
2.165319
  0
VERTEX
  8
PLAN_1
 62
     2
  6
CONTINUOUS
 10
-1.004921
 20
2.165744
  0
VERTEX
  8
PLAN_1
 62
     2
  6
CONTINUOUS
 10
-1.007047
 20
2.165744
  0
VERTEX
  8
PLAN_1
 62
     2
  6
CONTINUOUS
 10
-1.009173
 20
2.165319
  0
VERTEX
  8
PLAN_1
 62
     2
  6
CONTINUOUS
 10
-1.010874
 20
2.164894
  0
VERTEX
  8
PLAN_1
 62
     2
  6
CONTINUOUS
 10
-1.012146
 20
2.164043
  0
VERTEX
  8
PLAN_1
 62
     2
  6
CONTINUOUS
 10
-1.014697
 20
2.161921
  0
VERTEX
  8
PLAN_1
 62
     2
  6
CONTINUOUS
 10
-1.016398
 20
2.159370
  0
VERTEX
  8
PLAN_1
 62
     2
  6
CONTINUOUS
 10
-1.017248
 20
2.156819
  0
VERTEX
  8
PLAN_1
 62
     2
  6
CONTINUOUS
 10
-1.018098
 20
2.153846
  0
VERTEX
  8
PLAN_1
 62
     2
  6
CONTINUOUS
 10
-1.018098
 20
2.151295
  0
VERTEX
  8
PLAN_1
 62
     2
  6
CONTINUOUS
 10
-1.018098
 20
2.148744
  0
VERTEX
  8
PLAN_1
 62
     2
  6
CONTINUOUS
 10
-1.018098
 20
2.148323
  0
VERTEX
  8
PLAN_1
 62
     2
  6
CONTINUOUS
 10
-1.018098
 20
2.147472
  0
VERTEX
  8
PLAN_1
 62
     2
  6
CONTINUOUS
 10
-1.018098
 20
2.147047
  0
VERTEX
  8
PLAN_1
 62
     2
  6
CONTINUOUS
 10
-1.018098
 20
2.146622
  0
VERTEX
  8
PLAN_1
 62
     2
  6
CONTINUOUS
 10
-1.018098
 20
2.146197
  0
VERTEX
  8
PLAN_1
 62
     2
  6
CONTINUOUS
 10
-1.018098
 20
2.145772
  0
VERTEX
  8
PLAN_1
 62
     2
  6
CONTINUOUS
 10
-1.018098
 20
2.144921
  0
VERTEX
  8
PLAN_1
 62
     2
  6
CONTINUOUS
 10
-1.018098
 20
2.144496
  0
VERTEX
  8
PLAN_1
 62
     2
  6
CONTINUOUS
 10
-1.026173
 20
2.144496
  0
SEQEND
  8
0
  0
POLYLINE
  8
PLAN_1
 62
     2
  6
CONTINUOUS
 66
     1
 40
0.003000
 41
0.003000
  0
VERTEX
  8
PLAN_1
 62
     2
  6
CONTINUOUS
 10
-1.055917
 20
2.183169
  0
VERTEX
  8
PLAN_1
 62
     2
  6
CONTINUOUS
 10
-1.055917
 20
2.233740
  0
VERTEX
  8
PLAN_1
 62
     2
  6
CONTINUOUS
 10
-1.047846
 20
2.233740
  0
VERTEX
  8
PLAN_1
 62
     2
  6
CONTINUOUS
 10
-1.044445
 20
2.230339
  0
VERTEX
  8
PLAN_1
 62
     2
  6
CONTINUOUS
 10
-1.039346
 20
2.226516
  0
VERTEX
  8
PLAN_1
 62
     2
  6
CONTINUOUS
 10
-1.033398
 20
2.222264
  0
VERTEX
  8
PLAN_1
 62
     2
  6
CONTINUOUS
 10
-1.025748
 20
2.217591
  0
VERTEX
  8
PLAN_1
 62
     2
  6
CONTINUOUS
 10
-1.016823
 20
2.213343
  0
VERTEX
  8
PLAN_1
 62
     2
  6
CONTINUOUS
 10
-1.007047
 20
2.209516
  0
VERTEX
  8
PLAN_1
 62
     2
  6
CONTINUOUS
 10
-1.001949
 20
2.207390
  0
VERTEX
  8
PLAN_1
 62
     2
  6
CONTINUOUS
 10
-0.996425
 20
2.206118
  0
VERTEX
  8
PLAN_1
 62
     2
  6
CONTINUOUS
 10
-0.990472
 20
2.204417
  0
VERTEX
  8
PLAN_1
 62
     2
  6
CONTINUOUS
 10
-0.984524
 20
2.203567
  0
VERTEX
  8
PLAN_1
 62
     2
  6
CONTINUOUS
 10
-0.984524
 20
2.193366
  0
VERTEX
  8
PLAN_1
 62
     2
  6
CONTINUOUS
 10
-0.992173
 20
2.194642
  0
VERTEX
  8
PLAN_1
 62
     2
  6
CONTINUOUS
 10
-1.000248
 20
2.197193
  0
VERTEX
  8
PLAN_1
 62
     2
  6
CONTINUOUS
 10
-1.008748
 20
2.200165
  0
VERTEX
  8
PLAN_1
 62
     2
  6
CONTINUOUS
 10
-1.017248
 20
2.203992
  0
VERTEX
  8
PLAN_1
 62
     2
  6
CONTINUOUS
 10
-1.025323
 20
2.208240
  0
VERTEX
  8
PLAN_1
 62
     2
  6
CONTINUOUS
 10
-1.033398
 20
2.212917
  0
VERTEX
  8
PLAN_1
 62
     2
  6
CONTINUOUS
 10
-1.040622
 20
2.218016
  0
VERTEX
  8
PLAN_1
 62
     2
  6
CONTINUOUS
 10
-1.046996
 20
2.223114
  0
VERTEX
  8
PLAN_1
 62
     2
  6
CONTINUOUS
 10
-1.046996
 20
2.183169
  0
VERTEX
  8
PLAN_1
 62
     2
  6
CONTINUOUS
 10
-1.055917
 20
2.183169
  0
SEQEND
  8
0
  0
POLYLINE
  8
PLAN_1
 62
     2
  6
CONTINUOUS
 66
     1
 40
0.003000
 41
0.003000
  0
VERTEX
  8
PLAN_1
 62
     2
  6
CONTINUOUS
 10
-1.038921
 20
2.272835
  0
VERTEX
  8
PLAN_1
 62
     2
  6
CONTINUOUS
 10
-1.038921
 20
2.281335
  0
VERTEX
  8
PLAN_1
 62
     2
  6
CONTINUOUS
 10
-1.031272
 20
2.281335
  0
VERTEX
  8
PLAN_1
 62
     2
  6
CONTINUOUS
 10
-1.031272
 20
2.281760
  0
VERTEX
  8
PLAN_1
 62
     2
  6
CONTINUOUS
 10
-1.032547
 20
2.282610
  0
VERTEX
  8
PLAN_1
 62
     2
  6
CONTINUOUS
 10
-1.033819
 20
2.283461
  0
VERTEX
  8
PLAN_1
 62
     2
  6
CONTINUOUS
 10
-1.035520
 20
2.285161
  0
VERTEX
  8
PLAN_1
 62
     2
  6
CONTINUOUS
 10
-1.036795
 20
2.286862
  0
VERTEX
  8
PLAN_1
 62
     2
  6
CONTINUOUS
 10
-1.038496
 20
2.288984
  0
VERTEX
  8
PLAN_1
 62
     2
  6
CONTINUOUS
 10
-1.039346
 20
2.291535
  0
VERTEX
  8
PLAN_1
 62
     2
  6
CONTINUOUS
 10
-1.040197
 20
2.294508
  0
VERTEX
  8
PLAN_1
 62
     2
  6
CONTINUOUS
 10
-1.040622
 20
2.297909
  0
VERTEX
  8
PLAN_1
 62
     2
  6
CONTINUOUS
 10
-1.040197
 20
2.301311
  0
VERTEX
  8
PLAN_1
 62
     2
  6
CONTINUOUS
 10
-1.039346
 20
2.304283
  0
VERTEX
  8
PLAN_1
 62
     2
  6
CONTINUOUS
 10
-1.038496
 20
2.306409
  0
VERTEX
  8
PLAN_1
 62
     2
  6
CONTINUOUS
 10
-1.037220
 20
2.308110
  0
VERTEX
  8
PLAN_1
 62
     2
  6
CONTINUOUS
 10
-1.035520
 20
2.309807
  0
VERTEX
  8
PLAN_1
 62
     2
  6
CONTINUOUS
 10
-1.034244
 20
2.311083
  0
VERTEX
  8
PLAN_1
 62
     2
  6
CONTINUOUS
 10
-1.032972
 20
2.311933
  0
VERTEX
  8
PLAN_1
 62
     2
  6
CONTINUOUS
 10
-1.031697
 20
2.312358
  0
VERTEX
  8
PLAN_1
 62
     2
  6
CONTINUOUS
 10
-1.033398
 20
2.314059
  0
VERTEX
  8
PLAN_1
 62
     2
  6
CONTINUOUS
 10
-1.035094
 20
2.315760
  0
VERTEX
  8
PLAN_1
 62
     2
  6
CONTINUOUS
 10
-1.036795
 20
2.317457
  0
VERTEX
  8
PLAN_1
 62
     2
  6
CONTINUOUS
 10
-1.038071
 20
2.319157
  0
VERTEX
  8
PLAN_1
 62
     2
  6
CONTINUOUS
 10
-1.038921
 20
2.321283
  0
VERTEX
  8
PLAN_1
 62
     2
  6
CONTINUOUS
 10
-1.039772
 20
2.323409
  0
VERTEX
  8
PLAN_1
 62
     2
  6
CONTINUOUS
 10
-1.040197
 20
2.325957
  0
VERTEX
  8
PLAN_1
 62
     2
  6
CONTINUOUS
 10
-1.040622
 20
2.328933
  0
VERTEX
  8
PLAN_1
 62
     2
  6
CONTINUOUS
 10
-1.040197
 20
2.331480
  0
VERTEX
  8
PLAN_1
 62
     2
  6
CONTINUOUS
 10
-1.039772
 20
2.334031
  0
VERTEX
  8
PLAN_1
 62
     2
  6
CONTINUOUS
 10
-1.038496
 20
2.337008
  0
VERTEX
  8
PLAN_1
 62
     2
  6
CONTINUOUS
 10
-1.037220
 20
2.339555
  0
VERTEX
  8
PLAN_1
 62
     2
  6
CONTINUOUS
 10
-1.035945
 20
2.340831
  0
VERTEX
  8
PLAN_1
 62
     2
  6
CONTINUOUS
 10
-1.034669
 20
2.342106
  0
VERTEX
  8
PLAN_1
 62
     2
  6
CONTINUOUS
 10
-1.032972
 20
2.343382
  0
VERTEX
  8
PLAN_1
 62
     2
  6
CONTINUOUS
 10
-1.031272
 20
2.344232
  0
VERTEX
  8
PLAN_1
 62
     2
  6
CONTINUOUS
 10
-1.029571
 20
2.345083
  0
VERTEX
  8
PLAN_1
 62
     2
  6
CONTINUOUS
 10
-1.027445
 20
2.345504
  0
VERTEX
  8
PLAN_1
 62
     2
  6
CONTINUOUS
 10
-1.024898
 20
2.345929
  0
VERTEX
  8
PLAN_1
 62
     2
  6
CONTINUOUS
 10
-1.022346
 20
2.345929
  0
VERTEX
  8
PLAN_1
 62
     2
  6
CONTINUOUS
 10
-0.984524
 20
2.345929
  0
VERTEX
  8
PLAN_1
 62
     2
  6
CONTINUOUS
 10
-0.984524
 20
2.336583
  0
VERTEX
  8
PLAN_1
 62
     2
  6
CONTINUOUS
 10
-1.019795
 20
2.336583
  0
VERTEX
  8
PLAN_1
 62
     2
  6
CONTINUOUS
 10
-1.022346
 20
2.336583
  0
VERTEX
  8
PLAN_1
 62
     2
  6
CONTINUOUS
 10
-1.024898
 20
2.336157
  0
VERTEX
  8
PLAN_1
 62
     2
  6
CONTINUOUS
 10
-1.027020
 20
2.335732
  0
VERTEX
  8
PLAN_1
 62
     2
  6
CONTINUOUS
 10
-1.028720
 20
2.334882
  0
VERTEX
  8
PLAN_1
 62
     2
  6
CONTINUOUS
 10
-1.030421
 20
2.333181
  0
VERTEX
  8
PLAN_1
 62
     2
  6
CONTINUOUS
 10
-1.031272
 20
2.331480
  0
VERTEX
  8
PLAN_1
 62
     2
  6
CONTINUOUS
 10
-1.032122
 20
2.329358
  0
VERTEX
  8
PLAN_1
 62
     2
  6
CONTINUOUS
 10
-1.032122
 20
2.326807
  0
VERTEX
  8
PLAN_1
 62
     2
  6
CONTINUOUS
 10
-1.032122
 20
2.323831
  0
VERTEX
  8
PLAN_1
 62
     2
  6
CONTINUOUS
 10
-1.030846
 20
2.321283
  0
VERTEX
  8
PLAN_1
 62
     2
  6
CONTINUOUS
 10
-1.029571
 20
2.319157
  0
VERTEX
  8
PLAN_1
 62
     2
  6
CONTINUOUS
 10
-1.027870
 20
2.317457
  0
VERTEX
  8
PLAN_1
 62
     2
  6
CONTINUOUS
 10
-1.025323
 20
2.315760
  0
VERTEX
  8
PLAN_1
 62
     2
  6
CONTINUOUS
 10
-1.023197
 20
2.314909
  0
VERTEX
  8
PLAN_1
 62
     2
  6
CONTINUOUS
 10
-1.020220
 20
2.314059
  0
VERTEX
  8
PLAN_1
 62
     2
  6
CONTINUOUS
 10
-1.017673
 20
2.314059
  0
VERTEX
  8
PLAN_1
 62
     2
  6
CONTINUOUS
 10
-0.984524
 20
2.314059
  0
VERTEX
  8
PLAN_1
 62
     2
  6
CONTINUOUS
 10
-0.984524
 20
2.304709
  0
VERTEX
  8
PLAN_1
 62
     2
  6
CONTINUOUS
 10
-1.022346
 20
2.304709
  0
VERTEX
  8
PLAN_1
 62
     2
  6
CONTINUOUS
 10
-1.024047
 20
2.304709
  0
VERTEX
  8
PLAN_1
 62
     2
  6
CONTINUOUS
 10
-1.025748
 20
2.304283
  0
VERTEX
  8
PLAN_1
 62
     2
  6
CONTINUOUS
 10
-1.027445
 20
2.303858
  0
VERTEX
  8
PLAN_1
 62
     2
  6
CONTINUOUS
 10
-1.028720
 20
2.303008
  0
VERTEX
  8
PLAN_1
 62
     2
  6
CONTINUOUS
 10
-1.030421
 20
2.301732
  0
VERTEX
  8
PLAN_1
 62
     2
  6
CONTINUOUS
 10
-1.031272
 20
2.300461
  0
VERTEX
  8
PLAN_1
 62
     2
  6
CONTINUOUS
 10
-1.032122
 20
2.298335
  0
VERTEX
  8
PLAN_1
 62
     2
  6
CONTINUOUS
 10
-1.032122
 20
2.296209
  0
VERTEX
  8
PLAN_1
 62
     2
  6
CONTINUOUS
 10
-1.032122
 20
2.294087
  0
VERTEX
  8
PLAN_1
 62
     2
  6
CONTINUOUS
 10
-1.031697
 20
2.291961
  0
VERTEX
  8
PLAN_1
 62
     2
  6
CONTINUOUS
 10
-1.030421
 20
2.289409
  0
VERTEX
  8
PLAN_1
 62
     2
  6
CONTINUOUS
 10
-1.028720
 20
2.287283
  0
VERTEX
  8
PLAN_1
 62
     2
  6
CONTINUOUS
 10
-1.026173
 20
2.285161
  0
VERTEX
  8
PLAN_1
 62
     2
  6
CONTINUOUS
 10
-1.023197
 20
2.283461
  0
VERTEX
  8
PLAN_1
 62
     2
  6
CONTINUOUS
 10
-1.021496
 20
2.282610
  0
VERTEX
  8
PLAN_1
 62
     2
  6
CONTINUOUS
 10
-1.019370
 20
2.282185
  0
VERTEX
  8
PLAN_1
 62
     2
  6
CONTINUOUS
 10
-1.016823
 20
2.282185
  0
VERTEX
  8
PLAN_1
 62
     2
  6
CONTINUOUS
 10
-1.014272
 20
2.281760
  0
VERTEX
  8
PLAN_1
 62
     2
  6
CONTINUOUS
 10
-0.984524
 20
2.281760
  0
VERTEX
  8
PLAN_1
 62
     2
  6
CONTINUOUS
 10
-0.984524
 20
2.272835
  0
VERTEX
  8
PLAN_1
 62
     2
  6
CONTINUOUS
 10
-1.038921
 20
2.272835
  0
SEQEND
  8
0
  0
POLYLINE
  8
PLAN_1
 62
     2
  6
CONTINUOUS
 66
     1
 40
0.003000
 41
0.003000
  0
VERTEX
  8
PLAN_1
 62
     2
  6
CONTINUOUS
 10
-1.022346
 20
2.359106
  0
VERTEX
  8
PLAN_1
 62
     2
  6
CONTINUOUS
 10
-1.024898
 20
2.359106
  0
VERTEX
  8
PLAN_1
 62
     2
  6
CONTINUOUS
 10
-1.027020
 20
2.359531
  0
VERTEX
  8
PLAN_1
 62
     2
  6
CONTINUOUS
 10
-1.028720
 20
2.360378
  0
VERTEX
  8
PLAN_1
 62
     2
  6
CONTINUOUS
 10
-1.030846
 20
2.360803
  0
VERTEX
  8
PLAN_1
 62
     2
  6
CONTINUOUS
 10
-1.032122
 20
2.361654
  0
VERTEX
  8
PLAN_1
 62
     2
  6
CONTINUOUS
 10
-1.033819
 20
2.362929
  0
VERTEX
  8
PLAN_1
 62
     2
  6
CONTINUOUS
 10
-1.035094
 20
2.364205
  0
VERTEX
  8
PLAN_1
 62
     2
  6
CONTINUOUS
 10
-1.036370
 20
2.365480
  0
VERTEX
  8
PLAN_1
 62
     2
  6
CONTINUOUS
 10
-1.038071
 20
2.368878
  0
VERTEX
  8
PLAN_1
 62
     2
  6
CONTINUOUS
 10
-1.039346
 20
2.372280
  0
VERTEX
  8
PLAN_1
 62
     2
  6
CONTINUOUS
 10
-1.040197
 20
2.376953
  0
VERTEX
  8
PLAN_1
 62
     2
  6
CONTINUOUS
 10
-1.040622
 20
2.381630
  0
VERTEX
  8
PLAN_1
 62
     2
  6
CONTINUOUS
 10
-1.040197
 20
2.383752
  0
VERTEX
  8
PLAN_1
 62
     2
  6
CONTINUOUS
 10
-1.040197
 20
2.386728
  0
VERTEX
  8
PLAN_1
 62
     2
  6
CONTINUOUS
 10
-1.039346
 20
2.389701
  0
VERTEX
  8
PLAN_1
 62
     2
  6
CONTINUOUS
 10
-1.038071
 20
2.393528
  0
VERTEX
  8
PLAN_1
 62
     2
  6
CONTINUOUS
 10
-1.037220
 20
2.394803
  0
VERTEX
  8
PLAN_1
 62
     2
  6
CONTINUOUS
 10
-1.036370
 20
2.396500
  0
VERTEX
  8
PLAN_1
 62
     2
  6
CONTINUOUS
 10
-1.035094
 20
2.397776
  0
VERTEX
  8
PLAN_1
 62
     2
  6
CONTINUOUS
 10
-1.033398
 20
2.399051
  0
VERTEX
  8
PLAN_1
 62
     2
  6
CONTINUOUS
 10
-1.031697
 20
2.400327
  0
VERTEX
  8
PLAN_1
 62
     2
  6
CONTINUOUS
 10
-1.029996
 20
2.401177
  0
VERTEX
  8
PLAN_1
 62
     2
  6
CONTINUOUS
 10
-1.027870
 20
2.401602
  0
VERTEX
  8
PLAN_1
 62
     2
  6
CONTINUOUS
 10
-1.025323
 20
2.401602
  0
VERTEX
  8
PLAN_1
 62
     2
  6
CONTINUOUS
 10
-0.993874
 20
2.401602
  0
VERTEX
  8
PLAN_1
 62
     2
  6
CONTINUOUS
 10
-0.993024
 20
2.402028
  0
VERTEX
  8
PLAN_1
 62
     2
  6
CONTINUOUS
 10
-0.992598
 20
2.402028
  0
VERTEX
  8
PLAN_1
 62
     2
  6
CONTINUOUS
 10
-0.991748
 20
2.402028
  0
VERTEX
  8
PLAN_1
 62
     2
  6
CONTINUOUS
 10
-0.991323
 20
2.402453
  0
VERTEX
  8
PLAN_1
 62
     2
  6
CONTINUOUS
 10
-0.991323
 20
2.402878
  0
VERTEX
  8
PLAN_1
 62
     2
  6
CONTINUOUS
 10
-0.990898
 20
2.403728
  0
VERTEX
  8
PLAN_1
 62
     2
  6
CONTINUOUS
 10
-0.990898
 20
2.404150
  0
VERTEX
  8
PLAN_1
 62
     2
  6
CONTINUOUS
 10
-0.990898
 20
2.404575
  0
VERTEX
  8
PLAN_1
 62
     2
  6
CONTINUOUS
 10
-0.990898
 20
2.405000
  0
VERTEX
  8
PLAN_1
 62
     2
  6
CONTINUOUS
 10
-0.990898
 20
2.405425
  0
VERTEX
  8
PLAN_1
 62
     2
  6
CONTINUOUS
 10
-0.990898
 20
2.405850
  0
VERTEX
  8
PLAN_1
 62
     2
  6
CONTINUOUS
 10
-0.990898
 20
2.406276
  0
VERTEX
  8
PLAN_1
 62
     2
  6
CONTINUOUS
 10
-0.990898
 20
2.406701
  0
VERTEX
  8
PLAN_1
 62
     2
  6
CONTINUOUS
 10
-0.990898
 20
2.407126
  0
VERTEX
  8
PLAN_1
 62
     2
  6
CONTINUOUS
 10
-0.990898
 20
2.407551
  0
VERTEX
  8
PLAN_1
 62
     2
  6
CONTINUOUS
 10
-0.991323
 20
2.407976
  0
VERTEX
  8
PLAN_1
 62
     2
  6
CONTINUOUS
 10
-0.984524
 20
2.407976
  0
VERTEX
  8
PLAN_1
 62
     2
  6
CONTINUOUS
 10
-0.984524
 20
2.407126
  0
VERTEX
  8
PLAN_1
 62
     2
  6
CONTINUOUS
 10
-0.984098
 20
2.406701
  0
VERTEX
  8
PLAN_1
 62
     2
  6
CONTINUOUS
 10
-0.984098
 20
2.406276
  0
VERTEX
  8
PLAN_1
 62
     2
  6
CONTINUOUS
 10
-0.983673
 20
2.405425
  0
VERTEX
  8
PLAN_1
 62
     2
  6
CONTINUOUS
 10
-0.983673
 20
2.405000
  0
VERTEX
  8
PLAN_1
 62
     2
  6
CONTINUOUS
 10
-0.983673
 20
2.404150
  0
VERTEX
  8
PLAN_1
 62
     2
  6
CONTINUOUS
 10
-0.983673
 20
2.403728
  0
VERTEX
  8
PLAN_1
 62
     2
  6
CONTINUOUS
 10
-0.983248
 20
2.402878
  0
VERTEX
  8
PLAN_1
 62
     2
  6
CONTINUOUS
 10
-0.983673
 20
2.399902
  0
VERTEX
  8
PLAN_1
 62
     2
  6
CONTINUOUS
 10
-0.984098
 20
2.397776
  0
VERTEX
  8
PLAN_1
 62
     2
  6
CONTINUOUS
 10
-0.984949
 20
2.396079
  0
VERTEX
  8
PLAN_1
 62
     2
  6
CONTINUOUS
 10
-0.986224
 20
2.395228
  0
VERTEX
  8
PLAN_1
 62
     2
  6
CONTINUOUS
 10
-0.987500
 20
2.394378
  0
VERTEX
  8
PLAN_1
 62
     2
  6
CONTINUOUS
 10
-0.988776
 20
2.393528
  0
VERTEX
  8
PLAN_1
 62
     2
  6
CONTINUOUS
 10
-0.990047
 20
2.393102
  0
VERTEX
  8
PLAN_1
 62
     2
  6
CONTINUOUS
 10
-0.991748
 20
2.393102
  0
VERTEX
  8
PLAN_1
 62
     2
  6
CONTINUOUS
 10
-0.990472
 20
2.391827
  0
VERTEX
  8
PLAN_1
 62
     2
  6
CONTINUOUS
 10
-0.988776
 20
2.390126
  0
VERTEX
  8
PLAN_1
 62
     2
  6
CONTINUOUS
 10
-0.987500
 20
2.388004
  0
VERTEX
  8
PLAN_1
 62
     2
  6
CONTINUOUS
 10
-0.985799
 20
2.385878
  0
VERTEX
  8
PLAN_1
 62
     2
  6
CONTINUOUS
 10
-0.984524
 20
2.383327
  0
VERTEX
  8
PLAN_1
 62
     2
  6
CONTINUOUS
 10
-0.983673
 20
2.380354
  0
VERTEX
  8
PLAN_1
 62
     2
  6
CONTINUOUS
 10
-0.983248
 20
2.377378
  0
VERTEX
  8
PLAN_1
 62
     2
  6
CONTINUOUS
 10
-0.982823
 20
2.373555
  0
VERTEX
  8
PLAN_1
 62
     2
  6
CONTINUOUS
 10
-0.983248
 20
2.369728
  0
VERTEX
  8
PLAN_1
 62
     2
  6
CONTINUOUS
 10
-0.984098
 20
2.366756
  0
VERTEX
  8
PLAN_1
 62
     2
  6
CONTINUOUS
 10
-0.985374
 20
2.363780
  0
VERTEX
  8
PLAN_1
 62
     2
  6
CONTINUOUS
 10
-0.987075
 20
2.361228
  0
VERTEX
  8
PLAN_1
 62
     2
  6
CONTINUOUS
 10
-0.989626
 20
2.359106
  0
VERTEX
  8
PLAN_1
 62
     2
  6
CONTINUOUS
 10
-0.992173
 20
2.357831
  0
VERTEX
  8
PLAN_1
 62
     2
  6
CONTINUOUS
 10
-0.995150
 20
2.356555
  0
VERTEX
  8
PLAN_1
 62
     2
  6
CONTINUOUS
 10
-0.998547
 20
2.356555
  0
VERTEX
  8
PLAN_1
 62
     2
  6
CONTINUOUS
 10
-1.000673
 20
2.356555
  0
VERTEX
  8
PLAN_1
 62
     2
  6
CONTINUOUS
 10
-1.002799
 20
2.356980
  0
VERTEX
  8
PLAN_1
 62
     2
  6
CONTINUOUS
 10
-1.005772
 20
2.357831
  0
VERTEX
  8
PLAN_1
 62
     2
  6
CONTINUOUS
 10
-1.008323
 20
2.359106
  0
VERTEX
  8
PLAN_1
 62
     2
  6
CONTINUOUS
 10
-1.010874
 20
2.361228
  0
VERTEX
  8
PLAN_1
 62
     2
  6
CONTINUOUS
 10
-1.012996
 20
2.363780
  0
VERTEX
  8
PLAN_1
 62
     2
  6
CONTINUOUS
 10
-1.013846
 20
2.365906
  0
VERTEX
  8
PLAN_1
 62
     2
  6
CONTINUOUS
 10
-1.014697
 20
2.368028
  0
VERTEX
  8
PLAN_1
 62
     2
  6
CONTINUOUS
 10
-1.015122
 20
2.370154
  0
VERTEX
  8
PLAN_1
 62
     2
  6
CONTINUOUS
 10
-1.015547
 20
2.373130
  0
VERTEX
  8
PLAN_1
 62
     2
  6
CONTINUOUS
 10
-1.017673
 20
2.388004
  0
VERTEX
  8
PLAN_1
 62
     2
  6
CONTINUOUS
 10
-1.017673
 20
2.388854
  0
VERTEX
  8
PLAN_1
 62
     2
  6
CONTINUOUS
 10
-1.018098
 20
2.389701
  0
VERTEX
  8
PLAN_1
 62
     2
  6
CONTINUOUS
 10
-1.018098
 20
2.390551
  0
VERTEX
  8
PLAN_1
 62
     2
  6
CONTINUOUS
 10
-1.018949
 20
2.391402
  0
VERTEX
  8
PLAN_1
 62
     2
  6
CONTINUOUS
 10
-1.019795
 20
2.391827
  0
VERTEX
  8
PLAN_1
 62
     2
  6
CONTINUOUS
 10
-1.020646
 20
2.392252
  0
VERTEX
  8
PLAN_1
 62
     2
  6
CONTINUOUS
 10
-1.022346
 20
2.392677
  0
VERTEX
  8
PLAN_1
 62
     2
  6
CONTINUOUS
 10
-1.024047
 20
2.392677
  0
VERTEX
  8
PLAN_1
 62
     2
  6
CONTINUOUS
 10
-1.026173
 20
2.392677
  0
VERTEX
  8
PLAN_1
 62
     2
  6
CONTINUOUS
 10
-1.027870
 20
2.391827
  0
VERTEX
  8
PLAN_1
 62
     2
  6
CONTINUOUS
 10
-1.029146
 20
2.390976
  0
VERTEX
  8
PLAN_1
 62
     2
  6
CONTINUOUS
 10
-1.030421
 20
2.389701
  0
VERTEX
  8
PLAN_1
 62
     2
  6
CONTINUOUS
 10
-1.031697
 20
2.388004
  0
VERTEX
  8
PLAN_1
 62
     2
  6
CONTINUOUS
 10
-1.032122
 20
2.385878
  0
VERTEX
  8
PLAN_1
 62
     2
  6
CONTINUOUS
 10
-1.032547
 20
2.382902
  0
VERTEX
  8
PLAN_1
 62
     2
  6
CONTINUOUS
 10
-1.032972
 20
2.379929
  0
VERTEX
  8
PLAN_1
 62
     2
  6
CONTINUOUS
 10
-1.032547
 20
2.376528
  0
VERTEX
  8
PLAN_1
 62
     2
  6
CONTINUOUS
 10
-1.031697
 20
2.373980
  0
VERTEX
  8
PLAN_1
 62
     2
  6
CONTINUOUS
 10
-1.030846
 20
2.371854
  0
VERTEX
  8
PLAN_1
 62
     2
  6
CONTINUOUS
 10
-1.029146
 20
2.370154
  0
VERTEX
  8
PLAN_1
 62
     2
  6
CONTINUOUS
 10
-1.027445
 20
2.368878
  0
VERTEX
  8
PLAN_1
 62
     2
  6
CONTINUOUS
 10
-1.025748
 20
2.368453
  0
VERTEX
  8
PLAN_1
 62
     2
  6
CONTINUOUS
 10
-1.024047
 20
2.368028
  0
VERTEX
  8
PLAN_1
 62
     2
  6
CONTINUOUS
 10
-1.022346
 20
2.367602
  0
VERTEX
  8
PLAN_1
 62
     2
  6
CONTINUOUS
 10
-1.022346
 20
2.359106
  0
SEQEND
  8
0
  0
POLYLINE
  8
PLAN_1
 62
     2
  6
CONTINUOUS
 66
     1
 40
0.003000
 41
0.003000
  0
VERTEX
  8
PLAN_1
 62
     2
  6
CONTINUOUS
 10
-1.012146
 20
2.392677
  0
VERTEX
  8
PLAN_1
 62
     2
  6
CONTINUOUS
 10
-1.011724
 20
2.391827
  0
VERTEX
  8
PLAN_1
 62
     2
  6
CONTINUOUS
 10
-1.011299
 20
2.391402
  0
VERTEX
  8
PLAN_1
 62
     2
  6
CONTINUOUS
 10
-1.010874
 20
2.390126
  0
VERTEX
  8
PLAN_1
 62
     2
  6
CONTINUOUS
 10
-1.010874
 20
2.388854
  0
VERTEX
  8
PLAN_1
 62
     2
  6
CONTINUOUS
 10
-1.010449
 20
2.386728
  0
VERTEX
  8
PLAN_1
 62
     2
  6
CONTINUOUS
 10
-1.010024
 20
2.384602
  0
VERTEX
  8
PLAN_1
 62
     2
  6
CONTINUOUS
 10
-1.009173
 20
2.381205
  0
VERTEX
  8
PLAN_1
 62
     2
  6
CONTINUOUS
 10
-1.008748
 20
2.377378
  0
VERTEX
  8
PLAN_1
 62
     2
  6
CONTINUOUS
 10
-1.008748
 20
2.375677
  0
VERTEX
  8
PLAN_1
 62
     2
  6
CONTINUOUS
 10
-1.008323
 20
2.373980
  0
VERTEX
  8
PLAN_1
 62
     2
  6
CONTINUOUS
 10
-1.007472
 20
2.371854
  0
VERTEX
  8
PLAN_1
 62
     2
  6
CONTINUOUS
 10
-1.006622
 20
2.370154
  0
VERTEX
  8
PLAN_1
 62
     2
  6
CONTINUOUS
 10
-1.005772
 20
2.368453
  0
VERTEX
  8
PLAN_1
 62
     2
  6
CONTINUOUS
 10
-1.004075
 20
2.367181
  0
VERTEX
  8
PLAN_1
 62
     2
  6
CONTINUOUS
 10
-1.002374
 20
2.366331
  0
VERTEX
  8
PLAN_1
 62
     2
  6
CONTINUOUS
 10
-0.999823
 20
2.365906
  0
VERTEX
  8
PLAN_1
 62
     2
  6
CONTINUOUS
 10
-0.997697
 20
2.365906
  0
VERTEX
  8
PLAN_1
 62
     2
  6
CONTINUOUS
 10
-0.996000
 20
2.366331
  0
VERTEX
  8
PLAN_1
 62
     2
  6
CONTINUOUS
 10
-0.994299
 20
2.367181
  0
VERTEX
  8
PLAN_1
 62
     2
  6
CONTINUOUS
 10
-0.993024
 20
2.368453
  0
VERTEX
  8
PLAN_1
 62
     2
  6
CONTINUOUS
 10
-0.992173
 20
2.369728
  0
VERTEX
  8
PLAN_1
 62
     2
  6
CONTINUOUS
 10
-0.991323
 20
2.371429
  0
VERTEX
  8
PLAN_1
 62
     2
  6
CONTINUOUS
 10
-0.990898
 20
2.373555
  0
VERTEX
  8
PLAN_1
 62
     2
  6
CONTINUOUS
 10
-0.990472
 20
2.375677
  0
VERTEX
  8
PLAN_1
 62
     2
  6
CONTINUOUS
 10
-0.990898
 20
2.379079
  0
VERTEX
  8
PLAN_1
 62
     2
  6
CONTINUOUS
 10
-0.991323
 20
2.382051
  0
VERTEX
  8
PLAN_1
 62
     2
  6
CONTINUOUS
 10
-0.992598
 20
2.385028
  0
VERTEX
  8
PLAN_1
 62
     2
  6
CONTINUOUS
 10
-0.994299
 20
2.387579
  0
VERTEX
  8
PLAN_1
 62
     2
  6
CONTINUOUS
 10
-0.996000
 20
2.389701
  0
VERTEX
  8
PLAN_1
 62
     2
  6
CONTINUOUS
 10
-0.998122
 20
2.390976
  0
VERTEX
  8
PLAN_1
 62
     2
  6
CONTINUOUS
 10
-1.000673
 20
2.392252
  0
VERTEX
  8
PLAN_1
 62
     2
  6
CONTINUOUS
 10
-1.003224
 20
2.392677
  0
VERTEX
  8
PLAN_1
 62
     2
  6
CONTINUOUS
 10
-1.012146
 20
2.392677
  0
SEQEND
  8
0
  0
POLYLINE
  8
PLAN_1
 62
     2
  6
CONTINUOUS
 66
     1
 40
0.003000
 41
0.003000
  0
VERTEX
  8
PLAN_1
 62
     2
  6
CONTINUOUS
 10
-0.984524
 20
2.461524
  0
VERTEX
  8
PLAN_1
 62
     2
  6
CONTINUOUS
 10
-0.984524
 20
2.450047
  0
VERTEX
  8
PLAN_1
 62
     2
  6
CONTINUOUS
 10
-1.004921
 20
2.436449
  0
VERTEX
  8
PLAN_1
 62
     2
  6
CONTINUOUS
 10
-0.984524
 20
2.423276
  0
VERTEX
  8
PLAN_1
 62
     2
  6
CONTINUOUS
 10
-0.984524
 20
2.411799
  0
VERTEX
  8
PLAN_1
 62
     2
  6
CONTINUOUS
 10
-1.012571
 20
2.430925
  0
VERTEX
  8
PLAN_1
 62
     2
  6
CONTINUOUS
 10
-1.038921
 20
2.412650
  0
VERTEX
  8
PLAN_1
 62
     2
  6
CONTINUOUS
 10
-1.038921
 20
2.424551
  0
VERTEX
  8
PLAN_1
 62
     2
  6
CONTINUOUS
 10
-1.019795
 20
2.436874
  0
VERTEX
  8
PLAN_1
 62
     2
  6
CONTINUOUS
 10
-1.038921
 20
2.449622
  0
VERTEX
  8
PLAN_1
 62
     2
  6
CONTINUOUS
 10
-1.038921
 20
2.460673
  0
VERTEX
  8
PLAN_1
 62
     2
  6
CONTINUOUS
 10
-1.012571
 20
2.442398
  0
VERTEX
  8
PLAN_1
 62
     2
  6
CONTINUOUS
 10
-0.984524
 20
2.461524
  0
SEQEND
  8
0
  0
SOLID
  8
PLAN_1
 62
     2
 10
-0.984524
 20
2.478945
 11
-0.984524
 21
2.469594
 12
-1.038921
 22
2.478945
 13
-1.038921
 23
2.469594
  0
POLYLINE
  8
PLAN_1
 62
     2
  6
CONTINUOUS
 66
     1
 40
0.003000
 41
0.003000
  0
VERTEX
  8
PLAN_1
 62
     2
  6
CONTINUOUS
 10
-0.984524
 20
2.478945
  0
VERTEX
  8
PLAN_1
 62
     2
  6
CONTINUOUS
 10
-0.984524
 20
2.469594
  0
VERTEX
  8
PLAN_1
 62
     2
  6
CONTINUOUS
 10
-1.038921
 20
2.469594
  0
VERTEX
  8
PLAN_1
 62
     2
  6
CONTINUOUS
 10
-1.038921
 20
2.478945
  0
VERTEX
  8
PLAN_1
 62
     2
  6
CONTINUOUS
 10
-0.984524
 20
2.478945
  0
SEQEND
  8
0
  0
SOLID
  8
PLAN_1
 62
     2
 10
-1.048693
 20
2.469594
 11
-1.059319
 21
2.469594
 12
-1.048693
 22
2.478945
 13
-1.059319
 23
2.478945
  0
POLYLINE
  8
PLAN_1
 62
     2
  6
CONTINUOUS
 66
     1
 40
0.003000
 41
0.003000
  0
VERTEX
  8
PLAN_1
 62
     2
  6
CONTINUOUS
 10
-1.048693
 20
2.469594
  0
VERTEX
  8
PLAN_1
 62
     2
  6
CONTINUOUS
 10
-1.059319
 20
2.469594
  0
VERTEX
  8
PLAN_1
 62
     2
  6
CONTINUOUS
 10
-1.059319
 20
2.478945
  0
VERTEX
  8
PLAN_1
 62
     2
  6
CONTINUOUS
 10
-1.048693
 20
2.478945
  0
VERTEX
  8
PLAN_1
 62
     2
  6
CONTINUOUS
 10
-1.048693
 20
2.469594
  0
SEQEND
  8
0
  0
POLYLINE
  8
PLAN_1
 62
     2
  6
CONTINUOUS
 66
     1
 40
0.004248
 41
0.004248
  0
VERTEX
  8
PLAN_1
 62
     2
  6
CONTINUOUS
 10
-1.238654
 20
3.148693
  0
VERTEX
  8
PLAN_1
 62
     2
  6
CONTINUOUS
 10
-0.779689
 20
3.148693
  0
SEQEND
  8
0
  0
POLYLINE
  8
PLAN_1
 62
     2
  6
CONTINUOUS
 66
     1
 40
0.004248
 41
0.004248
  0
VERTEX
  8
PLAN_1
 62
     2
  6
CONTINUOUS
 10
-1.238654
 20
1.314961
  0
VERTEX
  8
PLAN_1
 62
     2
  6
CONTINUOUS
 10
-0.779689
 20
1.314961
  0
SEQEND
  8
0
  0
POLYLINE
  8
PLAN_1
 62
     2
  6
CONTINUOUS
 66
     1
 40
0.004248
 41
0.004248
  0
VERTEX
  8
PLAN_1
 62
     2
  6
CONTINUOUS
 10
-1.101815
 20
1.400378
  0
VERTEX
  8
PLAN_1
 62
     2
  6
CONTINUOUS
 10
-0.937354
 20
1.400378
  0
SEQEND
  8
0
  0
POLYLINE
  8
PLAN_1
 62
     2
  6
CONTINUOUS
 66
     1
 40
0.004248
 41
0.004248
  0
VERTEX
  8
PLAN_1
 62
     2
  6
CONTINUOUS
 10
-1.884181
 20
3.321232
  0
VERTEX
  8
PLAN_1
 62
     2
  6
CONTINUOUS
 10
-1.884181
 20
2.052280
  0
SEQEND
  8
0
  0
POLYLINE
  8
PLAN_1
 62
     2
  6
CONTINUOUS
 66
     1
 40
0.004248
 41
0.004248
  0
VERTEX
  8
PLAN_1
 62
     2
  6
CONTINUOUS
 10
-1.380169
 20
3.325906
  0
VERTEX
  8
PLAN_1
 62
     2
  6
CONTINUOUS
 10
-1.380169
 20
3.172492
  0
SEQEND
  8
0
  0
POLYLINE
  8
PLAN_1
 62
     2
  6
CONTINUOUS
 66
     1
 40
0.004248
 41
0.004248
  0
VERTEX
  8
PLAN_1
 62
     2
  6
CONTINUOUS
 10
-1.854433
 20
3.302106
  0
VERTEX
  8
PLAN_1
 62
     2
  6
CONTINUOUS
 10
-1.409492
 20
3.302106
  0
SEQEND
  8
0
  0
SOLID
  8
PLAN_1
 62
     2
 10
-1.380169
 20
3.302106
 11
-1.439240
 21
3.317831
 12
-1.380169
 22
3.302106
 13
-1.439240
 23
3.286382
  0
POLYLINE
  8
PLAN_1
 62
     2
  6
CONTINUOUS
 66
     1
 40
0.003000
 41
0.003000
  0
VERTEX
  8
PLAN_1
 62
     2
  6
CONTINUOUS
 10
-1.380169
 20
3.302106
  0
VERTEX
  8
PLAN_1
 62
     2
  6
CONTINUOUS
 10
-1.439240
 20
3.317831
  0
VERTEX
  8
PLAN_1
 62
     2
  6
CONTINUOUS
 10
-1.439240
 20
3.286382
  0
VERTEX
  8
PLAN_1
 62
     2
  6
CONTINUOUS
 10
-1.380169
 20
3.302106
  0
SEQEND
  8
0
  0
SOLID
  8
PLAN_1
 62
     2
 10
-1.884181
 20
3.302106
 11
-1.825110
 21
3.317831
 12
-1.884181
 22
3.302106
 13
-1.825110
 23
3.286382
  0
POLYLINE
  8
PLAN_1
 62
     2
  6
CONTINUOUS
 66
     1
 40
0.003000
 41
0.003000
  0
VERTEX
  8
PLAN_1
 62
     2
  6
CONTINUOUS
 10
-1.884181
 20
3.302106
  0
VERTEX
  8
PLAN_1
 62
     2
  6
CONTINUOUS
 10
-1.825110
 20
3.317831
  0
VERTEX
  8
PLAN_1
 62
     2
  6
CONTINUOUS
 10
-1.825110
 20
3.286382
  0
VERTEX
  8
PLAN_1
 62
     2
  6
CONTINUOUS
 10
-1.884181
 20
3.302106
  0
SEQEND
  8
0
  0
POLYLINE
  8
PLAN_1
 62
     2
  6
CONTINUOUS
 66
     1
 40
0.003000
 41
0.003000
  0
VERTEX
  8
PLAN_1
 62
     2
  6
CONTINUOUS
 10
-1.685295
 20
3.372654
  0
VERTEX
  8
PLAN_1
 62
     2
  6
CONTINUOUS
 10
-1.685295
 20
3.376902
  0
VERTEX
  8
PLAN_1
 62
     2
  6
CONTINUOUS
 10
-1.684870
 20
3.380728
  0
VERTEX
  8
PLAN_1
 62
     2
  6
CONTINUOUS
 10
-1.683594
 20
3.384126
  0
VERTEX
  8
PLAN_1
 62
     2
  6
CONTINUOUS
 10
-1.682744
 20
3.387102
  0
VERTEX
  8
PLAN_1
 62
     2
  6
CONTINUOUS
 10
-1.681047
 20
3.389224
  0
VERTEX
  8
PLAN_1
 62
     2
  6
CONTINUOUS
 10
-1.679346
 20
3.391350
  0
VERTEX
  8
PLAN_1
 62
     2
  6
CONTINUOUS
 10
-1.677646
 20
3.393476
  0
VERTEX
  8
PLAN_1
 62
     2
  6
CONTINUOUS
 10
-1.675945
 20
3.394752
  0
VERTEX
  8
PLAN_1
 62
     2
  6
CONTINUOUS
 10
-1.671697
 20
3.396874
  0
VERTEX
  8
PLAN_1
 62
     2
  6
CONTINUOUS
 10
-1.667449
 20
3.398150
  0
VERTEX
  8
PLAN_1
 62
     2
  6
CONTINUOUS
 10
-1.663622
 20
3.399000
  0
VERTEX
  8
PLAN_1
 62
     2
  6
CONTINUOUS
 10
-1.660224
 20
3.399000
  0
VERTEX
  8
PLAN_1
 62
     2
  6
CONTINUOUS
 10
-1.655547
 20
3.398575
  0
VERTEX
  8
PLAN_1
 62
     2
  6
CONTINUOUS
 10
-1.651299
 20
3.397299
  0
VERTEX
  8
PLAN_1
 62
     2
  6
CONTINUOUS
 10
-1.647472
 20
3.395598
  0
VERTEX
  8
PLAN_1
 62
     2
  6
CONTINUOUS
 10
-1.644075
 20
3.393051
  0
VERTEX
  8
PLAN_1
 62
     2
  6
CONTINUOUS
 10
-1.642374
 20
3.391776
  0
VERTEX
  8
PLAN_1
 62
     2
  6
CONTINUOUS
 10
-1.641098
 20
3.390075
  0
VERTEX
  8
PLAN_1
 62
     2
  6
CONTINUOUS
 10
-1.639823
 20
3.388374
  0
VERTEX
  8
PLAN_1
 62
     2
  6
CONTINUOUS
 10
-1.638972
 20
3.386252
  0
VERTEX
  8
PLAN_1
 62
     2
  6
CONTINUOUS
 10
-1.638126
 20
3.384126
  0
VERTEX
  8
PLAN_1
 62
     2
  6
CONTINUOUS
 10
-1.637701
 20
3.382000
  0
VERTEX
  8
PLAN_1
 62
     2
  6
CONTINUOUS
 10
-1.637276
 20
3.379453
  0
VERTEX
  8
PLAN_1
 62
     2
  6
CONTINUOUS
 10
-1.637276
 20
3.377327
  0
VERTEX
  8
PLAN_1
 62
     2
  6
CONTINUOUS
 10
-1.637701
 20
3.372654
  0
VERTEX
  8
PLAN_1
 62
     2
  6
CONTINUOUS
 10
-1.638972
 20
3.368827
  0
VERTEX
  8
PLAN_1
 62
     2
  6
CONTINUOUS
 10
-1.640673
 20
3.365004
  0
VERTEX
  8
PLAN_1
 62
     2
  6
CONTINUOUS
 10
-1.642799
 20
3.362028
  0
VERTEX
  8
PLAN_1
 62
     2
  6
CONTINUOUS
 10
-1.645776
 20
3.359476
  0
VERTEX
  8
PLAN_1
 62
     2
  6
CONTINUOUS
 10
-1.649173
 20
3.356929
  0
VERTEX
  8
PLAN_1
 62
     2
  6
CONTINUOUS
 10
-1.653000
 20
3.354803
  0
VERTEX
  8
PLAN_1
 62
     2
  6
CONTINUOUS
 10
-1.656823
 20
3.352677
  0
VERTEX
  8
PLAN_1
 62
     2
  6
CONTINUOUS
 10
-1.664472
 20
3.348429
  0
VERTEX
  8
PLAN_1
 62
     2
  6
CONTINUOUS
 10
-1.667874
 20
3.346303
  0
VERTEX
  8
PLAN_1
 62
     2
  6
CONTINUOUS
 10
-1.670421
 20
3.344602
  0
VERTEX
  8
PLAN_1
 62
     2
  6
CONTINUOUS
 10
-1.672547
 20
3.342480
  0
VERTEX
  8
PLAN_1
 62
     2
  6
CONTINUOUS
 10
-1.674248
 20
3.340354
  0
VERTEX
  8
PLAN_1
 62
     2
  6
CONTINUOUS
 10
-1.675520
 20
3.338654
  0
VERTEX
  8
PLAN_1
 62
     2
  6
CONTINUOUS
 10
-1.676370
 20
3.336957
  0
VERTEX
  8
PLAN_1
 62
     2
  6
CONTINUOUS
 10
-1.676795
 20
3.335681
  0
VERTEX
  8
PLAN_1
 62
     2
  6
CONTINUOUS
 10
-1.676795
 20
3.334406
  0
VERTEX
  8
PLAN_1
 62
     2
  6
CONTINUOUS
 10
-1.637276
 20
3.334406
  0
VERTEX
  8
PLAN_1
 62
     2
  6
CONTINUOUS
 10
-1.637276
 20
3.325906
  0
VERTEX
  8
PLAN_1
 62
     2
  6
CONTINUOUS
 10
-1.687421
 20
3.325906
  0
VERTEX
  8
PLAN_1
 62
     2
  6
CONTINUOUS
 10
-1.686996
 20
3.331429
  0
VERTEX
  8
PLAN_1
 62
     2
  6
CONTINUOUS
 10
-1.685720
 20
3.336106
  0
VERTEX
  8
PLAN_1
 62
     2
  6
CONTINUOUS
 10
-1.684020
 20
3.340354
  0
VERTEX
  8
PLAN_1
 62
     2
  6
CONTINUOUS
 10
-1.682323
 20
3.343756
  0
VERTEX
  8
PLAN_1
 62
     2
  6
CONTINUOUS
 10
-1.679772
 20
3.347154
  0
VERTEX
  8
PLAN_1
 62
     2
  6
CONTINUOUS
 10
-1.676795
 20
3.350130
  0
VERTEX
  8
PLAN_1
 62
     2
  6
CONTINUOUS
 10
-1.673823
 20
3.352677
  0
VERTEX
  8
PLAN_1
 62
     2
  6
CONTINUOUS
 10
-1.669996
 20
3.354803
  0
VERTEX
  8
PLAN_1
 62
     2
  6
CONTINUOUS
 10
-1.660650
 20
3.360327
  0
VERTEX
  8
PLAN_1
 62
     2
  6
CONTINUOUS
 10
-1.657673
 20
3.362028
  0
VERTEX
  8
PLAN_1
 62
     2
  6
CONTINUOUS
 10
-1.655122
 20
3.363728
  0
VERTEX
  8
PLAN_1
 62
     2
  6
CONTINUOUS
 10
-1.653000
 20
3.365429
  0
VERTEX
  8
PLAN_1
 62
     2
  6
CONTINUOUS
 10
-1.650874
 20
3.367126
  0
VERTEX
  8
PLAN_1
 62
     2
  6
CONTINUOUS
 10
-1.649173
 20
3.369252
  0
VERTEX
  8
PLAN_1
 62
     2
  6
CONTINUOUS
 10
-1.647898
 20
3.371378
  0
VERTEX
  8
PLAN_1
 62
     2
  6
CONTINUOUS
 10
-1.647472
 20
3.374350
  0
VERTEX
  8
PLAN_1
 62
     2
  6
CONTINUOUS
 10
-1.647047
 20
3.377752
  0
VERTEX
  8
PLAN_1
 62
     2
  6
CONTINUOUS
 10
-1.647047
 20
3.379878
  0
VERTEX
  8
PLAN_1
 62
     2
  6
CONTINUOUS
 10
-1.647898
 20
3.382000
  0
VERTEX
  8
PLAN_1
 62
     2
  6
CONTINUOUS
 10
-1.648748
 20
3.384126
  0
VERTEX
  8
PLAN_1
 62
     2
  6
CONTINUOUS
 10
-1.650449
 20
3.386252
  0
VERTEX
  8
PLAN_1
 62
     2
  6
CONTINUOUS
 10
-1.652150
 20
3.387953
  0
VERTEX
  8
PLAN_1
 62
     2
  6
CONTINUOUS
 10
-1.654697
 20
3.389650
  0
VERTEX
  8
PLAN_1
 62
     2
  6
CONTINUOUS
 10
-1.657673
 20
3.390500
  0
VERTEX
  8
PLAN_1
 62
     2
  6
CONTINUOUS
 10
-1.661496
 20
3.390925
  0
VERTEX
  8
PLAN_1
 62
     2
  6
CONTINUOUS
 10
-1.664047
 20
3.390500
  0
VERTEX
  8
PLAN_1
 62
     2
  6
CONTINUOUS
 10
-1.666173
 20
3.390075
  0
VERTEX
  8
PLAN_1
 62
     2
  6
CONTINUOUS
 10
-1.667874
 20
3.389650
  0
VERTEX
  8
PLAN_1
 62
     2
  6
CONTINUOUS
 10
-1.669571
 20
3.388799
  0
VERTEX
  8
PLAN_1
 62
     2
  6
CONTINUOUS
 10
-1.670846
 20
3.387528
  0
VERTEX
  8
PLAN_1
 62
     2
  6
CONTINUOUS
 10
-1.672122
 20
3.386252
  0
VERTEX
  8
PLAN_1
 62
     2
  6
CONTINUOUS
 10
-1.672972
 20
3.384976
  0
VERTEX
  8
PLAN_1
 62
     2
  6
CONTINUOUS
 10
-1.673823
 20
3.383701
  0
VERTEX
  8
PLAN_1
 62
     2
  6
CONTINUOUS
 10
-1.675098
 20
3.380728
  0
VERTEX
  8
PLAN_1
 62
     2
  6
CONTINUOUS
 10
-1.675945
 20
3.377752
  0
VERTEX
  8
PLAN_1
 62
     2
  6
CONTINUOUS
 10
-1.675945
 20
3.375201
  0
VERTEX
  8
PLAN_1
 62
     2
  6
CONTINUOUS
 10
-1.676370
 20
3.372654
  0
VERTEX
  8
PLAN_1
 62
     2
  6
CONTINUOUS
 10
-1.685295
 20
3.372654
  0
SEQEND
  8
0
  0
POLYLINE
  8
PLAN_1
 62
     2
  6
CONTINUOUS
 66
     1
 40
0.003000
 41
0.003000
  0
VERTEX
  8
PLAN_1
 62
     2
  6
CONTINUOUS
 10
-1.603276
 20
3.323780
  0
VERTEX
  8
PLAN_1
 62
     2
  6
CONTINUOUS
 10
-1.607102
 20
3.324205
  0
VERTEX
  8
PLAN_1
 62
     2
  6
CONTINUOUS
 10
-1.610500
 20
3.325055
  0
VERTEX
  8
PLAN_1
 62
     2
  6
CONTINUOUS
 10
-1.613476
 20
3.325906
  0
VERTEX
  8
PLAN_1
 62
     2
  6
CONTINUOUS
 10
-1.616028
 20
3.327606
  0
VERTEX
  8
PLAN_1
 62
     2
  6
CONTINUOUS
 10
-1.618150
 20
3.329732
  0
VERTEX
  8
PLAN_1
 62
     2
  6
CONTINUOUS
 10
-1.620276
 20
3.331854
  0
VERTEX
  8
PLAN_1
 62
     2
  6
CONTINUOUS
 10
-1.621976
 20
3.334406
  0
VERTEX
  8
PLAN_1
 62
     2
  6
CONTINUOUS
 10
-1.623677
 20
3.336957
  0
VERTEX
  8
PLAN_1
 62
     2
  6
CONTINUOUS
 10
-1.624949
 20
3.339929
  0
VERTEX
  8
PLAN_1
 62
     2
  6
CONTINUOUS
 10
-1.625799
 20
3.342906
  0
VERTEX
  8
PLAN_1
 62
     2
  6
CONTINUOUS
 10
-1.626650
 20
3.345878
  0
VERTEX
  8
PLAN_1
 62
     2
  6
CONTINUOUS
 10
-1.627500
 20
3.349280
  0
VERTEX
  8
PLAN_1
 62
     2
  6
CONTINUOUS
 10
-1.627925
 20
3.355654
  0
VERTEX
  8
PLAN_1
 62
     2
  6
CONTINUOUS
 10
-1.628350
 20
3.361602
  0
VERTEX
  8
PLAN_1
 62
     2
  6
CONTINUOUS
 10
-1.627925
 20
3.367551
  0
VERTEX
  8
PLAN_1
 62
     2
  6
CONTINUOUS
 10
-1.627500
 20
3.373500
  0
VERTEX
  8
PLAN_1
 62
     2
  6
CONTINUOUS
 10
-1.626650
 20
3.376902
  0
VERTEX
  8
PLAN_1
 62
     2
  6
CONTINUOUS
 10
-1.625799
 20
3.379878
  0
VERTEX
  8
PLAN_1
 62
     2
  6
CONTINUOUS
 10
-1.624949
 20
3.382850
  0
VERTEX
  8
PLAN_1
 62
     2
  6
CONTINUOUS
 10
-1.623677
 20
3.385827
  0
VERTEX
  8
PLAN_1
 62
     2
  6
CONTINUOUS
 10
-1.621976
 20
3.388799
  0
VERTEX
  8
PLAN_1
 62
     2
  6
CONTINUOUS
 10
-1.620276
 20
3.390925
  0
VERTEX
  8
PLAN_1
 62
     2
  6
CONTINUOUS
 10
-1.618150
 20
3.393476
  0
VERTEX
  8
PLAN_1
 62
     2
  6
CONTINUOUS
 10
-1.616028
 20
3.395177
  0
VERTEX
  8
PLAN_1
 62
     2
  6
CONTINUOUS
 10
-1.613476
 20
3.396874
  0
VERTEX
  8
PLAN_1
 62
     2
  6
CONTINUOUS
 10
-1.610500
 20
3.398150
  0
VERTEX
  8
PLAN_1
 62
     2
  6
CONTINUOUS
 10
-1.607102
 20
3.398575
  0
VERTEX
  8
PLAN_1
 62
     2
  6
CONTINUOUS
 10
-1.603276
 20
3.399000
  0
VERTEX
  8
PLAN_1
 62
     2
  6
CONTINUOUS
 10
-1.599453
 20
3.398575
  0
VERTEX
  8
PLAN_1
 62
     2
  6
CONTINUOUS
 10
-1.596051
 20
3.398150
  0
VERTEX
  8
PLAN_1
 62
     2
  6
CONTINUOUS
 10
-1.593079
 20
3.396874
  0
VERTEX
  8
PLAN_1
 62
     2
  6
CONTINUOUS
 10
-1.590528
 20
3.395177
  0
VERTEX
  8
PLAN_1
 62
     2
  6
CONTINUOUS
 10
-1.587976
 20
3.393476
  0
VERTEX
  8
PLAN_1
 62
     2
  6
CONTINUOUS
 10
-1.585854
 20
3.390925
  0
VERTEX
  8
PLAN_1
 62
     2
  6
CONTINUOUS
 10
-1.584154
 20
3.388799
  0
VERTEX
  8
PLAN_1
 62
     2
  6
CONTINUOUS
 10
-1.582878
 20
3.385827
  0
VERTEX
  8
PLAN_1
 62
     2
  6
CONTINUOUS
 10
-1.581602
 20
3.382850
  0
VERTEX
  8
PLAN_1
 62
     2
  6
CONTINUOUS
 10
-1.580331
 20
3.379878
  0
VERTEX
  8
PLAN_1
 62
     2
  6
CONTINUOUS
 10
-1.579906
 20
3.376902
  0
VERTEX
  8
PLAN_1
 62
     2
  6
CONTINUOUS
 10
-1.579055
 20
3.373500
  0
VERTEX
  8
PLAN_1
 62
     2
  6
CONTINUOUS
 10
-1.578205
 20
3.367551
  0
VERTEX
  8
PLAN_1
 62
     2
  6
CONTINUOUS
 10
-1.578205
 20
3.361602
  0
VERTEX
  8
PLAN_1
 62
     2
  6
CONTINUOUS
 10
-1.578205
 20
3.355654
  0
VERTEX
  8
PLAN_1
 62
     2
  6
CONTINUOUS
 10
-1.579055
 20
3.349280
  0
VERTEX
  8
PLAN_1
 62
     2
  6
CONTINUOUS
 10
-1.579906
 20
3.345878
  0
VERTEX
  8
PLAN_1
 62
     2
  6
CONTINUOUS
 10
-1.580331
 20
3.342906
  0
VERTEX
  8
PLAN_1
 62
     2
  6
CONTINUOUS
 10
-1.581602
 20
3.339929
  0
VERTEX
  8
PLAN_1
 62
     2
  6
CONTINUOUS
 10
-1.582878
 20
3.336957
  0
VERTEX
  8
PLAN_1
 62
     2
  6
CONTINUOUS
 10
-1.584154
 20
3.334406
  0
VERTEX
  8
PLAN_1
 62
     2
  6
CONTINUOUS
 10
-1.585854
 20
3.331854
  0
VERTEX
  8
PLAN_1
 62
     2
  6
CONTINUOUS
 10
-1.587976
 20
3.329732
  0
VERTEX
  8
PLAN_1
 62
     2
  6
CONTINUOUS
 10
-1.590528
 20
3.327606
  0
VERTEX
  8
PLAN_1
 62
     2
  6
CONTINUOUS
 10
-1.593079
 20
3.325906
  0
VERTEX
  8
PLAN_1
 62
     2
  6
CONTINUOUS
 10
-1.596051
 20
3.325055
  0
VERTEX
  8
PLAN_1
 62
     2
  6
CONTINUOUS
 10
-1.599453
 20
3.324205
  0
VERTEX
  8
PLAN_1
 62
     2
  6
CONTINUOUS
 10
-1.603276
 20
3.323780
  0
SEQEND
  8
0
  0
POLYLINE
  8
PLAN_1
 62
     2
  6
CONTINUOUS
 66
     1
 40
0.003000
 41
0.003000
  0
VERTEX
  8
PLAN_1
 62
     2
  6
CONTINUOUS
 10
-1.603276
 20
3.390925
  0
VERTEX
  8
PLAN_1
 62
     2
  6
CONTINUOUS
 10
-1.604976
 20
3.390500
  0
VERTEX
  8
PLAN_1
 62
     2
  6
CONTINUOUS
 10
-1.606677
 20
3.390075
  0
VERTEX
  8
PLAN_1
 62
     2
  6
CONTINUOUS
 10
-1.608378
 20
3.389650
  0
VERTEX
  8
PLAN_1
 62
     2
  6
CONTINUOUS
 10
-1.610075
 20
3.388799
  0
VERTEX
  8
PLAN_1
 62
     2
  6
CONTINUOUS
 10
-1.611350
 20
3.387528
  0
VERTEX
  8
PLAN_1
 62
     2
  6
CONTINUOUS
 10
-1.612626
 20
3.386252
  0
VERTEX
  8
PLAN_1
 62
     2
  6
CONTINUOUS
 10
-1.613902
 20
3.384551
  0
VERTEX
  8
PLAN_1
 62
     2
  6
CONTINUOUS
 10
-1.614752
 20
3.382850
  0
VERTEX
  8
PLAN_1
 62
     2
  6
CONTINUOUS
 10
-1.616453
 20
3.378602
  0
VERTEX
  8
PLAN_1
 62
     2
  6
CONTINUOUS
 10
-1.617724
 20
3.373925
  0
VERTEX
  8
PLAN_1
 62
     2
  6
CONTINUOUS
 10
-1.618150
 20
3.367976
  0
VERTEX
  8
PLAN_1
 62
     2
  6
CONTINUOUS
 10
-1.618575
 20
3.361602
  0
VERTEX
  8
PLAN_1
 62
     2
  6
CONTINUOUS
 10
-1.618150
 20
3.354803
  0
VERTEX
  8
PLAN_1
 62
     2
  6
CONTINUOUS
 10
-1.617724
 20
3.349280
  0
VERTEX
  8
PLAN_1
 62
     2
  6
CONTINUOUS
 10
-1.616453
 20
3.344181
  0
VERTEX
  8
PLAN_1
 62
     2
  6
CONTINUOUS
 10
-1.614752
 20
3.339929
  0
VERTEX
  8
PLAN_1
 62
     2
  6
CONTINUOUS
 10
-1.613902
 20
3.338228
  0
VERTEX
  8
PLAN_1
 62
     2
  6
CONTINUOUS
 10
-1.612626
 20
3.336531
  0
VERTEX
  8
PLAN_1
 62
     2
  6
CONTINUOUS
 10
-1.611350
 20
3.335256
  0
VERTEX
  8
PLAN_1
 62
     2
  6
CONTINUOUS
 10
-1.610075
 20
3.333980
  0
VERTEX
  8
PLAN_1
 62
     2
  6
CONTINUOUS
 10
-1.608378
 20
3.333130
  0
VERTEX
  8
PLAN_1
 62
     2
  6
CONTINUOUS
 10
-1.606677
 20
3.332705
  0
VERTEX
  8
PLAN_1
 62
     2
  6
CONTINUOUS
 10
-1.604976
 20
3.332280
  0
VERTEX
  8
PLAN_1
 62
     2
  6
CONTINUOUS
 10
-1.603276
 20
3.332280
  0
VERTEX
  8
PLAN_1
 62
     2
  6
CONTINUOUS
 10
-1.601154
 20
3.332280
  0
VERTEX
  8
PLAN_1
 62
     2
  6
CONTINUOUS
 10
-1.599453
 20
3.332705
  0
VERTEX
  8
PLAN_1
 62
     2
  6
CONTINUOUS
 10
-1.597752
 20
3.333130
  0
VERTEX
  8
PLAN_1
 62
     2
  6
CONTINUOUS
 10
-1.596476
 20
3.333980
  0
VERTEX
  8
PLAN_1
 62
     2
  6
CONTINUOUS
 10
-1.595201
 20
3.335256
  0
VERTEX
  8
PLAN_1
 62
     2
  6
CONTINUOUS
 10
-1.593929
 20
3.336531
  0
VERTEX
  8
PLAN_1
 62
     2
  6
CONTINUOUS
 10
-1.592654
 20
3.338228
  0
VERTEX
  8
PLAN_1
 62
     2
  6
CONTINUOUS
 10
-1.591803
 20
3.339929
  0
VERTEX
  8
PLAN_1
 62
     2
  6
CONTINUOUS
 10
-1.590102
 20
3.344181
  0
VERTEX
  8
PLAN_1
 62
     2
  6
CONTINUOUS
 10
-1.588827
 20
3.349280
  0
VERTEX
  8
PLAN_1
 62
     2
  6
CONTINUOUS
 10
-1.587976
 20
3.354803
  0
VERTEX
  8
PLAN_1
 62
     2
  6
CONTINUOUS
 10
-1.587976
 20
3.361602
  0
VERTEX
  8
PLAN_1
 62
     2
  6
CONTINUOUS
 10
-1.587976
 20
3.367976
  0
VERTEX
  8
PLAN_1
 62
     2
  6
CONTINUOUS
 10
-1.588827
 20
3.373925
  0
VERTEX
  8
PLAN_1
 62
     2
  6
CONTINUOUS
 10
-1.590102
 20
3.378602
  0
VERTEX
  8
PLAN_1
 62
     2
  6
CONTINUOUS
 10
-1.591803
 20
3.382850
  0
VERTEX
  8
PLAN_1
 62
     2
  6
CONTINUOUS
 10
-1.592654
 20
3.384551
  0
VERTEX
  8
PLAN_1
 62
     2
  6
CONTINUOUS
 10
-1.593929
 20
3.386252
  0
VERTEX
  8
PLAN_1
 62
     2
  6
CONTINUOUS
 10
-1.595201
 20
3.387528
  0
VERTEX
  8
PLAN_1
 62
     2
  6
CONTINUOUS
 10
-1.596476
 20
3.388799
  0
VERTEX
  8
PLAN_1
 62
     2
  6
CONTINUOUS
 10
-1.597752
 20
3.389650
  0
VERTEX
  8
PLAN_1
 62
     2
  6
CONTINUOUS
 10
-1.599453
 20
3.390075
  0
VERTEX
  8
PLAN_1
 62
     2
  6
CONTINUOUS
 10
-1.601154
 20
3.390500
  0
VERTEX
  8
PLAN_1
 62
     2
  6
CONTINUOUS
 10
-1.603276
 20
3.390925
  0
SEQEND
  8
0
  0
ENDSEC
  0
EOF
