  0
SECTION
  2
HEADER
  9
$ACADVER
  1
AC1006
  9
$EXTMIN
 10
-2.227240
 20
-3.806264
  9
$EXTMAX
 10
2.222000
 20
3.807000
  9
$LTSCALE
 40
0.000394
  9
$PDMODE
 70
    35
  9
$PDSIZE
 40
0.000315
  0
ENDSEC
  0
SECTION
  2
TABLES
  0
TABLE
  2
LTYPE
 70
     9
  0
LTYPE
  2
CONTINUOUS
 70
    64
  3
Solid line
 72
    65
 73
     0
 40
0.000000
  0
LTYPE
  2
DASHED
 70
    64
  3
__ __ __ __ __ __ __ __ __ __ __ __ __ __ __
 72
    65
 73
     2
 40
0.000003
 49
0.000002
 49
-0.000001
  0
LTYPE
  2
HIDDEN
 70
    64
  3
 _ _ _ _ _ _ _ _ _ _ _ _ _ _ _ _ _ _ _ _ _ _
 72
    65
 73
     2
 40
0.000001
 49
0.000001
 49
-0.000000
  0
LTYPE
  2
CENTER
 70
    64
  3
____ _ ____ _ ____ _ ____ _ ____ _ ____ _ ____
 72
    65
 73
     4
 40
0.000008
 49
0.000005
 49
-0.000001
 49
0.000001
 49
-0.000001
  0
LTYPE
  2
PHANTOM
 70
    64
  3
_____ _ _ _____ _ _ _____ _ _ _____ _ _ ____
 72
    65
 73
     6
 40
0.000010
 49
0.000005
 49
-0.000001
 49
0.000001
 49
-0.000001
 49
0.000001
 49
-0.000001
  0
LTYPE
  2
DOT
 70
    64
  3
...............................................
 72
    65
 73
     2
 40
0.000001
 49
0.000000
 49
-0.000001
  0
LTYPE
  2
DASHDOT
 70
    64
  3
__ . __ . __ . __ . __ . __ . __ . __ . __ . __
 72
    65
 73
     4
 40
0.000004
 49
0.000002
 49
-0.000001
 49
0.000000
 49
-0.000001
  0
LTYPE
  2
BORDER
 70
    64
  3
__ __ . __ __ . __ __ . __ __ . __ __ . __ __
 72
    65
 73
     6
 40
0.000007
 49
0.000002
 49
-0.000001
 49
0.000002
 49
-0.000001
 49
0.000000
 49
-0.000001
  0
LTYPE
  2
DIVIDE
 70
    64
  3
__ . . __ . . __ . . __ . . __ . . __ . . __
 72
    65
 73
     6
 40
0.000005
 49
0.000002
 49
-0.000001
 49
0.000000
 49
-0.000001
 49
0.000000
 49
-0.000001
  0
LTYPE
  2
DOTDOT
 70
    64
  3
 . .  . .  . .  . .  . .  . . 
 72
    65
 73
     5
 40
0.000002
 49
-0.000001
 49
0.000000
 49
-0.000001
 49
0.000000
 49
-0.000001
  0
ENDTAB
  0
TABLE
  2
STYLE
 70
     0
  0
ENDTAB
  0
TABLE
  2
LAYER
 70
     3
  0
LAYER
  2
FOREGROUND
 70
    64
 62
     7
  6
CONTINUOUS
  0
LAYER
  2
BACKGROUND
 70
    65
 62
    -7
  6
CONTINUOUS
  0
LAYER
  2
PLAN_1
 70
    64
 62
     7
  6
CONTINUOUS
  0
ENDTAB
  0
ENDSEC
  0
SECTION
  2
ENTITIES
  0
POLYLINE
  8
PLAN_1
  6
CONTINUOUS
 66
     1
 40
0.003000
 41
0.003000
  0
VERTEX
  8
PLAN_1
  6
CONTINUOUS
 10
0.346283
 20
-3.771528
  0
VERTEX
  8
PLAN_1
  6
CONTINUOUS
 10
0.189260
 20
-3.771528
  0
VERTEX
  8
PLAN_1
  6
CONTINUOUS
 10
0.189260
 20
-3.749161
  0
VERTEX
  8
PLAN_1
  6
CONTINUOUS
 10
0.311547
 20
-3.595945
  0
VERTEX
  8
PLAN_1
  6
CONTINUOUS
 10
0.198299
 20
-3.595945
  0
VERTEX
  8
PLAN_1
  6
CONTINUOUS
 10
0.198299
 20
-3.572154
  0
VERTEX
  8
PLAN_1
  6
CONTINUOUS
 10
0.346283
 20
-3.572154
  0
VERTEX
  8
PLAN_1
  6
CONTINUOUS
 10
0.346283
 20
-3.595469
  0
VERTEX
  8
PLAN_1
  6
CONTINUOUS
 10
0.223520
 20
-3.747736
  0
VERTEX
  8
PLAN_1
  6
CONTINUOUS
 10
0.346283
 20
-3.747736
  0
VERTEX
  8
PLAN_1
  6
CONTINUOUS
 10
0.346283
 20
-3.771528
  0
SEQEND
  8
0
  0
POLYLINE
  8
PLAN_1
  6
CONTINUOUS
 66
     1
 40
0.003000
 41
0.003000
  0
VERTEX
  8
PLAN_1
  6
CONTINUOUS
 10
0.513776
 20
-3.632110
  0
VERTEX
  8
PLAN_1
  6
CONTINUOUS
 10
0.511870
 20
-3.625921
  0
VERTEX
  8
PLAN_1
  6
CONTINUOUS
 10
0.509969
 20
-3.620213
  0
VERTEX
  8
PLAN_1
  6
CONTINUOUS
 10
0.507114
 20
-3.615453
  0
VERTEX
  8
PLAN_1
  6
CONTINUOUS
 10
0.504256
 20
-3.611173
  0
VERTEX
  8
PLAN_1
  6
CONTINUOUS
 10
0.500925
 20
-3.607366
  0
VERTEX
  8
PLAN_1
  6
CONTINUOUS
 10
0.497594
 20
-3.604035
  0
VERTEX
  8
PLAN_1
  6
CONTINUOUS
 10
0.493791
 20
-3.600705
  0
VERTEX
  8
PLAN_1
  6
CONTINUOUS
 10
0.489984
 20
-3.598327
  0
VERTEX
  8
PLAN_1
  6
CONTINUOUS
 10
0.486177
 20
-3.596421
  0
VERTEX
  8
PLAN_1
  6
CONTINUOUS
 10
0.481894
 20
-3.594992
  0
VERTEX
  8
PLAN_1
  6
CONTINUOUS
 10
0.477610
 20
-3.593567
  0
VERTEX
  8
PLAN_1
  6
CONTINUOUS
 10
0.473331
 20
-3.592614
  0
VERTEX
  8
PLAN_1
  6
CONTINUOUS
 10
0.465240
 20
-3.591189
  0
VERTEX
  8
PLAN_1
  6
CONTINUOUS
 10
0.457626
 20
-3.590713
  0
VERTEX
  8
PLAN_1
  6
CONTINUOUS
 10
0.450965
 20
-3.591189
  0
VERTEX
  8
PLAN_1
  6
CONTINUOUS
 10
0.444780
 20
-3.592138
  0
VERTEX
  8
PLAN_1
  6
CONTINUOUS
 10
0.438118
 20
-3.593567
  0
VERTEX
  8
PLAN_1
  6
CONTINUOUS
 10
0.432409
 20
-3.595945
  0
VERTEX
  8
PLAN_1
  6
CONTINUOUS
 10
0.426697
 20
-3.598799
  0
VERTEX
  8
PLAN_1
  6
CONTINUOUS
 10
0.421465
 20
-3.602130
  0
VERTEX
  8
PLAN_1
  6
CONTINUOUS
 10
0.416228
 20
-3.605937
  0
VERTEX
  8
PLAN_1
  6
CONTINUOUS
 10
0.411472
 20
-3.610697
  0
VERTEX
  8
PLAN_1
  6
CONTINUOUS
 10
0.407189
 20
-3.615929
  0
VERTEX
  8
PLAN_1
  6
CONTINUOUS
 10
0.403858
 20
-3.622118
  0
VERTEX
  8
PLAN_1
  6
CONTINUOUS
 10
0.400528
 20
-3.628303
  0
VERTEX
  8
PLAN_1
  6
CONTINUOUS
 10
0.397673
 20
-3.635441
  0
VERTEX
  8
PLAN_1
  6
CONTINUOUS
 10
0.395291
 20
-3.643051
  0
VERTEX
  8
PLAN_1
  6
CONTINUOUS
 10
0.393866
 20
-3.651618
  0
VERTEX
  8
PLAN_1
  6
CONTINUOUS
 10
0.392913
 20
-3.660657
  0
VERTEX
  8
PLAN_1
  6
CONTINUOUS
 10
0.392437
 20
-3.670173
  0
VERTEX
  8
PLAN_1
  6
CONTINUOUS
 10
0.392913
 20
-3.678740
  0
VERTEX
  8
PLAN_1
  6
CONTINUOUS
 10
0.393390
 20
-3.686831
  0
VERTEX
  8
PLAN_1
  6
CONTINUOUS
 10
0.394343
 20
-3.694917
  0
VERTEX
  8
PLAN_1
  6
CONTINUOUS
 10
0.395768
 20
-3.702531
  0
VERTEX
  8
PLAN_1
  6
CONTINUOUS
 10
0.397673
 20
-3.710146
  0
VERTEX
  8
PLAN_1
  6
CONTINUOUS
 10
0.400528
 20
-3.716807
  0
VERTEX
  8
PLAN_1
  6
CONTINUOUS
 10
0.403382
 20
-3.723469
  0
VERTEX
  8
PLAN_1
  6
CONTINUOUS
 10
0.407189
 20
-3.729177
  0
VERTEX
  8
PLAN_1
  6
CONTINUOUS
 10
0.410996
 20
-3.734413
  0
VERTEX
  8
PLAN_1
  6
CONTINUOUS
 10
0.415752
 20
-3.739169
  0
VERTEX
  8
PLAN_1
  6
CONTINUOUS
 10
0.421465
 20
-3.742976
  0
VERTEX
  8
PLAN_1
  6
CONTINUOUS
 10
0.427650
 20
-3.746783
  0
VERTEX
  8
PLAN_1
  6
CONTINUOUS
 10
0.434311
 20
-3.749161
  0
VERTEX
  8
PLAN_1
  6
CONTINUOUS
 10
0.441449
 20
-3.751543
  0
VERTEX
  8
PLAN_1
  6
CONTINUOUS
 10
0.449539
 20
-3.752492
  0
VERTEX
  8
PLAN_1
  6
CONTINUOUS
 10
0.458579
 20
-3.752969
  0
VERTEX
  8
PLAN_1
  6
CONTINUOUS
 10
0.461909
 20
-3.752969
  0
VERTEX
  8
PLAN_1
  6
CONTINUOUS
 10
0.465717
 20
-3.752492
  0
VERTEX
  8
PLAN_1
  6
CONTINUOUS
 10
0.469524
 20
-3.752016
  0
VERTEX
  8
PLAN_1
  6
CONTINUOUS
 10
0.473331
 20
-3.751067
  0
VERTEX
  8
PLAN_1
  6
CONTINUOUS
 10
0.477610
 20
-3.749638
  0
VERTEX
  8
PLAN_1
  6
CONTINUOUS
 10
0.481894
 20
-3.747736
  0
VERTEX
  8
PLAN_1
  6
CONTINUOUS
 10
0.486177
 20
-3.745831
  0
VERTEX
  8
PLAN_1
  6
CONTINUOUS
 10
0.489984
 20
-3.742976
  0
VERTEX
  8
PLAN_1
  6
CONTINUOUS
 10
0.494264
 20
-3.739646
  0
VERTEX
  8
PLAN_1
  6
CONTINUOUS
 10
0.498071
 20
-3.735839
  0
VERTEX
  8
PLAN_1
  6
CONTINUOUS
 10
0.501878
 20
-3.731555
  0
VERTEX
  8
PLAN_1
  6
CONTINUOUS
 10
0.505209
 20
-3.726323
  0
VERTEX
  8
PLAN_1
  6
CONTINUOUS
 10
0.508539
 20
-3.720614
  0
VERTEX
  8
PLAN_1
  6
CONTINUOUS
 10
0.510921
 20
-3.713953
  0
VERTEX
  8
PLAN_1
  6
CONTINUOUS
 10
0.513299
 20
-3.706339
  0
VERTEX
  8
PLAN_1
  6
CONTINUOUS
 10
0.515677
 20
-3.698248
  0
VERTEX
  8
PLAN_1
  6
CONTINUOUS
 10
0.541374
 20
-3.698248
  0
VERTEX
  8
PLAN_1
  6
CONTINUOUS
 10
0.540421
 20
-3.705386
  0
VERTEX
  8
PLAN_1
  6
CONTINUOUS
 10
0.538992
 20
-3.711571
  0
VERTEX
  8
PLAN_1
  6
CONTINUOUS
 10
0.537091
 20
-3.717756
  0
VERTEX
  8
PLAN_1
  6
CONTINUOUS
 10
0.535185
 20
-3.723469
  0
VERTEX
  8
PLAN_1
  6
CONTINUOUS
 10
0.533283
 20
-3.728701
  0
VERTEX
  8
PLAN_1
  6
CONTINUOUS
 10
0.530906
 20
-3.733461
  0
VERTEX
  8
PLAN_1
  6
CONTINUOUS
 10
0.528047
 20
-3.738217
  0
VERTEX
  8
PLAN_1
  6
CONTINUOUS
 10
0.525193
 20
-3.742500
  0
VERTEX
  8
PLAN_1
  6
CONTINUOUS
 10
0.522339
 20
-3.746307
  0
VERTEX
  8
PLAN_1
  6
CONTINUOUS
 10
0.519484
 20
-3.749638
  0
VERTEX
  8
PLAN_1
  6
CONTINUOUS
 10
0.516154
 20
-3.752969
  0
VERTEX
  8
PLAN_1
  6
CONTINUOUS
 10
0.512823
 20
-3.756299
  0
VERTEX
  8
PLAN_1
  6
CONTINUOUS
 10
0.506161
 20
-3.761535
  0
VERTEX
  8
PLAN_1
  6
CONTINUOUS
 10
0.499500
 20
-3.765815
  0
VERTEX
  8
PLAN_1
  6
CONTINUOUS
 10
0.492362
 20
-3.769146
  0
VERTEX
  8
PLAN_1
  6
CONTINUOUS
 10
0.485701
 20
-3.772004
  0
VERTEX
  8
PLAN_1
  6
CONTINUOUS
 10
0.479039
 20
-3.773906
  0
VERTEX
  8
PLAN_1
  6
CONTINUOUS
 10
0.472854
 20
-3.775335
  0
VERTEX
  8
PLAN_1
  6
CONTINUOUS
 10
0.461909
 20
-3.776760
  0
VERTEX
  8
PLAN_1
  6
CONTINUOUS
 10
0.454295
 20
-3.776760
  0
VERTEX
  8
PLAN_1
  6
CONTINUOUS
 10
0.445732
 20
-3.776283
  0
VERTEX
  8
PLAN_1
  6
CONTINUOUS
 10
0.437642
 20
-3.775335
  0
VERTEX
  8
PLAN_1
  6
CONTINUOUS
 10
0.429551
 20
-3.773429
  0
VERTEX
  8
PLAN_1
  6
CONTINUOUS
 10
0.421465
 20
-3.771051
  0
VERTEX
  8
PLAN_1
  6
CONTINUOUS
 10
0.413374
 20
-3.767720
  0
VERTEX
  8
PLAN_1
  6
CONTINUOUS
 10
0.406236
 20
-3.763437
  0
VERTEX
  8
PLAN_1
  6
CONTINUOUS
 10
0.402429
 20
-3.761059
  0
VERTEX
  8
PLAN_1
  6
CONTINUOUS
 10
0.399098
 20
-3.758681
  0
VERTEX
  8
PLAN_1
  6
CONTINUOUS
 10
0.395768
 20
-3.755823
  0
VERTEX
  8
PLAN_1
  6
CONTINUOUS
 10
0.392437
 20
-3.752492
  0
VERTEX
  8
PLAN_1
  6
CONTINUOUS
 10
0.389583
 20
-3.749161
  0
VERTEX
  8
PLAN_1
  6
CONTINUOUS
 10
0.386728
 20
-3.745831
  0
VERTEX
  8
PLAN_1
  6
CONTINUOUS
 10
0.383874
 20
-3.742024
  0
VERTEX
  8
PLAN_1
  6
CONTINUOUS
 10
0.381020
 20
-3.738217
  0
VERTEX
  8
PLAN_1
  6
CONTINUOUS
 10
0.378638
 20
-3.733937
  0
VERTEX
  8
PLAN_1
  6
CONTINUOUS
 10
0.376260
 20
-3.729177
  0
VERTEX
  8
PLAN_1
  6
CONTINUOUS
 10
0.374358
 20
-3.724894
  0
VERTEX
  8
PLAN_1
  6
CONTINUOUS
 10
0.372453
 20
-3.719661
  0
VERTEX
  8
PLAN_1
  6
CONTINUOUS
 10
0.370551
 20
-3.714425
  0
VERTEX
  8
PLAN_1
  6
CONTINUOUS
 10
0.369122
 20
-3.709193
  0
VERTEX
  8
PLAN_1
  6
CONTINUOUS
 10
0.367693
 20
-3.703484
  0
VERTEX
  8
PLAN_1
  6
CONTINUOUS
 10
0.366744
 20
-3.697295
  0
VERTEX
  8
PLAN_1
  6
CONTINUOUS
 10
0.365791
 20
-3.691110
  0
VERTEX
  8
PLAN_1
  6
CONTINUOUS
 10
0.365315
 20
-3.684449
  0
VERTEX
  8
PLAN_1
  6
CONTINUOUS
 10
0.364839
 20
-3.677787
  0
VERTEX
  8
PLAN_1
  6
CONTINUOUS
 10
0.364839
 20
-3.670650
  0
VERTEX
  8
PLAN_1
  6
CONTINUOUS
 10
0.365315
 20
-3.659709
  0
VERTEX
  8
PLAN_1
  6
CONTINUOUS
 10
0.366268
 20
-3.648764
  0
VERTEX
  8
PLAN_1
  6
CONTINUOUS
 10
0.368169
 20
-3.638295
  0
VERTEX
  8
PLAN_1
  6
CONTINUOUS
 10
0.371028
 20
-3.628780
  0
VERTEX
  8
PLAN_1
  6
CONTINUOUS
 10
0.374831
 20
-3.619736
  0
VERTEX
  8
PLAN_1
  6
CONTINUOUS
 10
0.379114
 20
-3.611173
  0
VERTEX
  8
PLAN_1
  6
CONTINUOUS
 10
0.381492
 20
-3.606890
  0
VERTEX
  8
PLAN_1
  6
CONTINUOUS
 10
0.383874
 20
-3.603083
  0
VERTEX
  8
PLAN_1
  6
CONTINUOUS
 10
0.386728
 20
-3.599276
  0
VERTEX
  8
PLAN_1
  6
CONTINUOUS
 10
0.389583
 20
-3.595945
  0
VERTEX
  8
PLAN_1
  6
CONTINUOUS
 10
0.392437
 20
-3.592614
  0
VERTEX
  8
PLAN_1
  6
CONTINUOUS
 10
0.395768
 20
-3.589283
  0
VERTEX
  8
PLAN_1
  6
CONTINUOUS
 10
0.399098
 20
-3.586429
  0
VERTEX
  8
PLAN_1
  6
CONTINUOUS
 10
0.402906
 20
-3.583575
  0
VERTEX
  8
PLAN_1
  6
CONTINUOUS
 10
0.406713
 20
-3.581197
  0
VERTEX
  8
PLAN_1
  6
CONTINUOUS
 10
0.410520
 20
-3.578815
  0
VERTEX
  8
PLAN_1
  6
CONTINUOUS
 10
0.414327
 20
-3.576437
  0
VERTEX
  8
PLAN_1
  6
CONTINUOUS
 10
0.418610
 20
-3.574531
  0
VERTEX
  8
PLAN_1
  6
CONTINUOUS
 10
0.422890
 20
-3.573106
  0
VERTEX
  8
PLAN_1
  6
CONTINUOUS
 10
0.427650
 20
-3.571201
  0
VERTEX
  8
PLAN_1
  6
CONTINUOUS
 10
0.432409
 20
-3.570252
  0
VERTEX
  8
PLAN_1
  6
CONTINUOUS
 10
0.437165
 20
-3.568823
  0
VERTEX
  8
PLAN_1
  6
CONTINUOUS
 10
0.441925
 20
-3.568346
  0
VERTEX
  8
PLAN_1
  6
CONTINUOUS
 10
0.447157
 20
-3.567398
  0
VERTEX
  8
PLAN_1
  6
CONTINUOUS
 10
0.452394
 20
-3.566921
  0
VERTEX
  8
PLAN_1
  6
CONTINUOUS
 10
0.457626
 20
-3.566921
  0
VERTEX
  8
PLAN_1
  6
CONTINUOUS
 10
0.467142
 20
-3.567398
  0
VERTEX
  8
PLAN_1
  6
CONTINUOUS
 10
0.475709
 20
-3.568346
  0
VERTEX
  8
PLAN_1
  6
CONTINUOUS
 10
0.483795
 20
-3.570252
  0
VERTEX
  8
PLAN_1
  6
CONTINUOUS
 10
0.491886
 20
-3.572630
  0
VERTEX
  8
PLAN_1
  6
CONTINUOUS
 10
0.498547
 20
-3.575484
  0
VERTEX
  8
PLAN_1
  6
CONTINUOUS
 10
0.505209
 20
-3.578815
  0
VERTEX
  8
PLAN_1
  6
CONTINUOUS
 10
0.510921
 20
-3.582622
  0
VERTEX
  8
PLAN_1
  6
CONTINUOUS
 10
0.516630
 20
-3.587382
  0
VERTEX
  8
PLAN_1
  6
CONTINUOUS
 10
0.521386
 20
-3.591661
  0
VERTEX
  8
PLAN_1
  6
CONTINUOUS
 10
0.525669
 20
-3.596898
  0
VERTEX
  8
PLAN_1
  6
CONTINUOUS
 10
0.529476
 20
-3.602606
  0
VERTEX
  8
PLAN_1
  6
CONTINUOUS
 10
0.532331
 20
-3.607843
  0
VERTEX
  8
PLAN_1
  6
CONTINUOUS
 10
0.535185
 20
-3.614028
  0
VERTEX
  8
PLAN_1
  6
CONTINUOUS
 10
0.537091
 20
-3.619736
  0
VERTEX
  8
PLAN_1
  6
CONTINUOUS
 10
0.538516
 20
-3.625921
  0
VERTEX
  8
PLAN_1
  6
CONTINUOUS
 10
0.539469
 20
-3.632110
  0
VERTEX
  8
PLAN_1
  6
CONTINUOUS
 10
0.513776
 20
-3.632110
  0
SEQEND
  8
0
  0
POLYLINE
  8
PLAN_1
  6
CONTINUOUS
 66
     1
 40
0.003000
 41
0.003000
  0
VERTEX
  8
PLAN_1
  6
CONTINUOUS
 10
0.600850
 20
-3.771528
  0
VERTEX
  8
PLAN_1
  6
CONTINUOUS
 10
0.574205
 20
-3.771528
  0
VERTEX
  8
PLAN_1
  6
CONTINUOUS
 10
0.574205
 20
-3.572154
  0
VERTEX
  8
PLAN_1
  6
CONTINUOUS
 10
0.600850
 20
-3.572154
  0
VERTEX
  8
PLAN_1
  6
CONTINUOUS
 10
0.600850
 20
-3.668748
  0
VERTEX
  8
PLAN_1
  6
CONTINUOUS
 10
0.697445
 20
-3.572154
  0
VERTEX
  8
PLAN_1
  6
CONTINUOUS
 10
0.735035
 20
-3.572154
  0
VERTEX
  8
PLAN_1
  6
CONTINUOUS
 10
0.651764
 20
-3.652571
  0
VERTEX
  8
PLAN_1
  6
CONTINUOUS
 10
0.736937
 20
-3.771528
  0
VERTEX
  8
PLAN_1
  6
CONTINUOUS
 10
0.702201
 20
-3.771528
  0
VERTEX
  8
PLAN_1
  6
CONTINUOUS
 10
0.632256
 20
-3.671602
  0
VERTEX
  8
PLAN_1
  6
CONTINUOUS
 10
0.600850
 20
-3.701579
  0
VERTEX
  8
PLAN_1
  6
CONTINUOUS
 10
0.600850
 20
-3.771528
  0
SEQEND
  8
0
  0
POLYLINE
  8
PLAN_1
  6
CONTINUOUS
 66
     1
 40
0.003000
 41
0.003000
  0
VERTEX
  8
PLAN_1
  6
CONTINUOUS
 10
0.760728
 20
-3.572154
  0
VERTEX
  8
PLAN_1
  6
CONTINUOUS
 10
0.841622
 20
-3.572154
  0
VERTEX
  8
PLAN_1
  6
CONTINUOUS
 10
0.851138
 20
-3.572630
  0
VERTEX
  8
PLAN_1
  6
CONTINUOUS
 10
0.860177
 20
-3.574059
  0
VERTEX
  8
PLAN_1
  6
CONTINUOUS
 10
0.868268
 20
-3.576437
  0
VERTEX
  8
PLAN_1
  6
CONTINUOUS
 10
0.876354
 20
-3.579291
  0
VERTEX
  8
PLAN_1
  6
CONTINUOUS
 10
0.883969
 20
-3.583098
  0
VERTEX
  8
PLAN_1
  6
CONTINUOUS
 10
0.890630
 20
-3.587858
  0
VERTEX
  8
PLAN_1
  6
CONTINUOUS
 10
0.897291
 20
-3.593091
  0
VERTEX
  8
PLAN_1
  6
CONTINUOUS
 10
0.903004
 20
-3.599276
  0
VERTEX
  8
PLAN_1
  6
CONTINUOUS
 10
0.907760
 20
-3.605937
  0
VERTEX
  8
PLAN_1
  6
CONTINUOUS
 10
0.912520
 20
-3.613075
  0
VERTEX
  8
PLAN_1
  6
CONTINUOUS
 10
0.916327
 20
-3.621165
  0
VERTEX
  8
PLAN_1
  6
CONTINUOUS
 10
0.919657
 20
-3.629728
  0
VERTEX
  8
PLAN_1
  6
CONTINUOUS
 10
0.922035
 20
-3.638772
  0
VERTEX
  8
PLAN_1
  6
CONTINUOUS
 10
0.923937
 20
-3.648287
  0
VERTEX
  8
PLAN_1
  6
CONTINUOUS
 10
0.924890
 20
-3.658756
  0
VERTEX
  8
PLAN_1
  6
CONTINUOUS
 10
0.925366
 20
-3.669224
  0
VERTEX
  8
PLAN_1
  6
CONTINUOUS
 10
0.924890
 20
-3.677787
  0
VERTEX
  8
PLAN_1
  6
CONTINUOUS
 10
0.924413
 20
-3.686354
  0
VERTEX
  8
PLAN_1
  6
CONTINUOUS
 10
0.922988
 20
-3.695394
  0
VERTEX
  8
PLAN_1
  6
CONTINUOUS
 10
0.921083
 20
-3.703961
  0
VERTEX
  8
PLAN_1
  6
CONTINUOUS
 10
0.918705
 20
-3.712524
  0
VERTEX
  8
PLAN_1
  6
CONTINUOUS
 10
0.915850
 20
-3.721091
  0
VERTEX
  8
PLAN_1
  6
CONTINUOUS
 10
0.912043
 20
-3.729177
  0
VERTEX
  8
PLAN_1
  6
CONTINUOUS
 10
0.907283
 20
-3.737268
  0
VERTEX
  8
PLAN_1
  6
CONTINUOUS
 10
0.904906
 20
-3.740598
  0
VERTEX
  8
PLAN_1
  6
CONTINUOUS
 10
0.902051
 20
-3.744406
  0
VERTEX
  8
PLAN_1
  6
CONTINUOUS
 10
0.899197
 20
-3.747736
  0
VERTEX
  8
PLAN_1
  6
CONTINUOUS
 10
0.895866
 20
-3.751067
  0
VERTEX
  8
PLAN_1
  6
CONTINUOUS
 10
0.892535
 20
-3.753921
  0
VERTEX
  8
PLAN_1
  6
CONTINUOUS
 10
0.889205
 20
-3.756776
  0
VERTEX
  8
PLAN_1
  6
CONTINUOUS
 10
0.885398
 20
-3.759630
  0
VERTEX
  8
PLAN_1
  6
CONTINUOUS
 10
0.881114
 20
-3.762012
  0
VERTEX
  8
PLAN_1
  6
CONTINUOUS
 10
0.876831
 20
-3.763913
  0
VERTEX
  8
PLAN_1
  6
CONTINUOUS
 10
0.872551
 20
-3.765815
  0
VERTEX
  8
PLAN_1
  6
CONTINUOUS
 10
0.867791
 20
-3.767720
  0
VERTEX
  8
PLAN_1
  6
CONTINUOUS
 10
0.863031
 20
-3.769146
  0
VERTEX
  8
PLAN_1
  6
CONTINUOUS
 10
0.857799
 20
-3.770098
  0
VERTEX
  8
PLAN_1
  6
CONTINUOUS
 10
0.852091
 20
-3.771051
  0
VERTEX
  8
PLAN_1
  6
CONTINUOUS
 10
0.846378
 20
-3.771528
  0
VERTEX
  8
PLAN_1
  6
CONTINUOUS
 10
0.840193
 20
-3.771528
  0
VERTEX
  8
PLAN_1
  6
CONTINUOUS
 10
0.760728
 20
-3.771528
  0
VERTEX
  8
PLAN_1
  6
CONTINUOUS
 10
0.760728
 20
-3.572154
  0
SEQEND
  8
0
  0
POLYLINE
  8
PLAN_1
  6
CONTINUOUS
 66
     1
 40
0.003000
 41
0.003000
  0
VERTEX
  8
PLAN_1
  6
CONTINUOUS
 10
0.787850
 20
-3.748685
  0
VERTEX
  8
PLAN_1
  6
CONTINUOUS
 10
0.839717
 20
-3.748685
  0
VERTEX
  8
PLAN_1
  6
CONTINUOUS
 10
0.846378
 20
-3.748213
  0
VERTEX
  8
PLAN_1
  6
CONTINUOUS
 10
0.852563
 20
-3.747260
  0
VERTEX
  8
PLAN_1
  6
CONTINUOUS
 10
0.858276
 20
-3.745831
  0
VERTEX
  8
PLAN_1
  6
CONTINUOUS
 10
0.863508
 20
-3.743453
  0
VERTEX
  8
PLAN_1
  6
CONTINUOUS
 10
0.868744
 20
-3.740598
  0
VERTEX
  8
PLAN_1
  6
CONTINUOUS
 10
0.873500
 20
-3.737268
  0
VERTEX
  8
PLAN_1
  6
CONTINUOUS
 10
0.877783
 20
-3.732984
  0
VERTEX
  8
PLAN_1
  6
CONTINUOUS
 10
0.881591
 20
-3.728701
  0
VERTEX
  8
PLAN_1
  6
CONTINUOUS
 10
0.885398
 20
-3.723469
  0
VERTEX
  8
PLAN_1
  6
CONTINUOUS
 10
0.888728
 20
-3.717283
  0
VERTEX
  8
PLAN_1
  6
CONTINUOUS
 10
0.891106
 20
-3.711094
  0
VERTEX
  8
PLAN_1
  6
CONTINUOUS
 10
0.893484
 20
-3.703961
  0
VERTEX
  8
PLAN_1
  6
CONTINUOUS
 10
0.895390
 20
-3.696823
  0
VERTEX
  8
PLAN_1
  6
CONTINUOUS
 10
0.896343
 20
-3.688732
  0
VERTEX
  8
PLAN_1
  6
CONTINUOUS
 10
0.897291
 20
-3.680169
  0
VERTEX
  8
PLAN_1
  6
CONTINUOUS
 10
0.897768
 20
-3.670650
  0
VERTEX
  8
PLAN_1
  6
CONTINUOUS
 10
0.897291
 20
-3.661610
  0
VERTEX
  8
PLAN_1
  6
CONTINUOUS
 10
0.896343
 20
-3.653043
  0
VERTEX
  8
PLAN_1
  6
CONTINUOUS
 10
0.895390
 20
-3.645433
  0
VERTEX
  8
PLAN_1
  6
CONTINUOUS
 10
0.893484
 20
-3.637819
  0
VERTEX
  8
PLAN_1
  6
CONTINUOUS
 10
0.891106
 20
-3.631157
  0
VERTEX
  8
PLAN_1
  6
CONTINUOUS
 10
0.888252
 20
-3.624972
  0
VERTEX
  8
PLAN_1
  6
CONTINUOUS
 10
0.884921
 20
-3.619260
  0
VERTEX
  8
PLAN_1
  6
CONTINUOUS
 10
0.881591
 20
-3.614028
  0
VERTEX
  8
PLAN_1
  6
CONTINUOUS
 10
0.877307
 20
-3.609744
  0
VERTEX
  8
PLAN_1
  6
CONTINUOUS
 10
0.873024
 20
-3.605937
  0
VERTEX
  8
PLAN_1
  6
CONTINUOUS
 10
0.867791
 20
-3.602606
  0
VERTEX
  8
PLAN_1
  6
CONTINUOUS
 10
0.862555
 20
-3.600228
  0
VERTEX
  8
PLAN_1
  6
CONTINUOUS
 10
0.856846
 20
-3.597850
  0
VERTEX
  8
PLAN_1
  6
CONTINUOUS
 10
0.851138
 20
-3.596421
  0
VERTEX
  8
PLAN_1
  6
CONTINUOUS
 10
0.844476
 20
-3.595469
  0
VERTEX
  8
PLAN_1
  6
CONTINUOUS
 10
0.837815
 20
-3.595469
  0
VERTEX
  8
PLAN_1
  6
CONTINUOUS
 10
0.787850
 20
-3.595469
  0
VERTEX
  8
PLAN_1
  6
CONTINUOUS
 10
0.787850
 20
-3.748685
  0
SEQEND
  8
0
  0
POLYLINE
  8
PLAN_1
  6
CONTINUOUS
 66
     1
 40
0.003000
 41
0.003000
  0
VERTEX
  8
PLAN_1
  6
CONTINUOUS
 10
1.001024
 20
-3.660657
  0
VERTEX
  8
PLAN_1
  6
CONTINUOUS
 10
1.002449
 20
-3.660657
  0
VERTEX
  8
PLAN_1
  6
CONTINUOUS
 10
1.003878
 20
-3.660657
  0
VERTEX
  8
PLAN_1
  6
CONTINUOUS
 10
1.005780
 20
-3.660657
  0
VERTEX
  8
PLAN_1
  6
CONTINUOUS
 10
1.007209
 20
-3.661134
  0
VERTEX
  8
PLAN_1
  6
CONTINUOUS
 10
1.009110
 20
-3.661134
  0
VERTEX
  8
PLAN_1
  6
CONTINUOUS
 10
1.010539
 20
-3.661134
  0
VERTEX
  8
PLAN_1
  6
CONTINUOUS
 10
1.011969
 20
-3.661134
  0
VERTEX
  8
PLAN_1
  6
CONTINUOUS
 10
1.013870
 20
-3.661134
  0
VERTEX
  8
PLAN_1
  6
CONTINUOUS
 10
1.020531
 20
-3.660657
  0
VERTEX
  8
PLAN_1
  6
CONTINUOUS
 10
1.027669
 20
-3.659709
  0
VERTEX
  8
PLAN_1
  6
CONTINUOUS
 10
1.030524
 20
-3.658756
  0
VERTEX
  8
PLAN_1
  6
CONTINUOUS
 10
1.033854
 20
-3.657327
  0
VERTEX
  8
PLAN_1
  6
CONTINUOUS
 10
1.036709
 20
-3.655902
  0
VERTEX
  8
PLAN_1
  6
CONTINUOUS
 10
1.039567
 20
-3.654472
  0
VERTEX
  8
PLAN_1
  6
CONTINUOUS
 10
1.041945
 20
-3.652094
  0
VERTEX
  8
PLAN_1
  6
CONTINUOUS
 10
1.043846
 20
-3.650189
  0
VERTEX
  8
PLAN_1
  6
CONTINUOUS
 10
1.046228
 20
-3.647335
  0
VERTEX
  8
PLAN_1
  6
CONTINUOUS
 10
1.047654
 20
-3.644480
  0
VERTEX
  8
PLAN_1
  6
CONTINUOUS
 10
1.049083
 20
-3.641150
  0
VERTEX
  8
PLAN_1
  6
CONTINUOUS
 10
1.050035
 20
-3.637343
  0
VERTEX
  8
PLAN_1
  6
CONTINUOUS
 10
1.050508
 20
-3.633535
  0
VERTEX
  8
PLAN_1
  6
CONTINUOUS
 10
1.050984
 20
-3.629252
  0
VERTEX
  8
PLAN_1
  6
CONTINUOUS
 10
1.050508
 20
-3.624496
  0
VERTEX
  8
PLAN_1
  6
CONTINUOUS
 10
1.049083
 20
-3.619260
  0
VERTEX
  8
PLAN_1
  6
CONTINUOUS
 10
1.048130
 20
-3.616882
  0
VERTEX
  8
PLAN_1
  6
CONTINUOUS
 10
1.047177
 20
-3.614504
  0
VERTEX
  8
PLAN_1
  6
CONTINUOUS
 10
1.045752
 20
-3.611650
  0
VERTEX
  8
PLAN_1
  6
CONTINUOUS
 10
1.043846
 20
-3.609268
  0
VERTEX
  8
PLAN_1
  6
CONTINUOUS
 10
1.041469
 20
-3.607366
  0
VERTEX
  8
PLAN_1
  6
CONTINUOUS
 10
1.039091
 20
-3.604988
  0
VERTEX
  8
PLAN_1
  6
CONTINUOUS
 10
1.036236
 20
-3.603083
  0
VERTEX
  8
PLAN_1
  6
CONTINUOUS
 10
1.032906
 20
-3.601657
  0
VERTEX
  8
PLAN_1
  6
CONTINUOUS
 10
1.029098
 20
-3.600228
  0
VERTEX
  8
PLAN_1
  6
CONTINUOUS
 10
1.024815
 20
-3.599276
  0
VERTEX
  8
PLAN_1
  6
CONTINUOUS
 10
1.020055
 20
-3.598799
  0
VERTEX
  8
PLAN_1
  6
CONTINUOUS
 10
1.014823
 20
-3.598327
  0
VERTEX
  8
PLAN_1
  6
CONTINUOUS
 10
1.008638
 20
-3.598799
  0
VERTEX
  8
PLAN_1
  6
CONTINUOUS
 10
1.003402
 20
-3.599752
  0
VERTEX
  8
PLAN_1
  6
CONTINUOUS
 10
0.998646
 20
-3.601181
  0
VERTEX
  8
PLAN_1
  6
CONTINUOUS
 10
0.994362
 20
-3.603083
  0
VERTEX
  8
PLAN_1
  6
CONTINUOUS
 10
0.991031
 20
-3.605461
  0
VERTEX
  8
PLAN_1
  6
CONTINUOUS
 10
0.987701
 20
-3.607843
  0
VERTEX
  8
PLAN_1
  6
CONTINUOUS
 10
0.985319
 20
-3.611173
  0
VERTEX
  8
PLAN_1
  6
CONTINUOUS
 10
0.982941
 20
-3.614028
  0
VERTEX
  8
PLAN_1
  6
CONTINUOUS
 10
0.981516
 20
-3.617835
  0
VERTEX
  8
PLAN_1
  6
CONTINUOUS
 10
0.980087
 20
-3.621165
  0
VERTEX
  8
PLAN_1
  6
CONTINUOUS
 10
0.979134
 20
-3.624496
  0
VERTEX
  8
PLAN_1
  6
CONTINUOUS
 10
0.978185
 20
-3.627827
  0
VERTEX
  8
PLAN_1
  6
CONTINUOUS
 10
0.977232
 20
-3.634488
  0
VERTEX
  8
PLAN_1
  6
CONTINUOUS
 10
0.976756
 20
-3.640197
  0
VERTEX
  8
PLAN_1
  6
CONTINUOUS
 10
0.952965
 20
-3.640197
  0
VERTEX
  8
PLAN_1
  6
CONTINUOUS
 10
0.952965
 20
-3.634965
  0
VERTEX
  8
PLAN_1
  6
CONTINUOUS
 10
0.953441
 20
-3.629252
  0
VERTEX
  8
PLAN_1
  6
CONTINUOUS
 10
0.954394
 20
-3.624020
  0
VERTEX
  8
PLAN_1
  6
CONTINUOUS
 10
0.955343
 20
-3.618311
  0
VERTEX
  8
PLAN_1
  6
CONTINUOUS
 10
0.957248
 20
-3.612598
  0
VERTEX
  8
PLAN_1
  6
CONTINUOUS
 10
0.959150
 20
-3.607366
  0
VERTEX
  8
PLAN_1
  6
CONTINUOUS
 10
0.962004
 20
-3.602606
  0
VERTEX
  8
PLAN_1
  6
CONTINUOUS
 10
0.965335
 20
-3.597850
  0
VERTEX
  8
PLAN_1
  6
CONTINUOUS
 10
0.969142
 20
-3.593091
  0
VERTEX
  8
PLAN_1
  6
CONTINUOUS
 10
0.973425
 20
-3.589283
  0
VERTEX
  8
PLAN_1
  6
CONTINUOUS
 10
0.978657
 20
-3.585476
  0
VERTEX
  8
PLAN_1
  6
CONTINUOUS
 10
0.984370
 20
-3.582622
  0
VERTEX
  8
PLAN_1
  6
CONTINUOUS
 10
0.991031
 20
-3.579768
  0
VERTEX
  8
PLAN_1
  6
CONTINUOUS
 10
0.998646
 20
-3.577862
  0
VERTEX
  8
PLAN_1
  6
CONTINUOUS
 10
1.006732
 20
-3.576913
  0
VERTEX
  8
PLAN_1
  6
CONTINUOUS
 10
1.015776
 20
-3.576437
  0
VERTEX
  8
PLAN_1
  6
CONTINUOUS
 10
1.022909
 20
-3.576913
  0
VERTEX
  8
PLAN_1
  6
CONTINUOUS
 10
1.029098
 20
-3.577390
  0
VERTEX
  8
PLAN_1
  6
CONTINUOUS
 10
1.035283
 20
-3.578815
  0
VERTEX
  8
PLAN_1
  6
CONTINUOUS
 10
1.040992
 20
-3.580244
  0
VERTEX
  8
PLAN_1
  6
CONTINUOUS
 10
1.046701
 20
-3.582622
  0
VERTEX
  8
PLAN_1
  6
CONTINUOUS
 10
1.051461
 20
-3.585000
  0
VERTEX
  8
PLAN_1
  6
CONTINUOUS
 10
1.056220
 20
-3.587858
  0
VERTEX
  8
PLAN_1
  6
CONTINUOUS
 10
1.060028
 20
-3.591189
  0
VERTEX
  8
PLAN_1
  6
CONTINUOUS
 10
1.063831
 20
-3.594520
  0
VERTEX
  8
PLAN_1
  6
CONTINUOUS
 10
1.067161
 20
-3.598327
  0
VERTEX
  8
PLAN_1
  6
CONTINUOUS
 10
1.069543
 20
-3.602606
  0
VERTEX
  8
PLAN_1
  6
CONTINUOUS
 10
1.071921
 20
-3.607366
  0
VERTEX
  8
PLAN_1
  6
CONTINUOUS
 10
1.073827
 20
-3.612122
  0
VERTEX
  8
PLAN_1
  6
CONTINUOUS
 10
1.075252
 20
-3.616882
  0
VERTEX
  8
PLAN_1
  6
CONTINUOUS
 10
1.075728
 20
-3.622118
  0
VERTEX
  8
PLAN_1
  6
CONTINUOUS
 10
1.076205
 20
-3.627827
  0
VERTEX
  8
PLAN_1
  6
CONTINUOUS
 10
1.075728
 20
-3.632110
  0
VERTEX
  8
PLAN_1
  6
CONTINUOUS
 10
1.075252
 20
-3.636390
  0
VERTEX
  8
PLAN_1
  6
CONTINUOUS
 10
1.074776
 20
-3.640673
  0
VERTEX
  8
PLAN_1
  6
CONTINUOUS
 10
1.073827
 20
-3.644004
  0
VERTEX
  8
PLAN_1
  6
CONTINUOUS
 10
1.072398
 20
-3.647335
  0
VERTEX
  8
PLAN_1
  6
CONTINUOUS
 10
1.070969
 20
-3.650665
  0
VERTEX
  8
PLAN_1
  6
CONTINUOUS
 10
1.069543
 20
-3.653520
  0
VERTEX
  8
PLAN_1
  6
CONTINUOUS
 10
1.067638
 20
-3.655902
  0
VERTEX
  8
PLAN_1
  6
CONTINUOUS
 10
1.063831
 20
-3.660657
  0
VERTEX
  8
PLAN_1
  6
CONTINUOUS
 10
1.059551
 20
-3.663988
  0
VERTEX
  8
PLAN_1
  6
CONTINUOUS
 10
1.055268
 20
-3.666370
  0
VERTEX
  8
PLAN_1
  6
CONTINUOUS
 10
1.050984
 20
-3.668272
  0
VERTEX
  8
PLAN_1
  6
CONTINUOUS
 10
1.050984
 20
-3.668748
  0
VERTEX
  8
PLAN_1
  6
CONTINUOUS
 10
1.058122
 20
-3.671126
  0
VERTEX
  8
PLAN_1
  6
CONTINUOUS
 10
1.064307
 20
-3.674457
  0
VERTEX
  8
PLAN_1
  6
CONTINUOUS
 10
1.067161
 20
-3.676835
  0
VERTEX
  8
PLAN_1
  6
CONTINUOUS
 10
1.069543
 20
-3.678740
  0
VERTEX
  8
PLAN_1
  6
CONTINUOUS
 10
1.072398
 20
-3.681118
  0
VERTEX
  8
PLAN_1
  6
CONTINUOUS
 10
1.074299
 20
-3.683972
  0
VERTEX
  8
PLAN_1
  6
CONTINUOUS
 10
1.076681
 20
-3.686831
  0
VERTEX
  8
PLAN_1
  6
CONTINUOUS
 10
1.078106
 20
-3.689685
  0
VERTEX
  8
PLAN_1
  6
CONTINUOUS
 10
1.080012
 20
-3.693016
  0
VERTEX
  8
PLAN_1
  6
CONTINUOUS
 10
1.080961
 20
-3.696823
  0
VERTEX
  8
PLAN_1
  6
CONTINUOUS
 10
1.082390
 20
-3.700630
  0
VERTEX
  8
PLAN_1
  6
CONTINUOUS
 10
1.082866
 20
-3.704909
  0
VERTEX
  8
PLAN_1
  6
CONTINUOUS
 10
1.083343
 20
-3.709193
  0
VERTEX
  8
PLAN_1
  6
CONTINUOUS
 10
1.083819
 20
-3.713953
  0
VERTEX
  8
PLAN_1
  6
CONTINUOUS
 10
1.083343
 20
-3.720138
  0
VERTEX
  8
PLAN_1
  6
CONTINUOUS
 10
1.082390
 20
-3.725846
  0
VERTEX
  8
PLAN_1
  6
CONTINUOUS
 10
1.081437
 20
-3.731555
  0
VERTEX
  8
PLAN_1
  6
CONTINUOUS
 10
1.079535
 20
-3.737268
  0
VERTEX
  8
PLAN_1
  6
CONTINUOUS
 10
1.077157
 20
-3.742976
  0
VERTEX
  8
PLAN_1
  6
CONTINUOUS
 10
1.074299
 20
-3.748213
  0
VERTEX
  8
PLAN_1
  6
CONTINUOUS
 10
1.070969
 20
-3.752969
  0
VERTEX
  8
PLAN_1
  6
CONTINUOUS
 10
1.067161
 20
-3.757252
  0
VERTEX
  8
PLAN_1
  6
CONTINUOUS
 10
1.062406
 20
-3.761535
  0
VERTEX
  8
PLAN_1
  6
CONTINUOUS
 10
1.057646
 20
-3.765343
  0
VERTEX
  8
PLAN_1
  6
CONTINUOUS
 10
1.051461
 20
-3.768673
  0
VERTEX
  8
PLAN_1
  6
CONTINUOUS
 10
1.045276
 20
-3.771528
  0
VERTEX
  8
PLAN_1
  6
CONTINUOUS
 10
1.038138
 20
-3.773906
  0
VERTEX
  8
PLAN_1
  6
CONTINUOUS
 10
1.030524
 20
-3.775335
  0
VERTEX
  8
PLAN_1
  6
CONTINUOUS
 10
1.022437
 20
-3.776283
  0
VERTEX
  8
PLAN_1
  6
CONTINUOUS
 10
1.013394
 20
-3.776760
  0
VERTEX
  8
PLAN_1
  6
CONTINUOUS
 10
1.008161
 20
-3.776760
  0
VERTEX
  8
PLAN_1
  6
CONTINUOUS
 10
1.002925
 20
-3.776283
  0
VERTEX
  8
PLAN_1
  6
CONTINUOUS
 10
0.998169
 20
-3.775335
  0
VERTEX
  8
PLAN_1
  6
CONTINUOUS
 10
0.993409
 20
-3.774382
  0
VERTEX
  8
PLAN_1
  6
CONTINUOUS
 10
0.989126
 20
-3.772953
  0
VERTEX
  8
PLAN_1
  6
CONTINUOUS
 10
0.984846
 20
-3.771528
  0
VERTEX
  8
PLAN_1
  6
CONTINUOUS
 10
0.981039
 20
-3.770098
  0
VERTEX
  8
PLAN_1
  6
CONTINUOUS
 10
0.977232
 20
-3.768197
  0
VERTEX
  8
PLAN_1
  6
CONTINUOUS
 10
0.973425
 20
-3.765815
  0
VERTEX
  8
PLAN_1
  6
CONTINUOUS
 10
0.970094
 20
-3.763437
  0
VERTEX
  8
PLAN_1
  6
CONTINUOUS
 10
0.966764
 20
-3.760583
  0
VERTEX
  8
PLAN_1
  6
CONTINUOUS
 10
0.963909
 20
-3.757728
  0
VERTEX
  8
PLAN_1
  6
CONTINUOUS
 10
0.961055
 20
-3.754874
  0
VERTEX
  8
PLAN_1
  6
CONTINUOUS
 10
0.959150
 20
-3.751543
  0
VERTEX
  8
PLAN_1
  6
CONTINUOUS
 10
0.956772
 20
-3.747736
  0
VERTEX
  8
PLAN_1
  6
CONTINUOUS
 10
0.955343
 20
-3.744406
  0
VERTEX
  8
PLAN_1
  6
CONTINUOUS
 10
0.952488
 20
-3.736791
  0
VERTEX
  8
PLAN_1
  6
CONTINUOUS
 10
0.950587
 20
-3.728701
  0
VERTEX
  8
PLAN_1
  6
CONTINUOUS
 10
0.949157
 20
-3.720138
  0
VERTEX
  8
PLAN_1
  6
CONTINUOUS
 10
0.948205
 20
-3.712047
  0
VERTEX
  8
PLAN_1
  6
CONTINUOUS
 10
0.973425
 20
-3.712047
  0
VERTEX
  8
PLAN_1
  6
CONTINUOUS
 10
0.973902
 20
-3.719185
  0
VERTEX
  8
PLAN_1
  6
CONTINUOUS
 10
0.975327
 20
-3.726323
  0
VERTEX
  8
PLAN_1
  6
CONTINUOUS
 10
0.976280
 20
-3.730130
  0
VERTEX
  8
PLAN_1
  6
CONTINUOUS
 10
0.977232
 20
-3.733461
  0
VERTEX
  8
PLAN_1
  6
CONTINUOUS
 10
0.979134
 20
-3.736791
  0
VERTEX
  8
PLAN_1
  6
CONTINUOUS
 10
0.981039
 20
-3.740122
  0
VERTEX
  8
PLAN_1
  6
CONTINUOUS
 10
0.983417
 20
-3.743453
  0
VERTEX
  8
PLAN_1
  6
CONTINUOUS
 10
0.986272
 20
-3.746307
  0
VERTEX
  8
PLAN_1
  6
CONTINUOUS
 10
0.989602
 20
-3.748685
  0
VERTEX
  8
PLAN_1
  6
CONTINUOUS
 10
0.993409
 20
-3.750591
  0
VERTEX
  8
PLAN_1
  6
CONTINUOUS
 10
0.997693
 20
-3.752492
  0
VERTEX
  8
PLAN_1
  6
CONTINUOUS
 10
1.002925
 20
-3.753921
  0
VERTEX
  8
PLAN_1
  6
CONTINUOUS
 10
1.008638
 20
-3.754874
  0
VERTEX
  8
PLAN_1
  6
CONTINUOUS
 10
1.014823
 20
-3.754874
  0
VERTEX
  8
PLAN_1
  6
CONTINUOUS
 10
1.019579
 20
-3.754874
  0
VERTEX
  8
PLAN_1
  6
CONTINUOUS
 10
1.023862
 20
-3.754398
  0
VERTEX
  8
PLAN_1
  6
CONTINUOUS
 10
1.028146
 20
-3.753445
  0
VERTEX
  8
PLAN_1
  6
CONTINUOUS
 10
1.032429
 20
-3.752016
  0
VERTEX
  8
PLAN_1
  6
CONTINUOUS
 10
1.035760
 20
-3.750591
  0
VERTEX
  8
PLAN_1
  6
CONTINUOUS
 10
1.039567
 20
-3.748685
  0
VERTEX
  8
PLAN_1
  6
CONTINUOUS
 10
1.042898
 20
-3.746783
  0
VERTEX
  8
PLAN_1
  6
CONTINUOUS
 10
1.045752
 20
-3.744406
  0
VERTEX
  8
PLAN_1
  6
CONTINUOUS
 10
1.048130
 20
-3.742024
  0
VERTEX
  8
PLAN_1
  6
CONTINUOUS
 10
1.050508
 20
-3.739169
  0
VERTEX
  8
PLAN_1
  6
CONTINUOUS
 10
1.052890
 20
-3.735839
  0
VERTEX
  8
PLAN_1
  6
CONTINUOUS
 10
1.054315
 20
-3.732508
  0
VERTEX
  8
PLAN_1
  6
CONTINUOUS
 10
1.055744
 20
-3.729177
  0
VERTEX
  8
PLAN_1
  6
CONTINUOUS
 10
1.056697
 20
-3.725370
  0
VERTEX
  8
PLAN_1
  6
CONTINUOUS
 10
1.057169
 20
-3.721091
  0
VERTEX
  8
PLAN_1
  6
CONTINUOUS
 10
1.057646
 20
-3.717283
  0
VERTEX
  8
PLAN_1
  6
CONTINUOUS
 10
1.057169
 20
-3.711571
  0
VERTEX
  8
PLAN_1
  6
CONTINUOUS
 10
1.056220
 20
-3.706339
  0
VERTEX
  8
PLAN_1
  6
CONTINUOUS
 10
1.054791
 20
-3.701579
  0
VERTEX
  8
PLAN_1
  6
CONTINUOUS
 10
1.052890
 20
-3.697772
  0
VERTEX
  8
PLAN_1
  6
CONTINUOUS
 10
1.050508
 20
-3.694441
  0
VERTEX
  8
PLAN_1
  6
CONTINUOUS
 10
1.047654
 20
-3.691587
  0
VERTEX
  8
PLAN_1
  6
CONTINUOUS
 10
1.044323
 20
-3.689209
  0
VERTEX
  8
PLAN_1
  6
CONTINUOUS
 10
1.040992
 20
-3.686831
  0
VERTEX
  8
PLAN_1
  6
CONTINUOUS
 10
1.037185
 20
-3.685402
  0
VERTEX
  8
PLAN_1
  6
CONTINUOUS
 10
1.033854
 20
-3.683972
  0
VERTEX
  8
PLAN_1
  6
CONTINUOUS
 10
1.030047
 20
-3.683024
  0
VERTEX
  8
PLAN_1
  6
CONTINUOUS
 10
1.026240
 20
-3.682547
  0
VERTEX
  8
PLAN_1
  6
CONTINUOUS
 10
1.018630
 20
-3.681594
  0
VERTEX
  8
PLAN_1
  6
CONTINUOUS
 10
1.011969
 20
-3.681594
  0
VERTEX
  8
PLAN_1
  6
CONTINUOUS
 10
1.010539
 20
-3.681594
  0
VERTEX
  8
PLAN_1
  6
CONTINUOUS
 10
1.009110
 20
-3.681594
  0
VERTEX
  8
PLAN_1
  6
CONTINUOUS
 10
1.007685
 20
-3.681594
  0
VERTEX
  8
PLAN_1
  6
CONTINUOUS
 10
1.006256
 20
-3.681594
  0
VERTEX
  8
PLAN_1
  6
CONTINUOUS
 10
1.004831
 20
-3.681594
  0
VERTEX
  8
PLAN_1
  6
CONTINUOUS
 10
1.003878
 20
-3.681594
  0
VERTEX
  8
PLAN_1
  6
CONTINUOUS
 10
1.002449
 20
-3.681594
  0
VERTEX
  8
PLAN_1
  6
CONTINUOUS
 10
1.001024
 20
-3.681594
  0
VERTEX
  8
PLAN_1
  6
CONTINUOUS
 10
1.001024
 20
-3.660657
  0
SEQEND
  8
0
  0
POLYLINE
  8
PLAN_1
  6
CONTINUOUS
 66
     1
 40
0.003000
 41
0.003000
  0
VERTEX
  8
PLAN_1
  6
CONTINUOUS
 10
1.104752
 20
-3.643528
  0
VERTEX
  8
PLAN_1
  6
CONTINUOUS
 10
1.105228
 20
-3.636866
  0
VERTEX
  8
PLAN_1
  6
CONTINUOUS
 10
1.105705
 20
-3.630205
  0
VERTEX
  8
PLAN_1
  6
CONTINUOUS
 10
1.107134
 20
-3.624020
  0
VERTEX
  8
PLAN_1
  6
CONTINUOUS
 10
1.108559
 20
-3.617835
  0
VERTEX
  8
PLAN_1
  6
CONTINUOUS
 10
1.110941
 20
-3.612122
  0
VERTEX
  8
PLAN_1
  6
CONTINUOUS
 10
1.113795
 20
-3.606413
  0
VERTEX
  8
PLAN_1
  6
CONTINUOUS
 10
1.117126
 20
-3.601181
  0
VERTEX
  8
PLAN_1
  6
CONTINUOUS
 10
1.120933
 20
-3.596421
  0
VERTEX
  8
PLAN_1
  6
CONTINUOUS
 10
1.124740
 20
-3.592138
  0
VERTEX
  8
PLAN_1
  6
CONTINUOUS
 10
1.129496
 20
-3.588331
  0
VERTEX
  8
PLAN_1
  6
CONTINUOUS
 10
1.134732
 20
-3.585000
  0
VERTEX
  8
PLAN_1
  6
CONTINUOUS
 10
1.140441
 20
-3.582146
  0
VERTEX
  8
PLAN_1
  6
CONTINUOUS
 10
1.146626
 20
-3.579768
  0
VERTEX
  8
PLAN_1
  6
CONTINUOUS
 10
1.152811
 20
-3.577862
  0
VERTEX
  8
PLAN_1
  6
CONTINUOUS
 10
1.159949
 20
-3.576913
  0
VERTEX
  8
PLAN_1
  6
CONTINUOUS
 10
1.167563
 20
-3.576437
  0
VERTEX
  8
PLAN_1
  6
CONTINUOUS
 10
1.173272
 20
-3.576437
  0
VERTEX
  8
PLAN_1
  6
CONTINUOUS
 10
1.178508
 20
-3.576913
  0
VERTEX
  8
PLAN_1
  6
CONTINUOUS
 10
1.183740
 20
-3.577862
  0
VERTEX
  8
PLAN_1
  6
CONTINUOUS
 10
1.188500
 20
-3.579291
  0
VERTEX
  8
PLAN_1
  6
CONTINUOUS
 10
1.192783
 20
-3.580244
  0
VERTEX
  8
PLAN_1
  6
CONTINUOUS
 10
1.197063
 20
-3.582146
  0
VERTEX
  8
PLAN_1
  6
CONTINUOUS
 10
1.200870
 20
-3.584051
  0
VERTEX
  8
PLAN_1
  6
CONTINUOUS
 10
1.204201
 20
-3.585953
  0
VERTEX
  8
PLAN_1
  6
CONTINUOUS
 10
1.207531
 20
-3.588331
  0
VERTEX
  8
PLAN_1
  6
CONTINUOUS
 10
1.210862
 20
-3.591189
  0
VERTEX
  8
PLAN_1
  6
CONTINUOUS
 10
1.213720
 20
-3.594043
  0
VERTEX
  8
PLAN_1
  6
CONTINUOUS
 10
1.216575
 20
-3.596898
  0
VERTEX
  8
PLAN_1
  6
CONTINUOUS
 10
1.220854
 20
-3.603083
  0
VERTEX
  8
PLAN_1
  6
CONTINUOUS
 10
1.225138
 20
-3.609744
  0
VERTEX
  8
PLAN_1
  6
CONTINUOUS
 10
1.227992
 20
-3.616882
  0
VERTEX
  8
PLAN_1
  6
CONTINUOUS
 10
1.230374
 20
-3.624496
  0
VERTEX
  8
PLAN_1
  6
CONTINUOUS
 10
1.232276
 20
-3.632110
  0
VERTEX
  8
PLAN_1
  6
CONTINUOUS
 10
1.233705
 20
-3.639248
  0
VERTEX
  8
PLAN_1
  6
CONTINUOUS
 10
1.234654
 20
-3.646858
  0
VERTEX
  8
PLAN_1
  6
CONTINUOUS
 10
1.235606
 20
-3.653996
  0
VERTEX
  8
PLAN_1
  6
CONTINUOUS
 10
1.235606
 20
-3.660657
  0
VERTEX
  8
PLAN_1
  6
CONTINUOUS
 10
1.235606
 20
-3.666843
  0
VERTEX
  8
PLAN_1
  6
CONTINUOUS
 10
1.235606
 20
-3.677787
  0
VERTEX
  8
PLAN_1
  6
CONTINUOUS
 10
1.234181
 20
-3.693016
  0
VERTEX
  8
PLAN_1
  6
CONTINUOUS
 10
1.232752
 20
-3.701579
  0
VERTEX
  8
PLAN_1
  6
CONTINUOUS
 10
1.230850
 20
-3.711094
  0
VERTEX
  8
PLAN_1
  6
CONTINUOUS
 10
1.228469
 20
-3.720138
  0
VERTEX
  8
PLAN_1
  6
CONTINUOUS
 10
1.225614
 20
-3.729654
  0
VERTEX
  8
PLAN_1
  6
CONTINUOUS
 10
1.223713
 20
-3.734413
  0
VERTEX
  8
PLAN_1
  6
CONTINUOUS
 10
1.221807
 20
-3.738693
  0
VERTEX
  8
PLAN_1
  6
CONTINUOUS
 10
1.219429
 20
-3.743453
  0
VERTEX
  8
PLAN_1
  6
CONTINUOUS
 10
1.217051
 20
-3.747736
  0
VERTEX
  8
PLAN_1
  6
CONTINUOUS
 10
1.214193
 20
-3.751543
  0
VERTEX
  8
PLAN_1
  6
CONTINUOUS
 10
1.211339
 20
-3.755346
  0
VERTEX
  8
PLAN_1
  6
CONTINUOUS
 10
1.208008
 20
-3.759154
  0
VERTEX
  8
PLAN_1
  6
CONTINUOUS
 10
1.204201
 20
-3.762484
  0
VERTEX
  8
PLAN_1
  6
CONTINUOUS
 10
1.200394
 20
-3.765815
  0
VERTEX
  8
PLAN_1
  6
CONTINUOUS
 10
1.196591
 20
-3.768673
  0
VERTEX
  8
PLAN_1
  6
CONTINUOUS
 10
1.191831
 20
-3.771051
  0
VERTEX
  8
PLAN_1
  6
CONTINUOUS
 10
1.187547
 20
-3.772953
  0
VERTEX
  8
PLAN_1
  6
CONTINUOUS
 10
1.182315
 20
-3.774858
  0
VERTEX
  8
PLAN_1
  6
CONTINUOUS
 10
1.177079
 20
-3.775807
  0
VERTEX
  8
PLAN_1
  6
CONTINUOUS
 10
1.170894
 20
-3.776760
  0
VERTEX
  8
PLAN_1
  6
CONTINUOUS
 10
1.165185
 20
-3.776760
  0
VERTEX
  8
PLAN_1
  6
CONTINUOUS
 10
1.156618
 20
-3.776283
  0
VERTEX
  8
PLAN_1
  6
CONTINUOUS
 10
1.149480
 20
-3.775335
  0
VERTEX
  8
PLAN_1
  6
CONTINUOUS
 10
1.142819
 20
-3.773429
  0
VERTEX
  8
PLAN_1
  6
CONTINUOUS
 10
1.136634
 20
-3.771528
  0
VERTEX
  8
PLAN_1
  6
CONTINUOUS
 10
1.131402
 20
-3.768673
  0
VERTEX
  8
PLAN_1
  6
CONTINUOUS
 10
1.126642
 20
-3.765343
  0
VERTEX
  8
PLAN_1
  6
CONTINUOUS
 10
1.122358
 20
-3.761535
  0
VERTEX
  8
PLAN_1
  6
CONTINUOUS
 10
1.119028
 20
-3.757728
  0
VERTEX
  8
PLAN_1
  6
CONTINUOUS
 10
1.115697
 20
-3.753921
  0
VERTEX
  8
PLAN_1
  6
CONTINUOUS
 10
1.113319
 20
-3.749638
  0
VERTEX
  8
PLAN_1
  6
CONTINUOUS
 10
1.111417
 20
-3.745354
  0
VERTEX
  8
PLAN_1
  6
CONTINUOUS
 10
1.109512
 20
-3.740598
  0
VERTEX
  8
PLAN_1
  6
CONTINUOUS
 10
1.108559
 20
-3.736315
  0
VERTEX
  8
PLAN_1
  6
CONTINUOUS
 10
1.107610
 20
-3.732508
  0
VERTEX
  8
PLAN_1
  6
CONTINUOUS
 10
1.107134
 20
-3.728224
  0
VERTEX
  8
PLAN_1
  6
CONTINUOUS
 10
1.107134
 20
-3.724894
  0
VERTEX
  8
PLAN_1
  6
CONTINUOUS
 10
1.131402
 20
-3.724894
  0
VERTEX
  8
PLAN_1
  6
CONTINUOUS
 10
1.131878
 20
-3.728224
  0
VERTEX
  8
PLAN_1
  6
CONTINUOUS
 10
1.132350
 20
-3.731555
  0
VERTEX
  8
PLAN_1
  6
CONTINUOUS
 10
1.133303
 20
-3.734886
  0
VERTEX
  8
PLAN_1
  6
CONTINUOUS
 10
1.134256
 20
-3.737744
  0
VERTEX
  8
PLAN_1
  6
CONTINUOUS
 10
1.135681
 20
-3.740598
  0
VERTEX
  8
PLAN_1
  6
CONTINUOUS
 10
1.137110
 20
-3.743453
  0
VERTEX
  8
PLAN_1
  6
CONTINUOUS
 10
1.139012
 20
-3.745831
  0
VERTEX
  8
PLAN_1
  6
CONTINUOUS
 10
1.140917
 20
-3.748213
  0
VERTEX
  8
PLAN_1
  6
CONTINUOUS
 10
1.143295
 20
-3.750114
  0
VERTEX
  8
PLAN_1
  6
CONTINUOUS
 10
1.145673
 20
-3.751543
  0
VERTEX
  8
PLAN_1
  6
CONTINUOUS
 10
1.148055
 20
-3.752969
  0
VERTEX
  8
PLAN_1
  6
CONTINUOUS
 10
1.150909
 20
-3.754398
  0
VERTEX
  8
PLAN_1
  6
CONTINUOUS
 10
1.154240
 20
-3.755346
  0
VERTEX
  8
PLAN_1
  6
CONTINUOUS
 10
1.157094
 20
-3.755823
  0
VERTEX
  8
PLAN_1
  6
CONTINUOUS
 10
1.160902
 20
-3.756299
  0
VERTEX
  8
PLAN_1
  6
CONTINUOUS
 10
1.164232
 20
-3.756776
  0
VERTEX
  8
PLAN_1
  6
CONTINUOUS
 10
1.169465
 20
-3.756299
  0
VERTEX
  8
PLAN_1
  6
CONTINUOUS
 10
1.173748
 20
-3.755346
  0
VERTEX
  8
PLAN_1
  6
CONTINUOUS
 10
1.178031
 20
-3.754398
  0
VERTEX
  8
PLAN_1
  6
CONTINUOUS
 10
1.182315
 20
-3.752492
  0
VERTEX
  8
PLAN_1
  6
CONTINUOUS
 10
1.185646
 20
-3.749638
  0
VERTEX
  8
PLAN_1
  6
CONTINUOUS
 10
1.189453
 20
-3.746783
  0
VERTEX
  8
PLAN_1
  6
CONTINUOUS
 10
1.192783
 20
-3.743453
  0
VERTEX
  8
PLAN_1
  6
CONTINUOUS
 10
1.195638
 20
-3.739169
  0
VERTEX
  8
PLAN_1
  6
CONTINUOUS
 10
1.198492
 20
-3.734413
  0
VERTEX
  8
PLAN_1
  6
CONTINUOUS
 10
1.200870
 20
-3.728701
  0
VERTEX
  8
PLAN_1
  6
CONTINUOUS
 10
1.203252
 20
-3.722992
  0
VERTEX
  8
PLAN_1
  6
CONTINUOUS
 10
1.205154
 20
-3.716331
  0
VERTEX
  8
PLAN_1
  6
CONTINUOUS
 10
1.207055
 20
-3.709193
  0
VERTEX
  8
PLAN_1
  6
CONTINUOUS
 10
1.208484
 20
-3.701102
  0
VERTEX
  8
PLAN_1
  6
CONTINUOUS
 10
1.209913
 20
-3.692539
  0
VERTEX
  8
PLAN_1
  6
CONTINUOUS
 10
1.211339
 20
-3.683500
  0
VERTEX
  8
PLAN_1
  6
CONTINUOUS
 10
1.210862
 20
-3.683024
  0
VERTEX
  8
PLAN_1
  6
CONTINUOUS
 10
1.209437
 20
-3.685878
  0
VERTEX
  8
PLAN_1
  6
CONTINUOUS
 10
1.207531
 20
-3.688256
  0
VERTEX
  8
PLAN_1
  6
CONTINUOUS
 10
1.205630
 20
-3.690634
  0
VERTEX
  8
PLAN_1
  6
CONTINUOUS
 10
1.203252
 20
-3.693016
  0
VERTEX
  8
PLAN_1
  6
CONTINUOUS
 10
1.198016
 20
-3.696823
  0
VERTEX
  8
PLAN_1
  6
CONTINUOUS
 10
1.192307
 20
-3.700154
  0
VERTEX
  8
PLAN_1
  6
CONTINUOUS
 10
1.186122
 20
-3.703008
  0
VERTEX
  8
PLAN_1
  6
CONTINUOUS
 10
1.179461
 20
-3.704909
  0
VERTEX
  8
PLAN_1
  6
CONTINUOUS
 10
1.172799
 20
-3.705862
  0
VERTEX
  8
PLAN_1
  6
CONTINUOUS
 10
1.166134
 20
-3.706339
  0
VERTEX
  8
PLAN_1
  6
CONTINUOUS
 10
1.159472
 20
-3.705862
  0
VERTEX
  8
PLAN_1
  6
CONTINUOUS
 10
1.153287
 20
-3.705386
  0
VERTEX
  8
PLAN_1
  6
CONTINUOUS
 10
1.147102
 20
-3.703961
  0
VERTEX
  8
PLAN_1
  6
CONTINUOUS
 10
1.141394
 20
-3.702055
  0
VERTEX
  8
PLAN_1
  6
CONTINUOUS
 10
1.135681
 20
-3.699677
  0
VERTEX
  8
PLAN_1
  6
CONTINUOUS
 10
1.130925
 20
-3.696823
  0
VERTEX
  8
PLAN_1
  6
CONTINUOUS
 10
1.126165
 20
-3.693492
  0
VERTEX
  8
PLAN_1
  6
CONTINUOUS
 10
1.121882
 20
-3.689209
  0
VERTEX
  8
PLAN_1
  6
CONTINUOUS
 10
1.118079
 20
-3.684925
  0
VERTEX
  8
PLAN_1
  6
CONTINUOUS
 10
1.114748
 20
-3.680169
  0
VERTEX
  8
PLAN_1
  6
CONTINUOUS
 10
1.111890
 20
-3.675409
  0
VERTEX
  8
PLAN_1
  6
CONTINUOUS
 10
1.109035
 20
-3.669701
  0
VERTEX
  8
PLAN_1
  6
CONTINUOUS
 10
1.107134
 20
-3.663512
  0
VERTEX
  8
PLAN_1
  6
CONTINUOUS
 10
1.105705
 20
-3.657327
  0
VERTEX
  8
PLAN_1
  6
CONTINUOUS
 10
1.105228
 20
-3.650665
  0
VERTEX
  8
PLAN_1
  6
CONTINUOUS
 10
1.104752
 20
-3.643528
  0
SEQEND
  8
0
  0
POLYLINE
  8
PLAN_1
  6
CONTINUOUS
 66
     1
 40
0.003000
 41
0.003000
  0
VERTEX
  8
PLAN_1
  6
CONTINUOUS
 10
1.207055
 20
-3.640197
  0
VERTEX
  8
PLAN_1
  6
CONTINUOUS
 10
1.207055
 20
-3.635913
  0
VERTEX
  8
PLAN_1
  6
CONTINUOUS
 10
1.206583
 20
-3.631634
  0
VERTEX
  8
PLAN_1
  6
CONTINUOUS
 10
1.206106
 20
-3.627827
  0
VERTEX
  8
PLAN_1
  6
CONTINUOUS
 10
1.205154
 20
-3.624020
  0
VERTEX
  8
PLAN_1
  6
CONTINUOUS
 10
1.203724
 20
-3.620689
  0
VERTEX
  8
PLAN_1
  6
CONTINUOUS
 10
1.202299
 20
-3.616882
  0
VERTEX
  8
PLAN_1
  6
CONTINUOUS
 10
1.200394
 20
-3.614028
  0
VERTEX
  8
PLAN_1
  6
CONTINUOUS
 10
1.198016
 20
-3.610697
  0
VERTEX
  8
PLAN_1
  6
CONTINUOUS
 10
1.195638
 20
-3.608319
  0
VERTEX
  8
PLAN_1
  6
CONTINUOUS
 10
1.192307
 20
-3.605937
  0
VERTEX
  8
PLAN_1
  6
CONTINUOUS
 10
1.189453
 20
-3.603559
  0
VERTEX
  8
PLAN_1
  6
CONTINUOUS
 10
1.185646
 20
-3.601657
  0
VERTEX
  8
PLAN_1
  6
CONTINUOUS
 10
1.181839
 20
-3.600228
  0
VERTEX
  8
PLAN_1
  6
CONTINUOUS
 10
1.177555
 20
-3.599276
  0
VERTEX
  8
PLAN_1
  6
CONTINUOUS
 10
1.172799
 20
-3.598799
  0
VERTEX
  8
PLAN_1
  6
CONTINUOUS
 10
1.167563
 20
-3.598327
  0
VERTEX
  8
PLAN_1
  6
CONTINUOUS
 10
1.163756
 20
-3.598799
  0
VERTEX
  8
PLAN_1
  6
CONTINUOUS
 10
1.159472
 20
-3.599276
  0
VERTEX
  8
PLAN_1
  6
CONTINUOUS
 10
1.155669
 20
-3.600228
  0
VERTEX
  8
PLAN_1
  6
CONTINUOUS
 10
1.152339
 20
-3.601657
  0
VERTEX
  8
PLAN_1
  6
CONTINUOUS
 10
1.149004
 20
-3.603083
  0
VERTEX
  8
PLAN_1
  6
CONTINUOUS
 10
1.145673
 20
-3.605461
  0
VERTEX
  8
PLAN_1
  6
CONTINUOUS
 10
1.142819
 20
-3.607843
  0
VERTEX
  8
PLAN_1
  6
CONTINUOUS
 10
1.140441
 20
-3.610697
  0
VERTEX
  8
PLAN_1
  6
CONTINUOUS
 10
1.138063
 20
-3.613551
  0
VERTEX
  8
PLAN_1
  6
CONTINUOUS
 10
1.136157
 20
-3.616882
  0
VERTEX
  8
PLAN_1
  6
CONTINUOUS
 10
1.134256
 20
-3.620689
  0
VERTEX
  8
PLAN_1
  6
CONTINUOUS
 10
1.132827
 20
-3.624496
  0
VERTEX
  8
PLAN_1
  6
CONTINUOUS
 10
1.131402
 20
-3.628303
  0
VERTEX
  8
PLAN_1
  6
CONTINUOUS
 10
1.130925
 20
-3.633059
  0
VERTEX
  8
PLAN_1
  6
CONTINUOUS
 10
1.129972
 20
-3.637343
  0
VERTEX
  8
PLAN_1
  6
CONTINUOUS
 10
1.129972
 20
-3.642102
  0
VERTEX
  8
PLAN_1
  6
CONTINUOUS
 10
1.130449
 20
-3.648764
  0
VERTEX
  8
PLAN_1
  6
CONTINUOUS
 10
1.130925
 20
-3.654949
  0
VERTEX
  8
PLAN_1
  6
CONTINUOUS
 10
1.132350
 20
-3.660181
  0
VERTEX
  8
PLAN_1
  6
CONTINUOUS
 10
1.133780
 20
-3.664465
  0
VERTEX
  8
PLAN_1
  6
CONTINUOUS
 10
1.136157
 20
-3.668748
  0
VERTEX
  8
PLAN_1
  6
CONTINUOUS
 10
1.138063
 20
-3.672079
  0
VERTEX
  8
PLAN_1
  6
CONTINUOUS
 10
1.140917
 20
-3.674933
  0
VERTEX
  8
PLAN_1
  6
CONTINUOUS
 10
1.143772
 20
-3.677311
  0
VERTEX
  8
PLAN_1
  6
CONTINUOUS
 10
1.146626
 20
-3.679217
  0
VERTEX
  8
PLAN_1
  6
CONTINUOUS
 10
1.149957
 20
-3.681118
  0
VERTEX
  8
PLAN_1
  6
CONTINUOUS
 10
1.153287
 20
-3.682071
  0
VERTEX
  8
PLAN_1
  6
CONTINUOUS
 10
1.156618
 20
-3.683024
  0
VERTEX
  8
PLAN_1
  6
CONTINUOUS
 10
1.163280
 20
-3.683972
  0
VERTEX
  8
PLAN_1
  6
CONTINUOUS
 10
1.169941
 20
-3.684449
  0
VERTEX
  8
PLAN_1
  6
CONTINUOUS
 10
1.175177
 20
-3.683972
  0
VERTEX
  8
PLAN_1
  6
CONTINUOUS
 10
1.180886
 20
-3.683024
  0
VERTEX
  8
PLAN_1
  6
CONTINUOUS
 10
1.184217
 20
-3.682071
  0
VERTEX
  8
PLAN_1
  6
CONTINUOUS
 10
1.187071
 20
-3.680642
  0
VERTEX
  8
PLAN_1
  6
CONTINUOUS
 10
1.190402
 20
-3.678740
  0
VERTEX
  8
PLAN_1
  6
CONTINUOUS
 10
1.193260
 20
-3.676835
  0
VERTEX
  8
PLAN_1
  6
CONTINUOUS
 10
1.196114
 20
-3.673980
  0
VERTEX
  8
PLAN_1
  6
CONTINUOUS
 10
1.198492
 20
-3.671126
  0
VERTEX
  8
PLAN_1
  6
CONTINUOUS
 10
1.200870
 20
-3.667319
  0
VERTEX
  8
PLAN_1
  6
CONTINUOUS
 10
1.203252
 20
-3.663039
  0
VERTEX
  8
PLAN_1
  6
CONTINUOUS
 10
1.204677
 20
-3.658280
  0
VERTEX
  8
PLAN_1
  6
CONTINUOUS
 10
1.206106
 20
-3.653043
  0
VERTEX
  8
PLAN_1
  6
CONTINUOUS
 10
1.207055
 20
-3.646858
  0
VERTEX
  8
PLAN_1
  6
CONTINUOUS
 10
1.207055
 20
-3.640197
  0
SEQEND
  8
0
  0
SOLID
  8
PLAN_1
 10
1.247504
 20
-3.806264
 11
1.247504
 21
-3.792465
 12
1.401669
 22
-3.806264
 13
1.401669
 23
-3.792465
  0
POLYLINE
  8
PLAN_1
  6
CONTINUOUS
 66
     1
 40
0.003000
 41
0.003000
  0
VERTEX
  8
PLAN_1
  6
CONTINUOUS
 10
1.247504
 20
-3.806264
  0
VERTEX
  8
PLAN_1
  6
CONTINUOUS
 10
1.247504
 20
-3.792465
  0
VERTEX
  8
PLAN_1
  6
CONTINUOUS
 10
1.401669
 20
-3.792465
  0
VERTEX
  8
PLAN_1
  6
CONTINUOUS
 10
1.401669
 20
-3.806264
  0
VERTEX
  8
PLAN_1
  6
CONTINUOUS
 10
1.247504
 20
-3.806264
  0
SEQEND
  8
0
  0
POLYLINE
  8
PLAN_1
  6
CONTINUOUS
 66
     1
 40
0.003000
 41
0.003000
  0
VERTEX
  8
PLAN_1
  6
CONTINUOUS
 10
1.453059
 20
-3.771528
  0
VERTEX
  8
PLAN_1
  6
CONTINUOUS
 10
1.426413
 20
-3.771528
  0
VERTEX
  8
PLAN_1
  6
CONTINUOUS
 10
1.426413
 20
-3.572154
  0
VERTEX
  8
PLAN_1
  6
CONTINUOUS
 10
1.518248
 20
-3.572154
  0
VERTEX
  8
PLAN_1
  6
CONTINUOUS
 10
1.524433
 20
-3.572630
  0
VERTEX
  8
PLAN_1
  6
CONTINUOUS
 10
1.530622
 20
-3.573106
  0
VERTEX
  8
PLAN_1
  6
CONTINUOUS
 10
1.536807
 20
-3.573583
  0
VERTEX
  8
PLAN_1
  6
CONTINUOUS
 10
1.542516
 20
-3.574531
  0
VERTEX
  8
PLAN_1
  6
CONTINUOUS
 10
1.548224
 20
-3.576437
  0
VERTEX
  8
PLAN_1
  6
CONTINUOUS
 10
1.553461
 20
-3.578339
  0
VERTEX
  8
PLAN_1
  6
CONTINUOUS
 10
1.558693
 20
-3.580244
  0
VERTEX
  8
PLAN_1
  6
CONTINUOUS
 10
1.563453
 20
-3.583098
  0
VERTEX
  8
PLAN_1
  6
CONTINUOUS
 10
1.567736
 20
-3.586429
  0
VERTEX
  8
PLAN_1
  6
CONTINUOUS
 10
1.572020
 20
-3.590236
  0
VERTEX
  8
PLAN_1
  6
CONTINUOUS
 10
1.575350
 20
-3.594520
  0
VERTEX
  8
PLAN_1
  6
CONTINUOUS
 10
1.578205
 20
-3.599752
  0
VERTEX
  8
PLAN_1
  6
CONTINUOUS
 10
1.580583
 20
-3.605461
  0
VERTEX
  8
PLAN_1
  6
CONTINUOUS
 10
1.582484
 20
-3.611650
  0
VERTEX
  8
PLAN_1
  6
CONTINUOUS
 10
1.583437
 20
-3.618311
  0
VERTEX
  8
PLAN_1
  6
CONTINUOUS
 10
1.583913
 20
-3.625921
  0
VERTEX
  8
PLAN_1
  6
CONTINUOUS
 10
1.583913
 20
-3.631157
  0
VERTEX
  8
PLAN_1
  6
CONTINUOUS
 10
1.583437
 20
-3.635913
  0
VERTEX
  8
PLAN_1
  6
CONTINUOUS
 10
1.582484
 20
-3.640673
  0
VERTEX
  8
PLAN_1
  6
CONTINUOUS
 10
1.581535
 20
-3.644480
  0
VERTEX
  8
PLAN_1
  6
CONTINUOUS
 10
1.580106
 20
-3.648287
  0
VERTEX
  8
PLAN_1
  6
CONTINUOUS
 10
1.578681
 20
-3.652094
  0
VERTEX
  8
PLAN_1
  6
CONTINUOUS
 10
1.576776
 20
-3.654949
  0
VERTEX
  8
PLAN_1
  6
CONTINUOUS
 10
1.574874
 20
-3.657803
  0
VERTEX
  8
PLAN_1
  6
CONTINUOUS
 10
1.570591
 20
-3.663039
  0
VERTEX
  8
PLAN_1
  6
CONTINUOUS
 10
1.565831
 20
-3.667319
  0
VERTEX
  8
PLAN_1
  6
CONTINUOUS
 10
1.561075
 20
-3.670650
  0
VERTEX
  8
PLAN_1
  6
CONTINUOUS
 10
1.556315
 20
-3.673504
  0
VERTEX
  8
PLAN_1
  6
CONTINUOUS
 10
1.560598
 20
-3.675409
  0
VERTEX
  8
PLAN_1
  6
CONTINUOUS
 10
1.564406
 20
-3.677311
  0
VERTEX
  8
PLAN_1
  6
CONTINUOUS
 10
1.568213
 20
-3.680169
  0
VERTEX
  8
PLAN_1
  6
CONTINUOUS
 10
1.572020
 20
-3.683500
  0
VERTEX
  8
PLAN_1
  6
CONTINUOUS
 10
1.573445
 20
-3.685878
  0
VERTEX
  8
PLAN_1
  6
CONTINUOUS
 10
1.574874
 20
-3.688256
  0
VERTEX
  8
PLAN_1
  6
CONTINUOUS
 10
1.576299
 20
-3.691110
  0
VERTEX
  8
PLAN_1
  6
CONTINUOUS
 10
1.577252
 20
-3.693965
  0
VERTEX
  8
PLAN_1
  6
CONTINUOUS
 10
1.578205
 20
-3.697772
  0
VERTEX
  8
PLAN_1
  6
CONTINUOUS
 10
1.579154
 20
-3.701579
  0
VERTEX
  8
PLAN_1
  6
CONTINUOUS
 10
1.579630
 20
-3.706339
  0
VERTEX
  8
PLAN_1
  6
CONTINUOUS
 10
1.580106
 20
-3.711094
  0
VERTEX
  8
PLAN_1
  6
CONTINUOUS
 10
1.581535
 20
-3.747260
  0
VERTEX
  8
PLAN_1
  6
CONTINUOUS
 10
1.582012
 20
-3.751067
  0
VERTEX
  8
PLAN_1
  6
CONTINUOUS
 10
1.582012
 20
-3.754398
  0
VERTEX
  8
PLAN_1
  6
CONTINUOUS
 10
1.582961
 20
-3.757252
  0
VERTEX
  8
PLAN_1
  6
CONTINUOUS
 10
1.583437
 20
-3.759630
  0
VERTEX
  8
PLAN_1
  6
CONTINUOUS
 10
1.584866
 20
-3.761535
  0
VERTEX
  8
PLAN_1
  6
CONTINUOUS
 10
1.586768
 20
-3.763437
  0
VERTEX
  8
PLAN_1
  6
CONTINUOUS
 10
1.588673
 20
-3.765343
  0
VERTEX
  8
PLAN_1
  6
CONTINUOUS
 10
1.591528
 20
-3.767244
  0
VERTEX
  8
PLAN_1
  6
CONTINUOUS
 10
1.591528
 20
-3.771528
  0
VERTEX
  8
PLAN_1
  6
CONTINUOUS
 10
1.558693
 20
-3.771528
  0
VERTEX
  8
PLAN_1
  6
CONTINUOUS
 10
1.557268
 20
-3.766291
  0
VERTEX
  8
PLAN_1
  6
CONTINUOUS
 10
1.556315
 20
-3.759630
  0
VERTEX
  8
PLAN_1
  6
CONTINUOUS
 10
1.555362
 20
-3.752492
  0
VERTEX
  8
PLAN_1
  6
CONTINUOUS
 10
1.554890
 20
-3.744882
  0
VERTEX
  8
PLAN_1
  6
CONTINUOUS
 10
1.554413
 20
-3.737268
  0
VERTEX
  8
PLAN_1
  6
CONTINUOUS
 10
1.553937
 20
-3.731083
  0
VERTEX
  8
PLAN_1
  6
CONTINUOUS
 10
1.553937
 20
-3.725370
  0
VERTEX
  8
PLAN_1
  6
CONTINUOUS
 10
1.553937
 20
-3.721563
  0
VERTEX
  8
PLAN_1
  6
CONTINUOUS
 10
1.553937
 20
-3.715378
  0
VERTEX
  8
PLAN_1
  6
CONTINUOUS
 10
1.552984
 20
-3.709193
  0
VERTEX
  8
PLAN_1
  6
CONTINUOUS
 10
1.552031
 20
-3.706339
  0
VERTEX
  8
PLAN_1
  6
CONTINUOUS
 10
1.551083
 20
-3.703008
  0
VERTEX
  8
PLAN_1
  6
CONTINUOUS
 10
1.549654
 20
-3.700154
  0
VERTEX
  8
PLAN_1
  6
CONTINUOUS
 10
1.548224
 20
-3.697772
  0
VERTEX
  8
PLAN_1
  6
CONTINUOUS
 10
1.546323
 20
-3.695394
  0
VERTEX
  8
PLAN_1
  6
CONTINUOUS
 10
1.543945
 20
-3.693016
  0
VERTEX
  8
PLAN_1
  6
CONTINUOUS
 10
1.541091
 20
-3.691110
  0
VERTEX
  8
PLAN_1
  6
CONTINUOUS
 10
1.537760
 20
-3.689209
  0
VERTEX
  8
PLAN_1
  6
CONTINUOUS
 10
1.533476
 20
-3.687780
  0
VERTEX
  8
PLAN_1
  6
CONTINUOUS
 10
1.529193
 20
-3.686831
  0
VERTEX
  8
PLAN_1
  6
CONTINUOUS
 10
1.523961
 20
-3.686354
  0
VERTEX
  8
PLAN_1
  6
CONTINUOUS
 10
1.518248
 20
-3.685878
  0
VERTEX
  8
PLAN_1
  6
CONTINUOUS
 10
1.453059
 20
-3.685878
  0
VERTEX
  8
PLAN_1
  6
CONTINUOUS
 10
1.453059
 20
-3.771528
  0
SEQEND
  8
0
  0
POLYLINE
  8
PLAN_1
  6
CONTINUOUS
 66
     1
 40
0.003000
 41
0.003000
  0
VERTEX
  8
PLAN_1
  6
CONTINUOUS
 10
1.453059
 20
-3.663039
  0
VERTEX
  8
PLAN_1
  6
CONTINUOUS
 10
1.515870
 20
-3.663039
  0
VERTEX
  8
PLAN_1
  6
CONTINUOUS
 10
1.523008
 20
-3.662563
  0
VERTEX
  8
PLAN_1
  6
CONTINUOUS
 10
1.530146
 20
-3.661610
  0
VERTEX
  8
PLAN_1
  6
CONTINUOUS
 10
1.533953
 20
-3.661134
  0
VERTEX
  8
PLAN_1
  6
CONTINUOUS
 10
1.537283
 20
-3.659709
  0
VERTEX
  8
PLAN_1
  6
CONTINUOUS
 10
1.540138
 20
-3.658756
  0
VERTEX
  8
PLAN_1
  6
CONTINUOUS
 10
1.543469
 20
-3.656850
  0
VERTEX
  8
PLAN_1
  6
CONTINUOUS
 10
1.545846
 20
-3.654949
  0
VERTEX
  8
PLAN_1
  6
CONTINUOUS
 10
1.548701
 20
-3.652571
  0
VERTEX
  8
PLAN_1
  6
CONTINUOUS
 10
1.550606
 20
-3.649713
  0
VERTEX
  8
PLAN_1
  6
CONTINUOUS
 10
1.552508
 20
-3.646382
  0
VERTEX
  8
PLAN_1
  6
CONTINUOUS
 10
1.553937
 20
-3.642579
  0
VERTEX
  8
PLAN_1
  6
CONTINUOUS
 10
1.555362
 20
-3.638772
  0
VERTEX
  8
PLAN_1
  6
CONTINUOUS
 10
1.555839
 20
-3.634012
  0
VERTEX
  8
PLAN_1
  6
CONTINUOUS
 10
1.556315
 20
-3.628780
  0
VERTEX
  8
PLAN_1
  6
CONTINUOUS
 10
1.555839
 20
-3.623067
  0
VERTEX
  8
PLAN_1
  6
CONTINUOUS
 10
1.555362
 20
-3.618311
  0
VERTEX
  8
PLAN_1
  6
CONTINUOUS
 10
1.553937
 20
-3.614028
  0
VERTEX
  8
PLAN_1
  6
CONTINUOUS
 10
1.552508
 20
-3.610220
  0
VERTEX
  8
PLAN_1
  6
CONTINUOUS
 10
1.550606
 20
-3.607366
  0
VERTEX
  8
PLAN_1
  6
CONTINUOUS
 10
1.548224
 20
-3.604512
  0
VERTEX
  8
PLAN_1
  6
CONTINUOUS
 10
1.545846
 20
-3.602130
  0
VERTEX
  8
PLAN_1
  6
CONTINUOUS
 10
1.543469
 20
-3.600228
  0
VERTEX
  8
PLAN_1
  6
CONTINUOUS
 10
1.540614
 20
-3.598799
  0
VERTEX
  8
PLAN_1
  6
CONTINUOUS
 10
1.537760
 20
-3.597850
  0
VERTEX
  8
PLAN_1
  6
CONTINUOUS
 10
1.534429
 20
-3.596898
  0
VERTEX
  8
PLAN_1
  6
CONTINUOUS
 10
1.531571
 20
-3.596421
  0
VERTEX
  8
PLAN_1
  6
CONTINUOUS
 10
1.525862
 20
-3.595469
  0
VERTEX
  8
PLAN_1
  6
CONTINUOUS
 10
1.520154
 20
-3.595469
  0
VERTEX
  8
PLAN_1
  6
CONTINUOUS
 10
1.453059
 20
-3.595469
  0
VERTEX
  8
PLAN_1
  6
CONTINUOUS
 10
1.453059
 20
-3.663039
  0
SEQEND
  8
0
  0
SOLID
  8
PLAN_1
 10
1.655287
 20
-3.771528
 11
1.626264
 21
-3.771528
 12
1.655287
 22
-3.742024
 13
1.626264
 23
-3.742024
  0
POLYLINE
  8
PLAN_1
  6
CONTINUOUS
 66
     1
 40
0.003000
 41
0.003000
  0
VERTEX
  8
PLAN_1
  6
CONTINUOUS
 10
1.655287
 20
-3.771528
  0
VERTEX
  8
PLAN_1
  6
CONTINUOUS
 10
1.626264
 20
-3.771528
  0
VERTEX
  8
PLAN_1
  6
CONTINUOUS
 10
1.626264
 20
-3.742024
  0
VERTEX
  8
PLAN_1
  6
CONTINUOUS
 10
1.655287
 20
-3.742024
  0
VERTEX
  8
PLAN_1
  6
CONTINUOUS
 10
1.655287
 20
-3.771528
  0
SEQEND
  8
0
  0
POLYLINE
  8
PLAN_1
  6
CONTINUOUS
 66
     1
 40
0.003000
 41
0.003000
  0
VERTEX
  8
PLAN_1
  6
CONTINUOUS
 10
1.850378
 20
-3.771528
  0
VERTEX
  8
PLAN_1
  6
CONTINUOUS
 10
1.703346
 20
-3.771528
  0
VERTEX
  8
PLAN_1
  6
CONTINUOUS
 10
1.703346
 20
-3.572154
  0
VERTEX
  8
PLAN_1
  6
CONTINUOUS
 10
1.848472
 20
-3.572154
  0
VERTEX
  8
PLAN_1
  6
CONTINUOUS
 10
1.848472
 20
-3.595945
  0
VERTEX
  8
PLAN_1
  6
CONTINUOUS
 10
1.730469
 20
-3.595945
  0
VERTEX
  8
PLAN_1
  6
CONTINUOUS
 10
1.730469
 20
-3.657327
  0
VERTEX
  8
PLAN_1
  6
CONTINUOUS
 10
1.839433
 20
-3.657327
  0
VERTEX
  8
PLAN_1
  6
CONTINUOUS
 10
1.839433
 20
-3.681118
  0
VERTEX
  8
PLAN_1
  6
CONTINUOUS
 10
1.730469
 20
-3.681118
  0
VERTEX
  8
PLAN_1
  6
CONTINUOUS
 10
1.730469
 20
-3.747736
  0
VERTEX
  8
PLAN_1
  6
CONTINUOUS
 10
1.850378
 20
-3.747736
  0
VERTEX
  8
PLAN_1
  6
CONTINUOUS
 10
1.850378
 20
-3.771528
  0
SEQEND
  8
0
  0
POLYLINE
  8
PLAN_1
  6
CONTINUOUS
 66
     1
 40
0.003000
 41
0.003000
  0
VERTEX
  8
PLAN_1
  6
CONTINUOUS
 10
1.915567
 20
-3.771528
  0
VERTEX
  8
PLAN_1
  6
CONTINUOUS
 10
1.888445
 20
-3.771528
  0
VERTEX
  8
PLAN_1
  6
CONTINUOUS
 10
1.888445
 20
-3.572154
  0
VERTEX
  8
PLAN_1
  6
CONTINUOUS
 10
1.978374
 20
-3.572154
  0
VERTEX
  8
PLAN_1
  6
CONTINUOUS
 10
1.985035
 20
-3.572630
  0
VERTEX
  8
PLAN_1
  6
CONTINUOUS
 10
1.991224
 20
-3.573583
  0
VERTEX
  8
PLAN_1
  6
CONTINUOUS
 10
1.997409
 20
-3.574531
  0
VERTEX
  8
PLAN_1
  6
CONTINUOUS
 10
2.003118
 20
-3.576437
  0
VERTEX
  8
PLAN_1
  6
CONTINUOUS
 10
2.008354
 20
-3.578815
  0
VERTEX
  8
PLAN_1
  6
CONTINUOUS
 10
2.013110
 20
-3.581669
  0
VERTEX
  8
PLAN_1
  6
CONTINUOUS
 10
2.017394
 20
-3.584528
  0
VERTEX
  8
PLAN_1
  6
CONTINUOUS
 10
2.021677
 20
-3.588331
  0
VERTEX
  8
PLAN_1
  6
CONTINUOUS
 10
2.025008
 20
-3.592138
  0
VERTEX
  8
PLAN_1
  6
CONTINUOUS
 10
2.028339
 20
-3.596421
  0
VERTEX
  8
PLAN_1
  6
CONTINUOUS
 10
2.031193
 20
-3.601181
  0
VERTEX
  8
PLAN_1
  6
CONTINUOUS
 10
2.033094
 20
-3.605937
  0
VERTEX
  8
PLAN_1
  6
CONTINUOUS
 10
2.035000
 20
-3.611173
  0
VERTEX
  8
PLAN_1
  6
CONTINUOUS
 10
2.036425
 20
-3.616882
  0
VERTEX
  8
PLAN_1
  6
CONTINUOUS
 10
2.036902
 20
-3.622591
  0
VERTEX
  8
PLAN_1
  6
CONTINUOUS
 10
2.037378
 20
-3.628303
  0
VERTEX
  8
PLAN_1
  6
CONTINUOUS
 10
2.037378
 20
-3.633535
  0
VERTEX
  8
PLAN_1
  6
CONTINUOUS
 10
2.036425
 20
-3.638772
  0
VERTEX
  8
PLAN_1
  6
CONTINUOUS
 10
2.035476
 20
-3.644004
  0
VERTEX
  8
PLAN_1
  6
CONTINUOUS
 10
2.034047
 20
-3.649240
  0
VERTEX
  8
PLAN_1
  6
CONTINUOUS
 10
2.032146
 20
-3.654472
  0
VERTEX
  8
PLAN_1
  6
CONTINUOUS
 10
2.030240
 20
-3.659232
  0
VERTEX
  8
PLAN_1
  6
CONTINUOUS
 10
2.027386
 20
-3.663988
  0
VERTEX
  8
PLAN_1
  6
CONTINUOUS
 10
2.024055
 20
-3.668272
  0
VERTEX
  8
PLAN_1
  6
CONTINUOUS
 10
2.020248
 20
-3.672555
  0
VERTEX
  8
PLAN_1
  6
CONTINUOUS
 10
2.015965
 20
-3.675886
  0
VERTEX
  8
PLAN_1
  6
CONTINUOUS
 10
2.011209
 20
-3.679217
  0
VERTEX
  8
PLAN_1
  6
CONTINUOUS
 10
2.005496
 20
-3.682071
  0
VERTEX
  8
PLAN_1
  6
CONTINUOUS
 10
1.999787
 20
-3.684449
  0
VERTEX
  8
PLAN_1
  6
CONTINUOUS
 10
1.993126
 20
-3.685878
  0
VERTEX
  8
PLAN_1
  6
CONTINUOUS
 10
1.985988
 20
-3.687303
  0
VERTEX
  8
PLAN_1
  6
CONTINUOUS
 10
1.978374
 20
-3.687303
  0
VERTEX
  8
PLAN_1
  6
CONTINUOUS
 10
1.915567
 20
-3.687303
  0
VERTEX
  8
PLAN_1
  6
CONTINUOUS
 10
1.915567
 20
-3.771528
  0
SEQEND
  8
0
  0
POLYLINE
  8
PLAN_1
  6
CONTINUOUS
 66
     1
 40
0.003000
 41
0.003000
  0
VERTEX
  8
PLAN_1
  6
CONTINUOUS
 10
1.915567
 20
-3.664465
  0
VERTEX
  8
PLAN_1
  6
CONTINUOUS
 10
1.968858
 20
-3.664465
  0
VERTEX
  8
PLAN_1
  6
CONTINUOUS
 10
1.973618
 20
-3.664465
  0
VERTEX
  8
PLAN_1
  6
CONTINUOUS
 10
1.977902
 20
-3.663988
  0
VERTEX
  8
PLAN_1
  6
CONTINUOUS
 10
1.981705
 20
-3.663512
  0
VERTEX
  8
PLAN_1
  6
CONTINUOUS
 10
1.985512
 20
-3.662563
  0
VERTEX
  8
PLAN_1
  6
CONTINUOUS
 10
1.989319
 20
-3.661610
  0
VERTEX
  8
PLAN_1
  6
CONTINUOUS
 10
1.992650
 20
-3.660181
  0
VERTEX
  8
PLAN_1
  6
CONTINUOUS
 10
1.995504
 20
-3.658756
  0
VERTEX
  8
PLAN_1
  6
CONTINUOUS
 10
1.998362
 20
-3.656850
  0
VERTEX
  8
PLAN_1
  6
CONTINUOUS
 10
2.000740
 20
-3.654472
  0
VERTEX
  8
PLAN_1
  6
CONTINUOUS
 10
2.003118
 20
-3.651618
  0
VERTEX
  8
PLAN_1
  6
CONTINUOUS
 10
2.005024
 20
-3.648764
  0
VERTEX
  8
PLAN_1
  6
CONTINUOUS
 10
2.006449
 20
-3.645433
  0
VERTEX
  8
PLAN_1
  6
CONTINUOUS
 10
2.007878
 20
-3.642102
  0
VERTEX
  8
PLAN_1
  6
CONTINUOUS
 10
2.008827
 20
-3.637819
  0
VERTEX
  8
PLAN_1
  6
CONTINUOUS
 10
2.009303
 20
-3.633535
  0
VERTEX
  8
PLAN_1
  6
CONTINUOUS
 10
2.009780
 20
-3.628780
  0
VERTEX
  8
PLAN_1
  6
CONTINUOUS
 10
2.009303
 20
-3.624020
  0
VERTEX
  8
PLAN_1
  6
CONTINUOUS
 10
2.008827
 20
-3.619736
  0
VERTEX
  8
PLAN_1
  6
CONTINUOUS
 10
2.007878
 20
-3.616406
  0
VERTEX
  8
PLAN_1
  6
CONTINUOUS
 10
2.006449
 20
-3.612598
  0
VERTEX
  8
PLAN_1
  6
CONTINUOUS
 10
2.005024
 20
-3.609744
  0
VERTEX
  8
PLAN_1
  6
CONTINUOUS
 10
2.003118
 20
-3.606890
  0
VERTEX
  8
PLAN_1
  6
CONTINUOUS
 10
2.000740
 20
-3.604512
  0
VERTEX
  8
PLAN_1
  6
CONTINUOUS
 10
1.998362
 20
-3.602606
  0
VERTEX
  8
PLAN_1
  6
CONTINUOUS
 10
1.995504
 20
-3.600705
  0
VERTEX
  8
PLAN_1
  6
CONTINUOUS
 10
1.992173
 20
-3.599276
  0
VERTEX
  8
PLAN_1
  6
CONTINUOUS
 10
1.989319
 20
-3.597850
  0
VERTEX
  8
PLAN_1
  6
CONTINUOUS
 10
1.985512
 20
-3.596898
  0
VERTEX
  8
PLAN_1
  6
CONTINUOUS
 10
1.978374
 20
-3.595945
  0
VERTEX
  8
PLAN_1
  6
CONTINUOUS
 10
1.970287
 20
-3.595469
  0
VERTEX
  8
PLAN_1
  6
CONTINUOUS
 10
1.915567
 20
-3.595469
  0
VERTEX
  8
PLAN_1
  6
CONTINUOUS
 10
1.915567
 20
-3.664465
  0
SEQEND
  8
0
  0
POLYLINE
  8
PLAN_1
  6
CONTINUOUS
 66
     1
 40
0.003000
 41
0.003000
  0
VERTEX
  8
PLAN_1
  6
CONTINUOUS
 10
2.191071
 20
-3.630681
  0
VERTEX
  8
PLAN_1
  6
CONTINUOUS
 10
2.190594
 20
-3.624972
  0
VERTEX
  8
PLAN_1
  6
CONTINUOUS
 10
2.189642
 20
-3.620213
  0
VERTEX
  8
PLAN_1
  6
CONTINUOUS
 10
2.188217
 20
-3.615453
  0
VERTEX
  8
PLAN_1
  6
CONTINUOUS
 10
2.185839
 20
-3.611173
  0
VERTEX
  8
PLAN_1
  6
CONTINUOUS
 10
2.183457
 20
-3.607366
  0
VERTEX
  8
PLAN_1
  6
CONTINUOUS
 10
2.181079
 20
-3.604035
  0
VERTEX
  8
PLAN_1
  6
CONTINUOUS
 10
2.177748
 20
-3.601181
  0
VERTEX
  8
PLAN_1
  6
CONTINUOUS
 10
2.174417
 20
-3.598799
  0
VERTEX
  8
PLAN_1
  6
CONTINUOUS
 10
2.170610
 20
-3.596421
  0
VERTEX
  8
PLAN_1
  6
CONTINUOUS
 10
2.166803
 20
-3.594992
  0
VERTEX
  8
PLAN_1
  6
CONTINUOUS
 10
2.162996
 20
-3.593091
  0
VERTEX
  8
PLAN_1
  6
CONTINUOUS
 10
2.158717
 20
-3.592138
  0
VERTEX
  8
PLAN_1
  6
CONTINUOUS
 10
2.154433
 20
-3.591189
  0
VERTEX
  8
PLAN_1
  6
CONTINUOUS
 10
2.150150
 20
-3.590713
  0
VERTEX
  8
PLAN_1
  6
CONTINUOUS
 10
2.145866
 20
-3.590236
  0
VERTEX
  8
PLAN_1
  6
CONTINUOUS
 10
2.141587
 20
-3.590236
  0
VERTEX
  8
PLAN_1
  6
CONTINUOUS
 10
2.134925
 20
-3.590236
  0
VERTEX
  8
PLAN_1
  6
CONTINUOUS
 10
2.127311
 20
-3.591189
  0
VERTEX
  8
PLAN_1
  6
CONTINUOUS
 10
2.123504
 20
-3.592138
  0
VERTEX
  8
PLAN_1
  6
CONTINUOUS
 10
2.120173
 20
-3.593091
  0
VERTEX
  8
PLAN_1
  6
CONTINUOUS
 10
2.116366
 20
-3.594520
  0
VERTEX
  8
PLAN_1
  6
CONTINUOUS
 10
2.112559
 20
-3.596421
  0
VERTEX
  8
PLAN_1
  6
CONTINUOUS
 10
2.109228
 20
-3.598327
  0
VERTEX
  8
PLAN_1
  6
CONTINUOUS
 10
2.106374
 20
-3.600705
  0
VERTEX
  8
PLAN_1
  6
CONTINUOUS
 10
2.103520
 20
-3.603559
  0
VERTEX
  8
PLAN_1
  6
CONTINUOUS
 10
2.101138
 20
-3.606890
  0
VERTEX
  8
PLAN_1
  6
CONTINUOUS
 10
2.099236
 20
-3.610697
  0
VERTEX
  8
PLAN_1
  6
CONTINUOUS
 10
2.097335
 20
-3.614980
  0
VERTEX
  8
PLAN_1
  6
CONTINUOUS
 10
2.096382
 20
-3.619736
  0
VERTEX
  8
PLAN_1
  6
CONTINUOUS
 10
2.096382
 20
-3.624972
  0
VERTEX
  8
PLAN_1
  6
CONTINUOUS
 10
2.096382
 20
-3.628303
  0
VERTEX
  8
PLAN_1
  6
CONTINUOUS
 10
2.096858
 20
-3.630681
  0
VERTEX
  8
PLAN_1
  6
CONTINUOUS
 10
2.097335
 20
-3.633535
  0
VERTEX
  8
PLAN_1
  6
CONTINUOUS
 10
2.098283
 20
-3.635913
  0
VERTEX
  8
PLAN_1
  6
CONTINUOUS
 10
2.099236
 20
-3.637819
  0
VERTEX
  8
PLAN_1
  6
CONTINUOUS
 10
2.100665
 20
-3.639720
  0
VERTEX
  8
PLAN_1
  6
CONTINUOUS
 10
2.102091
 20
-3.641626
  0
VERTEX
  8
PLAN_1
  6
CONTINUOUS
 10
2.103520
 20
-3.643051
  0
VERTEX
  8
PLAN_1
  6
CONTINUOUS
 10
2.107327
 20
-3.645433
  0
VERTEX
  8
PLAN_1
  6
CONTINUOUS
 10
2.111130
 20
-3.647335
  0
VERTEX
  8
PLAN_1
  6
CONTINUOUS
 10
2.115413
 20
-3.649240
  0
VERTEX
  8
PLAN_1
  6
CONTINUOUS
 10
2.119697
 20
-3.650189
  0
VERTEX
  8
PLAN_1
  6
CONTINUOUS
 10
2.176795
 20
-3.663512
  0
VERTEX
  8
PLAN_1
  6
CONTINUOUS
 10
2.181555
 20
-3.664465
  0
VERTEX
  8
PLAN_1
  6
CONTINUOUS
 10
2.186311
 20
-3.665894
  0
VERTEX
  8
PLAN_1
  6
CONTINUOUS
 10
2.190594
 20
-3.667795
  0
VERTEX
  8
PLAN_1
  6
CONTINUOUS
 10
2.194878
 20
-3.669701
  0
VERTEX
  8
PLAN_1
  6
CONTINUOUS
 10
2.198685
 20
-3.672079
  0
VERTEX
  8
PLAN_1
  6
CONTINUOUS
 10
2.202492
 20
-3.674457
  0
VERTEX
  8
PLAN_1
  6
CONTINUOUS
 10
2.205823
 20
-3.677311
  0
VERTEX
  8
PLAN_1
  6
CONTINUOUS
 10
2.209154
 20
-3.680169
  0
VERTEX
  8
PLAN_1
  6
CONTINUOUS
 10
2.212008
 20
-3.683972
  0
VERTEX
  8
PLAN_1
  6
CONTINUOUS
 10
2.214386
 20
-3.687303
  0
VERTEX
  8
PLAN_1
  6
CONTINUOUS
 10
2.216768
 20
-3.691587
  0
VERTEX
  8
PLAN_1
  6
CONTINUOUS
 10
2.218669
 20
-3.695870
  0
VERTEX
  8
PLAN_1
  6
CONTINUOUS
 10
2.220098
 20
-3.700630
  0
VERTEX
  8
PLAN_1
  6
CONTINUOUS
 10
2.221047
 20
-3.705386
  0
VERTEX
  8
PLAN_1
  6
CONTINUOUS
 10
2.222000
 20
-3.711094
  0
VERTEX
  8
PLAN_1
  6
CONTINUOUS
 10
2.222000
 20
-3.716807
  0
VERTEX
  8
PLAN_1
  6
CONTINUOUS
 10
2.222000
 20
-3.721091
  0
VERTEX
  8
PLAN_1
  6
CONTINUOUS
 10
2.221524
 20
-3.724894
  0
VERTEX
  8
PLAN_1
  6
CONTINUOUS
 10
2.221047
 20
-3.729177
  0
VERTEX
  8
PLAN_1
  6
CONTINUOUS
 10
2.220098
 20
-3.732984
  0
VERTEX
  8
PLAN_1
  6
CONTINUOUS
 10
2.219146
 20
-3.736315
  0
VERTEX
  8
PLAN_1
  6
CONTINUOUS
 10
2.217717
 20
-3.739646
  0
VERTEX
  8
PLAN_1
  6
CONTINUOUS
 10
2.216291
 20
-3.742976
  0
VERTEX
  8
PLAN_1
  6
CONTINUOUS
 10
2.214386
 20
-3.745831
  0
VERTEX
  8
PLAN_1
  6
CONTINUOUS
 10
2.210579
 20
-3.751543
  0
VERTEX
  8
PLAN_1
  6
CONTINUOUS
 10
2.206299
 20
-3.756299
  0
VERTEX
  8
PLAN_1
  6
CONTINUOUS
 10
2.201063
 20
-3.760583
  0
VERTEX
  8
PLAN_1
  6
CONTINUOUS
 10
2.195831
 20
-3.764390
  0
VERTEX
  8
PLAN_1
  6
CONTINUOUS
 10
2.190118
 20
-3.767720
  0
VERTEX
  8
PLAN_1
  6
CONTINUOUS
 10
2.183457
 20
-3.770098
  0
VERTEX
  8
PLAN_1
  6
CONTINUOUS
 10
2.177272
 20
-3.772476
  0
VERTEX
  8
PLAN_1
  6
CONTINUOUS
 10
2.170610
 20
-3.773906
  0
VERTEX
  8
PLAN_1
  6
CONTINUOUS
 10
2.163949
 20
-3.775335
  0
VERTEX
  8
PLAN_1
  6
CONTINUOUS
 10
2.157287
 20
-3.776283
  0
VERTEX
  8
PLAN_1
  6
CONTINUOUS
 10
2.150626
 20
-3.776760
  0
VERTEX
  8
PLAN_1
  6
CONTINUOUS
 10
2.143965
 20
-3.776760
  0
VERTEX
  8
PLAN_1
  6
CONTINUOUS
 10
2.137303
 20
-3.776760
  0
VERTEX
  8
PLAN_1
  6
CONTINUOUS
 10
2.131118
 20
-3.776283
  0
VERTEX
  8
PLAN_1
  6
CONTINUOUS
 10
2.125406
 20
-3.775807
  0
VERTEX
  8
PLAN_1
  6
CONTINUOUS
 10
2.120173
 20
-3.774858
  0
VERTEX
  8
PLAN_1
  6
CONTINUOUS
 10
2.111130
 20
-3.772953
  0
VERTEX
  8
PLAN_1
  6
CONTINUOUS
 10
2.103520
 20
-3.770098
  0
VERTEX
  8
PLAN_1
  6
CONTINUOUS
 10
2.096858
 20
-3.767244
  0
VERTEX
  8
PLAN_1
  6
CONTINUOUS
 10
2.091622
 20
-3.763913
  0
VERTEX
  8
PLAN_1
  6
CONTINUOUS
 10
2.087339
 20
-3.761059
  0
VERTEX
  8
PLAN_1
  6
CONTINUOUS
 10
2.084008
 20
-3.757728
  0
VERTEX
  8
PLAN_1
  6
CONTINUOUS
 10
2.080677
 20
-3.754874
  0
VERTEX
  8
PLAN_1
  6
CONTINUOUS
 10
2.077823
 20
-3.752016
  0
VERTEX
  8
PLAN_1
  6
CONTINUOUS
 10
2.075445
 20
-3.749161
  0
VERTEX
  8
PLAN_1
  6
CONTINUOUS
 10
2.073543
 20
-3.745831
  0
VERTEX
  8
PLAN_1
  6
CONTINUOUS
 10
2.069736
 20
-3.740122
  0
VERTEX
  8
PLAN_1
  6
CONTINUOUS
 10
2.067354
 20
-3.733461
  0
VERTEX
  8
PLAN_1
  6
CONTINUOUS
 10
2.065453
 20
-3.727276
  0
VERTEX
  8
PLAN_1
  6
CONTINUOUS
 10
2.064500
 20
-3.720614
  0
VERTEX
  8
PLAN_1
  6
CONTINUOUS
 10
2.063547
 20
-3.713953
  0
VERTEX
  8
PLAN_1
  6
CONTINUOUS
 10
2.063547
 20
-3.707291
  0
VERTEX
  8
PLAN_1
  6
CONTINUOUS
 10
2.088768
 20
-3.707291
  0
VERTEX
  8
PLAN_1
  6
CONTINUOUS
 10
2.089244
 20
-3.713476
  0
VERTEX
  8
PLAN_1
  6
CONTINUOUS
 10
2.090197
 20
-3.719661
  0
VERTEX
  8
PLAN_1
  6
CONTINUOUS
 10
2.091622
 20
-3.724894
  0
VERTEX
  8
PLAN_1
  6
CONTINUOUS
 10
2.094004
 20
-3.729654
  0
VERTEX
  8
PLAN_1
  6
CONTINUOUS
 10
2.096382
 20
-3.733937
  0
VERTEX
  8
PLAN_1
  6
CONTINUOUS
 10
2.099236
 20
-3.737744
  0
VERTEX
  8
PLAN_1
  6
CONTINUOUS
 10
2.103043
 20
-3.741075
  0
VERTEX
  8
PLAN_1
  6
CONTINUOUS
 10
2.106850
 20
-3.743929
  0
VERTEX
  8
PLAN_1
  6
CONTINUOUS
 10
2.110657
 20
-3.746307
  0
VERTEX
  8
PLAN_1
  6
CONTINUOUS
 10
2.114937
 20
-3.748685
  0
VERTEX
  8
PLAN_1
  6
CONTINUOUS
 10
2.119697
 20
-3.750114
  0
VERTEX
  8
PLAN_1
  6
CONTINUOUS
 10
2.124457
 20
-3.751543
  0
VERTEX
  8
PLAN_1
  6
CONTINUOUS
 10
2.129213
 20
-3.752492
  0
VERTEX
  8
PLAN_1
  6
CONTINUOUS
 10
2.133972
 20
-3.753445
  0
VERTEX
  8
PLAN_1
  6
CONTINUOUS
 10
2.138728
 20
-3.753445
  0
VERTEX
  8
PLAN_1
  6
CONTINUOUS
 10
2.143965
 20
-3.753921
  0
VERTEX
  8
PLAN_1
  6
CONTINUOUS
 10
2.151579
 20
-3.753445
  0
VERTEX
  8
PLAN_1
  6
CONTINUOUS
 10
2.160142
 20
-3.752492
  0
VERTEX
  8
PLAN_1
  6
CONTINUOUS
 10
2.164425
 20
-3.751543
  0
VERTEX
  8
PLAN_1
  6
CONTINUOUS
 10
2.168709
 20
-3.750591
  0
VERTEX
  8
PLAN_1
  6
CONTINUOUS
 10
2.172988
 20
-3.749161
  0
VERTEX
  8
PLAN_1
  6
CONTINUOUS
 10
2.177272
 20
-3.747736
  0
VERTEX
  8
PLAN_1
  6
CONTINUOUS
 10
2.181079
 20
-3.745831
  0
VERTEX
  8
PLAN_1
  6
CONTINUOUS
 10
2.184409
 20
-3.743453
  0
VERTEX
  8
PLAN_1
  6
CONTINUOUS
 10
2.187740
 20
-3.740598
  0
VERTEX
  8
PLAN_1
  6
CONTINUOUS
 10
2.190594
 20
-3.737744
  0
VERTEX
  8
PLAN_1
  6
CONTINUOUS
 10
2.192976
 20
-3.733937
  0
VERTEX
  8
PLAN_1
  6
CONTINUOUS
 10
2.194402
 20
-3.729654
  0
VERTEX
  8
PLAN_1
  6
CONTINUOUS
 10
2.195354
 20
-3.725370
  0
VERTEX
  8
PLAN_1
  6
CONTINUOUS
 10
2.195831
 20
-3.720138
  0
VERTEX
  8
PLAN_1
  6
CONTINUOUS
 10
2.195831
 20
-3.716331
  0
VERTEX
  8
PLAN_1
  6
CONTINUOUS
 10
2.195354
 20
-3.713000
  0
VERTEX
  8
PLAN_1
  6
CONTINUOUS
 10
2.194878
 20
-3.710146
  0
VERTEX
  8
PLAN_1
  6
CONTINUOUS
 10
2.193925
 20
-3.706815
  0
VERTEX
  8
PLAN_1
  6
CONTINUOUS
 10
2.192500
 20
-3.704433
  0
VERTEX
  8
PLAN_1
  6
CONTINUOUS
 10
2.191071
 20
-3.702055
  0
VERTEX
  8
PLAN_1
  6
CONTINUOUS
 10
2.189169
 20
-3.699677
  0
VERTEX
  8
PLAN_1
  6
CONTINUOUS
 10
2.186787
 20
-3.697772
  0
VERTEX
  8
PLAN_1
  6
CONTINUOUS
 10
2.184409
 20
-3.695870
  0
VERTEX
  8
PLAN_1
  6
CONTINUOUS
 10
2.181079
 20
-3.693965
  0
VERTEX
  8
PLAN_1
  6
CONTINUOUS
 10
2.177748
 20
-3.692539
  0
VERTEX
  8
PLAN_1
  6
CONTINUOUS
 10
2.173941
 20
-3.690634
  0
VERTEX
  8
PLAN_1
  6
CONTINUOUS
 10
2.164902
 20
-3.687780
  0
VERTEX
  8
PLAN_1
  6
CONTINUOUS
 10
2.153480
 20
-3.684925
  0
VERTEX
  8
PLAN_1
  6
CONTINUOUS
 10
2.112559
 20
-3.675409
  0
VERTEX
  8
PLAN_1
  6
CONTINUOUS
 10
2.106850
 20
-3.673980
  0
VERTEX
  8
PLAN_1
  6
CONTINUOUS
 10
2.100665
 20
-3.671602
  0
VERTEX
  8
PLAN_1
  6
CONTINUOUS
 10
2.096858
 20
-3.670173
  0
VERTEX
  8
PLAN_1
  6
CONTINUOUS
 10
2.093528
 20
-3.668748
  0
VERTEX
  8
PLAN_1
  6
CONTINUOUS
 10
2.089720
 20
-3.666370
  0
VERTEX
  8
PLAN_1
  6
CONTINUOUS
 10
2.086390
 20
-3.663988
  0
VERTEX
  8
PLAN_1
  6
CONTINUOUS
 10
2.083059
 20
-3.661134
  0
VERTEX
  8
PLAN_1
  6
CONTINUOUS
 10
2.080205
 20
-3.657803
  0
VERTEX
  8
PLAN_1
  6
CONTINUOUS
 10
2.077346
 20
-3.654472
  0
VERTEX
  8
PLAN_1
  6
CONTINUOUS
 10
2.074969
 20
-3.650189
  0
VERTEX
  8
PLAN_1
  6
CONTINUOUS
 10
2.073067
 20
-3.645433
  0
VERTEX
  8
PLAN_1
  6
CONTINUOUS
 10
2.071638
 20
-3.640673
  0
VERTEX
  8
PLAN_1
  6
CONTINUOUS
 10
2.070685
 20
-3.634965
  0
VERTEX
  8
PLAN_1
  6
CONTINUOUS
 10
2.070209
 20
-3.628780
  0
VERTEX
  8
PLAN_1
  6
CONTINUOUS
 10
2.070209
 20
-3.622591
  0
VERTEX
  8
PLAN_1
  6
CONTINUOUS
 10
2.071161
 20
-3.616882
  0
VERTEX
  8
PLAN_1
  6
CONTINUOUS
 10
2.072591
 20
-3.611650
  0
VERTEX
  8
PLAN_1
  6
CONTINUOUS
 10
2.074016
 20
-3.605937
  0
VERTEX
  8
PLAN_1
  6
CONTINUOUS
 10
2.076398
 20
-3.600705
  0
VERTEX
  8
PLAN_1
  6
CONTINUOUS
 10
2.079252
 20
-3.595469
  0
VERTEX
  8
PLAN_1
  6
CONTINUOUS
 10
2.082583
 20
-3.590713
  0
VERTEX
  8
PLAN_1
  6
CONTINUOUS
 10
2.086390
 20
-3.585953
  0
VERTEX
  8
PLAN_1
  6
CONTINUOUS
 10
2.090669
 20
-3.582146
  0
VERTEX
  8
PLAN_1
  6
CONTINUOUS
 10
2.095906
 20
-3.578339
  0
VERTEX
  8
PLAN_1
  6
CONTINUOUS
 10
2.101614
 20
-3.575008
  0
VERTEX
  8
PLAN_1
  6
CONTINUOUS
 10
2.107799
 20
-3.572154
  0
VERTEX
  8
PLAN_1
  6
CONTINUOUS
 10
2.114465
 20
-3.570252
  0
VERTEX
  8
PLAN_1
  6
CONTINUOUS
 10
2.122075
 20
-3.568346
  0
VERTEX
  8
PLAN_1
  6
CONTINUOUS
 10
2.130165
 20
-3.567398
  0
VERTEX
  8
PLAN_1
  6
CONTINUOUS
 10
2.138728
 20
-3.566921
  0
VERTEX
  8
PLAN_1
  6
CONTINUOUS
 10
2.144917
 20
-3.566921
  0
VERTEX
  8
PLAN_1
  6
CONTINUOUS
 10
2.151102
 20
-3.567398
  0
VERTEX
  8
PLAN_1
  6
CONTINUOUS
 10
2.156811
 20
-3.567870
  0
VERTEX
  8
PLAN_1
  6
CONTINUOUS
 10
2.162047
 20
-3.568823
  0
VERTEX
  8
PLAN_1
  6
CONTINUOUS
 10
2.166803
 20
-3.569776
  0
VERTEX
  8
PLAN_1
  6
CONTINUOUS
 10
2.171563
 20
-3.571201
  0
VERTEX
  8
PLAN_1
  6
CONTINUOUS
 10
2.175846
 20
-3.572154
  0
VERTEX
  8
PLAN_1
  6
CONTINUOUS
 10
2.180126
 20
-3.574059
  0
VERTEX
  8
PLAN_1
  6
CONTINUOUS
 10
2.183933
 20
-3.575484
  0
VERTEX
  8
PLAN_1
  6
CONTINUOUS
 10
2.187264
 20
-3.577390
  0
VERTEX
  8
PLAN_1
  6
CONTINUOUS
 10
2.190594
 20
-3.579291
  0
VERTEX
  8
PLAN_1
  6
CONTINUOUS
 10
2.193449
 20
-3.581197
  0
VERTEX
  8
PLAN_1
  6
CONTINUOUS
 10
2.198685
 20
-3.585953
  0
VERTEX
  8
PLAN_1
  6
CONTINUOUS
 10
2.203441
 20
-3.590713
  0
VERTEX
  8
PLAN_1
  6
CONTINUOUS
 10
2.206772
 20
-3.595469
  0
VERTEX
  8
PLAN_1
  6
CONTINUOUS
 10
2.209630
 20
-3.600705
  0
VERTEX
  8
PLAN_1
  6
CONTINUOUS
 10
2.212008
 20
-3.605937
  0
VERTEX
  8
PLAN_1
  6
CONTINUOUS
 10
2.213437
 20
-3.611173
  0
VERTEX
  8
PLAN_1
  6
CONTINUOUS
 10
2.214862
 20
-3.616406
  0
VERTEX
  8
PLAN_1
  6
CONTINUOUS
 10
2.215815
 20
-3.621642
  0
VERTEX
  8
PLAN_1
  6
CONTINUOUS
 10
2.216291
 20
-3.626398
  0
VERTEX
  8
PLAN_1
  6
CONTINUOUS
 10
2.216291
 20
-3.630681
  0
VERTEX
  8
PLAN_1
  6
CONTINUOUS
 10
2.191071
 20
-3.630681
  0
SEQEND
  8
0
  0
POLYLINE
  8
PLAN_1
  6
CONTINUOUS
 66
     1
 40
0.008563
 41
0.008563
  0
VERTEX
  8
PLAN_1
  6
CONTINUOUS
 10
-1.764969
 20
1.423575
  0
VERTEX
  8
PLAN_1
  6
CONTINUOUS
 10
-1.764969
 20
3.396835
  0
VERTEX
  8
PLAN_1
  6
CONTINUOUS
 10
-2.158957
 20
3.396835
  0
VERTEX
  8
PLAN_1
  6
CONTINUOUS
 10
-2.158957
 20
1.423575
  0
VERTEX
  8
PLAN_1
  6
CONTINUOUS
 10
-1.764969
 20
1.423575
  0
SEQEND
  8
0
  0
POLYLINE
  8
PLAN_1
  6
CONTINUOUS
 66
     1
 40
0.005709
 41
0.005709
  0
VERTEX
  8
PLAN_1
  6
CONTINUOUS
 10
-0.705776
 20
0.326787
  0
VERTEX
  8
PLAN_1
  6
CONTINUOUS
 10
-0.828063
 20
0.305374
  0
VERTEX
  8
PLAN_1
  6
CONTINUOUS
 10
-0.836154
 20
0.303949
  0
SEQEND
  8
0
  0
POLYLINE
  8
PLAN_1
  6
CONTINUOUS
 66
     1
 40
0.005709
 41
0.005709
  0
VERTEX
  8
PLAN_1
  6
CONTINUOUS
 10
-0.836154
 20
0.303949
  0
VERTEX
  8
PLAN_1
  6
CONTINUOUS
 10
-0.839961
 20
0.302996
  0
VERTEX
  8
PLAN_1
  6
CONTINUOUS
 10
-0.843291
 20
0.301094
  0
VERTEX
  8
PLAN_1
  6
CONTINUOUS
 10
-0.846146
 20
0.298713
  0
VERTEX
  8
PLAN_1
  6
CONTINUOUS
 10
-0.849000
 20
0.295858
  0
VERTEX
  8
PLAN_1
  6
CONTINUOUS
 10
-0.850425
 20
0.292528
  0
VERTEX
  8
PLAN_1
  6
CONTINUOUS
 10
-0.851854
 20
0.288720
  0
VERTEX
  8
PLAN_1
  6
CONTINUOUS
 10
-0.852331
 20
0.284913
  0
VERTEX
  8
PLAN_1
  6
CONTINUOUS
 10
-0.851854
 20
0.281106
  0
VERTEX
  8
PLAN_1
  6
CONTINUOUS
 10
-0.850902
 20
0.277303
  0
VERTEX
  8
PLAN_1
  6
CONTINUOUS
 10
-0.849000
 20
0.273496
  0
VERTEX
  8
PLAN_1
  6
CONTINUOUS
 10
-0.846622
 20
0.270642
  0
VERTEX
  8
PLAN_1
  6
CONTINUOUS
 10
-0.843764
 20
0.268260
  0
VERTEX
  8
PLAN_1
  6
CONTINUOUS
 10
-0.840433
 20
0.266358
  0
VERTEX
  8
PLAN_1
  6
CONTINUOUS
 10
-0.837102
 20
0.265406
  0
VERTEX
  8
PLAN_1
  6
CONTINUOUS
 10
-0.833295
 20
0.264929
  0
VERTEX
  8
PLAN_1
  6
CONTINUOUS
 10
-0.829016
 20
0.264929
  0
SEQEND
  8
0
  0
POLYLINE
  8
PLAN_1
  6
CONTINUOUS
 66
     1
 40
0.005709
 41
0.005709
  0
VERTEX
  8
PLAN_1
  6
CONTINUOUS
 10
-0.829016
 20
0.264929
  0
VERTEX
  8
PLAN_1
  6
CONTINUOUS
 10
-0.821402
 20
0.266358
  0
VERTEX
  8
PLAN_1
  6
CONTINUOUS
 10
-0.479280
 20
0.326787
  0
VERTEX
  8
PLAN_1
  6
CONTINUOUS
 10
-0.705776
 20
0.326787
  0
SEQEND
  8
0
  0
POLYLINE
  8
PLAN_1
  6
CONTINUOUS
 66
     1
 40
0.005709
 41
0.005709
  0
VERTEX
  8
PLAN_1
  6
CONTINUOUS
 10
-0.344622
 20
0.178803
  0
VERTEX
  8
PLAN_1
  6
CONTINUOUS
 10
-0.340815
 20
0.179756
  0
VERTEX
  8
PLAN_1
  6
CONTINUOUS
 10
-0.337484
 20
0.181661
  0
VERTEX
  8
PLAN_1
  6
CONTINUOUS
 10
-0.334154
 20
0.184039
  0
VERTEX
  8
PLAN_1
  6
CONTINUOUS
 10
-0.331772
 20
0.186894
  0
VERTEX
  8
PLAN_1
  6
CONTINUOUS
 10
-0.329870
 20
0.190224
  0
VERTEX
  8
PLAN_1
  6
CONTINUOUS
 10
-0.328917
 20
0.193555
  0
VERTEX
  8
PLAN_1
  6
CONTINUOUS
 10
-0.328441
 20
0.197362
  0
VERTEX
  8
PLAN_1
  6
CONTINUOUS
 10
-0.328441
 20
0.201646
  0
VERTEX
  8
PLAN_1
  6
CONTINUOUS
 10
-0.329870
 20
0.205453
  0
VERTEX
  8
PLAN_1
  6
CONTINUOUS
 10
-0.331299
 20
0.208783
  0
VERTEX
  8
PLAN_1
  6
CONTINUOUS
 10
-0.333677
 20
0.211638
  0
VERTEX
  8
PLAN_1
  6
CONTINUOUS
 10
-0.336531
 20
0.214492
  0
VERTEX
  8
PLAN_1
  6
CONTINUOUS
 10
-0.339862
 20
0.216394
  0
VERTEX
  8
PLAN_1
  6
CONTINUOUS
 10
-0.343669
 20
0.217346
  0
VERTEX
  8
PLAN_1
  6
CONTINUOUS
 10
-0.347476
 20
0.217823
  0
VERTEX
  8
PLAN_1
  6
CONTINUOUS
 10
-0.351283
 20
0.217823
  0
SEQEND
  8
0
  0
POLYLINE
  8
PLAN_1
  6
CONTINUOUS
 66
     1
 40
0.005709
 41
0.005709
  0
VERTEX
  8
PLAN_1
  6
CONTINUOUS
 10
-0.351283
 20
0.217823
  0
VERTEX
  8
PLAN_1
  6
CONTINUOUS
 10
-0.363654
 20
0.215445
  0
VERTEX
  8
PLAN_1
  6
CONTINUOUS
 10
-0.828063
 20
0.133602
  0
VERTEX
  8
PLAN_1
  6
CONTINUOUS
 10
-0.835677
 20
0.132173
  0
SEQEND
  8
0
  0
POLYLINE
  8
PLAN_1
  6
CONTINUOUS
 66
     1
 40
0.005709
 41
0.005709
  0
VERTEX
  8
PLAN_1
  6
CONTINUOUS
 10
-0.835677
 20
0.132173
  0
VERTEX
  8
PLAN_1
  6
CONTINUOUS
 10
-0.839484
 20
0.130748
  0
VERTEX
  8
PLAN_1
  6
CONTINUOUS
 10
-0.843291
 20
0.129319
  0
VERTEX
  8
PLAN_1
  6
CONTINUOUS
 10
-0.846146
 20
0.126941
  0
VERTEX
  8
PLAN_1
  6
CONTINUOUS
 10
-0.848524
 20
0.124083
  0
VERTEX
  8
PLAN_1
  6
CONTINUOUS
 10
-0.850425
 20
0.120752
  0
VERTEX
  8
PLAN_1
  6
CONTINUOUS
 10
-0.851854
 20
0.116949
  0
VERTEX
  8
PLAN_1
  6
CONTINUOUS
 10
-0.852331
 20
0.113142
  0
VERTEX
  8
PLAN_1
  6
CONTINUOUS
 10
-0.851854
 20
0.109335
  0
VERTEX
  8
PLAN_1
  6
CONTINUOUS
 10
-0.850902
 20
0.105051
  0
VERTEX
  8
PLAN_1
  6
CONTINUOUS
 10
-0.849000
 20
0.101720
  0
VERTEX
  8
PLAN_1
  6
CONTINUOUS
 10
-0.846622
 20
0.098866
  0
VERTEX
  8
PLAN_1
  6
CONTINUOUS
 10
-0.843764
 20
0.096488
  0
VERTEX
  8
PLAN_1
  6
CONTINUOUS
 10
-0.840433
 20
0.094583
  0
VERTEX
  8
PLAN_1
  6
CONTINUOUS
 10
-0.836630
 20
0.093157
  0
VERTEX
  8
PLAN_1
  6
CONTINUOUS
 10
-0.832823
 20
0.092681
  0
VERTEX
  8
PLAN_1
  6
CONTINUOUS
 10
-0.829016
 20
0.093157
  0
SEQEND
  8
0
  0
POLYLINE
  8
PLAN_1
  6
CONTINUOUS
 66
     1
 40
0.005709
 41
0.005709
  0
VERTEX
  8
PLAN_1
  6
CONTINUOUS
 10
-0.829016
 20
0.093157
  0
VERTEX
  8
PLAN_1
  6
CONTINUOUS
 10
-0.820925
 20
0.094583
  0
VERTEX
  8
PLAN_1
  6
CONTINUOUS
 10
-0.356992
 20
0.176425
  0
VERTEX
  8
PLAN_1
  6
CONTINUOUS
 10
-0.344622
 20
0.178803
  0
SEQEND
  8
0
  0
POLYLINE
  8
PLAN_1
  6
CONTINUOUS
 66
     1
 40
0.005709
 41
0.005709
  0
VERTEX
  8
PLAN_1
  6
CONTINUOUS
 10
-0.340339
 20
-0.078618
  0
VERTEX
  8
PLAN_1
  6
CONTINUOUS
 10
-0.336055
 20
-0.078142
  0
VERTEX
  8
PLAN_1
  6
CONTINUOUS
 10
-0.332724
 20
-0.077193
  0
VERTEX
  8
PLAN_1
  6
CONTINUOUS
 10
-0.329394
 20
-0.075287
  0
VERTEX
  8
PLAN_1
  6
CONTINUOUS
 10
-0.326063
 20
-0.072909
  0
VERTEX
  8
PLAN_1
  6
CONTINUOUS
 10
-0.323685
 20
-0.070055
  0
VERTEX
  8
PLAN_1
  6
CONTINUOUS
 10
-0.321780
 20
-0.066724
  0
VERTEX
  8
PLAN_1
  6
CONTINUOUS
 10
-0.320831
 20
-0.062917
  0
VERTEX
  8
PLAN_1
  6
CONTINUOUS
 10
-0.320354
 20
-0.059110
  0
VERTEX
  8
PLAN_1
  6
CONTINUOUS
 10
-0.320831
 20
-0.054827
  0
VERTEX
  8
PLAN_1
  6
CONTINUOUS
 10
-0.321780
 20
-0.051020
  0
VERTEX
  8
PLAN_1
  6
CONTINUOUS
 10
-0.323685
 20
-0.047689
  0
VERTEX
  8
PLAN_1
  6
CONTINUOUS
 10
-0.326063
 20
-0.044835
  0
VERTEX
  8
PLAN_1
  6
CONTINUOUS
 10
-0.329394
 20
-0.042457
  0
VERTEX
  8
PLAN_1
  6
CONTINUOUS
 10
-0.332724
 20
-0.040551
  0
VERTEX
  8
PLAN_1
  6
CONTINUOUS
 10
-0.336055
 20
-0.039602
  0
VERTEX
  8
PLAN_1
  6
CONTINUOUS
 10
-0.340339
 20
-0.039126
  0
SEQEND
  8
0
  0
POLYLINE
  8
PLAN_1
  6
CONTINUOUS
 66
     1
 40
0.005709
 41
0.005709
  0
VERTEX
  8
PLAN_1
  6
CONTINUOUS
 10
-0.340339
 20
-0.039126
  0
VERTEX
  8
PLAN_1
  6
CONTINUOUS
 10
-0.352709
 20
-0.039126
  0
VERTEX
  8
PLAN_1
  6
CONTINUOUS
 10
-0.824256
 20
-0.039602
  0
VERTEX
  8
PLAN_1
  6
CONTINUOUS
 10
-0.831870
 20
-0.039602
  0
SEQEND
  8
0
  0
POLYLINE
  8
PLAN_1
  6
CONTINUOUS
 66
     1
 40
0.005709
 41
0.005709
  0
VERTEX
  8
PLAN_1
  6
CONTINUOUS
 10
-0.831870
 20
-0.039602
  0
VERTEX
  8
PLAN_1
  6
CONTINUOUS
 10
-0.836154
 20
-0.039602
  0
VERTEX
  8
PLAN_1
  6
CONTINUOUS
 10
-0.839961
 20
-0.041028
  0
VERTEX
  8
PLAN_1
  6
CONTINUOUS
 10
-0.843291
 20
-0.042933
  0
VERTEX
  8
PLAN_1
  6
CONTINUOUS
 10
-0.846146
 20
-0.045311
  0
VERTEX
  8
PLAN_1
  6
CONTINUOUS
 10
-0.848524
 20
-0.048165
  0
VERTEX
  8
PLAN_1
  6
CONTINUOUS
 10
-0.850425
 20
-0.051496
  0
VERTEX
  8
PLAN_1
  6
CONTINUOUS
 10
-0.851378
 20
-0.055303
  0
VERTEX
  8
PLAN_1
  6
CONTINUOUS
 10
-0.851854
 20
-0.059110
  0
VERTEX
  8
PLAN_1
  6
CONTINUOUS
 10
-0.851378
 20
-0.062917
  0
VERTEX
  8
PLAN_1
  6
CONTINUOUS
 10
-0.850425
 20
-0.066724
  0
VERTEX
  8
PLAN_1
  6
CONTINUOUS
 10
-0.848524
 20
-0.070055
  0
VERTEX
  8
PLAN_1
  6
CONTINUOUS
 10
-0.846146
 20
-0.072909
  0
VERTEX
  8
PLAN_1
  6
CONTINUOUS
 10
-0.843291
 20
-0.075287
  0
VERTEX
  8
PLAN_1
  6
CONTINUOUS
 10
-0.839961
 20
-0.077193
  0
VERTEX
  8
PLAN_1
  6
CONTINUOUS
 10
-0.836154
 20
-0.078618
  0
VERTEX
  8
PLAN_1
  6
CONTINUOUS
 10
-0.831870
 20
-0.079094
  0
SEQEND
  8
0
  0
POLYLINE
  8
PLAN_1
  6
CONTINUOUS
 66
     1
 40
0.005709
 41
0.005709
  0
VERTEX
  8
PLAN_1
  6
CONTINUOUS
 10
-0.831870
 20
-0.079094
  0
VERTEX
  8
PLAN_1
  6
CONTINUOUS
 10
-0.824256
 20
-0.079094
  0
VERTEX
  8
PLAN_1
  6
CONTINUOUS
 10
-0.352709
 20
-0.078618
  0
VERTEX
  8
PLAN_1
  6
CONTINUOUS
 10
-0.340339
 20
-0.078618
  0
SEQEND
  8
0
  0
POLYLINE
  8
PLAN_1
  6
CONTINUOUS
 66
     1
 40
0.005709
 41
0.005709
  0
VERTEX
  8
PLAN_1
  6
CONTINUOUS
 10
-1.522772
 20
1.060039
  0
VERTEX
  8
PLAN_1
  6
CONTINUOUS
 10
-1.522772
 20
1.454504
  0
VERTEX
  8
PLAN_1
  6
CONTINUOUS
 10
-1.566075
 20
1.454504
  0
VERTEX
  8
PLAN_1
  6
CONTINUOUS
 10
-1.566075
 20
1.060039
  0
VERTEX
  8
PLAN_1
  6
CONTINUOUS
 10
-1.522772
 20
1.060039
  0
SEQEND
  8
0
  0
POLYLINE
  8
PLAN_1
  6
CONTINUOUS
 66
     1
 40
0.007134
 41
0.007134
  0
VERTEX
  8
PLAN_1
  6
CONTINUOUS
 10
-1.709776
 20
1.099059
  0
VERTEX
  8
PLAN_1
  6
CONTINUOUS
 10
-1.580350
 20
1.099059
  0
SEQEND
  8
0
  0
POLYLINE
  8
PLAN_1
  6
CONTINUOUS
 66
     1
 40
0.007134
 41
0.007134
  0
VERTEX
  8
PLAN_1
  6
CONTINUOUS
 10
-1.580350
 20
1.099059
  0
VERTEX
  8
PLAN_1
  6
CONTINUOUS
 10
-1.577492
 20
1.113335
  0
VERTEX
  8
PLAN_1
  6
CONTINUOUS
 10
-1.575114
 20
1.127606
  0
VERTEX
  8
PLAN_1
  6
CONTINUOUS
 10
-1.573685
 20
1.141406
  0
VERTEX
  8
PLAN_1
  6
CONTINUOUS
 10
-1.572736
 20
1.155205
  0
VERTEX
  8
PLAN_1
  6
CONTINUOUS
 10
-1.572260
 20
1.169004
  0
VERTEX
  8
PLAN_1
  6
CONTINUOUS
 10
-1.572260
 20
1.181850
  0
VERTEX
  8
PLAN_1
  6
CONTINUOUS
 10
-1.572736
 20
1.194224
  0
VERTEX
  8
PLAN_1
  6
CONTINUOUS
 10
-1.573685
 20
1.205642
  0
VERTEX
  8
PLAN_1
  6
CONTINUOUS
 10
-1.575591
 20
1.226102
  0
VERTEX
  8
PLAN_1
  6
CONTINUOUS
 10
-1.577969
 20
1.241807
  0
VERTEX
  8
PLAN_1
  6
CONTINUOUS
 10
-1.579398
 20
1.251799
  0
VERTEX
  8
PLAN_1
  6
CONTINUOUS
 10
-1.580350
 20
1.255606
  0
VERTEX
  8
PLAN_1
  6
CONTINUOUS
 10
-1.577492
 20
1.269882
  0
VERTEX
  8
PLAN_1
  6
CONTINUOUS
 10
-1.575114
 20
1.284154
  0
VERTEX
  8
PLAN_1
  6
CONTINUOUS
 10
-1.573685
 20
1.298429
  0
VERTEX
  8
PLAN_1
  6
CONTINUOUS
 10
-1.572736
 20
1.312228
  0
VERTEX
  8
PLAN_1
  6
CONTINUOUS
 10
-1.572260
 20
1.326028
  0
VERTEX
  8
PLAN_1
  6
CONTINUOUS
 10
-1.572736
 20
1.338874
  0
VERTEX
  8
PLAN_1
  6
CONTINUOUS
 10
-1.573213
 20
1.351248
  0
VERTEX
  8
PLAN_1
  6
CONTINUOUS
 10
-1.573685
 20
1.363142
  0
VERTEX
  8
PLAN_1
  6
CONTINUOUS
 10
-1.576067
 20
1.383602
  0
VERTEX
  8
PLAN_1
  6
CONTINUOUS
 10
-1.578445
 20
1.399783
  0
VERTEX
  8
PLAN_1
  6
CONTINUOUS
 10
-1.580350
 20
1.410248
  0
VERTEX
  8
PLAN_1
  6
CONTINUOUS
 10
-1.581299
 20
1.413583
  0
SEQEND
  8
0
  0
POLYLINE
  8
PLAN_1
  6
CONTINUOUS
 66
     1
 40
0.007134
 41
0.007134
  0
VERTEX
  8
PLAN_1
  6
CONTINUOUS
 10
-1.581299
 20
1.413583
  0
VERTEX
  8
PLAN_1
  6
CONTINUOUS
 10
-1.709776
 20
1.413583
  0
SEQEND
  8
0
  0
POLYLINE
  8
PLAN_1
  6
CONTINUOUS
 66
     1
 40
0.007134
 41
0.007134
  0
VERTEX
  8
PLAN_1
  6
CONTINUOUS
 10
-1.709776
 20
1.413583
  0
VERTEX
  8
PLAN_1
  6
CONTINUOUS
 10
-1.710724
 20
1.410248
  0
VERTEX
  8
PLAN_1
  6
CONTINUOUS
 10
-1.712630
 20
1.399783
  0
VERTEX
  8
PLAN_1
  6
CONTINUOUS
 10
-1.715008
 20
1.383602
  0
VERTEX
  8
PLAN_1
  6
CONTINUOUS
 10
-1.716913
 20
1.363142
  0
VERTEX
  8
PLAN_1
  6
CONTINUOUS
 10
-1.717386
 20
1.351248
  0
VERTEX
  8
PLAN_1
  6
CONTINUOUS
 10
-1.717862
 20
1.338874
  0
VERTEX
  8
PLAN_1
  6
CONTINUOUS
 10
-1.718339
 20
1.326028
  0
VERTEX
  8
PLAN_1
  6
CONTINUOUS
 10
-1.717862
 20
1.312228
  0
VERTEX
  8
PLAN_1
  6
CONTINUOUS
 10
-1.716913
 20
1.298429
  0
VERTEX
  8
PLAN_1
  6
CONTINUOUS
 10
-1.715484
 20
1.284154
  0
VERTEX
  8
PLAN_1
  6
CONTINUOUS
 10
-1.713106
 20
1.269882
  0
VERTEX
  8
PLAN_1
  6
CONTINUOUS
 10
-1.709776
 20
1.255606
  0
VERTEX
  8
PLAN_1
  6
CONTINUOUS
 10
-1.710724
 20
1.251799
  0
VERTEX
  8
PLAN_1
  6
CONTINUOUS
 10
-1.712630
 20
1.241807
  0
VERTEX
  8
PLAN_1
  6
CONTINUOUS
 10
-1.715008
 20
1.226102
  0
VERTEX
  8
PLAN_1
  6
CONTINUOUS
 10
-1.716913
 20
1.205642
  0
VERTEX
  8
PLAN_1
  6
CONTINUOUS
 10
-1.717386
 20
1.194224
  0
VERTEX
  8
PLAN_1
  6
CONTINUOUS
 10
-1.717862
 20
1.181850
  0
VERTEX
  8
PLAN_1
  6
CONTINUOUS
 10
-1.718339
 20
1.169004
  0
VERTEX
  8
PLAN_1
  6
CONTINUOUS
 10
-1.717862
 20
1.155205
  0
VERTEX
  8
PLAN_1
  6
CONTINUOUS
 10
-1.716913
 20
1.141406
  0
VERTEX
  8
PLAN_1
  6
CONTINUOUS
 10
-1.715484
 20
1.127606
  0
VERTEX
  8
PLAN_1
  6
CONTINUOUS
 10
-1.713106
 20
1.113335
  0
VERTEX
  8
PLAN_1
  6
CONTINUOUS
 10
-1.709776
 20
1.099059
  0
SEQEND
  8
0
  0
POLYLINE
  8
PLAN_1
  6
CONTINUOUS
 66
     1
 40
0.007134
 41
0.007134
  0
VERTEX
  8
PLAN_1
  6
CONTINUOUS
 10
-1.774961
 20
1.159965
  0
VERTEX
  8
PLAN_1
  6
CONTINUOUS
 10
-1.775437
 20
1.160917
  0
VERTEX
  8
PLAN_1
  6
CONTINUOUS
 10
-1.777343
 20
1.162819
  0
VERTEX
  8
PLAN_1
  6
CONTINUOUS
 10
-1.780197
 20
1.165673
  0
VERTEX
  8
PLAN_1
  6
CONTINUOUS
 10
-1.783528
 20
1.169004
  0
VERTEX
  8
PLAN_1
  6
CONTINUOUS
 10
-1.786858
 20
1.172335
  0
VERTEX
  8
PLAN_1
  6
CONTINUOUS
 10
-1.789713
 20
1.175189
  0
VERTEX
  8
PLAN_1
  6
CONTINUOUS
 10
-1.791618
 20
1.177094
  0
VERTEX
  8
PLAN_1
  6
CONTINUOUS
 10
-1.792567
 20
1.178047
  0
VERTEX
  8
PLAN_1
  6
CONTINUOUS
 10
-1.793043
 20
1.184709
  0
VERTEX
  8
PLAN_1
  6
CONTINUOUS
 10
-1.793043
 20
1.202787
  0
VERTEX
  8
PLAN_1
  6
CONTINUOUS
 10
-1.793043
 20
1.228484
  0
VERTEX
  8
PLAN_1
  6
CONTINUOUS
 10
-1.793043
 20
1.257984
  0
VERTEX
  8
PLAN_1
  6
CONTINUOUS
 10
-1.793043
 20
1.287012
  0
VERTEX
  8
PLAN_1
  6
CONTINUOUS
 10
-1.793043
 20
1.312705
  0
VERTEX
  8
PLAN_1
  6
CONTINUOUS
 10
-1.792567
 20
1.330787
  0
VERTEX
  8
PLAN_1
  6
CONTINUOUS
 10
-1.792567
 20
1.337925
  0
SEQEND
  8
0
  0
POLYLINE
  8
PLAN_1
  6
CONTINUOUS
 66
     1
 40
0.007134
 41
0.007134
  0
VERTEX
  8
PLAN_1
  6
CONTINUOUS
 10
-1.792567
 20
1.337925
  0
VERTEX
  8
PLAN_1
  6
CONTINUOUS
 10
-1.774961
 20
1.355531
  0
VERTEX
  8
PLAN_1
  6
CONTINUOUS
 10
-1.727378
 20
1.356957
  0
VERTEX
  8
PLAN_1
  6
CONTINUOUS
 10
-1.727378
 20
1.159488
  0
VERTEX
  8
PLAN_1
  6
CONTINUOUS
 10
-1.774961
 20
1.159965
  0
SEQEND
  8
0
  0
POLYLINE
  8
PLAN_1
  6
CONTINUOUS
 66
     1
 40
0.008563
 41
0.008563
  0
VERTEX
  8
PLAN_1
  6
CONTINUOUS
 10
-1.484709
 20
1.291291
  0
VERTEX
  8
PLAN_1
  6
CONTINUOUS
 10
-1.446642
 20
1.291291
  0
VERTEX
  8
PLAN_1
  6
CONTINUOUS
 10
-1.446642
 20
1.523020
  0
VERTEX
  8
PLAN_1
  6
CONTINUOUS
 10
-1.370031
 20
1.523020
  0
VERTEX
  8
PLAN_1
  6
CONTINUOUS
 10
-1.370031
 20
0.948697
  0
VERTEX
  8
PLAN_1
  6
CONTINUOUS
 10
-1.446642
 20
0.948697
  0
VERTEX
  8
PLAN_1
  6
CONTINUOUS
 10
-1.446642
 20
1.215638
  0
VERTEX
  8
PLAN_1
  6
CONTINUOUS
 10
-1.446165
 20
1.215638
  0
VERTEX
  8
PLAN_1
  6
CONTINUOUS
 10
-1.446642
 20
1.215638
  0
VERTEX
  8
PLAN_1
  6
CONTINUOUS
 10
-1.484709
 20
1.215638
  0
SEQEND
  8
0
  0
POLYLINE
  8
PLAN_1
  6
CONTINUOUS
 66
     1
 40
0.008563
 41
0.008563
  0
VERTEX
  8
PLAN_1
  6
CONTINUOUS
 10
-1.484709
 20
1.215638
  0
VERTEX
  8
PLAN_1
  6
CONTINUOUS
 10
-1.484709
 20
1.291291
  0
VERTEX
  8
PLAN_1
  6
CONTINUOUS
 10
-1.446165
 20
1.291291
  0
VERTEX
  8
PLAN_1
  6
CONTINUOUS
 10
-1.446165
 20
1.821366
  0
VERTEX
  8
PLAN_1
  6
CONTINUOUS
 10
-1.620795
 20
2.134461
  0
VERTEX
  8
PLAN_1
  6
CONTINUOUS
 10
-1.620795
 20
2.593161
  0
VERTEX
  8
PLAN_1
  6
CONTINUOUS
 10
-1.702161
 20
2.593161
  0
VERTEX
  8
PLAN_1
  6
CONTINUOUS
 10
-1.702161
 20
2.134461
  0
SEQEND
  8
0
  0
POLYLINE
  8
PLAN_1
  6
CONTINUOUS
 66
     1
 40
0.008563
 41
0.008563
  0
VERTEX
  8
PLAN_1
  6
CONTINUOUS
 10
-1.702161
 20
2.134461
  0
VERTEX
  8
PLAN_1
  6
CONTINUOUS
 10
-1.694071
 20
2.121138
  0
VERTEX
  8
PLAN_1
  6
CONTINUOUS
 10
-1.674087
 20
2.085925
  0
VERTEX
  8
PLAN_1
  6
CONTINUOUS
 10
-1.645535
 20
2.035488
  0
VERTEX
  8
PLAN_1
  6
CONTINUOUS
 10
-1.612228
 20
1.978390
  0
VERTEX
  8
PLAN_1
  6
CONTINUOUS
 10
-1.579398
 20
1.920815
  0
VERTEX
  8
PLAN_1
  6
CONTINUOUS
 10
-1.550846
 20
1.870378
  0
VERTEX
  8
PLAN_1
  6
CONTINUOUS
 10
-1.530386
 20
1.835165
  0
VERTEX
  8
PLAN_1
  6
CONTINUOUS
 10
-1.522772
 20
1.821366
  0
SEQEND
  8
0
  0
POLYLINE
  8
PLAN_1
  6
CONTINUOUS
 66
     1
 40
0.008563
 41
0.008563
  0
VERTEX
  8
PLAN_1
  6
CONTINUOUS
 10
-1.522772
 20
1.821366
  0
VERTEX
  8
PLAN_1
  6
CONTINUOUS
 10
-1.522772
 20
0.899685
  0
VERTEX
  8
PLAN_1
  6
CONTINUOUS
 10
-1.446165
 20
0.899685
  0
VERTEX
  8
PLAN_1
  6
CONTINUOUS
 10
-1.446165
 20
1.215638
  0
VERTEX
  8
PLAN_1
  6
CONTINUOUS
 10
-1.484709
 20
1.215638
  0
SEQEND
  8
0
  0
POLYLINE
  8
PLAN_1
  6
CONTINUOUS
 66
     1
 40
0.008563
 41
0.008563
  0
VERTEX
  8
PLAN_1
  6
CONTINUOUS
 10
-2.158957
 20
2.175382
  0
VERTEX
  8
PLAN_1
  6
CONTINUOUS
 10
-2.158957
 20
2.648831
  0
VERTEX
  8
PLAN_1
  6
CONTINUOUS
 10
-2.221291
 20
2.648831
  0
VERTEX
  8
PLAN_1
  6
CONTINUOUS
 10
-2.221291
 20
2.175382
  0
VERTEX
  8
PLAN_1
  6
CONTINUOUS
 10
-2.158957
 20
2.175382
  0
SEQEND
  8
0
  0
POLYLINE
  8
PLAN_1
  6
CONTINUOUS
 66
     1
 40
0.008563
 41
0.008563
  0
VERTEX
  8
PLAN_1
  6
CONTINUOUS
 10
-1.703587
 20
2.175382
  0
VERTEX
  8
PLAN_1
  6
CONTINUOUS
 10
-1.703587
 20
2.648831
  0
VERTEX
  8
PLAN_1
  6
CONTINUOUS
 10
-1.764969
 20
2.648831
  0
VERTEX
  8
PLAN_1
  6
CONTINUOUS
 10
-1.764969
 20
2.175382
  0
VERTEX
  8
PLAN_1
  6
CONTINUOUS
 10
-1.703587
 20
2.175382
  0
SEQEND
  8
0
  0
POLYLINE
  8
PLAN_1
  6
CONTINUOUS
 66
     1
 40
0.008563
 41
0.008563
  0
VERTEX
  8
PLAN_1
  6
CONTINUOUS
 10
-1.566075
 20
2.328598
  0
VERTEX
  8
PLAN_1
  6
CONTINUOUS
 10
-1.566075
 20
2.481815
  0
VERTEX
  8
PLAN_1
  6
CONTINUOUS
 10
-1.620795
 20
2.481815
  0
VERTEX
  8
PLAN_1
  6
CONTINUOUS
 10
-1.620795
 20
2.328598
  0
VERTEX
  8
PLAN_1
  6
CONTINUOUS
 10
-1.566075
 20
2.328598
  0
SEQEND
  8
0
  0
POLYLINE
  8
PLAN_1
  6
CONTINUOUS
 66
     1
 40
0.008563
 41
0.008563
  0
VERTEX
  8
PLAN_1
  6
CONTINUOUS
 10
-1.370031
 20
0.850673
  0
VERTEX
  8
PLAN_1
  6
CONTINUOUS
 10
-1.370031
 20
1.593921
  0
VERTEX
  8
PLAN_1
  6
CONTINUOUS
 10
-1.124504
 20
1.635791
  0
VERTEX
  8
PLAN_1
  6
CONTINUOUS
 10
-1.124504
 20
0.821650
  0
VERTEX
  8
PLAN_1
  6
CONTINUOUS
 10
-1.370031
 20
0.850673
  0
SEQEND
  8
0
  0
POLYLINE
  8
PLAN_1
  6
CONTINUOUS
 66
     1
 40
0.004280
 41
0.004280
  0
VERTEX
  8
PLAN_1
  6
CONTINUOUS
 10
-1.766874
 20
1.356957
  0
VERTEX
  8
PLAN_1
  6
CONTINUOUS
 10
-1.766874
 20
1.159488
  0
SEQEND
  8
0
  0
POLYLINE
  8
PLAN_1
  6
CONTINUOUS
 66
     1
 40
0.004280
 41
0.004280
  0
VERTEX
  8
PLAN_1
  6
CONTINUOUS
 10
-1.578921
 20
1.256083
  0
VERTEX
  8
PLAN_1
  6
CONTINUOUS
 10
-1.698831
 20
1.256083
  0
SEQEND
  8
0
  0
POLYLINE
  8
PLAN_1
  6
CONTINUOUS
 66
     1
 40
0.008563
 41
0.008563
  0
VERTEX
  8
PLAN_1
  6
CONTINUOUS
 10
-0.059598
 20
1.741425
  0
VERTEX
  8
PLAN_1
  6
CONTINUOUS
 10
-0.059122
 20
0.703646
  0
VERTEX
  8
PLAN_1
  6
CONTINUOUS
 10
-1.124504
 20
0.703646
  0
VERTEX
  8
PLAN_1
  6
CONTINUOUS
 10
-1.124504
 20
1.741425
  0
VERTEX
  8
PLAN_1
  6
CONTINUOUS
 10
-0.059598
 20
1.741425
  0
SEQEND
  8
0
  0
POLYLINE
  8
PLAN_1
  6
CONTINUOUS
 66
     1
 40
0.007134
 41
0.007134
  0
VERTEX
  8
PLAN_1
  6
CONTINUOUS
 10
-0.059122
 20
1.624374
  0
VERTEX
  8
PLAN_1
  6
CONTINUOUS
 10
-0.353661
 20
1.624374
  0
VERTEX
  8
PLAN_1
  6
CONTINUOUS
 10
-0.353661
 20
1.741425
  0
VERTEX
  8
PLAN_1
  6
CONTINUOUS
 10
-0.827110
 20
1.741425
  0
VERTEX
  8
PLAN_1
  6
CONTINUOUS
 10
-0.827110
 20
1.624374
  0
VERTEX
  8
PLAN_1
  6
CONTINUOUS
 10
-1.124980
 20
1.624374
  0
SEQEND
  8
0
  0
POLYLINE
  8
PLAN_1
  6
CONTINUOUS
 66
     1
 40
0.007134
 41
0.007134
  0
VERTEX
  8
PLAN_1
  6
CONTINUOUS
 10
-0.962724
 20
1.652445
  0
VERTEX
  8
PLAN_1
  6
CONTINUOUS
 10
-1.024579
 20
1.652445
  0
VERTEX
  8
PLAN_1
  6
CONTINUOUS
 10
-1.024579
 20
1.682902
  0
VERTEX
  8
PLAN_1
  6
CONTINUOUS
 10
-1.118795
 20
1.682902
  0
VERTEX
  8
PLAN_1
  6
CONTINUOUS
 10
-1.118795
 20
1.623421
  0
VERTEX
  8
PLAN_1
  6
CONTINUOUS
 10
-0.866130
 20
1.623421
  0
VERTEX
  8
PLAN_1
  6
CONTINUOUS
 10
-0.866130
 20
1.682902
  0
VERTEX
  8
PLAN_1
  6
CONTINUOUS
 10
-0.962724
 20
1.682902
  0
VERTEX
  8
PLAN_1
  6
CONTINUOUS
 10
-0.962724
 20
1.652445
  0
SEQEND
  8
0
  0
POLYLINE
  8
PLAN_1
  6
CONTINUOUS
 66
     1
 40
0.007134
 41
0.007134
  0
VERTEX
  8
PLAN_1
  6
CONTINUOUS
 10
-0.162854
 20
1.652445
  0
VERTEX
  8
PLAN_1
  6
CONTINUOUS
 10
-0.224713
 20
1.652445
  0
VERTEX
  8
PLAN_1
  6
CONTINUOUS
 10
-0.224713
 20
1.682902
  0
VERTEX
  8
PLAN_1
  6
CONTINUOUS
 10
-0.318925
 20
1.682902
  0
VERTEX
  8
PLAN_1
  6
CONTINUOUS
 10
-0.318925
 20
1.623421
  0
VERTEX
  8
PLAN_1
  6
CONTINUOUS
 10
-0.066260
 20
1.623421
  0
VERTEX
  8
PLAN_1
  6
CONTINUOUS
 10
-0.066260
 20
1.682902
  0
VERTEX
  8
PLAN_1
  6
CONTINUOUS
 10
-0.162854
 20
1.682902
  0
VERTEX
  8
PLAN_1
  6
CONTINUOUS
 10
-0.162854
 20
1.652445
  0
SEQEND
  8
0
  0
POLYLINE
  8
PLAN_1
  6
CONTINUOUS
 66
     1
 40
0.008563
 41
0.008563
  0
VERTEX
  8
PLAN_1
  6
CONTINUOUS
 10
-0.152386
 20
0.642264
  0
VERTEX
  8
PLAN_1
  6
CONTINUOUS
 10
-0.148102
 20
0.642264
  0
VERTEX
  8
PLAN_1
  6
CONTINUOUS
 10
-0.144295
 20
0.642736
  0
VERTEX
  8
PLAN_1
  6
CONTINUOUS
 10
-0.140492
 20
0.643689
  0
VERTEX
  8
PLAN_1
  6
CONTINUOUS
 10
-0.137161
 20
0.644642
  0
VERTEX
  8
PLAN_1
  6
CONTINUOUS
 10
-0.133831
 20
0.646067
  0
VERTEX
  8
PLAN_1
  6
CONTINUOUS
 10
-0.130972
 20
0.647972
  0
VERTEX
  8
PLAN_1
  6
CONTINUOUS
 10
-0.128594
 20
0.649398
  0
VERTEX
  8
PLAN_1
  6
CONTINUOUS
 10
-0.126217
 20
0.651780
  0
VERTEX
  8
PLAN_1
  6
CONTINUOUS
 10
-0.124311
 20
0.653681
  0
VERTEX
  8
PLAN_1
  6
CONTINUOUS
 10
-0.122409
 20
0.656535
  0
VERTEX
  8
PLAN_1
  6
CONTINUOUS
 10
-0.120504
 20
0.658917
  0
VERTEX
  8
PLAN_1
  6
CONTINUOUS
 10
-0.119079
 20
0.661295
  0
VERTEX
  8
PLAN_1
  6
CONTINUOUS
 10
-0.117173
 20
0.667004
  0
VERTEX
  8
PLAN_1
  6
CONTINUOUS
 10
-0.115272
 20
0.672717
  0
VERTEX
  8
PLAN_1
  6
CONTINUOUS
 10
-0.114319
 20
0.678425
  0
VERTEX
  8
PLAN_1
  6
CONTINUOUS
 10
-0.113843
 20
0.684134
  0
VERTEX
  8
PLAN_1
  6
CONTINUOUS
 10
-0.113370
 20
0.689370
  0
VERTEX
  8
PLAN_1
  6
CONTINUOUS
 10
-0.113370
 20
0.693654
  0
VERTEX
  8
PLAN_1
  6
CONTINUOUS
 10
-0.113843
 20
0.700787
  0
VERTEX
  8
PLAN_1
  6
CONTINUOUS
 10
-0.113843
 20
0.703646
  0
SEQEND
  8
0
  0
POLYLINE
  8
PLAN_1
  6
CONTINUOUS
 66
     1
 40
0.008563
 41
0.008563
  0
VERTEX
  8
PLAN_1
  6
CONTINUOUS
 10
-0.113843
 20
0.703646
  0
VERTEX
  8
PLAN_1
  6
CONTINUOUS
 10
-1.061220
 20
0.703646
  0
SEQEND
  8
0
  0
POLYLINE
  8
PLAN_1
  6
CONTINUOUS
 66
     1
 40
0.008563
 41
0.008563
  0
VERTEX
  8
PLAN_1
  6
CONTINUOUS
 10
-1.061220
 20
0.703646
  0
VERTEX
  8
PLAN_1
  6
CONTINUOUS
 10
-1.062169
 20
0.700787
  0
VERTEX
  8
PLAN_1
  6
CONTINUOUS
 10
-1.064075
 20
0.693654
  0
VERTEX
  8
PLAN_1
  6
CONTINUOUS
 10
-1.065028
 20
0.689370
  0
VERTEX
  8
PLAN_1
  6
CONTINUOUS
 10
-1.065500
 20
0.684134
  0
VERTEX
  8
PLAN_1
  6
CONTINUOUS
 10
-1.065976
 20
0.678425
  0
VERTEX
  8
PLAN_1
  6
CONTINUOUS
 10
-1.065976
 20
0.672717
  0
VERTEX
  8
PLAN_1
  6
CONTINUOUS
 10
-1.065028
 20
0.667004
  0
VERTEX
  8
PLAN_1
  6
CONTINUOUS
 10
-1.063598
 20
0.661295
  0
VERTEX
  8
PLAN_1
  6
CONTINUOUS
 10
-1.062646
 20
0.658917
  0
VERTEX
  8
PLAN_1
  6
CONTINUOUS
 10
-1.061220
 20
0.656535
  0
VERTEX
  8
PLAN_1
  6
CONTINUOUS
 10
-1.059791
 20
0.653681
  0
VERTEX
  8
PLAN_1
  6
CONTINUOUS
 10
-1.057890
 20
0.651780
  0
VERTEX
  8
PLAN_1
  6
CONTINUOUS
 10
-1.055984
 20
0.649398
  0
VERTEX
  8
PLAN_1
  6
CONTINUOUS
 10
-1.053606
 20
0.647972
  0
VERTEX
  8
PLAN_1
  6
CONTINUOUS
 10
-1.050752
 20
0.646067
  0
VERTEX
  8
PLAN_1
  6
CONTINUOUS
 10
-1.047898
 20
0.644642
  0
VERTEX
  8
PLAN_1
  6
CONTINUOUS
 10
-1.044091
 20
0.643689
  0
VERTEX
  8
PLAN_1
  6
CONTINUOUS
 10
-1.040283
 20
0.642736
  0
VERTEX
  8
PLAN_1
  6
CONTINUOUS
 10
-1.036476
 20
0.642264
  0
VERTEX
  8
PLAN_1
  6
CONTINUOUS
 10
-1.031717
 20
0.642264
  0
VERTEX
  8
PLAN_1
  6
CONTINUOUS
 10
-0.986516
 20
0.642264
  0
VERTEX
  8
PLAN_1
  6
CONTINUOUS
 10
-0.888969
 20
0.642264
  0
VERTEX
  8
PLAN_1
  6
CONTINUOUS
 10
-0.755260
 20
0.642264
  0
VERTEX
  8
PLAN_1
  6
CONTINUOUS
 10
-0.603472
 20
0.642264
  0
VERTEX
  8
PLAN_1
  6
CONTINUOUS
 10
-0.449780
 20
0.642264
  0
VERTEX
  8
PLAN_1
  6
CONTINUOUS
 10
-0.311787
 20
0.642264
  0
VERTEX
  8
PLAN_1
  6
CONTINUOUS
 10
-0.207106
 20
0.642264
  0
VERTEX
  8
PLAN_1
  6
CONTINUOUS
 10
-0.152386
 20
0.642264
  0
SEQEND
  8
0
  0
POLYLINE
  8
PLAN_1
  6
CONTINUOUS
 66
     1
 40
0.008563
 41
0.008563
  0
VERTEX
  8
PLAN_1
  6
CONTINUOUS
 10
-0.985563
 20
0.642264
  0
VERTEX
  8
PLAN_1
  6
CONTINUOUS
 10
-0.985563
 20
0.326311
  0
VERTEX
  8
PLAN_1
  6
CONTINUOUS
 10
-0.943689
 20
0.326311
  0
VERTEX
  8
PLAN_1
  6
CONTINUOUS
 10
-0.943689
 20
0.282535
  0
VERTEX
  8
PLAN_1
  6
CONTINUOUS
 10
-0.889921
 20
0.282535
  0
VERTEX
  8
PLAN_1
  6
CONTINUOUS
 10
-0.889921
 20
0.326311
  0
VERTEX
  8
PLAN_1
  6
CONTINUOUS
 10
-0.301319
 20
0.326311
  0
VERTEX
  8
PLAN_1
  6
CONTINUOUS
 10
-0.301319
 20
0.282535
  0
VERTEX
  8
PLAN_1
  6
CONTINUOUS
 10
-0.247551
 20
0.282535
  0
VERTEX
  8
PLAN_1
  6
CONTINUOUS
 10
-0.247551
 20
0.326311
  0
VERTEX
  8
PLAN_1
  6
CONTINUOUS
 10
-0.196161
 20
0.326311
  0
VERTEX
  8
PLAN_1
  6
CONTINUOUS
 10
-0.196161
 20
0.642264
  0
VERTEX
  8
PLAN_1
  6
CONTINUOUS
 10
-0.985563
 20
0.642264
  0
SEQEND
  8
0
  0
POLYLINE
  8
PLAN_1
  6
CONTINUOUS
 66
     1
 40
0.004280
 41
0.004280
  0
VERTEX
  8
PLAN_1
  6
CONTINUOUS
 10
-0.062453
 20
0.511409
  0
VERTEX
  8
PLAN_1
  6
CONTINUOUS
 10
0.181169
 20
0.511409
  0
SEQEND
  8
0
  0
POLYLINE
  8
PLAN_1
  6
CONTINUOUS
 66
     1
 40
0.004280
 41
0.004280
  0
VERTEX
  8
PLAN_1
  6
CONTINUOUS
 10
-1.237752
 20
0.512839
  0
VERTEX
  8
PLAN_1
  6
CONTINUOUS
 10
-0.994126
 20
0.512839
  0
SEQEND
  8
0
  0
POLYLINE
  8
PLAN_1
 62
     5
  6
CONTINUOUS
 66
     1
 40
0.003000
 41
0.003000
  0
VERTEX
  8
PLAN_1
 62
     5
  6
CONTINUOUS
 10
-1.375268
 20
0.045571
  0
VERTEX
  8
PLAN_1
 62
     5
  6
CONTINUOUS
 10
-1.375268
 20
0.053661
  0
SEQEND
  8
0
  0
POLYLINE
  8
PLAN_1
 62
     5
  6
CONTINUOUS
 66
     1
 40
0.003000
 41
0.003000
  0
VERTEX
  8
PLAN_1
 62
     5
  6
CONTINUOUS
 10
-1.375268
 20
0.062228
  0
VERTEX
  8
PLAN_1
 62
     5
  6
CONTINUOUS
 10
-1.375268
 20
0.070315
  0
SEQEND
  8
0
  0
POLYLINE
  8
PLAN_1
 62
     5
  6
CONTINUOUS
 66
     1
 40
0.003000
 41
0.003000
  0
VERTEX
  8
PLAN_1
 62
     5
  6
CONTINUOUS
 10
-1.375268
 20
0.078882
  0
VERTEX
  8
PLAN_1
 62
     5
  6
CONTINUOUS
 10
-1.375268
 20
0.086969
  0
SEQEND
  8
0
  0
POLYLINE
  8
PLAN_1
 62
     5
  6
CONTINUOUS
 66
     1
 40
0.003000
 41
0.003000
  0
VERTEX
  8
PLAN_1
 62
     5
  6
CONTINUOUS
 10
-1.375268
 20
0.095535
  0
VERTEX
  8
PLAN_1
 62
     5
  6
CONTINUOUS
 10
-1.375268
 20
0.103622
  0
SEQEND
  8
0
  0
POLYLINE
  8
PLAN_1
 62
     5
  6
CONTINUOUS
 66
     1
 40
0.003000
 41
0.003000
  0
VERTEX
  8
PLAN_1
 62
     5
  6
CONTINUOUS
 10
-1.375268
 20
0.112189
  0
VERTEX
  8
PLAN_1
 62
     5
  6
CONTINUOUS
 10
-1.375268
 20
0.120280
  0
SEQEND
  8
0
  0
POLYLINE
  8
PLAN_1
 62
     5
  6
CONTINUOUS
 66
     1
 40
0.003000
 41
0.003000
  0
VERTEX
  8
PLAN_1
 62
     5
  6
CONTINUOUS
 10
-1.375268
 20
0.128843
  0
VERTEX
  8
PLAN_1
 62
     5
  6
CONTINUOUS
 10
-1.375268
 20
0.136933
  0
SEQEND
  8
0
  0
POLYLINE
  8
PLAN_1
 62
     5
  6
CONTINUOUS
 66
     1
 40
0.003000
 41
0.003000
  0
VERTEX
  8
PLAN_1
 62
     5
  6
CONTINUOUS
 10
-1.375268
 20
0.145496
  0
VERTEX
  8
PLAN_1
 62
     5
  6
CONTINUOUS
 10
-1.375268
 20
0.153587
  0
SEQEND
  8
0
  0
POLYLINE
  8
PLAN_1
 62
     5
  6
CONTINUOUS
 66
     1
 40
0.003000
 41
0.003000
  0
VERTEX
  8
PLAN_1
 62
     5
  6
CONTINUOUS
 10
-1.375268
 20
0.162150
  0
VERTEX
  8
PLAN_1
 62
     5
  6
CONTINUOUS
 10
-1.375268
 20
0.170240
  0
SEQEND
  8
0
  0
POLYLINE
  8
PLAN_1
 62
     5
  6
CONTINUOUS
 66
     1
 40
0.003000
 41
0.003000
  0
VERTEX
  8
PLAN_1
 62
     5
  6
CONTINUOUS
 10
-1.375268
 20
0.178803
  0
VERTEX
  8
PLAN_1
 62
     5
  6
CONTINUOUS
 10
-1.375268
 20
0.186894
  0
SEQEND
  8
0
  0
POLYLINE
  8
PLAN_1
 62
     5
  6
CONTINUOUS
 66
     1
 40
0.003000
 41
0.003000
  0
VERTEX
  8
PLAN_1
 62
     5
  6
CONTINUOUS
 10
-1.375268
 20
0.195461
  0
VERTEX
  8
PLAN_1
 62
     5
  6
CONTINUOUS
 10
-1.375268
 20
0.203547
  0
SEQEND
  8
0
  0
POLYLINE
  8
PLAN_1
 62
     5
  6
CONTINUOUS
 66
     1
 40
0.003000
 41
0.003000
  0
VERTEX
  8
PLAN_1
 62
     5
  6
CONTINUOUS
 10
-1.375268
 20
0.212114
  0
VERTEX
  8
PLAN_1
 62
     5
  6
CONTINUOUS
 10
-1.375268
 20
0.220201
  0
SEQEND
  8
0
  0
POLYLINE
  8
PLAN_1
 62
     5
  6
CONTINUOUS
 66
     1
 40
0.003000
 41
0.003000
  0
VERTEX
  8
PLAN_1
 62
     5
  6
CONTINUOUS
 10
-1.375268
 20
0.228768
  0
VERTEX
  8
PLAN_1
 62
     5
  6
CONTINUOUS
 10
-1.375268
 20
0.236854
  0
SEQEND
  8
0
  0
POLYLINE
  8
PLAN_1
 62
     5
  6
CONTINUOUS
 66
     1
 40
0.003000
 41
0.003000
  0
VERTEX
  8
PLAN_1
 62
     5
  6
CONTINUOUS
 10
-1.375268
 20
0.245421
  0
VERTEX
  8
PLAN_1
 62
     5
  6
CONTINUOUS
 10
-1.375268
 20
0.253512
  0
SEQEND
  8
0
  0
POLYLINE
  8
PLAN_1
 62
     5
  6
CONTINUOUS
 66
     1
 40
0.003000
 41
0.003000
  0
VERTEX
  8
PLAN_1
 62
     5
  6
CONTINUOUS
 10
-1.375268
 20
0.262075
  0
VERTEX
  8
PLAN_1
 62
     5
  6
CONTINUOUS
 10
-1.375268
 20
0.270165
  0
SEQEND
  8
0
  0
POLYLINE
  8
PLAN_1
 62
     5
  6
CONTINUOUS
 66
     1
 40
0.003000
 41
0.003000
  0
VERTEX
  8
PLAN_1
 62
     5
  6
CONTINUOUS
 10
-1.375268
 20
0.278728
  0
VERTEX
  8
PLAN_1
 62
     5
  6
CONTINUOUS
 10
-1.375268
 20
0.286819
  0
SEQEND
  8
0
  0
POLYLINE
  8
PLAN_1
 62
     5
  6
CONTINUOUS
 66
     1
 40
0.003000
 41
0.003000
  0
VERTEX
  8
PLAN_1
 62
     5
  6
CONTINUOUS
 10
-1.375268
 20
0.295382
  0
VERTEX
  8
PLAN_1
 62
     5
  6
CONTINUOUS
 10
-1.375268
 20
0.303472
  0
SEQEND
  8
0
  0
POLYLINE
  8
PLAN_1
 62
     5
  6
CONTINUOUS
 66
     1
 40
0.003000
 41
0.003000
  0
VERTEX
  8
PLAN_1
 62
     5
  6
CONTINUOUS
 10
-1.375268
 20
0.312035
  0
VERTEX
  8
PLAN_1
 62
     5
  6
CONTINUOUS
 10
-1.375268
 20
0.316795
  0
VERTEX
  8
PLAN_1
 62
     5
  6
CONTINUOUS
 10
-1.372409
 20
0.316795
  0
SEQEND
  8
0
  0
POLYLINE
  8
PLAN_1
 62
     5
  6
CONTINUOUS
 66
     1
 40
0.003000
 41
0.003000
  0
VERTEX
  8
PLAN_1
 62
     5
  6
CONTINUOUS
 10
-1.363846
 20
0.316795
  0
VERTEX
  8
PLAN_1
 62
     5
  6
CONTINUOUS
 10
-1.355756
 20
0.316795
  0
SEQEND
  8
0
  0
POLYLINE
  8
PLAN_1
 62
     5
  6
CONTINUOUS
 66
     1
 40
0.003000
 41
0.003000
  0
VERTEX
  8
PLAN_1
 62
     5
  6
CONTINUOUS
 10
-1.347193
 20
0.316795
  0
VERTEX
  8
PLAN_1
 62
     5
  6
CONTINUOUS
 10
-1.339102
 20
0.316795
  0
SEQEND
  8
0
  0
POLYLINE
  8
PLAN_1
 62
     5
  6
CONTINUOUS
 66
     1
 40
0.003000
 41
0.003000
  0
VERTEX
  8
PLAN_1
 62
     5
  6
CONTINUOUS
 10
-1.330539
 20
0.316795
  0
VERTEX
  8
PLAN_1
 62
     5
  6
CONTINUOUS
 10
-1.322449
 20
0.316795
  0
SEQEND
  8
0
  0
POLYLINE
  8
PLAN_1
 62
     5
  6
CONTINUOUS
 66
     1
 40
0.003000
 41
0.003000
  0
VERTEX
  8
PLAN_1
 62
     5
  6
CONTINUOUS
 10
-1.313886
 20
0.316795
  0
VERTEX
  8
PLAN_1
 62
     5
  6
CONTINUOUS
 10
-1.305795
 20
0.316795
  0
SEQEND
  8
0
  0
POLYLINE
  8
PLAN_1
 62
     5
  6
CONTINUOUS
 66
     1
 40
0.003000
 41
0.003000
  0
VERTEX
  8
PLAN_1
 62
     5
  6
CONTINUOUS
 10
-1.297232
 20
0.316795
  0
VERTEX
  8
PLAN_1
 62
     5
  6
CONTINUOUS
 10
-1.289142
 20
0.316795
  0
SEQEND
  8
0
  0
POLYLINE
  8
PLAN_1
 62
     5
  6
CONTINUOUS
 66
     1
 40
0.003000
 41
0.003000
  0
VERTEX
  8
PLAN_1
 62
     5
  6
CONTINUOUS
 10
-1.280575
 20
0.316795
  0
VERTEX
  8
PLAN_1
 62
     5
  6
CONTINUOUS
 10
-1.272488
 20
0.316795
  0
SEQEND
  8
0
  0
POLYLINE
  8
PLAN_1
 62
     5
  6
CONTINUOUS
 66
     1
 40
0.003000
 41
0.003000
  0
VERTEX
  8
PLAN_1
 62
     5
  6
CONTINUOUS
 10
-1.263921
 20
0.316795
  0
VERTEX
  8
PLAN_1
 62
     5
  6
CONTINUOUS
 10
-1.255835
 20
0.316795
  0
SEQEND
  8
0
  0
POLYLINE
  8
PLAN_1
 62
     5
  6
CONTINUOUS
 66
     1
 40
0.003000
 41
0.003000
  0
VERTEX
  8
PLAN_1
 62
     5
  6
CONTINUOUS
 10
-1.247268
 20
0.316795
  0
VERTEX
  8
PLAN_1
 62
     5
  6
CONTINUOUS
 10
-1.239181
 20
0.316795
  0
SEQEND
  8
0
  0
POLYLINE
  8
PLAN_1
 62
     5
  6
CONTINUOUS
 66
     1
 40
0.003000
 41
0.003000
  0
VERTEX
  8
PLAN_1
 62
     5
  6
CONTINUOUS
 10
-1.230614
 20
0.316795
  0
VERTEX
  8
PLAN_1
 62
     5
  6
CONTINUOUS
 10
-1.222524
 20
0.316795
  0
SEQEND
  8
0
  0
POLYLINE
  8
PLAN_1
 62
     5
  6
CONTINUOUS
 66
     1
 40
0.003000
 41
0.003000
  0
VERTEX
  8
PLAN_1
 62
     5
  6
CONTINUOUS
 10
-1.213961
 20
0.316795
  0
VERTEX
  8
PLAN_1
 62
     5
  6
CONTINUOUS
 10
-1.205870
 20
0.316795
  0
SEQEND
  8
0
  0
POLYLINE
  8
PLAN_1
 62
     5
  6
CONTINUOUS
 66
     1
 40
0.003000
 41
0.003000
  0
VERTEX
  8
PLAN_1
 62
     5
  6
CONTINUOUS
 10
-1.197307
 20
0.316795
  0
VERTEX
  8
PLAN_1
 62
     5
  6
CONTINUOUS
 10
-1.189217
 20
0.316795
  0
SEQEND
  8
0
  0
POLYLINE
  8
PLAN_1
 62
     5
  6
CONTINUOUS
 66
     1
 40
0.003000
 41
0.003000
  0
VERTEX
  8
PLAN_1
 62
     5
  6
CONTINUOUS
 10
-1.180654
 20
0.316795
  0
VERTEX
  8
PLAN_1
 62
     5
  6
CONTINUOUS
 10
-1.172563
 20
0.316795
  0
SEQEND
  8
0
  0
POLYLINE
  8
PLAN_1
 62
     5
  6
CONTINUOUS
 66
     1
 40
0.003000
 41
0.003000
  0
VERTEX
  8
PLAN_1
 62
     5
  6
CONTINUOUS
 10
-1.164000
 20
0.316795
  0
VERTEX
  8
PLAN_1
 62
     5
  6
CONTINUOUS
 10
-1.155909
 20
0.316795
  0
SEQEND
  8
0
  0
POLYLINE
  8
PLAN_1
 62
     5
  6
CONTINUOUS
 66
     1
 40
0.003000
 41
0.003000
  0
VERTEX
  8
PLAN_1
 62
     5
  6
CONTINUOUS
 10
-1.147343
 20
0.316795
  0
VERTEX
  8
PLAN_1
 62
     5
  6
CONTINUOUS
 10
-1.139256
 20
0.316795
  0
SEQEND
  8
0
  0
POLYLINE
  8
PLAN_1
 62
     5
  6
CONTINUOUS
 66
     1
 40
0.003000
 41
0.003000
  0
VERTEX
  8
PLAN_1
 62
     5
  6
CONTINUOUS
 10
-1.130689
 20
0.316795
  0
VERTEX
  8
PLAN_1
 62
     5
  6
CONTINUOUS
 10
-1.127835
 20
0.316795
  0
VERTEX
  8
PLAN_1
 62
     5
  6
CONTINUOUS
 10
-1.127835
 20
0.322504
  0
SEQEND
  8
0
  0
POLYLINE
  8
PLAN_1
 62
     5
  6
CONTINUOUS
 66
     1
 40
0.003000
 41
0.003000
  0
VERTEX
  8
PLAN_1
 62
     5
  6
CONTINUOUS
 10
-1.127835
 20
0.330594
  0
VERTEX
  8
PLAN_1
 62
     5
  6
CONTINUOUS
 10
-1.127835
 20
0.339157
  0
SEQEND
  8
0
  0
POLYLINE
  8
PLAN_1
 62
     5
  6
CONTINUOUS
 66
     1
 40
0.003000
 41
0.003000
  0
VERTEX
  8
PLAN_1
 62
     5
  6
CONTINUOUS
 10
-1.127835
 20
0.347248
  0
VERTEX
  8
PLAN_1
 62
     5
  6
CONTINUOUS
 10
-1.127835
 20
0.355815
  0
SEQEND
  8
0
  0
POLYLINE
  8
PLAN_1
 62
     5
  6
CONTINUOUS
 66
     1
 40
0.003000
 41
0.003000
  0
VERTEX
  8
PLAN_1
 62
     5
  6
CONTINUOUS
 10
-1.127835
 20
0.363902
  0
VERTEX
  8
PLAN_1
 62
     5
  6
CONTINUOUS
 10
-1.127835
 20
0.372469
  0
SEQEND
  8
0
  0
POLYLINE
  8
PLAN_1
 62
     5
  6
CONTINUOUS
 66
     1
 40
0.003000
 41
0.003000
  0
VERTEX
  8
PLAN_1
 62
     5
  6
CONTINUOUS
 10
-1.127835
 20
0.380555
  0
VERTEX
  8
PLAN_1
 62
     5
  6
CONTINUOUS
 10
-1.127835
 20
0.389122
  0
SEQEND
  8
0
  0
POLYLINE
  8
PLAN_1
 62
     5
  6
CONTINUOUS
 66
     1
 40
0.003000
 41
0.003000
  0
VERTEX
  8
PLAN_1
 62
     5
  6
CONTINUOUS
 10
-1.127835
 20
0.397209
  0
VERTEX
  8
PLAN_1
 62
     5
  6
CONTINUOUS
 10
-1.127835
 20
0.405776
  0
SEQEND
  8
0
  0
POLYLINE
  8
PLAN_1
 62
     5
  6
CONTINUOUS
 66
     1
 40
0.003000
 41
0.003000
  0
VERTEX
  8
PLAN_1
 62
     5
  6
CONTINUOUS
 10
-1.127835
 20
0.413866
  0
VERTEX
  8
PLAN_1
 62
     5
  6
CONTINUOUS
 10
-1.127835
 20
0.422429
  0
SEQEND
  8
0
  0
POLYLINE
  8
PLAN_1
 62
     5
  6
CONTINUOUS
 66
     1
 40
0.003000
 41
0.003000
  0
VERTEX
  8
PLAN_1
 62
     5
  6
CONTINUOUS
 10
-1.127835
 20
0.430520
  0
VERTEX
  8
PLAN_1
 62
     5
  6
CONTINUOUS
 10
-1.127835
 20
0.439083
  0
SEQEND
  8
0
  0
POLYLINE
  8
PLAN_1
 62
     5
  6
CONTINUOUS
 66
     1
 40
0.003000
 41
0.003000
  0
VERTEX
  8
PLAN_1
 62
     5
  6
CONTINUOUS
 10
-1.127835
 20
0.447173
  0
VERTEX
  8
PLAN_1
 62
     5
  6
CONTINUOUS
 10
-1.127835
 20
0.455736
  0
SEQEND
  8
0
  0
POLYLINE
  8
PLAN_1
 62
     5
  6
CONTINUOUS
 66
     1
 40
0.003000
 41
0.003000
  0
VERTEX
  8
PLAN_1
 62
     5
  6
CONTINUOUS
 10
-1.127835
 20
0.463827
  0
VERTEX
  8
PLAN_1
 62
     5
  6
CONTINUOUS
 10
-1.127835
 20
0.472390
  0
SEQEND
  8
0
  0
POLYLINE
  8
PLAN_1
 62
     5
  6
CONTINUOUS
 66
     1
 40
0.003000
 41
0.003000
  0
VERTEX
  8
PLAN_1
 62
     5
  6
CONTINUOUS
 10
-1.127835
 20
0.480480
  0
VERTEX
  8
PLAN_1
 62
     5
  6
CONTINUOUS
 10
-1.127835
 20
0.489043
  0
SEQEND
  8
0
  0
POLYLINE
  8
PLAN_1
 62
     5
  6
CONTINUOUS
 66
     1
 40
0.003000
 41
0.003000
  0
VERTEX
  8
PLAN_1
 62
     5
  6
CONTINUOUS
 10
-1.127835
 20
0.497134
  0
VERTEX
  8
PLAN_1
 62
     5
  6
CONTINUOUS
 10
-1.127835
 20
0.505701
  0
SEQEND
  8
0
  0
POLYLINE
  8
PLAN_1
 62
     5
  6
CONTINUOUS
 66
     1
 40
0.003000
 41
0.003000
  0
VERTEX
  8
PLAN_1
 62
     5
  6
CONTINUOUS
 10
-1.127835
 20
0.513787
  0
VERTEX
  8
PLAN_1
 62
     5
  6
CONTINUOUS
 10
-1.127835
 20
0.522354
  0
SEQEND
  8
0
  0
POLYLINE
  8
PLAN_1
 62
     5
  6
CONTINUOUS
 66
     1
 40
0.003000
 41
0.003000
  0
VERTEX
  8
PLAN_1
 62
     5
  6
CONTINUOUS
 10
-1.127835
 20
0.530441
  0
VERTEX
  8
PLAN_1
 62
     5
  6
CONTINUOUS
 10
-1.127835
 20
0.539008
  0
SEQEND
  8
0
  0
POLYLINE
  8
PLAN_1
 62
     5
  6
CONTINUOUS
 66
     1
 40
0.003000
 41
0.003000
  0
VERTEX
  8
PLAN_1
 62
     5
  6
CONTINUOUS
 10
-1.127835
 20
0.547094
  0
VERTEX
  8
PLAN_1
 62
     5
  6
CONTINUOUS
 10
-1.127835
 20
0.555661
  0
SEQEND
  8
0
  0
POLYLINE
  8
PLAN_1
 62
     5
  6
CONTINUOUS
 66
     1
 40
0.003000
 41
0.003000
  0
VERTEX
  8
PLAN_1
 62
     5
  6
CONTINUOUS
 10
-1.127835
 20
0.563752
  0
VERTEX
  8
PLAN_1
 62
     5
  6
CONTINUOUS
 10
-1.127835
 20
0.572315
  0
SEQEND
  8
0
  0
POLYLINE
  8
PLAN_1
 62
     5
  6
CONTINUOUS
 66
     1
 40
0.003000
 41
0.003000
  0
VERTEX
  8
PLAN_1
 62
     5
  6
CONTINUOUS
 10
-1.127835
 20
0.580406
  0
VERTEX
  8
PLAN_1
 62
     5
  6
CONTINUOUS
 10
-1.127835
 20
0.588969
  0
SEQEND
  8
0
  0
POLYLINE
  8
PLAN_1
 62
     5
  6
CONTINUOUS
 66
     1
 40
0.003000
 41
0.003000
  0
VERTEX
  8
PLAN_1
 62
     5
  6
CONTINUOUS
 10
-1.127835
 20
0.597059
  0
VERTEX
  8
PLAN_1
 62
     5
  6
CONTINUOUS
 10
-1.127835
 20
0.605622
  0
SEQEND
  8
0
  0
POLYLINE
  8
PLAN_1
 62
     5
  6
CONTINUOUS
 66
     1
 40
0.003000
 41
0.003000
  0
VERTEX
  8
PLAN_1
 62
     5
  6
CONTINUOUS
 10
-1.127835
 20
0.613713
  0
VERTEX
  8
PLAN_1
 62
     5
  6
CONTINUOUS
 10
-1.127835
 20
0.622276
  0
SEQEND
  8
0
  0
POLYLINE
  8
PLAN_1
 62
     5
  6
CONTINUOUS
 66
     1
 40
0.003000
 41
0.003000
  0
VERTEX
  8
PLAN_1
 62
     5
  6
CONTINUOUS
 10
-1.127835
 20
0.630366
  0
VERTEX
  8
PLAN_1
 62
     5
  6
CONTINUOUS
 10
-1.127835
 20
0.638933
  0
SEQEND
  8
0
  0
POLYLINE
  8
PLAN_1
 62
     5
  6
CONTINUOUS
 66
     1
 40
0.003000
 41
0.003000
  0
VERTEX
  8
PLAN_1
 62
     5
  6
CONTINUOUS
 10
-1.127835
 20
0.647020
  0
VERTEX
  8
PLAN_1
 62
     5
  6
CONTINUOUS
 10
-1.127835
 20
0.655587
  0
SEQEND
  8
0
  0
POLYLINE
  8
PLAN_1
 62
     5
  6
CONTINUOUS
 66
     1
 40
0.003000
 41
0.003000
  0
VERTEX
  8
PLAN_1
 62
     5
  6
CONTINUOUS
 10
-1.127835
 20
0.663673
  0
VERTEX
  8
PLAN_1
 62
     5
  6
CONTINUOUS
 10
-1.127835
 20
0.672240
  0
SEQEND
  8
0
  0
POLYLINE
  8
PLAN_1
 62
     5
  6
CONTINUOUS
 66
     1
 40
0.003000
 41
0.003000
  0
VERTEX
  8
PLAN_1
 62
     5
  6
CONTINUOUS
 10
-1.127835
 20
0.680327
  0
VERTEX
  8
PLAN_1
 62
     5
  6
CONTINUOUS
 10
-1.127835
 20
0.688894
  0
SEQEND
  8
0
  0
POLYLINE
  8
PLAN_1
 62
     5
  6
CONTINUOUS
 66
     1
 40
0.003000
 41
0.003000
  0
VERTEX
  8
PLAN_1
 62
     5
  6
CONTINUOUS
 10
-1.127835
 20
0.696984
  0
VERTEX
  8
PLAN_1
 62
     5
  6
CONTINUOUS
 10
-1.127835
 20
0.703169
  0
VERTEX
  8
PLAN_1
 62
     5
  6
CONTINUOUS
 10
-1.125457
 20
0.703169
  0
SEQEND
  8
0
  0
POLYLINE
  8
PLAN_1
 62
     5
  6
CONTINUOUS
 66
     1
 40
0.003000
 41
0.003000
  0
VERTEX
  8
PLAN_1
 62
     5
  6
CONTINUOUS
 10
-1.116890
 20
0.703169
  0
VERTEX
  8
PLAN_1
 62
     5
  6
CONTINUOUS
 10
-1.108803
 20
0.703169
  0
SEQEND
  8
0
  0
POLYLINE
  8
PLAN_1
 62
     5
  6
CONTINUOUS
 66
     1
 40
0.003000
 41
0.003000
  0
VERTEX
  8
PLAN_1
 62
     5
  6
CONTINUOUS
 10
-1.100236
 20
0.703169
  0
VERTEX
  8
PLAN_1
 62
     5
  6
CONTINUOUS
 10
-1.092150
 20
0.703169
  0
SEQEND
  8
0
  0
POLYLINE
  8
PLAN_1
 62
     5
  6
CONTINUOUS
 66
     1
 40
0.003000
 41
0.003000
  0
VERTEX
  8
PLAN_1
 62
     5
  6
CONTINUOUS
 10
-1.083583
 20
0.703169
  0
VERTEX
  8
PLAN_1
 62
     5
  6
CONTINUOUS
 10
-1.075496
 20
0.703169
  0
SEQEND
  8
0
  0
POLYLINE
  8
PLAN_1
 62
     5
  6
CONTINUOUS
 66
     1
 40
0.003000
 41
0.003000
  0
VERTEX
  8
PLAN_1
 62
     5
  6
CONTINUOUS
 10
-1.066929
 20
0.703169
  0
VERTEX
  8
PLAN_1
 62
     5
  6
CONTINUOUS
 10
-1.058839
 20
0.703169
  0
SEQEND
  8
0
  0
POLYLINE
  8
PLAN_1
 62
     5
  6
CONTINUOUS
 66
     1
 40
0.003000
 41
0.003000
  0
VERTEX
  8
PLAN_1
 62
     5
  6
CONTINUOUS
 10
-1.050276
 20
0.703169
  0
VERTEX
  8
PLAN_1
 62
     5
  6
CONTINUOUS
 10
-1.042185
 20
0.703169
  0
SEQEND
  8
0
  0
POLYLINE
  8
PLAN_1
 62
     5
  6
CONTINUOUS
 66
     1
 40
0.003000
 41
0.003000
  0
VERTEX
  8
PLAN_1
 62
     5
  6
CONTINUOUS
 10
-1.033622
 20
0.703169
  0
VERTEX
  8
PLAN_1
 62
     5
  6
CONTINUOUS
 10
-1.025531
 20
0.703169
  0
SEQEND
  8
0
  0
POLYLINE
  8
PLAN_1
 62
     5
  6
CONTINUOUS
 66
     1
 40
0.003000
 41
0.003000
  0
VERTEX
  8
PLAN_1
 62
     5
  6
CONTINUOUS
 10
-1.016969
 20
0.703169
  0
VERTEX
  8
PLAN_1
 62
     5
  6
CONTINUOUS
 10
-1.008878
 20
0.703169
  0
SEQEND
  8
0
  0
POLYLINE
  8
PLAN_1
 62
     5
  6
CONTINUOUS
 66
     1
 40
0.003000
 41
0.003000
  0
VERTEX
  8
PLAN_1
 62
     5
  6
CONTINUOUS
 10
-1.000315
 20
0.703169
  0
VERTEX
  8
PLAN_1
 62
     5
  6
CONTINUOUS
 10
-0.992224
 20
0.703169
  0
SEQEND
  8
0
  0
POLYLINE
  8
PLAN_1
 62
     5
  6
CONTINUOUS
 66
     1
 40
0.003000
 41
0.003000
  0
VERTEX
  8
PLAN_1
 62
     5
  6
CONTINUOUS
 10
-0.983657
 20
0.703169
  0
VERTEX
  8
PLAN_1
 62
     5
  6
CONTINUOUS
 10
-0.975571
 20
0.703169
  0
SEQEND
  8
0
  0
POLYLINE
  8
PLAN_1
 62
     5
  6
CONTINUOUS
 66
     1
 40
0.003000
 41
0.003000
  0
VERTEX
  8
PLAN_1
 62
     5
  6
CONTINUOUS
 10
-0.967004
 20
0.703169
  0
VERTEX
  8
PLAN_1
 62
     5
  6
CONTINUOUS
 10
-0.958917
 20
0.703169
  0
SEQEND
  8
0
  0
POLYLINE
  8
PLAN_1
 62
     5
  6
CONTINUOUS
 66
     1
 40
0.003000
 41
0.003000
  0
VERTEX
  8
PLAN_1
 62
     5
  6
CONTINUOUS
 10
-0.950350
 20
0.703169
  0
VERTEX
  8
PLAN_1
 62
     5
  6
CONTINUOUS
 10
-0.942264
 20
0.703169
  0
SEQEND
  8
0
  0
POLYLINE
  8
PLAN_1
 62
     5
  6
CONTINUOUS
 66
     1
 40
0.003000
 41
0.003000
  0
VERTEX
  8
PLAN_1
 62
     5
  6
CONTINUOUS
 10
-0.933697
 20
0.703169
  0
VERTEX
  8
PLAN_1
 62
     5
  6
CONTINUOUS
 10
-0.925606
 20
0.703169
  0
SEQEND
  8
0
  0
POLYLINE
  8
PLAN_1
 62
     5
  6
CONTINUOUS
 66
     1
 40
0.003000
 41
0.003000
  0
VERTEX
  8
PLAN_1
 62
     5
  6
CONTINUOUS
 10
-0.917043
 20
0.703169
  0
VERTEX
  8
PLAN_1
 62
     5
  6
CONTINUOUS
 10
-0.908953
 20
0.703169
  0
SEQEND
  8
0
  0
POLYLINE
  8
PLAN_1
 62
     5
  6
CONTINUOUS
 66
     1
 40
0.003000
 41
0.003000
  0
VERTEX
  8
PLAN_1
 62
     5
  6
CONTINUOUS
 10
-0.900390
 20
0.703169
  0
VERTEX
  8
PLAN_1
 62
     5
  6
CONTINUOUS
 10
-0.892299
 20
0.703169
  0
SEQEND
  8
0
  0
POLYLINE
  8
PLAN_1
 62
     5
  6
CONTINUOUS
 66
     1
 40
0.003000
 41
0.003000
  0
VERTEX
  8
PLAN_1
 62
     5
  6
CONTINUOUS
 10
-0.883736
 20
0.703169
  0
VERTEX
  8
PLAN_1
 62
     5
  6
CONTINUOUS
 10
-0.875646
 20
0.703169
  0
SEQEND
  8
0
  0
POLYLINE
  8
PLAN_1
 62
     5
  6
CONTINUOUS
 66
     1
 40
0.003000
 41
0.003000
  0
VERTEX
  8
PLAN_1
 62
     5
  6
CONTINUOUS
 10
-0.867083
 20
0.703169
  0
VERTEX
  8
PLAN_1
 62
     5
  6
CONTINUOUS
 10
-0.858992
 20
0.703169
  0
SEQEND
  8
0
  0
POLYLINE
  8
PLAN_1
 62
     5
  6
CONTINUOUS
 66
     1
 40
0.003000
 41
0.003000
  0
VERTEX
  8
PLAN_1
 62
     5
  6
CONTINUOUS
 10
-0.850425
 20
0.703169
  0
VERTEX
  8
PLAN_1
 62
     5
  6
CONTINUOUS
 10
-0.842339
 20
0.703169
  0
SEQEND
  8
0
  0
POLYLINE
  8
PLAN_1
 62
     5
  6
CONTINUOUS
 66
     1
 40
0.003000
 41
0.003000
  0
VERTEX
  8
PLAN_1
 62
     5
  6
CONTINUOUS
 10
-0.833772
 20
0.703169
  0
VERTEX
  8
PLAN_1
 62
     5
  6
CONTINUOUS
 10
-0.825685
 20
0.703169
  0
SEQEND
  8
0
  0
POLYLINE
  8
PLAN_1
 62
     5
  6
CONTINUOUS
 66
     1
 40
0.003000
 41
0.003000
  0
VERTEX
  8
PLAN_1
 62
     5
  6
CONTINUOUS
 10
-0.817118
 20
0.703169
  0
VERTEX
  8
PLAN_1
 62
     5
  6
CONTINUOUS
 10
-0.809031
 20
0.703169
  0
SEQEND
  8
0
  0
POLYLINE
  8
PLAN_1
 62
     5
  6
CONTINUOUS
 66
     1
 40
0.003000
 41
0.003000
  0
VERTEX
  8
PLAN_1
 62
     5
  6
CONTINUOUS
 10
-0.800465
 20
0.703169
  0
VERTEX
  8
PLAN_1
 62
     5
  6
CONTINUOUS
 10
-0.792374
 20
0.703169
  0
SEQEND
  8
0
  0
POLYLINE
  8
PLAN_1
 62
     5
  6
CONTINUOUS
 66
     1
 40
0.003000
 41
0.003000
  0
VERTEX
  8
PLAN_1
 62
     5
  6
CONTINUOUS
 10
-0.783811
 20
0.703169
  0
VERTEX
  8
PLAN_1
 62
     5
  6
CONTINUOUS
 10
-0.775720
 20
0.703169
  0
SEQEND
  8
0
  0
POLYLINE
  8
PLAN_1
 62
     5
  6
CONTINUOUS
 66
     1
 40
0.003000
 41
0.003000
  0
VERTEX
  8
PLAN_1
 62
     5
  6
CONTINUOUS
 10
-0.767157
 20
0.703169
  0
VERTEX
  8
PLAN_1
 62
     5
  6
CONTINUOUS
 10
-0.759067
 20
0.703169
  0
SEQEND
  8
0
  0
POLYLINE
  8
PLAN_1
 62
     5
  6
CONTINUOUS
 66
     1
 40
0.003000
 41
0.003000
  0
VERTEX
  8
PLAN_1
 62
     5
  6
CONTINUOUS
 10
-0.750504
 20
0.703169
  0
VERTEX
  8
PLAN_1
 62
     5
  6
CONTINUOUS
 10
-0.742413
 20
0.703169
  0
SEQEND
  8
0
  0
POLYLINE
  8
PLAN_1
 62
     5
  6
CONTINUOUS
 66
     1
 40
0.003000
 41
0.003000
  0
VERTEX
  8
PLAN_1
 62
     5
  6
CONTINUOUS
 10
-0.733850
 20
0.703169
  0
VERTEX
  8
PLAN_1
 62
     5
  6
CONTINUOUS
 10
-0.725760
 20
0.703169
  0
SEQEND
  8
0
  0
POLYLINE
  8
PLAN_1
 62
     5
  6
CONTINUOUS
 66
     1
 40
0.003000
 41
0.003000
  0
VERTEX
  8
PLAN_1
 62
     5
  6
CONTINUOUS
 10
-0.717197
 20
0.703169
  0
VERTEX
  8
PLAN_1
 62
     5
  6
CONTINUOUS
 10
-0.709106
 20
0.703169
  0
SEQEND
  8
0
  0
POLYLINE
  8
PLAN_1
 62
     5
  6
CONTINUOUS
 66
     1
 40
0.003000
 41
0.003000
  0
VERTEX
  8
PLAN_1
 62
     5
  6
CONTINUOUS
 10
-0.700539
 20
0.703169
  0
VERTEX
  8
PLAN_1
 62
     5
  6
CONTINUOUS
 10
-0.692453
 20
0.703169
  0
SEQEND
  8
0
  0
POLYLINE
  8
PLAN_1
 62
     5
  6
CONTINUOUS
 66
     1
 40
0.003000
 41
0.003000
  0
VERTEX
  8
PLAN_1
 62
     5
  6
CONTINUOUS
 10
-0.683886
 20
0.703169
  0
VERTEX
  8
PLAN_1
 62
     5
  6
CONTINUOUS
 10
-0.675799
 20
0.703169
  0
SEQEND
  8
0
  0
POLYLINE
  8
PLAN_1
 62
     5
  6
CONTINUOUS
 66
     1
 40
0.003000
 41
0.003000
  0
VERTEX
  8
PLAN_1
 62
     5
  6
CONTINUOUS
 10
-0.667232
 20
0.703169
  0
VERTEX
  8
PLAN_1
 62
     5
  6
CONTINUOUS
 10
-0.659146
 20
0.703169
  0
SEQEND
  8
0
  0
POLYLINE
  8
PLAN_1
 62
     5
  6
CONTINUOUS
 66
     1
 40
0.003000
 41
0.003000
  0
VERTEX
  8
PLAN_1
 62
     5
  6
CONTINUOUS
 10
-0.650579
 20
0.703169
  0
VERTEX
  8
PLAN_1
 62
     5
  6
CONTINUOUS
 10
-0.642488
 20
0.703169
  0
SEQEND
  8
0
  0
POLYLINE
  8
PLAN_1
 62
     5
  6
CONTINUOUS
 66
     1
 40
0.003000
 41
0.003000
  0
VERTEX
  8
PLAN_1
 62
     5
  6
CONTINUOUS
 10
-0.633925
 20
0.703169
  0
VERTEX
  8
PLAN_1
 62
     5
  6
CONTINUOUS
 10
-0.625835
 20
0.703169
  0
SEQEND
  8
0
  0
POLYLINE
  8
PLAN_1
 62
     5
  6
CONTINUOUS
 66
     1
 40
0.003000
 41
0.003000
  0
VERTEX
  8
PLAN_1
 62
     5
  6
CONTINUOUS
 10
-0.617272
 20
0.703169
  0
VERTEX
  8
PLAN_1
 62
     5
  6
CONTINUOUS
 10
-0.609181
 20
0.703169
  0
SEQEND
  8
0
  0
POLYLINE
  8
PLAN_1
 62
     5
  6
CONTINUOUS
 66
     1
 40
0.003000
 41
0.003000
  0
VERTEX
  8
PLAN_1
 62
     5
  6
CONTINUOUS
 10
-0.600618
 20
0.703169
  0
VERTEX
  8
PLAN_1
 62
     5
  6
CONTINUOUS
 10
-0.592528
 20
0.703169
  0
SEQEND
  8
0
  0
POLYLINE
  8
PLAN_1
 62
     5
  6
CONTINUOUS
 66
     1
 40
0.003000
 41
0.003000
  0
VERTEX
  8
PLAN_1
 62
     5
  6
CONTINUOUS
 10
-0.583965
 20
0.703169
  0
VERTEX
  8
PLAN_1
 62
     5
  6
CONTINUOUS
 10
-0.575874
 20
0.703169
  0
SEQEND
  8
0
  0
POLYLINE
  8
PLAN_1
 62
     5
  6
CONTINUOUS
 66
     1
 40
0.003000
 41
0.003000
  0
VERTEX
  8
PLAN_1
 62
     5
  6
CONTINUOUS
 10
-0.567307
 20
0.703169
  0
VERTEX
  8
PLAN_1
 62
     5
  6
CONTINUOUS
 10
-0.559220
 20
0.703169
  0
SEQEND
  8
0
  0
POLYLINE
  8
PLAN_1
 62
     5
  6
CONTINUOUS
 66
     1
 40
0.003000
 41
0.003000
  0
VERTEX
  8
PLAN_1
 62
     5
  6
CONTINUOUS
 10
-0.550654
 20
0.703169
  0
VERTEX
  8
PLAN_1
 62
     5
  6
CONTINUOUS
 10
-0.542567
 20
0.703169
  0
SEQEND
  8
0
  0
POLYLINE
  8
PLAN_1
 62
     5
  6
CONTINUOUS
 66
     1
 40
0.003000
 41
0.003000
  0
VERTEX
  8
PLAN_1
 62
     5
  6
CONTINUOUS
 10
-0.534000
 20
0.703169
  0
VERTEX
  8
PLAN_1
 62
     5
  6
CONTINUOUS
 10
-0.525913
 20
0.703169
  0
SEQEND
  8
0
  0
POLYLINE
  8
PLAN_1
 62
     5
  6
CONTINUOUS
 66
     1
 40
0.003000
 41
0.003000
  0
VERTEX
  8
PLAN_1
 62
     5
  6
CONTINUOUS
 10
-0.517346
 20
0.703169
  0
VERTEX
  8
PLAN_1
 62
     5
  6
CONTINUOUS
 10
-0.509256
 20
0.703169
  0
SEQEND
  8
0
  0
POLYLINE
  8
PLAN_1
 62
     5
  6
CONTINUOUS
 66
     1
 40
0.003000
 41
0.003000
  0
VERTEX
  8
PLAN_1
 62
     5
  6
CONTINUOUS
 10
-0.500693
 20
0.703169
  0
VERTEX
  8
PLAN_1
 62
     5
  6
CONTINUOUS
 10
-0.492602
 20
0.703169
  0
SEQEND
  8
0
  0
POLYLINE
  8
PLAN_1
 62
     5
  6
CONTINUOUS
 66
     1
 40
0.003000
 41
0.003000
  0
VERTEX
  8
PLAN_1
 62
     5
  6
CONTINUOUS
 10
-0.484039
 20
0.703169
  0
VERTEX
  8
PLAN_1
 62
     5
  6
CONTINUOUS
 10
-0.475949
 20
0.703169
  0
SEQEND
  8
0
  0
POLYLINE
  8
PLAN_1
 62
     5
  6
CONTINUOUS
 66
     1
 40
0.003000
 41
0.003000
  0
VERTEX
  8
PLAN_1
 62
     5
  6
CONTINUOUS
 10
-0.467386
 20
0.703169
  0
VERTEX
  8
PLAN_1
 62
     5
  6
CONTINUOUS
 10
-0.459295
 20
0.703169
  0
SEQEND
  8
0
  0
POLYLINE
  8
PLAN_1
 62
     5
  6
CONTINUOUS
 66
     1
 40
0.003000
 41
0.003000
  0
VERTEX
  8
PLAN_1
 62
     5
  6
CONTINUOUS
 10
-0.450732
 20
0.703169
  0
VERTEX
  8
PLAN_1
 62
     5
  6
CONTINUOUS
 10
-0.442642
 20
0.703169
  0
SEQEND
  8
0
  0
POLYLINE
  8
PLAN_1
 62
     5
  6
CONTINUOUS
 66
     1
 40
0.003000
 41
0.003000
  0
VERTEX
  8
PLAN_1
 62
     5
  6
CONTINUOUS
 10
-0.434079
 20
0.703169
  0
VERTEX
  8
PLAN_1
 62
     5
  6
CONTINUOUS
 10
-0.425988
 20
0.703169
  0
SEQEND
  8
0
  0
POLYLINE
  8
PLAN_1
 62
     5
  6
CONTINUOUS
 66
     1
 40
0.003000
 41
0.003000
  0
VERTEX
  8
PLAN_1
 62
     5
  6
CONTINUOUS
 10
-0.417421
 20
0.703169
  0
VERTEX
  8
PLAN_1
 62
     5
  6
CONTINUOUS
 10
-0.409335
 20
0.703169
  0
SEQEND
  8
0
  0
POLYLINE
  8
PLAN_1
 62
     5
  6
CONTINUOUS
 66
     1
 40
0.003000
 41
0.003000
  0
VERTEX
  8
PLAN_1
 62
     5
  6
CONTINUOUS
 10
-0.400768
 20
0.703169
  0
VERTEX
  8
PLAN_1
 62
     5
  6
CONTINUOUS
 10
-0.392681
 20
0.703169
  0
SEQEND
  8
0
  0
POLYLINE
  8
PLAN_1
 62
     5
  6
CONTINUOUS
 66
     1
 40
0.003000
 41
0.003000
  0
VERTEX
  8
PLAN_1
 62
     5
  6
CONTINUOUS
 10
-0.384114
 20
0.703169
  0
VERTEX
  8
PLAN_1
 62
     5
  6
CONTINUOUS
 10
-0.376028
 20
0.703169
  0
SEQEND
  8
0
  0
POLYLINE
  8
PLAN_1
 62
     5
  6
CONTINUOUS
 66
     1
 40
0.003000
 41
0.003000
  0
VERTEX
  8
PLAN_1
 62
     5
  6
CONTINUOUS
 10
-0.367461
 20
0.703169
  0
VERTEX
  8
PLAN_1
 62
     5
  6
CONTINUOUS
 10
-0.359370
 20
0.703169
  0
SEQEND
  8
0
  0
POLYLINE
  8
PLAN_1
 62
     5
  6
CONTINUOUS
 66
     1
 40
0.003000
 41
0.003000
  0
VERTEX
  8
PLAN_1
 62
     5
  6
CONTINUOUS
 10
-0.350807
 20
0.703169
  0
VERTEX
  8
PLAN_1
 62
     5
  6
CONTINUOUS
 10
-0.342717
 20
0.703169
  0
SEQEND
  8
0
  0
POLYLINE
  8
PLAN_1
 62
     5
  6
CONTINUOUS
 66
     1
 40
0.003000
 41
0.003000
  0
VERTEX
  8
PLAN_1
 62
     5
  6
CONTINUOUS
 10
-0.334154
 20
0.703169
  0
VERTEX
  8
PLAN_1
 62
     5
  6
CONTINUOUS
 10
-0.326063
 20
0.703169
  0
SEQEND
  8
0
  0
POLYLINE
  8
PLAN_1
 62
     5
  6
CONTINUOUS
 66
     1
 40
0.003000
 41
0.003000
  0
VERTEX
  8
PLAN_1
 62
     5
  6
CONTINUOUS
 10
-0.317500
 20
0.703169
  0
VERTEX
  8
PLAN_1
 62
     5
  6
CONTINUOUS
 10
-0.309409
 20
0.703169
  0
SEQEND
  8
0
  0
POLYLINE
  8
PLAN_1
 62
     5
  6
CONTINUOUS
 66
     1
 40
0.003000
 41
0.003000
  0
VERTEX
  8
PLAN_1
 62
     5
  6
CONTINUOUS
 10
-0.300846
 20
0.703169
  0
VERTEX
  8
PLAN_1
 62
     5
  6
CONTINUOUS
 10
-0.292756
 20
0.703169
  0
SEQEND
  8
0
  0
POLYLINE
  8
PLAN_1
 62
     5
  6
CONTINUOUS
 66
     1
 40
0.003000
 41
0.003000
  0
VERTEX
  8
PLAN_1
 62
     5
  6
CONTINUOUS
 10
-0.284189
 20
0.703169
  0
VERTEX
  8
PLAN_1
 62
     5
  6
CONTINUOUS
 10
-0.276102
 20
0.703169
  0
SEQEND
  8
0
  0
POLYLINE
  8
PLAN_1
 62
     5
  6
CONTINUOUS
 66
     1
 40
0.003000
 41
0.003000
  0
VERTEX
  8
PLAN_1
 62
     5
  6
CONTINUOUS
 10
-0.267535
 20
0.703169
  0
VERTEX
  8
PLAN_1
 62
     5
  6
CONTINUOUS
 10
-0.259449
 20
0.703169
  0
SEQEND
  8
0
  0
POLYLINE
  8
PLAN_1
 62
     5
  6
CONTINUOUS
 66
     1
 40
0.003000
 41
0.003000
  0
VERTEX
  8
PLAN_1
 62
     5
  6
CONTINUOUS
 10
-0.250882
 20
0.703169
  0
VERTEX
  8
PLAN_1
 62
     5
  6
CONTINUOUS
 10
-0.242795
 20
0.703169
  0
SEQEND
  8
0
  0
POLYLINE
  8
PLAN_1
 62
     5
  6
CONTINUOUS
 66
     1
 40
0.003000
 41
0.003000
  0
VERTEX
  8
PLAN_1
 62
     5
  6
CONTINUOUS
 10
-0.234228
 20
0.703169
  0
VERTEX
  8
PLAN_1
 62
     5
  6
CONTINUOUS
 10
-0.226138
 20
0.703169
  0
SEQEND
  8
0
  0
POLYLINE
  8
PLAN_1
 62
     5
  6
CONTINUOUS
 66
     1
 40
0.003000
 41
0.003000
  0
VERTEX
  8
PLAN_1
 62
     5
  6
CONTINUOUS
 10
-0.217575
 20
0.703169
  0
VERTEX
  8
PLAN_1
 62
     5
  6
CONTINUOUS
 10
-0.209484
 20
0.703169
  0
SEQEND
  8
0
  0
POLYLINE
  8
PLAN_1
 62
     5
  6
CONTINUOUS
 66
     1
 40
0.003000
 41
0.003000
  0
VERTEX
  8
PLAN_1
 62
     5
  6
CONTINUOUS
 10
-0.200921
 20
0.703169
  0
VERTEX
  8
PLAN_1
 62
     5
  6
CONTINUOUS
 10
-0.192831
 20
0.703169
  0
SEQEND
  8
0
  0
POLYLINE
  8
PLAN_1
 62
     5
  6
CONTINUOUS
 66
     1
 40
0.003000
 41
0.003000
  0
VERTEX
  8
PLAN_1
 62
     5
  6
CONTINUOUS
 10
-0.184268
 20
0.703169
  0
VERTEX
  8
PLAN_1
 62
     5
  6
CONTINUOUS
 10
-0.176177
 20
0.703169
  0
SEQEND
  8
0
  0
POLYLINE
  8
PLAN_1
 62
     5
  6
CONTINUOUS
 66
     1
 40
0.003000
 41
0.003000
  0
VERTEX
  8
PLAN_1
 62
     5
  6
CONTINUOUS
 10
-0.167614
 20
0.703169
  0
VERTEX
  8
PLAN_1
 62
     5
  6
CONTINUOUS
 10
-0.159524
 20
0.703646
  0
SEQEND
  8
0
  0
POLYLINE
  8
PLAN_1
 62
     5
  6
CONTINUOUS
 66
     1
 40
0.003000
 41
0.003000
  0
VERTEX
  8
PLAN_1
 62
     5
  6
CONTINUOUS
 10
-0.150957
 20
0.703646
  0
VERTEX
  8
PLAN_1
 62
     5
  6
CONTINUOUS
 10
-0.142870
 20
0.703646
  0
SEQEND
  8
0
  0
POLYLINE
  8
PLAN_1
 62
     5
  6
CONTINUOUS
 66
     1
 40
0.003000
 41
0.003000
  0
VERTEX
  8
PLAN_1
 62
     5
  6
CONTINUOUS
 10
-0.134303
 20
0.703646
  0
VERTEX
  8
PLAN_1
 62
     5
  6
CONTINUOUS
 10
-0.126217
 20
0.703646
  0
SEQEND
  8
0
  0
POLYLINE
  8
PLAN_1
 62
     5
  6
CONTINUOUS
 66
     1
 40
0.003000
 41
0.003000
  0
VERTEX
  8
PLAN_1
 62
     5
  6
CONTINUOUS
 10
-0.117650
 20
0.703646
  0
VERTEX
  8
PLAN_1
 62
     5
  6
CONTINUOUS
 10
-0.109563
 20
0.703646
  0
SEQEND
  8
0
  0
POLYLINE
  8
PLAN_1
 62
     5
  6
CONTINUOUS
 66
     1
 40
0.003000
 41
0.003000
  0
VERTEX
  8
PLAN_1
 62
     5
  6
CONTINUOUS
 10
-0.100996
 20
0.703646
  0
VERTEX
  8
PLAN_1
 62
     5
  6
CONTINUOUS
 10
-0.092909
 20
0.703646
  0
SEQEND
  8
0
  0
POLYLINE
  8
PLAN_1
 62
     5
  6
CONTINUOUS
 66
     1
 40
0.003000
 41
0.003000
  0
VERTEX
  8
PLAN_1
 62
     5
  6
CONTINUOUS
 10
-0.084343
 20
0.703646
  0
VERTEX
  8
PLAN_1
 62
     5
  6
CONTINUOUS
 10
-0.076252
 20
0.703646
  0
SEQEND
  8
0
  0
POLYLINE
  8
PLAN_1
 62
     5
  6
CONTINUOUS
 66
     1
 40
0.003000
 41
0.003000
  0
VERTEX
  8
PLAN_1
 62
     5
  6
CONTINUOUS
 10
-0.067689
 20
0.703646
  0
VERTEX
  8
PLAN_1
 62
     5
  6
CONTINUOUS
 10
-0.059598
 20
0.703646
  0
SEQEND
  8
0
  0
POLYLINE
  8
PLAN_1
 62
     5
  6
CONTINUOUS
 66
     1
 40
0.003000
 41
0.003000
  0
VERTEX
  8
PLAN_1
 62
     5
  6
CONTINUOUS
 10
-0.051035
 20
0.703646
  0
VERTEX
  8
PLAN_1
 62
     5
  6
CONTINUOUS
 10
-0.042945
 20
0.703646
  0
SEQEND
  8
0
  0
POLYLINE
  8
PLAN_1
 62
     5
  6
CONTINUOUS
 66
     1
 40
0.003000
 41
0.003000
  0
VERTEX
  8
PLAN_1
 62
     5
  6
CONTINUOUS
 10
-0.034382
 20
0.703646
  0
VERTEX
  8
PLAN_1
 62
     5
  6
CONTINUOUS
 10
-0.026291
 20
0.703646
  0
SEQEND
  8
0
  0
POLYLINE
  8
PLAN_1
 62
     5
  6
CONTINUOUS
 66
     1
 40
0.003000
 41
0.003000
  0
VERTEX
  8
PLAN_1
 62
     5
  6
CONTINUOUS
 10
-0.017728
 20
0.703646
  0
VERTEX
  8
PLAN_1
 62
     5
  6
CONTINUOUS
 10
-0.009638
 20
0.703646
  0
SEQEND
  8
0
  0
POLYLINE
  8
PLAN_1
 62
     5
  6
CONTINUOUS
 66
     1
 40
0.003000
 41
0.003000
  0
VERTEX
  8
PLAN_1
 62
     5
  6
CONTINUOUS
 10
-0.001071
 20
0.703646
  0
VERTEX
  8
PLAN_1
 62
     5
  6
CONTINUOUS
 10
0.007016
 20
0.703646
  0
SEQEND
  8
0
  0
POLYLINE
  8
PLAN_1
 62
     5
  6
CONTINUOUS
 66
     1
 40
0.003000
 41
0.003000
  0
VERTEX
  8
PLAN_1
 62
     5
  6
CONTINUOUS
 10
0.015583
 20
0.703646
  0
VERTEX
  8
PLAN_1
 62
     5
  6
CONTINUOUS
 10
0.023669
 20
0.703646
  0
SEQEND
  8
0
  0
POLYLINE
  8
PLAN_1
 62
     5
  6
CONTINUOUS
 66
     1
 40
0.003000
 41
0.003000
  0
VERTEX
  8
PLAN_1
 62
     5
  6
CONTINUOUS
 10
0.032236
 20
0.703646
  0
VERTEX
  8
PLAN_1
 62
     5
  6
CONTINUOUS
 10
0.040323
 20
0.703646
  0
SEQEND
  8
0
  0
POLYLINE
  8
PLAN_1
 62
     5
  6
CONTINUOUS
 66
     1
 40
0.003000
 41
0.003000
  0
VERTEX
  8
PLAN_1
 62
     5
  6
CONTINUOUS
 10
0.045083
 20
0.699839
  0
VERTEX
  8
PLAN_1
 62
     5
  6
CONTINUOUS
 10
0.045083
 20
0.691748
  0
SEQEND
  8
0
  0
POLYLINE
  8
PLAN_1
 62
     5
  6
CONTINUOUS
 66
     1
 40
0.003000
 41
0.003000
  0
VERTEX
  8
PLAN_1
 62
     5
  6
CONTINUOUS
 10
0.045083
 20
0.683185
  0
VERTEX
  8
PLAN_1
 62
     5
  6
CONTINUOUS
 10
0.045083
 20
0.675094
  0
SEQEND
  8
0
  0
POLYLINE
  8
PLAN_1
 62
     5
  6
CONTINUOUS
 66
     1
 40
0.003000
 41
0.003000
  0
VERTEX
  8
PLAN_1
 62
     5
  6
CONTINUOUS
 10
0.045083
 20
0.666528
  0
VERTEX
  8
PLAN_1
 62
     5
  6
CONTINUOUS
 10
0.045083
 20
0.658441
  0
SEQEND
  8
0
  0
POLYLINE
  8
PLAN_1
 62
     5
  6
CONTINUOUS
 66
     1
 40
0.003000
 41
0.003000
  0
VERTEX
  8
PLAN_1
 62
     5
  6
CONTINUOUS
 10
0.045083
 20
0.649874
  0
VERTEX
  8
PLAN_1
 62
     5
  6
CONTINUOUS
 10
0.045083
 20
0.641787
  0
SEQEND
  8
0
  0
POLYLINE
  8
PLAN_1
 62
     5
  6
CONTINUOUS
 66
     1
 40
0.003000
 41
0.003000
  0
VERTEX
  8
PLAN_1
 62
     5
  6
CONTINUOUS
 10
0.045083
 20
0.633220
  0
VERTEX
  8
PLAN_1
 62
     5
  6
CONTINUOUS
 10
0.045083
 20
0.625134
  0
SEQEND
  8
0
  0
POLYLINE
  8
PLAN_1
 62
     5
  6
CONTINUOUS
 66
     1
 40
0.003000
 41
0.003000
  0
VERTEX
  8
PLAN_1
 62
     5
  6
CONTINUOUS
 10
0.045083
 20
0.616567
  0
VERTEX
  8
PLAN_1
 62
     5
  6
CONTINUOUS
 10
0.045083
 20
0.608476
  0
SEQEND
  8
0
  0
POLYLINE
  8
PLAN_1
 62
     5
  6
CONTINUOUS
 66
     1
 40
0.003000
 41
0.003000
  0
VERTEX
  8
PLAN_1
 62
     5
  6
CONTINUOUS
 10
0.045083
 20
0.599913
  0
VERTEX
  8
PLAN_1
 62
     5
  6
CONTINUOUS
 10
0.045083
 20
0.591823
  0
SEQEND
  8
0
  0
POLYLINE
  8
PLAN_1
 62
     5
  6
CONTINUOUS
 66
     1
 40
0.003000
 41
0.003000
  0
VERTEX
  8
PLAN_1
 62
     5
  6
CONTINUOUS
 10
0.045083
 20
0.583260
  0
VERTEX
  8
PLAN_1
 62
     5
  6
CONTINUOUS
 10
0.045083
 20
0.575169
  0
SEQEND
  8
0
  0
POLYLINE
  8
PLAN_1
 62
     5
  6
CONTINUOUS
 66
     1
 40
0.003000
 41
0.003000
  0
VERTEX
  8
PLAN_1
 62
     5
  6
CONTINUOUS
 10
0.045083
 20
0.566606
  0
VERTEX
  8
PLAN_1
 62
     5
  6
CONTINUOUS
 10
0.045083
 20
0.558516
  0
SEQEND
  8
0
  0
POLYLINE
  8
PLAN_1
 62
     5
  6
CONTINUOUS
 66
     1
 40
0.003000
 41
0.003000
  0
VERTEX
  8
PLAN_1
 62
     5
  6
CONTINUOUS
 10
0.045083
 20
0.549953
  0
VERTEX
  8
PLAN_1
 62
     5
  6
CONTINUOUS
 10
0.045083
 20
0.541862
  0
SEQEND
  8
0
  0
POLYLINE
  8
PLAN_1
 62
     5
  6
CONTINUOUS
 66
     1
 40
0.003000
 41
0.003000
  0
VERTEX
  8
PLAN_1
 62
     5
  6
CONTINUOUS
 10
0.045083
 20
0.533299
  0
VERTEX
  8
PLAN_1
 62
     5
  6
CONTINUOUS
 10
0.045083
 20
0.525209
  0
SEQEND
  8
0
  0
POLYLINE
  8
PLAN_1
 62
     5
  6
CONTINUOUS
 66
     1
 40
0.003000
 41
0.003000
  0
VERTEX
  8
PLAN_1
 62
     5
  6
CONTINUOUS
 10
0.045083
 20
0.516642
  0
VERTEX
  8
PLAN_1
 62
     5
  6
CONTINUOUS
 10
0.045083
 20
0.508555
  0
SEQEND
  8
0
  0
POLYLINE
  8
PLAN_1
 62
     5
  6
CONTINUOUS
 66
     1
 40
0.003000
 41
0.003000
  0
VERTEX
  8
PLAN_1
 62
     5
  6
CONTINUOUS
 10
0.045083
 20
0.499988
  0
VERTEX
  8
PLAN_1
 62
     5
  6
CONTINUOUS
 10
0.045083
 20
0.491902
  0
SEQEND
  8
0
  0
POLYLINE
  8
PLAN_1
 62
     5
  6
CONTINUOUS
 66
     1
 40
0.003000
 41
0.003000
  0
VERTEX
  8
PLAN_1
 62
     5
  6
CONTINUOUS
 10
0.045083
 20
0.483335
  0
VERTEX
  8
PLAN_1
 62
     5
  6
CONTINUOUS
 10
0.045083
 20
0.475248
  0
SEQEND
  8
0
  0
POLYLINE
  8
PLAN_1
 62
     5
  6
CONTINUOUS
 66
     1
 40
0.003000
 41
0.003000
  0
VERTEX
  8
PLAN_1
 62
     5
  6
CONTINUOUS
 10
0.045083
 20
0.466681
  0
VERTEX
  8
PLAN_1
 62
     5
  6
CONTINUOUS
 10
0.045083
 20
0.458591
  0
SEQEND
  8
0
  0
POLYLINE
  8
PLAN_1
 62
     5
  6
CONTINUOUS
 66
     1
 40
0.003000
 41
0.003000
  0
VERTEX
  8
PLAN_1
 62
     5
  6
CONTINUOUS
 10
0.045083
 20
0.450028
  0
VERTEX
  8
PLAN_1
 62
     5
  6
CONTINUOUS
 10
0.045083
 20
0.441937
  0
SEQEND
  8
0
  0
POLYLINE
  8
PLAN_1
 62
     5
  6
CONTINUOUS
 66
     1
 40
0.003000
 41
0.003000
  0
VERTEX
  8
PLAN_1
 62
     5
  6
CONTINUOUS
 10
0.045083
 20
0.433374
  0
VERTEX
  8
PLAN_1
 62
     5
  6
CONTINUOUS
 10
0.045083
 20
0.425283
  0
SEQEND
  8
0
  0
POLYLINE
  8
PLAN_1
 62
     5
  6
CONTINUOUS
 66
     1
 40
0.003000
 41
0.003000
  0
VERTEX
  8
PLAN_1
 62
     5
  6
CONTINUOUS
 10
0.045083
 20
0.416720
  0
VERTEX
  8
PLAN_1
 62
     5
  6
CONTINUOUS
 10
0.045083
 20
0.408630
  0
SEQEND
  8
0
  0
POLYLINE
  8
PLAN_1
 62
     5
  6
CONTINUOUS
 66
     1
 40
0.003000
 41
0.003000
  0
VERTEX
  8
PLAN_1
 62
     5
  6
CONTINUOUS
 10
0.045083
 20
0.400067
  0
VERTEX
  8
PLAN_1
 62
     5
  6
CONTINUOUS
 10
0.045083
 20
0.391976
  0
SEQEND
  8
0
  0
POLYLINE
  8
PLAN_1
 62
     5
  6
CONTINUOUS
 66
     1
 40
0.003000
 41
0.003000
  0
VERTEX
  8
PLAN_1
 62
     5
  6
CONTINUOUS
 10
0.045083
 20
0.383409
  0
VERTEX
  8
PLAN_1
 62
     5
  6
CONTINUOUS
 10
0.045083
 20
0.375323
  0
SEQEND
  8
0
  0
POLYLINE
  8
PLAN_1
 62
     5
  6
CONTINUOUS
 66
     1
 40
0.003000
 41
0.003000
  0
VERTEX
  8
PLAN_1
 62
     5
  6
CONTINUOUS
 10
0.045083
 20
0.366756
  0
VERTEX
  8
PLAN_1
 62
     5
  6
CONTINUOUS
 10
0.045083
 20
0.358669
  0
SEQEND
  8
0
  0
POLYLINE
  8
PLAN_1
 62
     5
  6
CONTINUOUS
 66
     1
 40
0.003000
 41
0.003000
  0
VERTEX
  8
PLAN_1
 62
     5
  6
CONTINUOUS
 10
0.045083
 20
0.350102
  0
VERTEX
  8
PLAN_1
 62
     5
  6
CONTINUOUS
 10
0.045083
 20
0.342016
  0
SEQEND
  8
0
  0
POLYLINE
  8
PLAN_1
 62
     5
  6
CONTINUOUS
 66
     1
 40
0.003000
 41
0.003000
  0
VERTEX
  8
PLAN_1
 62
     5
  6
CONTINUOUS
 10
0.045083
 20
0.333449
  0
VERTEX
  8
PLAN_1
 62
     5
  6
CONTINUOUS
 10
0.045083
 20
0.325358
  0
SEQEND
  8
0
  0
POLYLINE
  8
PLAN_1
 62
     5
  6
CONTINUOUS
 66
     1
 40
0.003000
 41
0.003000
  0
VERTEX
  8
PLAN_1
 62
     5
  6
CONTINUOUS
 10
0.045083
 20
0.316795
  0
VERTEX
  8
PLAN_1
 62
     5
  6
CONTINUOUS
 10
0.045083
 20
0.308705
  0
SEQEND
  8
0
  0
POLYLINE
  8
PLAN_1
 62
     5
  6
CONTINUOUS
 66
     1
 40
0.003000
 41
0.003000
  0
VERTEX
  8
PLAN_1
 62
     5
  6
CONTINUOUS
 10
0.045083
 20
0.300142
  0
VERTEX
  8
PLAN_1
 62
     5
  6
CONTINUOUS
 10
0.045083
 20
0.292051
  0
SEQEND
  8
0
  0
POLYLINE
  8
PLAN_1
 62
     5
  6
CONTINUOUS
 66
     1
 40
0.003000
 41
0.003000
  0
VERTEX
  8
PLAN_1
 62
     5
  6
CONTINUOUS
 10
0.045083
 20
0.283488
  0
VERTEX
  8
PLAN_1
 62
     5
  6
CONTINUOUS
 10
0.045083
 20
0.275398
  0
SEQEND
  8
0
  0
POLYLINE
  8
PLAN_1
 62
     5
  6
CONTINUOUS
 66
     1
 40
0.003000
 41
0.003000
  0
VERTEX
  8
PLAN_1
 62
     5
  6
CONTINUOUS
 10
0.045083
 20
0.266835
  0
VERTEX
  8
PLAN_1
 62
     5
  6
CONTINUOUS
 10
0.045083
 20
0.258744
  0
SEQEND
  8
0
  0
POLYLINE
  8
PLAN_1
 62
     5
  6
CONTINUOUS
 66
     1
 40
0.003000
 41
0.003000
  0
VERTEX
  8
PLAN_1
 62
     5
  6
CONTINUOUS
 10
0.045083
 20
0.250181
  0
VERTEX
  8
PLAN_1
 62
     5
  6
CONTINUOUS
 10
0.045083
 20
0.242091
  0
SEQEND
  8
0
  0
POLYLINE
  8
PLAN_1
 62
     5
  6
CONTINUOUS
 66
     1
 40
0.003000
 41
0.003000
  0
VERTEX
  8
PLAN_1
 62
     5
  6
CONTINUOUS
 10
0.045083
 20
0.233524
  0
VERTEX
  8
PLAN_1
 62
     5
  6
CONTINUOUS
 10
0.045083
 20
0.225437
  0
SEQEND
  8
0
  0
POLYLINE
  8
PLAN_1
 62
     5
  6
CONTINUOUS
 66
     1
 40
0.003000
 41
0.003000
  0
VERTEX
  8
PLAN_1
 62
     5
  6
CONTINUOUS
 10
0.045083
 20
0.216870
  0
VERTEX
  8
PLAN_1
 62
     5
  6
CONTINUOUS
 10
0.045083
 20
0.208783
  0
SEQEND
  8
0
  0
POLYLINE
  8
PLAN_1
 62
     5
  6
CONTINUOUS
 66
     1
 40
0.003000
 41
0.003000
  0
VERTEX
  8
PLAN_1
 62
     5
  6
CONTINUOUS
 10
0.045083
 20
0.200217
  0
VERTEX
  8
PLAN_1
 62
     5
  6
CONTINUOUS
 10
0.045083
 20
0.192130
  0
SEQEND
  8
0
  0
POLYLINE
  8
PLAN_1
 62
     5
  6
CONTINUOUS
 66
     1
 40
0.003000
 41
0.003000
  0
VERTEX
  8
PLAN_1
 62
     5
  6
CONTINUOUS
 10
0.045083
 20
0.183563
  0
VERTEX
  8
PLAN_1
 62
     5
  6
CONTINUOUS
 10
0.045083
 20
0.175472
  0
SEQEND
  8
0
  0
POLYLINE
  8
PLAN_1
 62
     5
  6
CONTINUOUS
 66
     1
 40
0.003000
 41
0.003000
  0
VERTEX
  8
PLAN_1
 62
     5
  6
CONTINUOUS
 10
0.045083
 20
0.166909
  0
VERTEX
  8
PLAN_1
 62
     5
  6
CONTINUOUS
 10
0.045083
 20
0.158819
  0
SEQEND
  8
0
  0
POLYLINE
  8
PLAN_1
 62
     5
  6
CONTINUOUS
 66
     1
 40
0.003000
 41
0.003000
  0
VERTEX
  8
PLAN_1
 62
     5
  6
CONTINUOUS
 10
0.045083
 20
0.150256
  0
VERTEX
  8
PLAN_1
 62
     5
  6
CONTINUOUS
 10
0.045083
 20
0.142165
  0
SEQEND
  8
0
  0
POLYLINE
  8
PLAN_1
 62
     5
  6
CONTINUOUS
 66
     1
 40
0.003000
 41
0.003000
  0
VERTEX
  8
PLAN_1
 62
     5
  6
CONTINUOUS
 10
0.045083
 20
0.133602
  0
VERTEX
  8
PLAN_1
 62
     5
  6
CONTINUOUS
 10
0.045083
 20
0.125512
  0
SEQEND
  8
0
  0
POLYLINE
  8
PLAN_1
 62
     5
  6
CONTINUOUS
 66
     1
 40
0.003000
 41
0.003000
  0
VERTEX
  8
PLAN_1
 62
     5
  6
CONTINUOUS
 10
0.045083
 20
0.116949
  0
VERTEX
  8
PLAN_1
 62
     5
  6
CONTINUOUS
 10
0.045083
 20
0.108858
  0
SEQEND
  8
0
  0
POLYLINE
  8
PLAN_1
 62
     5
  6
CONTINUOUS
 66
     1
 40
0.003000
 41
0.003000
  0
VERTEX
  8
PLAN_1
 62
     5
  6
CONTINUOUS
 10
0.045083
 20
0.100291
  0
VERTEX
  8
PLAN_1
 62
     5
  6
CONTINUOUS
 10
0.045083
 20
0.092205
  0
SEQEND
  8
0
  0
POLYLINE
  8
PLAN_1
 62
     5
  6
CONTINUOUS
 66
     1
 40
0.003000
 41
0.003000
  0
VERTEX
  8
PLAN_1
 62
     5
  6
CONTINUOUS
 10
0.045083
 20
0.083638
  0
VERTEX
  8
PLAN_1
 62
     5
  6
CONTINUOUS
 10
0.045083
 20
0.075551
  0
SEQEND
  8
0
  0
POLYLINE
  8
PLAN_1
 62
     5
  6
CONTINUOUS
 66
     1
 40
0.003000
 41
0.003000
  0
VERTEX
  8
PLAN_1
 62
     5
  6
CONTINUOUS
 10
0.045083
 20
0.066984
  0
VERTEX
  8
PLAN_1
 62
     5
  6
CONTINUOUS
 10
0.045083
 20
0.058898
  0
SEQEND
  8
0
  0
POLYLINE
  8
PLAN_1
 62
     5
  6
CONTINUOUS
 66
     1
 40
0.003000
 41
0.003000
  0
VERTEX
  8
PLAN_1
 62
     5
  6
CONTINUOUS
 10
0.045083
 20
0.050331
  0
VERTEX
  8
PLAN_1
 62
     5
  6
CONTINUOUS
 10
0.045083
 20
0.047000
  0
SEQEND
  8
0
  0
POLYLINE
  8
PLAN_1
 62
     5
  6
CONTINUOUS
 66
     1
 40
0.003000
 41
0.003000
  0
VERTEX
  8
PLAN_1
 62
     5
  6
CONTINUOUS
 10
0.045083
 20
0.050331
  0
VERTEX
  8
PLAN_1
 62
     5
  6
CONTINUOUS
 10
0.045083
 20
0.047000
  0
SEQEND
  8
0
  0
POLYLINE
  8
PLAN_1
  6
CONTINUOUS
 66
     1
 40
0.005709
 41
0.005709
  0
VERTEX
  8
PLAN_1
  6
CONTINUOUS
 10
-0.601094
 20
-0.038173
  0
VERTEX
  8
PLAN_1
  6
CONTINUOUS
 10
-0.356516
 20
0.004650
  0
VERTEX
  8
PLAN_1
  6
CONTINUOUS
 10
-0.344622
 20
0.007031
  0
SEQEND
  8
0
  0
POLYLINE
  8
PLAN_1
  6
CONTINUOUS
 66
     1
 40
0.005709
 41
0.005709
  0
VERTEX
  8
PLAN_1
  6
CONTINUOUS
 10
-0.344622
 20
0.007031
  0
VERTEX
  8
PLAN_1
  6
CONTINUOUS
 10
-0.340815
 20
0.007980
  0
VERTEX
  8
PLAN_1
  6
CONTINUOUS
 10
-0.337008
 20
0.009886
  0
VERTEX
  8
PLAN_1
  6
CONTINUOUS
 10
-0.334154
 20
0.012264
  0
VERTEX
  8
PLAN_1
  6
CONTINUOUS
 10
-0.331772
 20
0.015118
  0
VERTEX
  8
PLAN_1
  6
CONTINUOUS
 10
-0.329870
 20
0.018449
  0
VERTEX
  8
PLAN_1
  6
CONTINUOUS
 10
-0.328917
 20
0.021780
  0
VERTEX
  8
PLAN_1
  6
CONTINUOUS
 10
-0.328441
 20
0.026063
  0
VERTEX
  8
PLAN_1
  6
CONTINUOUS
 10
-0.328441
 20
0.029870
  0
VERTEX
  8
PLAN_1
  6
CONTINUOUS
 10
-0.329394
 20
0.033677
  0
VERTEX
  8
PLAN_1
  6
CONTINUOUS
 10
-0.331299
 20
0.037008
  0
VERTEX
  8
PLAN_1
  6
CONTINUOUS
 10
-0.333677
 20
0.040339
  0
VERTEX
  8
PLAN_1
  6
CONTINUOUS
 10
-0.336531
 20
0.042717
  0
VERTEX
  8
PLAN_1
  6
CONTINUOUS
 10
-0.339862
 20
0.044622
  0
VERTEX
  8
PLAN_1
  6
CONTINUOUS
 10
-0.343669
 20
0.045571
  0
VERTEX
  8
PLAN_1
  6
CONTINUOUS
 10
-0.347476
 20
0.046047
  0
VERTEX
  8
PLAN_1
  6
CONTINUOUS
 10
-0.351283
 20
0.046047
  0
SEQEND
  8
0
  0
POLYLINE
  8
PLAN_1
  6
CONTINUOUS
 66
     1
 40
0.005709
 41
0.005709
  0
VERTEX
  8
PLAN_1
  6
CONTINUOUS
 10
-0.351283
 20
0.046047
  0
VERTEX
  8
PLAN_1
  6
CONTINUOUS
 10
-0.363654
 20
0.043669
  0
VERTEX
  8
PLAN_1
  6
CONTINUOUS
 10
-0.828063
 20
-0.038173
  0
VERTEX
  8
PLAN_1
  6
CONTINUOUS
 10
-0.835677
 20
-0.039602
  0
SEQEND
  8
0
  0
POLYLINE
  8
PLAN_1
  6
CONTINUOUS
 66
     1
 40
0.005709
 41
0.005709
  0
VERTEX
  8
PLAN_1
  6
CONTINUOUS
 10
-0.835677
 20
-0.039602
  0
VERTEX
  8
PLAN_1
  6
CONTINUOUS
 10
-0.839484
 20
-0.041028
  0
VERTEX
  8
PLAN_1
  6
CONTINUOUS
 10
-0.843291
 20
-0.042457
  0
VERTEX
  8
PLAN_1
  6
CONTINUOUS
 10
-0.846146
 20
-0.044835
  0
VERTEX
  8
PLAN_1
  6
CONTINUOUS
 10
-0.848524
 20
-0.047689
  0
VERTEX
  8
PLAN_1
  6
CONTINUOUS
 10
-0.850425
 20
-0.051020
  0
VERTEX
  8
PLAN_1
  6
CONTINUOUS
 10
-0.851378
 20
-0.054827
  0
VERTEX
  8
PLAN_1
  6
CONTINUOUS
 10
-0.852331
 20
-0.058634
  0
VERTEX
  8
PLAN_1
  6
CONTINUOUS
 10
-0.851854
 20
-0.062441
  0
VERTEX
  8
PLAN_1
  6
CONTINUOUS
 10
-0.850902
 20
-0.066248
  0
VERTEX
  8
PLAN_1
  6
CONTINUOUS
 10
-0.849000
 20
-0.070055
  0
VERTEX
  8
PLAN_1
  6
CONTINUOUS
 10
-0.846622
 20
-0.072909
  0
VERTEX
  8
PLAN_1
  6
CONTINUOUS
 10
-0.843764
 20
-0.075287
  0
VERTEX
  8
PLAN_1
  6
CONTINUOUS
 10
-0.840433
 20
-0.077193
  0
VERTEX
  8
PLAN_1
  6
CONTINUOUS
 10
-0.836630
 20
-0.078618
  0
VERTEX
  8
PLAN_1
  6
CONTINUOUS
 10
-0.832823
 20
-0.079094
  0
VERTEX
  8
PLAN_1
  6
CONTINUOUS
 10
-0.829016
 20
-0.078618
  0
SEQEND
  8
0
  0
POLYLINE
  8
PLAN_1
  6
CONTINUOUS
 66
     1
 40
0.005709
 41
0.005709
  0
VERTEX
  8
PLAN_1
  6
CONTINUOUS
 10
-0.460248
 20
0.198315
  0
VERTEX
  8
PLAN_1
  6
CONTINUOUS
 10
-0.827587
 20
0.263504
  0
VERTEX
  8
PLAN_1
  6
CONTINUOUS
 10
-0.835677
 20
0.264929
  0
SEQEND
  8
0
  0
POLYLINE
  8
PLAN_1
  6
CONTINUOUS
 66
     1
 40
0.005709
 41
0.005709
  0
VERTEX
  8
PLAN_1
  6
CONTINUOUS
 10
-0.835677
 20
0.264929
  0
VERTEX
  8
PLAN_1
  6
CONTINUOUS
 10
-0.839484
 20
0.265882
  0
VERTEX
  8
PLAN_1
  6
CONTINUOUS
 10
-0.842815
 20
0.267783
  0
VERTEX
  8
PLAN_1
  6
CONTINUOUS
 10
-0.845669
 20
0.270165
  0
VERTEX
  8
PLAN_1
  6
CONTINUOUS
 10
-0.848524
 20
0.273020
  0
VERTEX
  8
PLAN_1
  6
CONTINUOUS
 10
-0.850425
 20
0.276350
  0
VERTEX
  8
PLAN_1
  6
CONTINUOUS
 10
-0.851378
 20
0.279681
  0
VERTEX
  8
PLAN_1
  6
CONTINUOUS
 10
-0.851854
 20
0.283488
  0
VERTEX
  8
PLAN_1
  6
CONTINUOUS
 10
-0.851854
 20
0.287768
  0
VERTEX
  8
PLAN_1
  6
CONTINUOUS
 10
-0.850425
 20
0.291575
  0
VERTEX
  8
PLAN_1
  6
CONTINUOUS
 10
-0.849000
 20
0.294906
  0
VERTEX
  8
PLAN_1
  6
CONTINUOUS
 10
-0.846622
 20
0.297764
  0
VERTEX
  8
PLAN_1
  6
CONTINUOUS
 10
-0.843291
 20
0.300142
  0
VERTEX
  8
PLAN_1
  6
CONTINUOUS
 10
-0.840433
 20
0.302043
  0
VERTEX
  8
PLAN_1
  6
CONTINUOUS
 10
-0.836630
 20
0.303472
  0
VERTEX
  8
PLAN_1
  6
CONTINUOUS
 10
-0.832823
 20
0.303949
  0
VERTEX
  8
PLAN_1
  6
CONTINUOUS
 10
-0.828539
 20
0.303472
  0
SEQEND
  8
0
  0
POLYLINE
  8
PLAN_1
  6
CONTINUOUS
 66
     1
 40
0.005709
 41
0.005709
  0
VERTEX
  8
PLAN_1
  6
CONTINUOUS
 10
-0.722906
 20
0.284913
  0
VERTEX
  8
PLAN_1
  6
CONTINUOUS
 10
-0.356516
 20
0.220201
  0
VERTEX
  8
PLAN_1
  6
CONTINUOUS
 10
-0.344146
 20
0.217823
  0
SEQEND
  8
0
  0
POLYLINE
  8
PLAN_1
  6
CONTINUOUS
 66
     1
 40
0.005709
 41
0.005709
  0
VERTEX
  8
PLAN_1
  6
CONTINUOUS
 10
-0.344146
 20
0.217823
  0
VERTEX
  8
PLAN_1
  6
CONTINUOUS
 10
-0.340339
 20
0.216870
  0
VERTEX
  8
PLAN_1
  6
CONTINUOUS
 10
-0.337008
 20
0.214969
  0
VERTEX
  8
PLAN_1
  6
CONTINUOUS
 10
-0.334154
 20
0.212591
  0
VERTEX
  8
PLAN_1
  6
CONTINUOUS
 10
-0.331772
 20
0.209732
  0
VERTEX
  8
PLAN_1
  6
CONTINUOUS
 10
-0.329870
 20
0.206402
  0
VERTEX
  8
PLAN_1
  6
CONTINUOUS
 10
-0.328441
 20
0.203071
  0
VERTEX
  8
PLAN_1
  6
CONTINUOUS
 10
-0.327969
 20
0.199264
  0
VERTEX
  8
PLAN_1
  6
CONTINUOUS
 10
-0.328441
 20
0.194984
  0
VERTEX
  8
PLAN_1
  6
CONTINUOUS
 10
-0.329394
 20
0.191177
  0
VERTEX
  8
PLAN_1
  6
CONTINUOUS
 10
-0.331299
 20
0.187846
  0
VERTEX
  8
PLAN_1
  6
CONTINUOUS
 10
-0.333677
 20
0.184992
  0
VERTEX
  8
PLAN_1
  6
CONTINUOUS
 10
-0.336531
 20
0.182610
  0
VERTEX
  8
PLAN_1
  6
CONTINUOUS
 10
-0.339862
 20
0.180709
  0
VERTEX
  8
PLAN_1
  6
CONTINUOUS
 10
-0.343193
 20
0.179280
  0
VERTEX
  8
PLAN_1
  6
CONTINUOUS
 10
-0.347000
 20
0.178803
  0
VERTEX
  8
PLAN_1
  6
CONTINUOUS
 10
-0.351283
 20
0.179280
  0
SEQEND
  8
0
  0
POLYLINE
  8
PLAN_1
  6
CONTINUOUS
 66
     1
 40
0.005709
 41
0.005709
  0
VERTEX
  8
PLAN_1
  6
CONTINUOUS
 10
-0.721953
 20
0.112665
  0
VERTEX
  8
PLAN_1
  6
CONTINUOUS
 10
-0.356516
 20
0.047953
  0
VERTEX
  8
PLAN_1
  6
CONTINUOUS
 10
-0.344622
 20
0.046047
  0
SEQEND
  8
0
  0
POLYLINE
  8
PLAN_1
  6
CONTINUOUS
 66
     1
 40
0.005709
 41
0.005709
  0
VERTEX
  8
PLAN_1
  6
CONTINUOUS
 10
-0.344622
 20
0.046047
  0
VERTEX
  8
PLAN_1
  6
CONTINUOUS
 10
-0.340339
 20
0.044622
  0
VERTEX
  8
PLAN_1
  6
CONTINUOUS
 10
-0.337008
 20
0.043193
  0
VERTEX
  8
PLAN_1
  6
CONTINUOUS
 10
-0.334154
 20
0.040815
  0
VERTEX
  8
PLAN_1
  6
CONTINUOUS
 10
-0.331772
 20
0.037961
  0
VERTEX
  8
PLAN_1
  6
CONTINUOUS
 10
-0.329870
 20
0.034630
  0
VERTEX
  8
PLAN_1
  6
CONTINUOUS
 10
-0.328441
 20
0.030823
  0
VERTEX
  8
PLAN_1
  6
CONTINUOUS
 10
-0.327969
 20
0.027016
  0
VERTEX
  8
PLAN_1
  6
CONTINUOUS
 10
-0.328441
 20
0.023209
  0
VERTEX
  8
PLAN_1
  6
CONTINUOUS
 10
-0.329394
 20
0.019402
  0
VERTEX
  8
PLAN_1
  6
CONTINUOUS
 10
-0.331299
 20
0.015594
  0
VERTEX
  8
PLAN_1
  6
CONTINUOUS
 10
-0.333677
 20
0.012740
  0
VERTEX
  8
PLAN_1
  6
CONTINUOUS
 10
-0.336531
 20
0.010362
  0
VERTEX
  8
PLAN_1
  6
CONTINUOUS
 10
-0.339862
 20
0.008457
  0
VERTEX
  8
PLAN_1
  6
CONTINUOUS
 10
-0.343193
 20
0.007031
  0
VERTEX
  8
PLAN_1
  6
CONTINUOUS
 10
-0.347476
 20
0.006555
  0
VERTEX
  8
PLAN_1
  6
CONTINUOUS
 10
-0.351283
 20
0.007031
  0
SEQEND
  8
0
  0
POLYLINE
  8
PLAN_1
  6
CONTINUOUS
 66
     1
 40
0.005709
 41
0.005709
  0
VERTEX
  8
PLAN_1
  6
CONTINUOUS
 10
-0.461201
 20
0.026539
  0
VERTEX
  8
PLAN_1
  6
CONTINUOUS
 10
-0.827587
 20
0.091252
  0
VERTEX
  8
PLAN_1
  6
CONTINUOUS
 10
-0.835677
 20
0.092681
  0
SEQEND
  8
0
  0
POLYLINE
  8
PLAN_1
  6
CONTINUOUS
 66
     1
 40
0.005709
 41
0.005709
  0
VERTEX
  8
PLAN_1
  6
CONTINUOUS
 10
-0.835677
 20
0.092681
  0
VERTEX
  8
PLAN_1
  6
CONTINUOUS
 10
-0.839484
 20
0.093630
  0
VERTEX
  8
PLAN_1
  6
CONTINUOUS
 10
-0.842815
 20
0.095535
  0
VERTEX
  8
PLAN_1
  6
CONTINUOUS
 10
-0.846146
 20
0.097913
  0
VERTEX
  8
PLAN_1
  6
CONTINUOUS
 10
-0.848524
 20
0.100768
  0
VERTEX
  8
PLAN_1
  6
CONTINUOUS
 10
-0.850425
 20
0.104098
  0
VERTEX
  8
PLAN_1
  6
CONTINUOUS
 10
-0.851378
 20
0.107906
  0
VERTEX
  8
PLAN_1
  6
CONTINUOUS
 10
-0.851854
 20
0.111713
  0
VERTEX
  8
PLAN_1
  6
CONTINUOUS
 10
-0.851854
 20
0.115520
  0
VERTEX
  8
PLAN_1
  6
CONTINUOUS
 10
-0.850425
 20
0.119327
  0
VERTEX
  8
PLAN_1
  6
CONTINUOUS
 10
-0.849000
 20
0.122657
  0
VERTEX
  8
PLAN_1
  6
CONTINUOUS
 10
-0.846622
 20
0.125988
  0
VERTEX
  8
PLAN_1
  6
CONTINUOUS
 10
-0.843764
 20
0.128366
  0
VERTEX
  8
PLAN_1
  6
CONTINUOUS
 10
-0.840433
 20
0.130272
  0
VERTEX
  8
PLAN_1
  6
CONTINUOUS
 10
-0.836630
 20
0.131220
  0
VERTEX
  8
PLAN_1
  6
CONTINUOUS
 10
-0.832823
 20
0.131697
  0
VERTEX
  8
PLAN_1
  6
CONTINUOUS
 10
-0.829016
 20
0.131697
  0
SEQEND
  8
0
  0
POLYLINE
  8
PLAN_1
 62
     2
  6
CONTINUOUS
 66
     1
 40
0.004280
 41
0.004280
  0
VERTEX
  8
PLAN_1
 62
     2
  6
CONTINUOUS
 10
-1.925799
 20
3.711835
  0
VERTEX
  8
PLAN_1
 62
     2
  6
CONTINUOUS
 10
0.012252
 20
3.711835
  0
SEQEND
  8
0
  0
SOLID
  8
PLAN_1
 62
     2
 10
0.041752
 20
3.711835
 11
-0.017252
 21
3.727535
 12
0.041752
 22
3.711835
 13
-0.017252
 23
3.696130
  0
POLYLINE
  8
PLAN_1
 62
     2
  6
CONTINUOUS
 66
     1
 40
0.003000
 41
0.003000
  0
VERTEX
  8
PLAN_1
 62
     2
  6
CONTINUOUS
 10
0.041752
 20
3.711835
  0
VERTEX
  8
PLAN_1
 62
     2
  6
CONTINUOUS
 10
-0.017252
 20
3.727535
  0
VERTEX
  8
PLAN_1
 62
     2
  6
CONTINUOUS
 10
-0.017252
 20
3.696130
  0
VERTEX
  8
PLAN_1
 62
     2
  6
CONTINUOUS
 10
0.041752
 20
3.711835
  0
SEQEND
  8
0
  0
SOLID
  8
PLAN_1
 62
     2
 10
-1.955303
 20
3.711835
 11
-1.896299
 21
3.727535
 12
-1.955303
 22
3.711835
 13
-1.896299
 23
3.696130
  0
POLYLINE
  8
PLAN_1
 62
     2
  6
CONTINUOUS
 66
     1
 40
0.003000
 41
0.003000
  0
VERTEX
  8
PLAN_1
 62
     2
  6
CONTINUOUS
 10
-1.955303
 20
3.711835
  0
VERTEX
  8
PLAN_1
 62
     2
  6
CONTINUOUS
 10
-1.896299
 20
3.727535
  0
VERTEX
  8
PLAN_1
 62
     2
  6
CONTINUOUS
 10
-1.896299
 20
3.696130
  0
VERTEX
  8
PLAN_1
 62
     2
  6
CONTINUOUS
 10
-1.955303
 20
3.711835
  0
SEQEND
  8
0
  0
POLYLINE
  8
PLAN_1
 62
     2
  6
CONTINUOUS
 66
     1
 40
0.003000
 41
0.003000
  0
VERTEX
  8
PLAN_1
 62
     2
  6
CONTINUOUS
 10
-0.999362
 20
3.777976
  0
VERTEX
  8
PLAN_1
 62
     2
  6
CONTINUOUS
 10
-0.997933
 20
3.778925
  0
VERTEX
  8
PLAN_1
 62
     2
  6
CONTINUOUS
 10
-0.996984
 20
3.779878
  0
VERTEX
  8
PLAN_1
 62
     2
  6
CONTINUOUS
 10
-0.995079
 20
3.780354
  0
VERTEX
  8
PLAN_1
 62
     2
  6
CONTINUOUS
 10
-0.993650
 20
3.781307
  0
VERTEX
  8
PLAN_1
 62
     2
  6
CONTINUOUS
 10
-0.991748
 20
3.781780
  0
VERTEX
  8
PLAN_1
 62
     2
  6
CONTINUOUS
 10
-0.989846
 20
3.782256
  0
VERTEX
  8
PLAN_1
 62
     2
  6
CONTINUOUS
 10
-0.987465
 20
3.782256
  0
VERTEX
  8
PLAN_1
 62
     2
  6
CONTINUOUS
 10
-0.985087
 20
3.782732
  0
VERTEX
  8
PLAN_1
 62
     2
  6
CONTINUOUS
 10
-0.980803
 20
3.782256
  0
VERTEX
  8
PLAN_1
 62
     2
  6
CONTINUOUS
 10
-0.976524
 20
3.780831
  0
VERTEX
  8
PLAN_1
 62
     2
  6
CONTINUOUS
 10
-0.972240
 20
3.778925
  0
VERTEX
  8
PLAN_1
 62
     2
  6
CONTINUOUS
 10
-0.968909
 20
3.776547
  0
VERTEX
  8
PLAN_1
 62
     2
  6
CONTINUOUS
 10
-0.967004
 20
3.775118
  0
VERTEX
  8
PLAN_1
 62
     2
  6
CONTINUOUS
 10
-0.965579
 20
3.773217
  0
VERTEX
  8
PLAN_1
 62
     2
  6
CONTINUOUS
 10
-0.964626
 20
3.771311
  0
VERTEX
  8
PLAN_1
 62
     2
  6
CONTINUOUS
 10
-0.963197
 20
3.768933
  0
VERTEX
  8
PLAN_1
 62
     2
  6
CONTINUOUS
 10
-0.962248
 20
3.767031
  0
VERTEX
  8
PLAN_1
 62
     2
  6
CONTINUOUS
 10
-0.961772
 20
3.764650
  0
VERTEX
  8
PLAN_1
 62
     2
  6
CONTINUOUS
 10
-0.961295
 20
3.761795
  0
VERTEX
  8
PLAN_1
 62
     2
  6
CONTINUOUS
 10
-0.961295
 20
3.758941
  0
VERTEX
  8
PLAN_1
 62
     2
  6
CONTINUOUS
 10
-0.961295
 20
3.755610
  0
VERTEX
  8
PLAN_1
 62
     2
  6
CONTINUOUS
 10
-0.962248
 20
3.751803
  0
VERTEX
  8
PLAN_1
 62
     2
  6
CONTINUOUS
 10
-0.963673
 20
3.747520
  0
VERTEX
  8
PLAN_1
 62
     2
  6
CONTINUOUS
 10
-0.966055
 20
3.743240
  0
VERTEX
  8
PLAN_1
 62
     2
  6
CONTINUOUS
 10
-0.967480
 20
3.741335
  0
VERTEX
  8
PLAN_1
 62
     2
  6
CONTINUOUS
 10
-0.969386
 20
3.739433
  0
VERTEX
  8
PLAN_1
 62
     2
  6
CONTINUOUS
 10
-0.971287
 20
3.738004
  0
VERTEX
  8
PLAN_1
 62
     2
  6
CONTINUOUS
 10
-0.974142
 20
3.736102
  0
VERTEX
  8
PLAN_1
 62
     2
  6
CONTINUOUS
 10
-0.976996
 20
3.735150
  0
VERTEX
  8
PLAN_1
 62
     2
  6
CONTINUOUS
 10
-0.979854
 20
3.734197
  0
VERTEX
  8
PLAN_1
 62
     2
  6
CONTINUOUS
 10
-0.983657
 20
3.733720
  0
VERTEX
  8
PLAN_1
 62
     2
  6
CONTINUOUS
 10
-0.987941
 20
3.733248
  0
VERTEX
  8
PLAN_1
 62
     2
  6
CONTINUOUS
 10
-0.991272
 20
3.733720
  0
VERTEX
  8
PLAN_1
 62
     2
  6
CONTINUOUS
 10
-0.995079
 20
3.734197
  0
VERTEX
  8
PLAN_1
 62
     2
  6
CONTINUOUS
 10
-0.998886
 20
3.735626
  0
VERTEX
  8
PLAN_1
 62
     2
  6
CONTINUOUS
 10
-1.002693
 20
3.737528
  0
VERTEX
  8
PLAN_1
 62
     2
  6
CONTINUOUS
 10
-1.004118
 20
3.738480
  0
VERTEX
  8
PLAN_1
 62
     2
  6
CONTINUOUS
 10
-1.005547
 20
3.739909
  0
VERTEX
  8
PLAN_1
 62
     2
  6
CONTINUOUS
 10
-1.006976
 20
3.741811
  0
VERTEX
  8
PLAN_1
 62
     2
  6
CONTINUOUS
 10
-1.008402
 20
3.743717
  0
VERTEX
  8
PLAN_1
 62
     2
  6
CONTINUOUS
 10
-1.009354
 20
3.745618
  0
VERTEX
  8
PLAN_1
 62
     2
  6
CONTINUOUS
 10
-1.010307
 20
3.747996
  0
VERTEX
  8
PLAN_1
 62
     2
  6
CONTINUOUS
 10
-1.010780
 20
3.750850
  0
VERTEX
  8
PLAN_1
 62
     2
  6
CONTINUOUS
 10
-1.011256
 20
3.753709
  0
VERTEX
  8
PLAN_1
 62
     2
  6
CONTINUOUS
 10
-1.001740
 20
3.753709
  0
VERTEX
  8
PLAN_1
 62
     2
  6
CONTINUOUS
 10
-1.001264
 20
3.750850
  0
VERTEX
  8
PLAN_1
 62
     2
  6
CONTINUOUS
 10
-1.000315
 20
3.747996
  0
VERTEX
  8
PLAN_1
 62
     2
  6
CONTINUOUS
 10
-0.998886
 20
3.746094
  0
VERTEX
  8
PLAN_1
 62
     2
  6
CONTINUOUS
 10
-0.996984
 20
3.744189
  0
VERTEX
  8
PLAN_1
 62
     2
  6
CONTINUOUS
 10
-0.994602
 20
3.742764
  0
VERTEX
  8
PLAN_1
 62
     2
  6
CONTINUOUS
 10
-0.992224
 20
3.742287
  0
VERTEX
  8
PLAN_1
 62
     2
  6
CONTINUOUS
 10
-0.989370
 20
3.741335
  0
VERTEX
  8
PLAN_1
 62
     2
  6
CONTINUOUS
 10
-0.986516
 20
3.741335
  0
VERTEX
  8
PLAN_1
 62
     2
  6
CONTINUOUS
 10
-0.983185
 20
3.741811
  0
VERTEX
  8
PLAN_1
 62
     2
  6
CONTINUOUS
 10
-0.979854
 20
3.742764
  0
VERTEX
  8
PLAN_1
 62
     2
  6
CONTINUOUS
 10
-0.977472
 20
3.744189
  0
VERTEX
  8
PLAN_1
 62
     2
  6
CONTINUOUS
 10
-0.975094
 20
3.746094
  0
VERTEX
  8
PLAN_1
 62
     2
  6
CONTINUOUS
 10
-0.973189
 20
3.748949
  0
VERTEX
  8
PLAN_1
 62
     2
  6
CONTINUOUS
 10
-0.972240
 20
3.751803
  0
VERTEX
  8
PLAN_1
 62
     2
  6
CONTINUOUS
 10
-0.971287
 20
3.754657
  0
VERTEX
  8
PLAN_1
 62
     2
  6
CONTINUOUS
 10
-0.970811
 20
3.757988
  0
VERTEX
  8
PLAN_1
 62
     2
  6
CONTINUOUS
 10
-0.971287
 20
3.761795
  0
VERTEX
  8
PLAN_1
 62
     2
  6
CONTINUOUS
 10
-0.972240
 20
3.765126
  0
VERTEX
  8
PLAN_1
 62
     2
  6
CONTINUOUS
 10
-0.973665
 20
3.767980
  0
VERTEX
  8
PLAN_1
 62
     2
  6
CONTINUOUS
 10
-0.975571
 20
3.770362
  0
VERTEX
  8
PLAN_1
 62
     2
  6
CONTINUOUS
 10
-0.977949
 20
3.771787
  0
VERTEX
  8
PLAN_1
 62
     2
  6
CONTINUOUS
 10
-0.980803
 20
3.773217
  0
VERTEX
  8
PLAN_1
 62
     2
  6
CONTINUOUS
 10
-0.984134
 20
3.774169
  0
VERTEX
  8
PLAN_1
 62
     2
  6
CONTINUOUS
 10
-0.986988
 20
3.774169
  0
VERTEX
  8
PLAN_1
 62
     2
  6
CONTINUOUS
 10
-0.989370
 20
3.774169
  0
VERTEX
  8
PLAN_1
 62
     2
  6
CONTINUOUS
 10
-0.991272
 20
3.773693
  0
VERTEX
  8
PLAN_1
 62
     2
  6
CONTINUOUS
 10
-0.992701
 20
3.773217
  0
VERTEX
  8
PLAN_1
 62
     2
  6
CONTINUOUS
 10
-0.994602
 20
3.772740
  0
VERTEX
  8
PLAN_1
 62
     2
  6
CONTINUOUS
 10
-0.996508
 20
3.771311
  0
VERTEX
  8
PLAN_1
 62
     2
  6
CONTINUOUS
 10
-0.997933
 20
3.770362
  0
VERTEX
  8
PLAN_1
 62
     2
  6
CONTINUOUS
 10
-0.999362
 20
3.768933
  0
VERTEX
  8
PLAN_1
 62
     2
  6
CONTINUOUS
 10
-1.000787
 20
3.767508
  0
VERTEX
  8
PLAN_1
 62
     2
  6
CONTINUOUS
 10
-1.008878
 20
3.767980
  0
VERTEX
  8
PLAN_1
 62
     2
  6
CONTINUOUS
 10
-1.003169
 20
3.807000
  0
VERTEX
  8
PLAN_1
 62
     2
  6
CONTINUOUS
 10
-0.965102
 20
3.807000
  0
VERTEX
  8
PLAN_1
 62
     2
  6
CONTINUOUS
 10
-0.965102
 20
3.797961
  0
VERTEX
  8
PLAN_1
 62
     2
  6
CONTINUOUS
 10
-0.996508
 20
3.797961
  0
VERTEX
  8
PLAN_1
 62
     2
  6
CONTINUOUS
 10
-0.999362
 20
3.777976
  0
SEQEND
  8
0
  0
POLYLINE
  8
PLAN_1
 62
     2
  6
CONTINUOUS
 66
     1
 40
0.003000
 41
0.003000
  0
VERTEX
  8
PLAN_1
 62
     2
  6
CONTINUOUS
 10
-0.952728
 20
3.807000
  0
VERTEX
  8
PLAN_1
 62
     2
  6
CONTINUOUS
 10
-0.902291
 20
3.807000
  0
VERTEX
  8
PLAN_1
 62
     2
  6
CONTINUOUS
 10
-0.902291
 20
3.798909
  0
VERTEX
  8
PLAN_1
 62
     2
  6
CONTINUOUS
 10
-0.905622
 20
3.795579
  0
VERTEX
  8
PLAN_1
 62
     2
  6
CONTINUOUS
 10
-0.909429
 20
3.790346
  0
VERTEX
  8
PLAN_1
 62
     2
  6
CONTINUOUS
 10
-0.913713
 20
3.784161
  0
VERTEX
  8
PLAN_1
 62
     2
  6
CONTINUOUS
 10
-0.917996
 20
3.776547
  0
VERTEX
  8
PLAN_1
 62
     2
  6
CONTINUOUS
 10
-0.922752
 20
3.767980
  0
VERTEX
  8
PLAN_1
 62
     2
  6
CONTINUOUS
 10
-0.926559
 20
3.757988
  0
VERTEX
  8
PLAN_1
 62
     2
  6
CONTINUOUS
 10
-0.928465
 20
3.752756
  0
VERTEX
  8
PLAN_1
 62
     2
  6
CONTINUOUS
 10
-0.929890
 20
3.747047
  0
VERTEX
  8
PLAN_1
 62
     2
  6
CONTINUOUS
 10
-0.931319
 20
3.741335
  0
VERTEX
  8
PLAN_1
 62
     2
  6
CONTINUOUS
 10
-0.932268
 20
3.735626
  0
VERTEX
  8
PLAN_1
 62
     2
  6
CONTINUOUS
 10
-0.942736
 20
3.735626
  0
VERTEX
  8
PLAN_1
 62
     2
  6
CONTINUOUS
 10
-0.941311
 20
3.743240
  0
VERTEX
  8
PLAN_1
 62
     2
  6
CONTINUOUS
 10
-0.938933
 20
3.751327
  0
VERTEX
  8
PLAN_1
 62
     2
  6
CONTINUOUS
 10
-0.935602
 20
3.759894
  0
VERTEX
  8
PLAN_1
 62
     2
  6
CONTINUOUS
 10
-0.931795
 20
3.767980
  0
VERTEX
  8
PLAN_1
 62
     2
  6
CONTINUOUS
 10
-0.927512
 20
3.776547
  0
VERTEX
  8
PLAN_1
 62
     2
  6
CONTINUOUS
 10
-0.922752
 20
3.784161
  0
VERTEX
  8
PLAN_1
 62
     2
  6
CONTINUOUS
 10
-0.917996
 20
3.791299
  0
VERTEX
  8
PLAN_1
 62
     2
  6
CONTINUOUS
 10
-0.912760
 20
3.797961
  0
VERTEX
  8
PLAN_1
 62
     2
  6
CONTINUOUS
 10
-0.952728
 20
3.797961
  0
VERTEX
  8
PLAN_1
 62
     2
  6
CONTINUOUS
 10
-0.952728
 20
3.807000
  0
SEQEND
  8
0
  0
POLYLINE
  8
PLAN_1
 62
     2
  6
CONTINUOUS
 66
     1
 40
0.004280
 41
0.004280
  0
VERTEX
  8
PLAN_1
 62
     2
  6
CONTINUOUS
 10
-2.129457
 20
3.554335
  0
VERTEX
  8
PLAN_1
 62
     2
  6
CONTINUOUS
 10
-1.794949
 20
3.554335
  0
SEQEND
  8
0
  0
SOLID
  8
PLAN_1
 62
     2
 10
-1.765445
 20
3.554335
 11
-1.824449
 21
3.570035
 12
-1.765445
 22
3.554335
 13
-1.824449
 23
3.538634
  0
POLYLINE
  8
PLAN_1
 62
     2
  6
CONTINUOUS
 66
     1
 40
0.003000
 41
0.003000
  0
VERTEX
  8
PLAN_1
 62
     2
  6
CONTINUOUS
 10
-1.765445
 20
3.554335
  0
VERTEX
  8
PLAN_1
 62
     2
  6
CONTINUOUS
 10
-1.824449
 20
3.570035
  0
VERTEX
  8
PLAN_1
 62
     2
  6
CONTINUOUS
 10
-1.824449
 20
3.538634
  0
VERTEX
  8
PLAN_1
 62
     2
  6
CONTINUOUS
 10
-1.765445
 20
3.554335
  0
SEQEND
  8
0
  0
SOLID
  8
PLAN_1
 62
     2
 10
-2.158957
 20
3.554335
 11
-2.099953
 21
3.570035
 12
-2.158957
 22
3.554335
 13
-2.099953
 23
3.538634
  0
POLYLINE
  8
PLAN_1
 62
     2
  6
CONTINUOUS
 66
     1
 40
0.003000
 41
0.003000
  0
VERTEX
  8
PLAN_1
 62
     2
  6
CONTINUOUS
 10
-2.158957
 20
3.554335
  0
VERTEX
  8
PLAN_1
 62
     2
  6
CONTINUOUS
 10
-2.099953
 20
3.570035
  0
VERTEX
  8
PLAN_1
 62
     2
  6
CONTINUOUS
 10
-2.099953
 20
3.538634
  0
VERTEX
  8
PLAN_1
 62
     2
  6
CONTINUOUS
 10
-2.158957
 20
3.554335
  0
SEQEND
  8
0
  0
POLYLINE
  8
PLAN_1
 62
     2
  6
CONTINUOUS
 66
     1
 40
0.003000
 41
0.003000
  0
VERTEX
  8
PLAN_1
 62
     2
  6
CONTINUOUS
 10
-1.982902
 20
3.578126
  0
VERTEX
  8
PLAN_1
 62
     2
  6
CONTINUOUS
 10
-1.992417
 20
3.578126
  0
VERTEX
  8
PLAN_1
 62
     2
  6
CONTINUOUS
 10
-1.992417
 20
3.629992
  0
VERTEX
  8
PLAN_1
 62
     2
  6
CONTINUOUS
 10
-2.009547
 20
3.629992
  0
VERTEX
  8
PLAN_1
 62
     2
  6
CONTINUOUS
 10
-2.009547
 20
3.637130
  0
VERTEX
  8
PLAN_1
 62
     2
  6
CONTINUOUS
 10
-2.005264
 20
3.637606
  0
VERTEX
  8
PLAN_1
 62
     2
  6
CONTINUOUS
 10
-2.001933
 20
3.638083
  0
VERTEX
  8
PLAN_1
 62
     2
  6
CONTINUOUS
 10
-1.999079
 20
3.639031
  0
VERTEX
  8
PLAN_1
 62
     2
  6
CONTINUOUS
 10
-1.996224
 20
3.639984
  0
VERTEX
  8
PLAN_1
 62
     2
  6
CONTINUOUS
 10
-1.994319
 20
3.641886
  0
VERTEX
  8
PLAN_1
 62
     2
  6
CONTINUOUS
 10
-1.992417
 20
3.643791
  0
VERTEX
  8
PLAN_1
 62
     2
  6
CONTINUOUS
 10
-1.990988
 20
3.647122
  0
VERTEX
  8
PLAN_1
 62
     2
  6
CONTINUOUS
 10
-1.990035
 20
3.650929
  0
VERTEX
  8
PLAN_1
 62
     2
  6
CONTINUOUS
 10
-1.982902
 20
3.650929
  0
VERTEX
  8
PLAN_1
 62
     2
  6
CONTINUOUS
 10
-1.982902
 20
3.578126
  0
SEQEND
  8
0
  0
POLYLINE
  8
PLAN_1
 62
     2
  6
CONTINUOUS
 66
     1
 40
0.003000
 41
0.003000
  0
VERTEX
  8
PLAN_1
 62
     2
  6
CONTINUOUS
 10
-1.933413
 20
3.576224
  0
VERTEX
  8
PLAN_1
 62
     2
  6
CONTINUOUS
 10
-1.937220
 20
3.576224
  0
VERTEX
  8
PLAN_1
 62
     2
  6
CONTINUOUS
 10
-1.940551
 20
3.577173
  0
VERTEX
  8
PLAN_1
 62
     2
  6
CONTINUOUS
 10
-1.943406
 20
3.578126
  0
VERTEX
  8
PLAN_1
 62
     2
  6
CONTINUOUS
 10
-1.946260
 20
3.579555
  0
VERTEX
  8
PLAN_1
 62
     2
  6
CONTINUOUS
 10
-1.948642
 20
3.581457
  0
VERTEX
  8
PLAN_1
 62
     2
  6
CONTINUOUS
 10
-1.950543
 20
3.583835
  0
VERTEX
  8
PLAN_1
 62
     2
  6
CONTINUOUS
 10
-1.951972
 20
3.586217
  0
VERTEX
  8
PLAN_1
 62
     2
  6
CONTINUOUS
 10
-1.953874
 20
3.589071
  0
VERTEX
  8
PLAN_1
 62
     2
  6
CONTINUOUS
 10
-1.955776
 20
3.594780
  0
VERTEX
  8
PLAN_1
 62
     2
  6
CONTINUOUS
 10
-1.957205
 20
3.601441
  0
VERTEX
  8
PLAN_1
 62
     2
  6
CONTINUOUS
 10
-1.958157
 20
3.607626
  0
VERTEX
  8
PLAN_1
 62
     2
  6
CONTINUOUS
 10
-1.958157
 20
3.613815
  0
VERTEX
  8
PLAN_1
 62
     2
  6
CONTINUOUS
 10
-1.958157
 20
3.619524
  0
VERTEX
  8
PLAN_1
 62
     2
  6
CONTINUOUS
 10
-1.957205
 20
3.625709
  0
VERTEX
  8
PLAN_1
 62
     2
  6
CONTINUOUS
 10
-1.955776
 20
3.631894
  0
VERTEX
  8
PLAN_1
 62
     2
  6
CONTINUOUS
 10
-1.953874
 20
3.638083
  0
VERTEX
  8
PLAN_1
 62
     2
  6
CONTINUOUS
 10
-1.951972
 20
3.640937
  0
VERTEX
  8
PLAN_1
 62
     2
  6
CONTINUOUS
 10
-1.950543
 20
3.643315
  0
VERTEX
  8
PLAN_1
 62
     2
  6
CONTINUOUS
 10
-1.948642
 20
3.645693
  0
VERTEX
  8
PLAN_1
 62
     2
  6
CONTINUOUS
 10
-1.946260
 20
3.647598
  0
VERTEX
  8
PLAN_1
 62
     2
  6
CONTINUOUS
 10
-1.943406
 20
3.649024
  0
VERTEX
  8
PLAN_1
 62
     2
  6
CONTINUOUS
 10
-1.940551
 20
3.649976
  0
VERTEX
  8
PLAN_1
 62
     2
  6
CONTINUOUS
 10
-1.937220
 20
3.650929
  0
VERTEX
  8
PLAN_1
 62
     2
  6
CONTINUOUS
 10
-1.933413
 20
3.650929
  0
VERTEX
  8
PLAN_1
 62
     2
  6
CONTINUOUS
 10
-1.929606
 20
3.650929
  0
VERTEX
  8
PLAN_1
 62
     2
  6
CONTINUOUS
 10
-1.926276
 20
3.649976
  0
VERTEX
  8
PLAN_1
 62
     2
  6
CONTINUOUS
 10
-1.922945
 20
3.649024
  0
VERTEX
  8
PLAN_1
 62
     2
  6
CONTINUOUS
 10
-1.920567
 20
3.647598
  0
VERTEX
  8
PLAN_1
 62
     2
  6
CONTINUOUS
 10
-1.918189
 20
3.645693
  0
VERTEX
  8
PLAN_1
 62
     2
  6
CONTINUOUS
 10
-1.916283
 20
3.643315
  0
VERTEX
  8
PLAN_1
 62
     2
  6
CONTINUOUS
 10
-1.914382
 20
3.640937
  0
VERTEX
  8
PLAN_1
 62
     2
  6
CONTINUOUS
 10
-1.912953
 20
3.638083
  0
VERTEX
  8
PLAN_1
 62
     2
  6
CONTINUOUS
 10
-1.910575
 20
3.631894
  0
VERTEX
  8
PLAN_1
 62
     2
  6
CONTINUOUS
 10
-1.909146
 20
3.625709
  0
VERTEX
  8
PLAN_1
 62
     2
  6
CONTINUOUS
 10
-1.908193
 20
3.619524
  0
VERTEX
  8
PLAN_1
 62
     2
  6
CONTINUOUS
 10
-1.908193
 20
3.613815
  0
VERTEX
  8
PLAN_1
 62
     2
  6
CONTINUOUS
 10
-1.908193
 20
3.607626
  0
VERTEX
  8
PLAN_1
 62
     2
  6
CONTINUOUS
 10
-1.909146
 20
3.601441
  0
VERTEX
  8
PLAN_1
 62
     2
  6
CONTINUOUS
 10
-1.910575
 20
3.594780
  0
VERTEX
  8
PLAN_1
 62
     2
  6
CONTINUOUS
 10
-1.912953
 20
3.589071
  0
VERTEX
  8
PLAN_1
 62
     2
  6
CONTINUOUS
 10
-1.914382
 20
3.586217
  0
VERTEX
  8
PLAN_1
 62
     2
  6
CONTINUOUS
 10
-1.916283
 20
3.583835
  0
VERTEX
  8
PLAN_1
 62
     2
  6
CONTINUOUS
 10
-1.918189
 20
3.581457
  0
VERTEX
  8
PLAN_1
 62
     2
  6
CONTINUOUS
 10
-1.920567
 20
3.579555
  0
VERTEX
  8
PLAN_1
 62
     2
  6
CONTINUOUS
 10
-1.922945
 20
3.578126
  0
VERTEX
  8
PLAN_1
 62
     2
  6
CONTINUOUS
 10
-1.926276
 20
3.577173
  0
VERTEX
  8
PLAN_1
 62
     2
  6
CONTINUOUS
 10
-1.929606
 20
3.576224
  0
VERTEX
  8
PLAN_1
 62
     2
  6
CONTINUOUS
 10
-1.933413
 20
3.576224
  0
SEQEND
  8
0
  0
POLYLINE
  8
PLAN_1
 62
     2
  6
CONTINUOUS
 66
     1
 40
0.003000
 41
0.003000
  0
VERTEX
  8
PLAN_1
 62
     2
  6
CONTINUOUS
 10
-1.933413
 20
3.642839
  0
VERTEX
  8
PLAN_1
 62
     2
  6
CONTINUOUS
 10
-1.935315
 20
3.642839
  0
VERTEX
  8
PLAN_1
 62
     2
  6
CONTINUOUS
 10
-1.936744
 20
3.642362
  0
VERTEX
  8
PLAN_1
 62
     2
  6
CONTINUOUS
 10
-1.938650
 20
3.641886
  0
VERTEX
  8
PLAN_1
 62
     2
  6
CONTINUOUS
 10
-1.940075
 20
3.640937
  0
VERTEX
  8
PLAN_1
 62
     2
  6
CONTINUOUS
 10
-1.941504
 20
3.639984
  0
VERTEX
  8
PLAN_1
 62
     2
  6
CONTINUOUS
 10
-1.942929
 20
3.638555
  0
VERTEX
  8
PLAN_1
 62
     2
  6
CONTINUOUS
 10
-1.943882
 20
3.636654
  0
VERTEX
  8
PLAN_1
 62
     2
  6
CONTINUOUS
 10
-1.944835
 20
3.635224
  0
VERTEX
  8
PLAN_1
 62
     2
  6
CONTINUOUS
 10
-1.946736
 20
3.630945
  0
VERTEX
  8
PLAN_1
 62
     2
  6
CONTINUOUS
 10
-1.947689
 20
3.625709
  0
VERTEX
  8
PLAN_1
 62
     2
  6
CONTINUOUS
 10
-1.948165
 20
3.620000
  0
VERTEX
  8
PLAN_1
 62
     2
  6
CONTINUOUS
 10
-1.948642
 20
3.613815
  0
VERTEX
  8
PLAN_1
 62
     2
  6
CONTINUOUS
 10
-1.948165
 20
3.607154
  0
VERTEX
  8
PLAN_1
 62
     2
  6
CONTINUOUS
 10
-1.947689
 20
3.601441
  0
VERTEX
  8
PLAN_1
 62
     2
  6
CONTINUOUS
 10
-1.946736
 20
3.596209
  0
VERTEX
  8
PLAN_1
 62
     2
  6
CONTINUOUS
 10
-1.944835
 20
3.591925
  0
VERTEX
  8
PLAN_1
 62
     2
  6
CONTINUOUS
 10
-1.943882
 20
3.590024
  0
VERTEX
  8
PLAN_1
 62
     2
  6
CONTINUOUS
 10
-1.942929
 20
3.588594
  0
VERTEX
  8
PLAN_1
 62
     2
  6
CONTINUOUS
 10
-1.941504
 20
3.587165
  0
VERTEX
  8
PLAN_1
 62
     2
  6
CONTINUOUS
 10
-1.940075
 20
3.586217
  0
VERTEX
  8
PLAN_1
 62
     2
  6
CONTINUOUS
 10
-1.938650
 20
3.585264
  0
VERTEX
  8
PLAN_1
 62
     2
  6
CONTINUOUS
 10
-1.936744
 20
3.584787
  0
VERTEX
  8
PLAN_1
 62
     2
  6
CONTINUOUS
 10
-1.935315
 20
3.584311
  0
VERTEX
  8
PLAN_1
 62
     2
  6
CONTINUOUS
 10
-1.933413
 20
3.584311
  0
VERTEX
  8
PLAN_1
 62
     2
  6
CONTINUOUS
 10
-1.931512
 20
3.584311
  0
VERTEX
  8
PLAN_1
 62
     2
  6
CONTINUOUS
 10
-1.929606
 20
3.584787
  0
VERTEX
  8
PLAN_1
 62
     2
  6
CONTINUOUS
 10
-1.928181
 20
3.585264
  0
VERTEX
  8
PLAN_1
 62
     2
  6
CONTINUOUS
 10
-1.926276
 20
3.586217
  0
VERTEX
  8
PLAN_1
 62
     2
  6
CONTINUOUS
 10
-1.924850
 20
3.587165
  0
VERTEX
  8
PLAN_1
 62
     2
  6
CONTINUOUS
 10
-1.923898
 20
3.588594
  0
VERTEX
  8
PLAN_1
 62
     2
  6
CONTINUOUS
 10
-1.922469
 20
3.590024
  0
VERTEX
  8
PLAN_1
 62
     2
  6
CONTINUOUS
 10
-1.921520
 20
3.591925
  0
VERTEX
  8
PLAN_1
 62
     2
  6
CONTINUOUS
 10
-1.920091
 20
3.596209
  0
VERTEX
  8
PLAN_1
 62
     2
  6
CONTINUOUS
 10
-1.918661
 20
3.601441
  0
VERTEX
  8
PLAN_1
 62
     2
  6
CONTINUOUS
 10
-1.918189
 20
3.607154
  0
VERTEX
  8
PLAN_1
 62
     2
  6
CONTINUOUS
 10
-1.918189
 20
3.613815
  0
VERTEX
  8
PLAN_1
 62
     2
  6
CONTINUOUS
 10
-1.918189
 20
3.620000
  0
VERTEX
  8
PLAN_1
 62
     2
  6
CONTINUOUS
 10
-1.918661
 20
3.625709
  0
VERTEX
  8
PLAN_1
 62
     2
  6
CONTINUOUS
 10
-1.920091
 20
3.630945
  0
VERTEX
  8
PLAN_1
 62
     2
  6
CONTINUOUS
 10
-1.921520
 20
3.635224
  0
VERTEX
  8
PLAN_1
 62
     2
  6
CONTINUOUS
 10
-1.923898
 20
3.638555
  0
VERTEX
  8
PLAN_1
 62
     2
  6
CONTINUOUS
 10
-1.926276
 20
3.640937
  0
VERTEX
  8
PLAN_1
 62
     2
  6
CONTINUOUS
 10
-1.928181
 20
3.641886
  0
VERTEX
  8
PLAN_1
 62
     2
  6
CONTINUOUS
 10
-1.929606
 20
3.642362
  0
VERTEX
  8
PLAN_1
 62
     2
  6
CONTINUOUS
 10
-1.931512
 20
3.642839
  0
VERTEX
  8
PLAN_1
 62
     2
  6
CONTINUOUS
 10
-1.933413
 20
3.642839
  0
SEQEND
  8
0
  0
POLYLINE
  8
PLAN_1
 62
     2
  6
CONTINUOUS
 66
     1
 40
0.004280
 41
0.004280
  0
VERTEX
  8
PLAN_1
 62
     2
  6
CONTINUOUS
 10
-2.195594
 20
-0.235642
  0
VERTEX
  8
PLAN_1
 62
     2
  6
CONTINUOUS
 10
0.012252
 20
-0.235642
  0
SEQEND
  8
0
  0
SOLID
  8
PLAN_1
 62
     2
 10
0.041752
 20
-0.235642
 11
-0.017252
 21
-0.219941
 12
0.041752
 22
-0.235642
 13
-0.017252
 23
-0.251346
  0
POLYLINE
  8
PLAN_1
 62
     2
  6
CONTINUOUS
 66
     1
 40
0.003000
 41
0.003000
  0
VERTEX
  8
PLAN_1
 62
     2
  6
CONTINUOUS
 10
0.041752
 20
-0.235642
  0
VERTEX
  8
PLAN_1
 62
     2
  6
CONTINUOUS
 10
-0.017252
 20
-0.219941
  0
VERTEX
  8
PLAN_1
 62
     2
  6
CONTINUOUS
 10
-0.017252
 20
-0.251346
  0
VERTEX
  8
PLAN_1
 62
     2
  6
CONTINUOUS
 10
0.041752
 20
-0.235642
  0
SEQEND
  8
0
  0
SOLID
  8
PLAN_1
 62
     2
 10
-2.225098
 20
-0.235642
 11
-2.166094
 21
-0.219941
 12
-2.225098
 22
-0.235642
 13
-2.166094
 23
-0.251346
  0
POLYLINE
  8
PLAN_1
 62
     2
  6
CONTINUOUS
 66
     1
 40
0.003000
 41
0.003000
  0
VERTEX
  8
PLAN_1
 62
     2
  6
CONTINUOUS
 10
-2.225098
 20
-0.235642
  0
VERTEX
  8
PLAN_1
 62
     2
  6
CONTINUOUS
 10
-2.166094
 20
-0.219941
  0
VERTEX
  8
PLAN_1
 62
     2
  6
CONTINUOUS
 10
-2.166094
 20
-0.251346
  0
VERTEX
  8
PLAN_1
 62
     2
  6
CONTINUOUS
 10
-2.225098
 20
-0.235642
  0
SEQEND
  8
0
  0
POLYLINE
  8
PLAN_1
 62
     2
  6
CONTINUOUS
 66
     1
 40
0.003000
 41
0.003000
  0
VERTEX
  8
PLAN_1
 62
     2
  6
CONTINUOUS
 10
-1.105949
 20
-0.158559
  0
VERTEX
  8
PLAN_1
 62
     2
  6
CONTINUOUS
 10
-1.106421
 20
-0.156177
  0
VERTEX
  8
PLAN_1
 62
     2
  6
CONTINUOUS
 10
-1.107374
 20
-0.153799
  0
VERTEX
  8
PLAN_1
 62
     2
  6
CONTINUOUS
 10
-1.108327
 20
-0.151898
  0
VERTEX
  8
PLAN_1
 62
     2
  6
CONTINUOUS
 10
-1.109752
 20
-0.150469
  0
VERTEX
  8
PLAN_1
 62
     2
  6
CONTINUOUS
 10
-1.111657
 20
-0.149039
  0
VERTEX
  8
PLAN_1
 62
     2
  6
CONTINUOUS
 10
-1.113559
 20
-0.148091
  0
VERTEX
  8
PLAN_1
 62
     2
  6
CONTINUOUS
 10
-1.115941
 20
-0.147614
  0
VERTEX
  8
PLAN_1
 62
     2
  6
CONTINUOUS
 10
-1.118795
 20
-0.147138
  0
VERTEX
  8
PLAN_1
 62
     2
  6
CONTINUOUS
 10
-1.121173
 20
-0.147614
  0
VERTEX
  8
PLAN_1
 62
     2
  6
CONTINUOUS
 10
-1.123551
 20
-0.148091
  0
VERTEX
  8
PLAN_1
 62
     2
  6
CONTINUOUS
 10
-1.125457
 20
-0.149039
  0
VERTEX
  8
PLAN_1
 62
     2
  6
CONTINUOUS
 10
-1.127358
 20
-0.150469
  0
VERTEX
  8
PLAN_1
 62
     2
  6
CONTINUOUS
 10
-1.128787
 20
-0.151898
  0
VERTEX
  8
PLAN_1
 62
     2
  6
CONTINUOUS
 10
-1.130213
 20
-0.153799
  0
VERTEX
  8
PLAN_1
 62
     2
  6
CONTINUOUS
 10
-1.131642
 20
-0.155705
  0
VERTEX
  8
PLAN_1
 62
     2
  6
CONTINUOUS
 10
-1.132594
 20
-0.158083
  0
VERTEX
  8
PLAN_1
 62
     2
  6
CONTINUOUS
 10
-1.134496
 20
-0.162366
  0
VERTEX
  8
PLAN_1
 62
     2
  6
CONTINUOUS
 10
-1.135449
 20
-0.166646
  0
VERTEX
  8
PLAN_1
 62
     2
  6
CONTINUOUS
 10
-1.135925
 20
-0.170929
  0
VERTEX
  8
PLAN_1
 62
     2
  6
CONTINUOUS
 10
-1.135925
 20
-0.174260
  0
VERTEX
  8
PLAN_1
 62
     2
  6
CONTINUOUS
 10
-1.134972
 20
-0.172835
  0
VERTEX
  8
PLAN_1
 62
     2
  6
CONTINUOUS
 10
-1.133543
 20
-0.171406
  0
VERTEX
  8
PLAN_1
 62
     2
  6
CONTINUOUS
 10
-1.132118
 20
-0.169976
  0
VERTEX
  8
PLAN_1
 62
     2
  6
CONTINUOUS
 10
-1.129740
 20
-0.168551
  0
VERTEX
  8
PLAN_1
 62
     2
  6
CONTINUOUS
 10
-1.127835
 20
-0.167122
  0
VERTEX
  8
PLAN_1
 62
     2
  6
CONTINUOUS
 10
-1.124980
 20
-0.166169
  0
VERTEX
  8
PLAN_1
 62
     2
  6
CONTINUOUS
 10
-1.122126
 20
-0.165697
  0
VERTEX
  8
PLAN_1
 62
     2
  6
CONTINUOUS
 10
-1.118319
 20
-0.165697
  0
VERTEX
  8
PLAN_1
 62
     2
  6
CONTINUOUS
 10
-1.114988
 20
-0.165697
  0
VERTEX
  8
PLAN_1
 62
     2
  6
CONTINUOUS
 10
-1.111181
 20
-0.166646
  0
VERTEX
  8
PLAN_1
 62
     2
  6
CONTINUOUS
 10
-1.107374
 20
-0.168075
  0
VERTEX
  8
PLAN_1
 62
     2
  6
CONTINUOUS
 10
-1.103567
 20
-0.170453
  0
VERTEX
  8
PLAN_1
 62
     2
  6
CONTINUOUS
 10
-1.102142
 20
-0.171882
  0
VERTEX
  8
PLAN_1
 62
     2
  6
CONTINUOUS
 10
-1.100236
 20
-0.173783
  0
VERTEX
  8
PLAN_1
 62
     2
  6
CONTINUOUS
 10
-1.098811
 20
-0.175689
  0
VERTEX
  8
PLAN_1
 62
     2
  6
CONTINUOUS
 10
-1.097858
 20
-0.177591
  0
VERTEX
  8
PLAN_1
 62
     2
  6
CONTINUOUS
 10
-1.096906
 20
-0.179969
  0
VERTEX
  8
PLAN_1
 62
     2
  6
CONTINUOUS
 10
-1.095957
 20
-0.182827
  0
VERTEX
  8
PLAN_1
 62
     2
  6
CONTINUOUS
 10
-1.095480
 20
-0.185681
  0
VERTEX
  8
PLAN_1
 62
     2
  6
CONTINUOUS
 10
-1.095480
 20
-0.188535
  0
VERTEX
  8
PLAN_1
 62
     2
  6
CONTINUOUS
 10
-1.095480
 20
-0.191390
  0
VERTEX
  8
PLAN_1
 62
     2
  6
CONTINUOUS
 10
-1.095957
 20
-0.193768
  0
VERTEX
  8
PLAN_1
 62
     2
  6
CONTINUOUS
 10
-1.096429
 20
-0.196626
  0
VERTEX
  8
PLAN_1
 62
     2
  6
CONTINUOUS
 10
-1.096906
 20
-0.198528
  0
VERTEX
  8
PLAN_1
 62
     2
  6
CONTINUOUS
 10
-1.097858
 20
-0.200906
  0
VERTEX
  8
PLAN_1
 62
     2
  6
CONTINUOUS
 10
-1.099287
 20
-0.202811
  0
VERTEX
  8
PLAN_1
 62
     2
  6
CONTINUOUS
 10
-1.100713
 20
-0.205189
  0
VERTEX
  8
PLAN_1
 62
     2
  6
CONTINUOUS
 10
-1.102618
 20
-0.207091
  0
VERTEX
  8
PLAN_1
 62
     2
  6
CONTINUOUS
 10
-1.104043
 20
-0.208520
  0
VERTEX
  8
PLAN_1
 62
     2
  6
CONTINUOUS
 10
-1.105472
 20
-0.209949
  0
VERTEX
  8
PLAN_1
 62
     2
  6
CONTINUOUS
 10
-1.107374
 20
-0.211374
  0
VERTEX
  8
PLAN_1
 62
     2
  6
CONTINUOUS
 10
-1.109280
 20
-0.212327
  0
VERTEX
  8
PLAN_1
 62
     2
  6
CONTINUOUS
 10
-1.111657
 20
-0.212803
  0
VERTEX
  8
PLAN_1
 62
     2
  6
CONTINUOUS
 10
-1.114512
 20
-0.213756
  0
VERTEX
  8
PLAN_1
 62
     2
  6
CONTINUOUS
 10
-1.117366
 20
-0.213756
  0
VERTEX
  8
PLAN_1
 62
     2
  6
CONTINUOUS
 10
-1.121173
 20
-0.214228
  0
VERTEX
  8
PLAN_1
 62
     2
  6
CONTINUOUS
 10
-1.123079
 20
-0.214228
  0
VERTEX
  8
PLAN_1
 62
     2
  6
CONTINUOUS
 10
-1.125457
 20
-0.213756
  0
VERTEX
  8
PLAN_1
 62
     2
  6
CONTINUOUS
 10
-1.127835
 20
-0.212803
  0
VERTEX
  8
PLAN_1
 62
     2
  6
CONTINUOUS
 10
-1.130689
 20
-0.211850
  0
VERTEX
  8
PLAN_1
 62
     2
  6
CONTINUOUS
 10
-1.133071
 20
-0.210421
  0
VERTEX
  8
PLAN_1
 62
     2
  6
CONTINUOUS
 10
-1.135449
 20
-0.208520
  0
VERTEX
  8
PLAN_1
 62
     2
  6
CONTINUOUS
 10
-1.137827
 20
-0.206142
  0
VERTEX
  8
PLAN_1
 62
     2
  6
CONTINUOUS
 10
-1.139732
 20
-0.203287
  0
VERTEX
  8
PLAN_1
 62
     2
  6
CONTINUOUS
 10
-1.141157
 20
-0.200906
  0
VERTEX
  8
PLAN_1
 62
     2
  6
CONTINUOUS
 10
-1.142587
 20
-0.198051
  0
VERTEX
  8
PLAN_1
 62
     2
  6
CONTINUOUS
 10
-1.143539
 20
-0.195197
  0
VERTEX
  8
PLAN_1
 62
     2
  6
CONTINUOUS
 10
-1.144488
 20
-0.191866
  0
VERTEX
  8
PLAN_1
 62
     2
  6
CONTINUOUS
 10
-1.144965
 20
-0.188535
  0
VERTEX
  8
PLAN_1
 62
     2
  6
CONTINUOUS
 10
-1.144965
 20
-0.185205
  0
VERTEX
  8
PLAN_1
 62
     2
  6
CONTINUOUS
 10
-1.145441
 20
-0.181874
  0
VERTEX
  8
PLAN_1
 62
     2
  6
CONTINUOUS
 10
-1.145441
 20
-0.178067
  0
VERTEX
  8
PLAN_1
 62
     2
  6
CONTINUOUS
 10
-1.144965
 20
-0.171882
  0
VERTEX
  8
PLAN_1
 62
     2
  6
CONTINUOUS
 10
-1.144488
 20
-0.165220
  0
VERTEX
  8
PLAN_1
 62
     2
  6
CONTINUOUS
 10
-1.143539
 20
-0.161890
  0
VERTEX
  8
PLAN_1
 62
     2
  6
CONTINUOUS
 10
-1.142587
 20
-0.158559
  0
VERTEX
  8
PLAN_1
 62
     2
  6
CONTINUOUS
 10
-1.141634
 20
-0.155705
  0
VERTEX
  8
PLAN_1
 62
     2
  6
CONTINUOUS
 10
-1.140209
 20
-0.152374
  0
VERTEX
  8
PLAN_1
 62
     2
  6
CONTINUOUS
 10
-1.138303
 20
-0.149516
  0
VERTEX
  8
PLAN_1
 62
     2
  6
CONTINUOUS
 10
-1.136402
 20
-0.147138
  0
VERTEX
  8
PLAN_1
 62
     2
  6
CONTINUOUS
 10
-1.134496
 20
-0.144760
  0
VERTEX
  8
PLAN_1
 62
     2
  6
CONTINUOUS
 10
-1.131642
 20
-0.142854
  0
VERTEX
  8
PLAN_1
 62
     2
  6
CONTINUOUS
 10
-1.128787
 20
-0.141429
  0
VERTEX
  8
PLAN_1
 62
     2
  6
CONTINUOUS
 10
-1.125933
 20
-0.140000
  0
VERTEX
  8
PLAN_1
 62
     2
  6
CONTINUOUS
 10
-1.122126
 20
-0.139047
  0
VERTEX
  8
PLAN_1
 62
     2
  6
CONTINUOUS
 10
-1.118319
 20
-0.139047
  0
VERTEX
  8
PLAN_1
 62
     2
  6
CONTINUOUS
 10
-1.114988
 20
-0.139047
  0
VERTEX
  8
PLAN_1
 62
     2
  6
CONTINUOUS
 10
-1.111657
 20
-0.140000
  0
VERTEX
  8
PLAN_1
 62
     2
  6
CONTINUOUS
 10
-1.108327
 20
-0.141429
  0
VERTEX
  8
PLAN_1
 62
     2
  6
CONTINUOUS
 10
-1.104996
 20
-0.143331
  0
VERTEX
  8
PLAN_1
 62
     2
  6
CONTINUOUS
 10
-1.102142
 20
-0.145709
  0
VERTEX
  8
PLAN_1
 62
     2
  6
CONTINUOUS
 10
-1.099760
 20
-0.149039
  0
VERTEX
  8
PLAN_1
 62
     2
  6
CONTINUOUS
 10
-1.098811
 20
-0.150945
  0
VERTEX
  8
PLAN_1
 62
     2
  6
CONTINUOUS
 10
-1.097858
 20
-0.153323
  0
VERTEX
  8
PLAN_1
 62
     2
  6
CONTINUOUS
 10
-1.097382
 20
-0.155705
  0
VERTEX
  8
PLAN_1
 62
     2
  6
CONTINUOUS
 10
-1.096906
 20
-0.158559
  0
VERTEX
  8
PLAN_1
 62
     2
  6
CONTINUOUS
 10
-1.105949
 20
-0.158559
  0
SEQEND
  8
0
  0
POLYLINE
  8
PLAN_1
 62
     2
  6
CONTINUOUS
 66
     1
 40
0.003000
 41
0.003000
  0
VERTEX
  8
PLAN_1
 62
     2
  6
CONTINUOUS
 10
-1.119272
 20
-0.205665
  0
VERTEX
  8
PLAN_1
 62
     2
  6
CONTINUOUS
 10
-1.116417
 20
-0.205665
  0
VERTEX
  8
PLAN_1
 62
     2
  6
CONTINUOUS
 10
-1.113559
 20
-0.204713
  0
VERTEX
  8
PLAN_1
 62
     2
  6
CONTINUOUS
 10
-1.111181
 20
-0.203287
  0
VERTEX
  8
PLAN_1
 62
     2
  6
CONTINUOUS
 10
-1.108803
 20
-0.201382
  0
VERTEX
  8
PLAN_1
 62
     2
  6
CONTINUOUS
 10
-1.107374
 20
-0.199004
  0
VERTEX
  8
PLAN_1
 62
     2
  6
CONTINUOUS
 10
-1.105949
 20
-0.196150
  0
VERTEX
  8
PLAN_1
 62
     2
  6
CONTINUOUS
 10
-1.105472
 20
-0.192819
  0
VERTEX
  8
PLAN_1
 62
     2
  6
CONTINUOUS
 10
-1.104996
 20
-0.189012
  0
VERTEX
  8
PLAN_1
 62
     2
  6
CONTINUOUS
 10
-1.104996
 20
-0.186630
  0
VERTEX
  8
PLAN_1
 62
     2
  6
CONTINUOUS
 10
-1.105472
 20
-0.184252
  0
VERTEX
  8
PLAN_1
 62
     2
  6
CONTINUOUS
 10
-1.106898
 20
-0.181398
  0
VERTEX
  8
PLAN_1
 62
     2
  6
CONTINUOUS
 10
-1.108327
 20
-0.179020
  0
VERTEX
  8
PLAN_1
 62
     2
  6
CONTINUOUS
 10
-1.110228
 20
-0.177114
  0
VERTEX
  8
PLAN_1
 62
     2
  6
CONTINUOUS
 10
-1.112610
 20
-0.175213
  0
VERTEX
  8
PLAN_1
 62
     2
  6
CONTINUOUS
 10
-1.115941
 20
-0.174260
  0
VERTEX
  8
PLAN_1
 62
     2
  6
CONTINUOUS
 10
-1.119748
 20
-0.173783
  0
VERTEX
  8
PLAN_1
 62
     2
  6
CONTINUOUS
 10
-1.123079
 20
-0.174260
  0
VERTEX
  8
PLAN_1
 62
     2
  6
CONTINUOUS
 10
-1.126409
 20
-0.175213
  0
VERTEX
  8
PLAN_1
 62
     2
  6
CONTINUOUS
 10
-1.128787
 20
-0.176638
  0
VERTEX
  8
PLAN_1
 62
     2
  6
CONTINUOUS
 10
-1.131165
 20
-0.178543
  0
VERTEX
  8
PLAN_1
 62
     2
  6
CONTINUOUS
 10
-1.132594
 20
-0.180921
  0
VERTEX
  8
PLAN_1
 62
     2
  6
CONTINUOUS
 10
-1.134020
 20
-0.183776
  0
VERTEX
  8
PLAN_1
 62
     2
  6
CONTINUOUS
 10
-1.134496
 20
-0.186630
  0
VERTEX
  8
PLAN_1
 62
     2
  6
CONTINUOUS
 10
-1.134496
 20
-0.189488
  0
VERTEX
  8
PLAN_1
 62
     2
  6
CONTINUOUS
 10
-1.134496
 20
-0.192819
  0
VERTEX
  8
PLAN_1
 62
     2
  6
CONTINUOUS
 10
-1.134020
 20
-0.195673
  0
VERTEX
  8
PLAN_1
 62
     2
  6
CONTINUOUS
 10
-1.132594
 20
-0.198051
  0
VERTEX
  8
PLAN_1
 62
     2
  6
CONTINUOUS
 10
-1.131165
 20
-0.200906
  0
VERTEX
  8
PLAN_1
 62
     2
  6
CONTINUOUS
 10
-1.128787
 20
-0.202811
  0
VERTEX
  8
PLAN_1
 62
     2
  6
CONTINUOUS
 10
-1.126409
 20
-0.204236
  0
VERTEX
  8
PLAN_1
 62
     2
  6
CONTINUOUS
 10
-1.123079
 20
-0.205665
  0
VERTEX
  8
PLAN_1
 62
     2
  6
CONTINUOUS
 10
-1.119272
 20
-0.205665
  0
SEQEND
  8
0
  0
POLYLINE
  8
PLAN_1
 62
     2
  6
CONTINUOUS
 66
     1
 40
0.003000
 41
0.003000
  0
VERTEX
  8
PLAN_1
 62
     2
  6
CONTINUOUS
 10
-1.076445
 20
-0.169500
  0
VERTEX
  8
PLAN_1
 62
     2
  6
CONTINUOUS
 10
-1.075020
 20
-0.168551
  0
VERTEX
  8
PLAN_1
 62
     2
  6
CONTINUOUS
 10
-1.073591
 20
-0.168075
  0
VERTEX
  8
PLAN_1
 62
     2
  6
CONTINUOUS
 10
-1.072161
 20
-0.167122
  0
VERTEX
  8
PLAN_1
 62
     2
  6
CONTINUOUS
 10
-1.070260
 20
-0.166646
  0
VERTEX
  8
PLAN_1
 62
     2
  6
CONTINUOUS
 10
-1.068831
 20
-0.165697
  0
VERTEX
  8
PLAN_1
 62
     2
  6
CONTINUOUS
 10
-1.066453
 20
-0.165220
  0
VERTEX
  8
PLAN_1
 62
     2
  6
CONTINUOUS
 10
-1.064551
 20
-0.165220
  0
VERTEX
  8
PLAN_1
 62
     2
  6
CONTINUOUS
 10
-1.062169
 20
-0.165220
  0
VERTEX
  8
PLAN_1
 62
     2
  6
CONTINUOUS
 10
-1.057413
 20
-0.165220
  0
VERTEX
  8
PLAN_1
 62
     2
  6
CONTINUOUS
 10
-1.053130
 20
-0.166646
  0
VERTEX
  8
PLAN_1
 62
     2
  6
CONTINUOUS
 10
-1.049323
 20
-0.168551
  0
VERTEX
  8
PLAN_1
 62
     2
  6
CONTINUOUS
 10
-1.045516
 20
-0.170929
  0
VERTEX
  8
PLAN_1
 62
     2
  6
CONTINUOUS
 10
-1.044091
 20
-0.172835
  0
VERTEX
  8
PLAN_1
 62
     2
  6
CONTINUOUS
 10
-1.042661
 20
-0.174260
  0
VERTEX
  8
PLAN_1
 62
     2
  6
CONTINUOUS
 10
-1.041236
 20
-0.176165
  0
VERTEX
  8
PLAN_1
 62
     2
  6
CONTINUOUS
 10
-1.040283
 20
-0.178543
  0
VERTEX
  8
PLAN_1
 62
     2
  6
CONTINUOUS
 10
-1.039331
 20
-0.180445
  0
VERTEX
  8
PLAN_1
 62
     2
  6
CONTINUOUS
 10
-1.038378
 20
-0.183299
  0
VERTEX
  8
PLAN_1
 62
     2
  6
CONTINUOUS
 10
-1.038378
 20
-0.185681
  0
VERTEX
  8
PLAN_1
 62
     2
  6
CONTINUOUS
 10
-1.037906
 20
-0.188535
  0
VERTEX
  8
PLAN_1
 62
     2
  6
CONTINUOUS
 10
-1.038378
 20
-0.191866
  0
VERTEX
  8
PLAN_1
 62
     2
  6
CONTINUOUS
 10
-1.038854
 20
-0.195673
  0
VERTEX
  8
PLAN_1
 62
     2
  6
CONTINUOUS
 10
-1.040283
 20
-0.199957
  0
VERTEX
  8
PLAN_1
 62
     2
  6
CONTINUOUS
 10
-1.042661
 20
-0.204236
  0
VERTEX
  8
PLAN_1
 62
     2
  6
CONTINUOUS
 10
-1.044091
 20
-0.206142
  0
VERTEX
  8
PLAN_1
 62
     2
  6
CONTINUOUS
 10
-1.045992
 20
-0.208043
  0
VERTEX
  8
PLAN_1
 62
     2
  6
CONTINUOUS
 10
-1.048370
 20
-0.209949
  0
VERTEX
  8
PLAN_1
 62
     2
  6
CONTINUOUS
 10
-1.050752
 20
-0.211374
  0
VERTEX
  8
PLAN_1
 62
     2
  6
CONTINUOUS
 10
-1.053606
 20
-0.212327
  0
VERTEX
  8
PLAN_1
 62
     2
  6
CONTINUOUS
 10
-1.056937
 20
-0.213280
  0
VERTEX
  8
PLAN_1
 62
     2
  6
CONTINUOUS
 10
-1.060268
 20
-0.213756
  0
VERTEX
  8
PLAN_1
 62
     2
  6
CONTINUOUS
 10
-1.064551
 20
-0.214228
  0
VERTEX
  8
PLAN_1
 62
     2
  6
CONTINUOUS
 10
-1.068358
 20
-0.213756
  0
VERTEX
  8
PLAN_1
 62
     2
  6
CONTINUOUS
 10
-1.072161
 20
-0.213280
  0
VERTEX
  8
PLAN_1
 62
     2
  6
CONTINUOUS
 10
-1.075969
 20
-0.211850
  0
VERTEX
  8
PLAN_1
 62
     2
  6
CONTINUOUS
 10
-1.079299
 20
-0.209949
  0
VERTEX
  8
PLAN_1
 62
     2
  6
CONTINUOUS
 10
-1.080728
 20
-0.208996
  0
VERTEX
  8
PLAN_1
 62
     2
  6
CONTINUOUS
 10
-1.082630
 20
-0.207567
  0
VERTEX
  8
PLAN_1
 62
     2
  6
CONTINUOUS
 10
-1.084059
 20
-0.205665
  0
VERTEX
  8
PLAN_1
 62
     2
  6
CONTINUOUS
 10
-1.085012
 20
-0.203760
  0
VERTEX
  8
PLAN_1
 62
     2
  6
CONTINUOUS
 10
-1.085961
 20
-0.201858
  0
VERTEX
  8
PLAN_1
 62
     2
  6
CONTINUOUS
 10
-1.086913
 20
-0.199480
  0
VERTEX
  8
PLAN_1
 62
     2
  6
CONTINUOUS
 10
-1.087866
 20
-0.196626
  0
VERTEX
  8
PLAN_1
 62
     2
  6
CONTINUOUS
 10
-1.088343
 20
-0.193768
  0
VERTEX
  8
PLAN_1
 62
     2
  6
CONTINUOUS
 10
-1.078827
 20
-0.193768
  0
VERTEX
  8
PLAN_1
 62
     2
  6
CONTINUOUS
 10
-1.078350
 20
-0.197098
  0
VERTEX
  8
PLAN_1
 62
     2
  6
CONTINUOUS
 10
-1.076921
 20
-0.199480
  0
VERTEX
  8
PLAN_1
 62
     2
  6
CONTINUOUS
 10
-1.075496
 20
-0.201382
  0
VERTEX
  8
PLAN_1
 62
     2
  6
CONTINUOUS
 10
-1.073591
 20
-0.203287
  0
VERTEX
  8
PLAN_1
 62
     2
  6
CONTINUOUS
 10
-1.071689
 20
-0.204713
  0
VERTEX
  8
PLAN_1
 62
     2
  6
CONTINUOUS
 10
-1.068831
 20
-0.205665
  0
VERTEX
  8
PLAN_1
 62
     2
  6
CONTINUOUS
 10
-1.065976
 20
-0.206142
  0
VERTEX
  8
PLAN_1
 62
     2
  6
CONTINUOUS
 10
-1.063122
 20
-0.206142
  0
VERTEX
  8
PLAN_1
 62
     2
  6
CONTINUOUS
 10
-1.059791
 20
-0.205665
  0
VERTEX
  8
PLAN_1
 62
     2
  6
CONTINUOUS
 10
-1.056937
 20
-0.204713
  0
VERTEX
  8
PLAN_1
 62
     2
  6
CONTINUOUS
 10
-1.054083
 20
-0.203287
  0
VERTEX
  8
PLAN_1
 62
     2
  6
CONTINUOUS
 10
-1.052177
 20
-0.201382
  0
VERTEX
  8
PLAN_1
 62
     2
  6
CONTINUOUS
 10
-1.050276
 20
-0.199004
  0
VERTEX
  8
PLAN_1
 62
     2
  6
CONTINUOUS
 10
-1.048846
 20
-0.196150
  0
VERTEX
  8
PLAN_1
 62
     2
  6
CONTINUOUS
 10
-1.047898
 20
-0.192819
  0
VERTEX
  8
PLAN_1
 62
     2
  6
CONTINUOUS
 10
-1.047898
 20
-0.189488
  0
VERTEX
  8
PLAN_1
 62
     2
  6
CONTINUOUS
 10
-1.048370
 20
-0.185681
  0
VERTEX
  8
PLAN_1
 62
     2
  6
CONTINUOUS
 10
-1.048846
 20
-0.182350
  0
VERTEX
  8
PLAN_1
 62
     2
  6
CONTINUOUS
 10
-1.050752
 20
-0.179496
  0
VERTEX
  8
PLAN_1
 62
     2
  6
CONTINUOUS
 10
-1.052654
 20
-0.177591
  0
VERTEX
  8
PLAN_1
 62
     2
  6
CONTINUOUS
 10
-1.055035
 20
-0.175689
  0
VERTEX
  8
PLAN_1
 62
     2
  6
CONTINUOUS
 10
-1.057890
 20
-0.174260
  0
VERTEX
  8
PLAN_1
 62
     2
  6
CONTINUOUS
 10
-1.060744
 20
-0.173307
  0
VERTEX
  8
PLAN_1
 62
     2
  6
CONTINUOUS
 10
-1.064075
 20
-0.173307
  0
VERTEX
  8
PLAN_1
 62
     2
  6
CONTINUOUS
 10
-1.065976
 20
-0.173307
  0
VERTEX
  8
PLAN_1
 62
     2
  6
CONTINUOUS
 10
-1.067882
 20
-0.173783
  0
VERTEX
  8
PLAN_1
 62
     2
  6
CONTINUOUS
 10
-1.069783
 20
-0.174260
  0
VERTEX
  8
PLAN_1
 62
     2
  6
CONTINUOUS
 10
-1.071689
 20
-0.175213
  0
VERTEX
  8
PLAN_1
 62
     2
  6
CONTINUOUS
 10
-1.073114
 20
-0.176165
  0
VERTEX
  8
PLAN_1
 62
     2
  6
CONTINUOUS
 10
-1.074543
 20
-0.177114
  0
VERTEX
  8
PLAN_1
 62
     2
  6
CONTINUOUS
 10
-1.076445
 20
-0.178543
  0
VERTEX
  8
PLAN_1
 62
     2
  6
CONTINUOUS
 10
-1.077398
 20
-0.179969
  0
VERTEX
  8
PLAN_1
 62
     2
  6
CONTINUOUS
 10
-1.085488
 20
-0.179969
  0
VERTEX
  8
PLAN_1
 62
     2
  6
CONTINUOUS
 10
-1.079776
 20
-0.140476
  0
VERTEX
  8
PLAN_1
 62
     2
  6
CONTINUOUS
 10
-1.042185
 20
-0.140476
  0
VERTEX
  8
PLAN_1
 62
     2
  6
CONTINUOUS
 10
-1.042185
 20
-0.149516
  0
VERTEX
  8
PLAN_1
 62
     2
  6
CONTINUOUS
 10
-1.073114
 20
-0.149516
  0
VERTEX
  8
PLAN_1
 62
     2
  6
CONTINUOUS
 10
-1.076445
 20
-0.169500
  0
SEQEND
  8
0
  0
POLYLINE
  8
PLAN_1
 62
     2
  6
CONTINUOUS
 66
     1
 40
0.004280
 41
0.004280
  0
VERTEX
  8
PLAN_1
 62
     2
  6
CONTINUOUS
 10
-2.158957
 20
3.420626
  0
VERTEX
  8
PLAN_1
 62
     2
  6
CONTINUOUS
 10
-2.158957
 20
3.578126
  0
SEQEND
  8
0
  0
POLYLINE
  8
PLAN_1
 62
     2
  6
CONTINUOUS
 66
     1
 40
0.004280
 41
0.004280
  0
VERTEX
  8
PLAN_1
 62
     2
  6
CONTINUOUS
 10
-1.764969
 20
3.420626
  0
VERTEX
  8
PLAN_1
 62
     2
  6
CONTINUOUS
 10
-1.765445
 20
3.578126
  0
SEQEND
  8
0
  0
POLYLINE
  8
PLAN_1
 62
     2
  6
CONTINUOUS
 66
     1
 40
0.004280
 41
0.004280
  0
VERTEX
  8
PLAN_1
 62
     2
  6
CONTINUOUS
 10
-1.955303
 20
3.680429
  0
VERTEX
  8
PLAN_1
 62
     2
  6
CONTINUOUS
 10
-1.955303
 20
3.735626
  0
SEQEND
  8
0
  0
POLYLINE
  8
PLAN_1
 62
     2
  6
CONTINUOUS
 66
     1
 40
0.004280
 41
0.004280
  0
VERTEX
  8
PLAN_1
 62
     2
  6
CONTINUOUS
 10
0.041752
 20
0.726961
  0
VERTEX
  8
PLAN_1
 62
     2
  6
CONTINUOUS
 10
0.041752
 20
3.733248
  0
SEQEND
  8
0
  0
POLYLINE
  8
PLAN_1
 62
     2
  6
CONTINUOUS
 66
     1
 40
0.004280
 41
0.004280
  0
VERTEX
  8
PLAN_1
 62
     2
  6
CONTINUOUS
 10
-2.225098
 20
2.151591
  0
VERTEX
  8
PLAN_1
 62
     2
  6
CONTINUOUS
 10
-2.225098
 20
-0.259433
  0
SEQEND
  8
0
  0
POLYLINE
  8
PLAN_1
 62
     2
  6
CONTINUOUS
 66
     1
 40
0.004280
 41
0.004280
  0
VERTEX
  8
PLAN_1
 62
     2
  6
CONTINUOUS
 10
0.041752
 20
0.023685
  0
VERTEX
  8
PLAN_1
 62
     2
  6
CONTINUOUS
 10
0.041752
 20
-0.259433
  0
SEQEND
  8
0
  0
ENDSEC
  0
EOF
