  0
SECTION
  2
HEADER
  9
$ACADVER
  1
AC1006
  9
$EXTMIN
 10
-2.155398
 20
-3.358343
  9
$EXTMAX
 10
2.148000
 20
3.366000
  9
$LTSCALE
 40
0.000394
  9
$PDMODE
 70
    35
  9
$PDSIZE
 40
0.000315
  0
ENDSEC
  0
SECTION
  2
TABLES
  0
TABLE
  2
LTYPE
 70
     9
  0
LTYPE
  2
CONTINUOUS
 70
    64
  3
Solid line
 72
    65
 73
     0
 40
0.000000
  0
LTYPE
  2
DASHED
 70
    64
  3
__ __ __ __ __ __ __ __ __ __ __ __ __ __ __
 72
    65
 73
     2
 40
0.000003
 49
0.000002
 49
-0.000001
  0
LTYPE
  2
HIDDEN
 70
    64
  3
 _ _ _ _ _ _ _ _ _ _ _ _ _ _ _ _ _ _ _ _ _ _
 72
    65
 73
     2
 40
0.000001
 49
0.000001
 49
-0.000000
  0
LTYPE
  2
CENTER
 70
    64
  3
____ _ ____ _ ____ _ ____ _ ____ _ ____ _ ____
 72
    65
 73
     4
 40
0.000008
 49
0.000005
 49
-0.000001
 49
0.000001
 49
-0.000001
  0
LTYPE
  2
PHANTOM
 70
    64
  3
_____ _ _ _____ _ _ _____ _ _ _____ _ _ ____
 72
    65
 73
     6
 40
0.000010
 49
0.000005
 49
-0.000001
 49
0.000001
 49
-0.000001
 49
0.000001
 49
-0.000001
  0
LTYPE
  2
DOT
 70
    64
  3
...............................................
 72
    65
 73
     2
 40
0.000001
 49
0.000000
 49
-0.000001
  0
LTYPE
  2
DASHDOT
 70
    64
  3
__ . __ . __ . __ . __ . __ . __ . __ . __ . __
 72
    65
 73
     4
 40
0.000004
 49
0.000002
 49
-0.000001
 49
0.000000
 49
-0.000001
  0
LTYPE
  2
BORDER
 70
    64
  3
__ __ . __ __ . __ __ . __ __ . __ __ . __ __
 72
    65
 73
     6
 40
0.000007
 49
0.000002
 49
-0.000001
 49
0.000002
 49
-0.000001
 49
0.000000
 49
-0.000001
  0
LTYPE
  2
DIVIDE
 70
    64
  3
__ . . __ . . __ . . __ . . __ . . __ . . __
 72
    65
 73
     6
 40
0.000005
 49
0.000002
 49
-0.000001
 49
0.000000
 49
-0.000001
 49
0.000000
 49
-0.000001
  0
LTYPE
  2
DOTDOT
 70
    64
  3
 . .  . .  . .  . .  . .  . . 
 72
    65
 73
     5
 40
0.000002
 49
-0.000001
 49
0.000000
 49
-0.000001
 49
0.000000
 49
-0.000001
  0
ENDTAB
  0
TABLE
  2
STYLE
 70
     0
  0
ENDTAB
  0
TABLE
  2
LAYER
 70
     3
  0
LAYER
  2
FOREGROUND
 70
    64
 62
     7
  6
CONTINUOUS
  0
LAYER
  2
BACKGROUND
 70
    65
 62
    -7
  6
CONTINUOUS
  0
LAYER
  2
PLAN_1
 70
    64
 62
     7
  6
CONTINUOUS
  0
ENDTAB
  0
ENDSEC
  0
SECTION
  2
ENTITIES
  0
POLYLINE
  8
PLAN_1
  6
CONTINUOUS
 66
     1
 40
0.003000
 41
0.003000
  0
VERTEX
  8
PLAN_1
  6
CONTINUOUS
 10
0.344614
 20
-3.352878
  0
VERTEX
  8
PLAN_1
  6
CONTINUOUS
 10
0.187854
 20
-3.352878
  0
VERTEX
  8
PLAN_1
  6
CONTINUOUS
 10
0.187854
 20
-3.330606
  0
VERTEX
  8
PLAN_1
  6
CONTINUOUS
 10
0.309732
 20
-3.177626
  0
VERTEX
  8
PLAN_1
  6
CONTINUOUS
 10
0.196681
 20
-3.177626
  0
VERTEX
  8
PLAN_1
  6
CONTINUOUS
 10
0.196681
 20
-3.153669
  0
VERTEX
  8
PLAN_1
  6
CONTINUOUS
 10
0.344614
 20
-3.153669
  0
VERTEX
  8
PLAN_1
  6
CONTINUOUS
 10
0.344614
 20
-3.177205
  0
VERTEX
  8
PLAN_1
  6
CONTINUOUS
 10
0.221898
 20
-3.329346
  0
VERTEX
  8
PLAN_1
  6
CONTINUOUS
 10
0.344614
 20
-3.329346
  0
VERTEX
  8
PLAN_1
  6
CONTINUOUS
 10
0.344614
 20
-3.352878
  0
SEQEND
  8
0
  0
POLYLINE
  8
PLAN_1
  6
CONTINUOUS
 66
     1
 40
0.003000
 41
0.003000
  0
VERTEX
  8
PLAN_1
  6
CONTINUOUS
 10
0.511882
 20
-3.213772
  0
VERTEX
  8
PLAN_1
  6
CONTINUOUS
 10
0.510201
 20
-3.207465
  0
VERTEX
  8
PLAN_1
  6
CONTINUOUS
 10
0.508102
 20
-3.202004
  0
VERTEX
  8
PLAN_1
  6
CONTINUOUS
 10
0.505579
 20
-3.196961
  0
VERTEX
  8
PLAN_1
  6
CONTINUOUS
 10
0.502638
 20
-3.192335
  0
VERTEX
  8
PLAN_1
  6
CONTINUOUS
 10
0.499697
 20
-3.188555
  0
VERTEX
  8
PLAN_1
  6
CONTINUOUS
 10
0.495913
 20
-3.185193
  0
VERTEX
  8
PLAN_1
  6
CONTINUOUS
 10
0.492130
 20
-3.182248
  0
VERTEX
  8
PLAN_1
  6
CONTINUOUS
 10
0.488346
 20
-3.179728
  0
VERTEX
  8
PLAN_1
  6
CONTINUOUS
 10
0.484146
 20
-3.178047
  0
VERTEX
  8
PLAN_1
  6
CONTINUOUS
 10
0.480362
 20
-3.176366
  0
VERTEX
  8
PLAN_1
  6
CONTINUOUS
 10
0.476161
 20
-3.175106
  0
VERTEX
  8
PLAN_1
  6
CONTINUOUS
 10
0.471957
 20
-3.173843
  0
VERTEX
  8
PLAN_1
  6
CONTINUOUS
 10
0.463551
 20
-3.172583
  0
VERTEX
  8
PLAN_1
  6
CONTINUOUS
 10
0.455988
 20
-3.172161
  0
VERTEX
  8
PLAN_1
  6
CONTINUOUS
 10
0.449264
 20
-3.172583
  0
VERTEX
  8
PLAN_1
  6
CONTINUOUS
 10
0.442961
 20
-3.173425
  0
VERTEX
  8
PLAN_1
  6
CONTINUOUS
 10
0.436654
 20
-3.175106
  0
VERTEX
  8
PLAN_1
  6
CONTINUOUS
 10
0.430772
 20
-3.177205
  0
VERTEX
  8
PLAN_1
  6
CONTINUOUS
 10
0.424886
 20
-3.180150
  0
VERTEX
  8
PLAN_1
  6
CONTINUOUS
 10
0.419425
 20
-3.183512
  0
VERTEX
  8
PLAN_1
  6
CONTINUOUS
 10
0.414799
 20
-3.187713
  0
VERTEX
  8
PLAN_1
  6
CONTINUOUS
 10
0.410177
 20
-3.192335
  0
VERTEX
  8
PLAN_1
  6
CONTINUOUS
 10
0.405555
 20
-3.197378
  0
VERTEX
  8
PLAN_1
  6
CONTINUOUS
 10
0.402193
 20
-3.203264
  0
VERTEX
  8
PLAN_1
  6
CONTINUOUS
 10
0.398831
 20
-3.209988
  0
VERTEX
  8
PLAN_1
  6
CONTINUOUS
 10
0.395890
 20
-3.217134
  0
VERTEX
  8
PLAN_1
  6
CONTINUOUS
 10
0.393787
 20
-3.224697
  0
VERTEX
  8
PLAN_1
  6
CONTINUOUS
 10
0.392106
 20
-3.233102
  0
VERTEX
  8
PLAN_1
  6
CONTINUOUS
 10
0.391264
 20
-3.241929
  0
VERTEX
  8
PLAN_1
  6
CONTINUOUS
 10
0.390846
 20
-3.251594
  0
VERTEX
  8
PLAN_1
  6
CONTINUOUS
 10
0.391264
 20
-3.260000
  0
VERTEX
  8
PLAN_1
  6
CONTINUOUS
 10
0.391685
 20
-3.268406
  0
VERTEX
  8
PLAN_1
  6
CONTINUOUS
 10
0.392945
 20
-3.276390
  0
VERTEX
  8
PLAN_1
  6
CONTINUOUS
 10
0.394209
 20
-3.284374
  0
VERTEX
  8
PLAN_1
  6
CONTINUOUS
 10
0.396307
 20
-3.291520
  0
VERTEX
  8
PLAN_1
  6
CONTINUOUS
 10
0.398831
 20
-3.298244
  0
VERTEX
  8
PLAN_1
  6
CONTINUOUS
 10
0.401772
 20
-3.304547
  0
VERTEX
  8
PLAN_1
  6
CONTINUOUS
 10
0.405555
 20
-3.310433
  0
VERTEX
  8
PLAN_1
  6
CONTINUOUS
 10
0.407236
 20
-3.313374
  0
VERTEX
  8
PLAN_1
  6
CONTINUOUS
 10
0.409756
 20
-3.315898
  0
VERTEX
  8
PLAN_1
  6
CONTINUOUS
 10
0.411858
 20
-3.318417
  0
VERTEX
  8
PLAN_1
  6
CONTINUOUS
 10
0.414382
 20
-3.320520
  0
VERTEX
  8
PLAN_1
  6
CONTINUOUS
 10
0.416902
 20
-3.322622
  0
VERTEX
  8
PLAN_1
  6
CONTINUOUS
 10
0.419843
 20
-3.324720
  0
VERTEX
  8
PLAN_1
  6
CONTINUOUS
 10
0.422787
 20
-3.326402
  0
VERTEX
  8
PLAN_1
  6
CONTINUOUS
 10
0.425728
 20
-3.328083
  0
VERTEX
  8
PLAN_1
  6
CONTINUOUS
 10
0.429091
 20
-3.329764
  0
VERTEX
  8
PLAN_1
  6
CONTINUOUS
 10
0.432453
 20
-3.331028
  0
VERTEX
  8
PLAN_1
  6
CONTINUOUS
 10
0.436236
 20
-3.331866
  0
VERTEX
  8
PLAN_1
  6
CONTINUOUS
 10
0.440016
 20
-3.332709
  0
VERTEX
  8
PLAN_1
  6
CONTINUOUS
 10
0.443799
 20
-3.333547
  0
VERTEX
  8
PLAN_1
  6
CONTINUOUS
 10
0.448000
 20
-3.333969
  0
VERTEX
  8
PLAN_1
  6
CONTINUOUS
 10
0.452205
 20
-3.334390
  0
VERTEX
  8
PLAN_1
  6
CONTINUOUS
 10
0.456827
 20
-3.334390
  0
VERTEX
  8
PLAN_1
  6
CONTINUOUS
 10
0.460189
 20
-3.334390
  0
VERTEX
  8
PLAN_1
  6
CONTINUOUS
 10
0.463972
 20
-3.333969
  0
VERTEX
  8
PLAN_1
  6
CONTINUOUS
 10
0.467756
 20
-3.333547
  0
VERTEX
  8
PLAN_1
  6
CONTINUOUS
 10
0.471957
 20
-3.332287
  0
VERTEX
  8
PLAN_1
  6
CONTINUOUS
 10
0.476161
 20
-3.331028
  0
VERTEX
  8
PLAN_1
  6
CONTINUOUS
 10
0.480362
 20
-3.329346
  0
VERTEX
  8
PLAN_1
  6
CONTINUOUS
 10
0.484567
 20
-3.327244
  0
VERTEX
  8
PLAN_1
  6
CONTINUOUS
 10
0.488346
 20
-3.324303
  0
VERTEX
  8
PLAN_1
  6
CONTINUOUS
 10
0.492551
 20
-3.321358
  0
VERTEX
  8
PLAN_1
  6
CONTINUOUS
 10
0.496335
 20
-3.317579
  0
VERTEX
  8
PLAN_1
  6
CONTINUOUS
 10
0.500114
 20
-3.312953
  0
VERTEX
  8
PLAN_1
  6
CONTINUOUS
 10
0.503476
 20
-3.307909
  0
VERTEX
  8
PLAN_1
  6
CONTINUOUS
 10
0.506839
 20
-3.302028
  0
VERTEX
  8
PLAN_1
  6
CONTINUOUS
 10
0.509362
 20
-3.295303
  0
VERTEX
  8
PLAN_1
  6
CONTINUOUS
 10
0.511882
 20
-3.288157
  0
VERTEX
  8
PLAN_1
  6
CONTINUOUS
 10
0.513984
 20
-3.279752
  0
VERTEX
  8
PLAN_1
  6
CONTINUOUS
 10
0.540043
 20
-3.279752
  0
VERTEX
  8
PLAN_1
  6
CONTINUOUS
 10
0.538780
 20
-3.286476
  0
VERTEX
  8
PLAN_1
  6
CONTINUOUS
 10
0.537098
 20
-3.293201
  0
VERTEX
  8
PLAN_1
  6
CONTINUOUS
 10
0.535417
 20
-3.299087
  0
VERTEX
  8
PLAN_1
  6
CONTINUOUS
 10
0.533736
 20
-3.304969
  0
VERTEX
  8
PLAN_1
  6
CONTINUOUS
 10
0.531638
 20
-3.310012
  0
VERTEX
  8
PLAN_1
  6
CONTINUOUS
 10
0.529114
 20
-3.315055
  0
VERTEX
  8
PLAN_1
  6
CONTINUOUS
 10
0.526594
 20
-3.319677
  0
VERTEX
  8
PLAN_1
  6
CONTINUOUS
 10
0.523650
 20
-3.323882
  0
VERTEX
  8
PLAN_1
  6
CONTINUOUS
 10
0.520709
 20
-3.327665
  0
VERTEX
  8
PLAN_1
  6
CONTINUOUS
 10
0.517768
 20
-3.331445
  0
VERTEX
  8
PLAN_1
  6
CONTINUOUS
 10
0.514827
 20
-3.334807
  0
VERTEX
  8
PLAN_1
  6
CONTINUOUS
 10
0.511465
 20
-3.337752
  0
VERTEX
  8
PLAN_1
  6
CONTINUOUS
 10
0.508102
 20
-3.340272
  0
VERTEX
  8
PLAN_1
  6
CONTINUOUS
 10
0.504740
 20
-3.342791
  0
VERTEX
  8
PLAN_1
  6
CONTINUOUS
 10
0.501378
 20
-3.345315
  0
VERTEX
  8
PLAN_1
  6
CONTINUOUS
 10
0.498016
 20
-3.347417
  0
VERTEX
  8
PLAN_1
  6
CONTINUOUS
 10
0.490870
 20
-3.350780
  0
VERTEX
  8
PLAN_1
  6
CONTINUOUS
 10
0.484146
 20
-3.353299
  0
VERTEX
  8
PLAN_1
  6
CONTINUOUS
 10
0.477421
 20
-3.355402
  0
VERTEX
  8
PLAN_1
  6
CONTINUOUS
 10
0.471118
 20
-3.356661
  0
VERTEX
  8
PLAN_1
  6
CONTINUOUS
 10
0.460189
 20
-3.357921
  0
VERTEX
  8
PLAN_1
  6
CONTINUOUS
 10
0.452626
 20
-3.358343
  0
VERTEX
  8
PLAN_1
  6
CONTINUOUS
 10
0.444220
 20
-3.357921
  0
VERTEX
  8
PLAN_1
  6
CONTINUOUS
 10
0.435815
 20
-3.357083
  0
VERTEX
  8
PLAN_1
  6
CONTINUOUS
 10
0.427831
 20
-3.354980
  0
VERTEX
  8
PLAN_1
  6
CONTINUOUS
 10
0.419843
 20
-3.352461
  0
VERTEX
  8
PLAN_1
  6
CONTINUOUS
 10
0.415642
 20
-3.350780
  0
VERTEX
  8
PLAN_1
  6
CONTINUOUS
 10
0.411858
 20
-3.349098
  0
VERTEX
  8
PLAN_1
  6
CONTINUOUS
 10
0.408075
 20
-3.346996
  0
VERTEX
  8
PLAN_1
  6
CONTINUOUS
 10
0.404713
 20
-3.344894
  0
VERTEX
  8
PLAN_1
  6
CONTINUOUS
 10
0.400933
 20
-3.342791
  0
VERTEX
  8
PLAN_1
  6
CONTINUOUS
 10
0.397571
 20
-3.339850
  0
VERTEX
  8
PLAN_1
  6
CONTINUOUS
 10
0.394209
 20
-3.337331
  0
VERTEX
  8
PLAN_1
  6
CONTINUOUS
 10
0.390846
 20
-3.333969
  0
VERTEX
  8
PLAN_1
  6
CONTINUOUS
 10
0.387902
 20
-3.330606
  0
VERTEX
  8
PLAN_1
  6
CONTINUOUS
 10
0.384961
 20
-3.327244
  0
VERTEX
  8
PLAN_1
  6
CONTINUOUS
 10
0.382020
 20
-3.323461
  0
VERTEX
  8
PLAN_1
  6
CONTINUOUS
 10
0.379496
 20
-3.319677
  0
VERTEX
  8
PLAN_1
  6
CONTINUOUS
 10
0.376976
 20
-3.315476
  0
VERTEX
  8
PLAN_1
  6
CONTINUOUS
 10
0.374874
 20
-3.310854
  0
VERTEX
  8
PLAN_1
  6
CONTINUOUS
 10
0.372772
 20
-3.306228
  0
VERTEX
  8
PLAN_1
  6
CONTINUOUS
 10
0.370673
 20
-3.301185
  0
VERTEX
  8
PLAN_1
  6
CONTINUOUS
 10
0.368992
 20
-3.296142
  0
VERTEX
  8
PLAN_1
  6
CONTINUOUS
 10
0.367728
 20
-3.290681
  0
VERTEX
  8
PLAN_1
  6
CONTINUOUS
 10
0.366047
 20
-3.284795
  0
VERTEX
  8
PLAN_1
  6
CONTINUOUS
 10
0.365209
 20
-3.278913
  0
VERTEX
  8
PLAN_1
  6
CONTINUOUS
 10
0.364366
 20
-3.272606
  0
VERTEX
  8
PLAN_1
  6
CONTINUOUS
 10
0.363528
 20
-3.266303
  0
VERTEX
  8
PLAN_1
  6
CONTINUOUS
 10
0.363106
 20
-3.259157
  0
VERTEX
  8
PLAN_1
  6
CONTINUOUS
 10
0.363106
 20
-3.252433
  0
VERTEX
  8
PLAN_1
  6
CONTINUOUS
 10
0.363528
 20
-3.241087
  0
VERTEX
  8
PLAN_1
  6
CONTINUOUS
 10
0.364787
 20
-3.230161
  0
VERTEX
  8
PLAN_1
  6
CONTINUOUS
 10
0.365630
 20
-3.225118
  0
VERTEX
  8
PLAN_1
  6
CONTINUOUS
 10
0.366890
 20
-3.220075
  0
VERTEX
  8
PLAN_1
  6
CONTINUOUS
 10
0.368150
 20
-3.215031
  0
VERTEX
  8
PLAN_1
  6
CONTINUOUS
 10
0.369409
 20
-3.210409
  0
VERTEX
  8
PLAN_1
  6
CONTINUOUS
 10
0.371091
 20
-3.205366
  0
VERTEX
  8
PLAN_1
  6
CONTINUOUS
 10
0.373193
 20
-3.201161
  0
VERTEX
  8
PLAN_1
  6
CONTINUOUS
 10
0.374874
 20
-3.196539
  0
VERTEX
  8
PLAN_1
  6
CONTINUOUS
 10
0.377398
 20
-3.192335
  0
VERTEX
  8
PLAN_1
  6
CONTINUOUS
 10
0.379496
 20
-3.188555
  0
VERTEX
  8
PLAN_1
  6
CONTINUOUS
 10
0.382020
 20
-3.184772
  0
VERTEX
  8
PLAN_1
  6
CONTINUOUS
 10
0.384961
 20
-3.180988
  0
VERTEX
  8
PLAN_1
  6
CONTINUOUS
 10
0.387902
 20
-3.177205
  0
VERTEX
  8
PLAN_1
  6
CONTINUOUS
 10
0.390846
 20
-3.174264
  0
VERTEX
  8
PLAN_1
  6
CONTINUOUS
 10
0.394209
 20
-3.170902
  0
VERTEX
  8
PLAN_1
  6
CONTINUOUS
 10
0.397571
 20
-3.167961
  0
VERTEX
  8
PLAN_1
  6
CONTINUOUS
 10
0.401350
 20
-3.165020
  0
VERTEX
  8
PLAN_1
  6
CONTINUOUS
 10
0.405134
 20
-3.162496
  0
VERTEX
  8
PLAN_1
  6
CONTINUOUS
 10
0.408917
 20
-3.160394
  0
VERTEX
  8
PLAN_1
  6
CONTINUOUS
 10
0.412701
 20
-3.157874
  0
VERTEX
  8
PLAN_1
  6
CONTINUOUS
 10
0.416902
 20
-3.156193
  0
VERTEX
  8
PLAN_1
  6
CONTINUOUS
 10
0.421524
 20
-3.154512
  0
VERTEX
  8
PLAN_1
  6
CONTINUOUS
 10
0.426150
 20
-3.152831
  0
VERTEX
  8
PLAN_1
  6
CONTINUOUS
 10
0.430772
 20
-3.151571
  0
VERTEX
  8
PLAN_1
  6
CONTINUOUS
 10
0.435394
 20
-3.150307
  0
VERTEX
  8
PLAN_1
  6
CONTINUOUS
 10
0.440437
 20
-3.149469
  0
VERTEX
  8
PLAN_1
  6
CONTINUOUS
 10
0.445480
 20
-3.149047
  0
VERTEX
  8
PLAN_1
  6
CONTINUOUS
 10
0.450945
 20
-3.148626
  0
VERTEX
  8
PLAN_1
  6
CONTINUOUS
 10
0.455988
 20
-3.148626
  0
VERTEX
  8
PLAN_1
  6
CONTINUOUS
 10
0.465654
 20
-3.149047
  0
VERTEX
  8
PLAN_1
  6
CONTINUOUS
 10
0.474059
 20
-3.149890
  0
VERTEX
  8
PLAN_1
  6
CONTINUOUS
 10
0.482465
 20
-3.151571
  0
VERTEX
  8
PLAN_1
  6
CONTINUOUS
 10
0.490028
 20
-3.154091
  0
VERTEX
  8
PLAN_1
  6
CONTINUOUS
 10
0.497173
 20
-3.157031
  0
VERTEX
  8
PLAN_1
  6
CONTINUOUS
 10
0.503476
 20
-3.160394
  0
VERTEX
  8
PLAN_1
  6
CONTINUOUS
 10
0.509362
 20
-3.164177
  0
VERTEX
  8
PLAN_1
  6
CONTINUOUS
 10
0.514827
 20
-3.168799
  0
VERTEX
  8
PLAN_1
  6
CONTINUOUS
 10
0.519449
 20
-3.173425
  0
VERTEX
  8
PLAN_1
  6
CONTINUOUS
 10
0.524071
 20
-3.178469
  0
VERTEX
  8
PLAN_1
  6
CONTINUOUS
 10
0.527433
 20
-3.183929
  0
VERTEX
  8
PLAN_1
  6
CONTINUOUS
 10
0.530795
 20
-3.189394
  0
VERTEX
  8
PLAN_1
  6
CONTINUOUS
 10
0.533319
 20
-3.195280
  0
VERTEX
  8
PLAN_1
  6
CONTINUOUS
 10
0.535417
 20
-3.201161
  0
VERTEX
  8
PLAN_1
  6
CONTINUOUS
 10
0.537098
 20
-3.207465
  0
VERTEX
  8
PLAN_1
  6
CONTINUOUS
 10
0.537941
 20
-3.213772
  0
VERTEX
  8
PLAN_1
  6
CONTINUOUS
 10
0.511882
 20
-3.213772
  0
SEQEND
  8
0
  0
POLYLINE
  8
PLAN_1
  6
CONTINUOUS
 66
     1
 40
0.003000
 41
0.003000
  0
VERTEX
  8
PLAN_1
  6
CONTINUOUS
 10
0.599299
 20
-3.352878
  0
VERTEX
  8
PLAN_1
  6
CONTINUOUS
 10
0.572402
 20
-3.352878
  0
VERTEX
  8
PLAN_1
  6
CONTINUOUS
 10
0.572402
 20
-3.153669
  0
VERTEX
  8
PLAN_1
  6
CONTINUOUS
 10
0.599299
 20
-3.153669
  0
VERTEX
  8
PLAN_1
  6
CONTINUOUS
 10
0.599299
 20
-3.250335
  0
VERTEX
  8
PLAN_1
  6
CONTINUOUS
 10
0.695961
 20
-3.153669
  0
VERTEX
  8
PLAN_1
  6
CONTINUOUS
 10
0.733366
 20
-3.153669
  0
VERTEX
  8
PLAN_1
  6
CONTINUOUS
 10
0.650154
 20
-3.234362
  0
VERTEX
  8
PLAN_1
  6
CONTINUOUS
 10
0.735469
 20
-3.352878
  0
VERTEX
  8
PLAN_1
  6
CONTINUOUS
 10
0.700587
 20
-3.352878
  0
VERTEX
  8
PLAN_1
  6
CONTINUOUS
 10
0.630819
 20
-3.253276
  0
VERTEX
  8
PLAN_1
  6
CONTINUOUS
 10
0.599299
 20
-3.283114
  0
VERTEX
  8
PLAN_1
  6
CONTINUOUS
 10
0.599299
 20
-3.352878
  0
SEQEND
  8
0
  0
POLYLINE
  8
PLAN_1
  6
CONTINUOUS
 66
     1
 40
0.003000
 41
0.003000
  0
VERTEX
  8
PLAN_1
  6
CONTINUOUS
 10
0.759004
 20
-3.153669
  0
VERTEX
  8
PLAN_1
  6
CONTINUOUS
 10
0.839697
 20
-3.153669
  0
VERTEX
  8
PLAN_1
  6
CONTINUOUS
 10
0.844740
 20
-3.154091
  0
VERTEX
  8
PLAN_1
  6
CONTINUOUS
 10
0.849362
 20
-3.154091
  0
VERTEX
  8
PLAN_1
  6
CONTINUOUS
 10
0.853984
 20
-3.154933
  0
VERTEX
  8
PLAN_1
  6
CONTINUOUS
 10
0.858185
 20
-3.155772
  0
VERTEX
  8
PLAN_1
  6
CONTINUOUS
 10
0.862811
 20
-3.156614
  0
VERTEX
  8
PLAN_1
  6
CONTINUOUS
 10
0.867012
 20
-3.157874
  0
VERTEX
  8
PLAN_1
  6
CONTINUOUS
 10
0.870795
 20
-3.159134
  0
VERTEX
  8
PLAN_1
  6
CONTINUOUS
 10
0.874996
 20
-3.160815
  0
VERTEX
  8
PLAN_1
  6
CONTINUOUS
 10
0.878780
 20
-3.162496
  0
VERTEX
  8
PLAN_1
  6
CONTINUOUS
 10
0.882142
 20
-3.164598
  0
VERTEX
  8
PLAN_1
  6
CONTINUOUS
 10
0.885925
 20
-3.166701
  0
VERTEX
  8
PLAN_1
  6
CONTINUOUS
 10
0.889287
 20
-3.169220
  0
VERTEX
  8
PLAN_1
  6
CONTINUOUS
 10
0.892650
 20
-3.171744
  0
VERTEX
  8
PLAN_1
  6
CONTINUOUS
 10
0.895591
 20
-3.174685
  0
VERTEX
  8
PLAN_1
  6
CONTINUOUS
 10
0.898531
 20
-3.177626
  0
VERTEX
  8
PLAN_1
  6
CONTINUOUS
 10
0.901476
 20
-3.180567
  0
VERTEX
  8
PLAN_1
  6
CONTINUOUS
 10
0.903996
 20
-3.183929
  0
VERTEX
  8
PLAN_1
  6
CONTINUOUS
 10
0.906520
 20
-3.187291
  0
VERTEX
  8
PLAN_1
  6
CONTINUOUS
 10
0.908618
 20
-3.191075
  0
VERTEX
  8
PLAN_1
  6
CONTINUOUS
 10
0.910720
 20
-3.194858
  0
VERTEX
  8
PLAN_1
  6
CONTINUOUS
 10
0.914925
 20
-3.202843
  0
VERTEX
  8
PLAN_1
  6
CONTINUOUS
 10
0.917866
 20
-3.211248
  0
VERTEX
  8
PLAN_1
  6
CONTINUOUS
 10
0.920386
 20
-3.220496
  0
VERTEX
  8
PLAN_1
  6
CONTINUOUS
 10
0.922067
 20
-3.230161
  0
VERTEX
  8
PLAN_1
  6
CONTINUOUS
 10
0.923331
 20
-3.240248
  0
VERTEX
  8
PLAN_1
  6
CONTINUOUS
 10
0.923748
 20
-3.250752
  0
VERTEX
  8
PLAN_1
  6
CONTINUOUS
 10
0.923331
 20
-3.259157
  0
VERTEX
  8
PLAN_1
  6
CONTINUOUS
 10
0.922909
 20
-3.267984
  0
VERTEX
  8
PLAN_1
  6
CONTINUOUS
 10
0.921650
 20
-3.276811
  0
VERTEX
  8
PLAN_1
  6
CONTINUOUS
 10
0.919547
 20
-3.285638
  0
VERTEX
  8
PLAN_1
  6
CONTINUOUS
 10
0.917024
 20
-3.294043
  0
VERTEX
  8
PLAN_1
  6
CONTINUOUS
 10
0.914083
 20
-3.302866
  0
VERTEX
  8
PLAN_1
  6
CONTINUOUS
 10
0.910299
 20
-3.310854
  0
VERTEX
  8
PLAN_1
  6
CONTINUOUS
 10
0.905677
 20
-3.318417
  0
VERTEX
  8
PLAN_1
  6
CONTINUOUS
 10
0.903157
 20
-3.322201
  0
VERTEX
  8
PLAN_1
  6
CONTINUOUS
 10
0.900634
 20
-3.325984
  0
VERTEX
  8
PLAN_1
  6
CONTINUOUS
 10
0.897693
 20
-3.329346
  0
VERTEX
  8
PLAN_1
  6
CONTINUOUS
 10
0.894331
 20
-3.332287
  0
VERTEX
  8
PLAN_1
  6
CONTINUOUS
 10
0.890969
 20
-3.335650
  0
VERTEX
  8
PLAN_1
  6
CONTINUOUS
 10
0.887606
 20
-3.338169
  0
VERTEX
  8
PLAN_1
  6
CONTINUOUS
 10
0.883823
 20
-3.341110
  0
VERTEX
  8
PLAN_1
  6
CONTINUOUS
 10
0.879622
 20
-3.343213
  0
VERTEX
  8
PLAN_1
  6
CONTINUOUS
 10
0.875417
 20
-3.345736
  0
VERTEX
  8
PLAN_1
  6
CONTINUOUS
 10
0.870795
 20
-3.347417
  0
VERTEX
  8
PLAN_1
  6
CONTINUOUS
 10
0.866173
 20
-3.349098
  0
VERTEX
  8
PLAN_1
  6
CONTINUOUS
 10
0.861130
 20
-3.350358
  0
VERTEX
  8
PLAN_1
  6
CONTINUOUS
 10
0.856087
 20
-3.351618
  0
VERTEX
  8
PLAN_1
  6
CONTINUOUS
 10
0.850622
 20
-3.352461
  0
VERTEX
  8
PLAN_1
  6
CONTINUOUS
 10
0.844740
 20
-3.352878
  0
VERTEX
  8
PLAN_1
  6
CONTINUOUS
 10
0.838854
 20
-3.352878
  0
VERTEX
  8
PLAN_1
  6
CONTINUOUS
 10
0.759004
 20
-3.352878
  0
VERTEX
  8
PLAN_1
  6
CONTINUOUS
 10
0.759004
 20
-3.153669
  0
SEQEND
  8
0
  0
POLYLINE
  8
PLAN_1
  6
CONTINUOUS
 66
     1
 40
0.003000
 41
0.003000
  0
VERTEX
  8
PLAN_1
  6
CONTINUOUS
 10
0.785902
 20
-3.330185
  0
VERTEX
  8
PLAN_1
  6
CONTINUOUS
 10
0.838433
 20
-3.330185
  0
VERTEX
  8
PLAN_1
  6
CONTINUOUS
 10
0.844740
 20
-3.329764
  0
VERTEX
  8
PLAN_1
  6
CONTINUOUS
 10
0.850622
 20
-3.328925
  0
VERTEX
  8
PLAN_1
  6
CONTINUOUS
 10
0.856504
 20
-3.327244
  0
VERTEX
  8
PLAN_1
  6
CONTINUOUS
 10
0.861969
 20
-3.325142
  0
VERTEX
  8
PLAN_1
  6
CONTINUOUS
 10
0.867012
 20
-3.322201
  0
VERTEX
  8
PLAN_1
  6
CONTINUOUS
 10
0.872055
 20
-3.318839
  0
VERTEX
  8
PLAN_1
  6
CONTINUOUS
 10
0.876260
 20
-3.314634
  0
VERTEX
  8
PLAN_1
  6
CONTINUOUS
 10
0.880039
 20
-3.310012
  0
VERTEX
  8
PLAN_1
  6
CONTINUOUS
 10
0.883823
 20
-3.304969
  0
VERTEX
  8
PLAN_1
  6
CONTINUOUS
 10
0.886764
 20
-3.299087
  0
VERTEX
  8
PLAN_1
  6
CONTINUOUS
 10
0.889709
 20
-3.292780
  0
VERTEX
  8
PLAN_1
  6
CONTINUOUS
 10
0.891807
 20
-3.285638
  0
VERTEX
  8
PLAN_1
  6
CONTINUOUS
 10
0.893488
 20
-3.278071
  0
VERTEX
  8
PLAN_1
  6
CONTINUOUS
 10
0.894752
 20
-3.270087
  0
VERTEX
  8
PLAN_1
  6
CONTINUOUS
 10
0.895591
 20
-3.261681
  0
VERTEX
  8
PLAN_1
  6
CONTINUOUS
 10
0.896012
 20
-3.252433
  0
VERTEX
  8
PLAN_1
  6
CONTINUOUS
 10
0.895591
 20
-3.243189
  0
VERTEX
  8
PLAN_1
  6
CONTINUOUS
 10
0.894752
 20
-3.234783
  0
VERTEX
  8
PLAN_1
  6
CONTINUOUS
 10
0.893488
 20
-3.226799
  0
VERTEX
  8
PLAN_1
  6
CONTINUOUS
 10
0.891807
 20
-3.219232
  0
VERTEX
  8
PLAN_1
  6
CONTINUOUS
 10
0.889287
 20
-3.212508
  0
VERTEX
  8
PLAN_1
  6
CONTINUOUS
 10
0.886764
 20
-3.206205
  0
VERTEX
  8
PLAN_1
  6
CONTINUOUS
 10
0.883402
 20
-3.200740
  0
VERTEX
  8
PLAN_1
  6
CONTINUOUS
 10
0.880039
 20
-3.195697
  0
VERTEX
  8
PLAN_1
  6
CONTINUOUS
 10
0.875839
 20
-3.191496
  0
VERTEX
  8
PLAN_1
  6
CONTINUOUS
 10
0.871217
 20
-3.187291
  0
VERTEX
  8
PLAN_1
  6
CONTINUOUS
 10
0.866173
 20
-3.184350
  0
VERTEX
  8
PLAN_1
  6
CONTINUOUS
 10
0.861130
 20
-3.181409
  0
VERTEX
  8
PLAN_1
  6
CONTINUOUS
 10
0.855244
 20
-3.179307
  0
VERTEX
  8
PLAN_1
  6
CONTINUOUS
 10
0.849362
 20
-3.178047
  0
VERTEX
  8
PLAN_1
  6
CONTINUOUS
 10
0.843059
 20
-3.177205
  0
VERTEX
  8
PLAN_1
  6
CONTINUOUS
 10
0.836335
 20
-3.176787
  0
VERTEX
  8
PLAN_1
  6
CONTINUOUS
 10
0.785902
 20
-3.176787
  0
VERTEX
  8
PLAN_1
  6
CONTINUOUS
 10
0.785902
 20
-3.330185
  0
SEQEND
  8
0
  0
POLYLINE
  8
PLAN_1
  6
CONTINUOUS
 66
     1
 40
0.003000
 41
0.003000
  0
VERTEX
  8
PLAN_1
  6
CONTINUOUS
 10
1.014106
 20
-3.358343
  0
VERTEX
  8
PLAN_1
  6
CONTINUOUS
 10
1.009063
 20
-3.358343
  0
VERTEX
  8
PLAN_1
  6
CONTINUOUS
 10
1.004441
 20
-3.357504
  0
VERTEX
  8
PLAN_1
  6
CONTINUOUS
 10
0.999819
 20
-3.356661
  0
VERTEX
  8
PLAN_1
  6
CONTINUOUS
 10
0.995197
 20
-3.355823
  0
VERTEX
  8
PLAN_1
  6
CONTINUOUS
 10
0.990992
 20
-3.354142
  0
VERTEX
  8
PLAN_1
  6
CONTINUOUS
 10
0.987209
 20
-3.352461
  0
VERTEX
  8
PLAN_1
  6
CONTINUOUS
 10
0.983429
 20
-3.350780
  0
VERTEX
  8
PLAN_1
  6
CONTINUOUS
 10
0.980067
 20
-3.348256
  0
VERTEX
  8
PLAN_1
  6
CONTINUOUS
 10
0.977122
 20
-3.345736
  0
VERTEX
  8
PLAN_1
  6
CONTINUOUS
 10
0.973760
 20
-3.343213
  0
VERTEX
  8
PLAN_1
  6
CONTINUOUS
 10
0.971240
 20
-3.340272
  0
VERTEX
  8
PLAN_1
  6
CONTINUOUS
 10
0.968299
 20
-3.337331
  0
VERTEX
  8
PLAN_1
  6
CONTINUOUS
 10
0.966197
 20
-3.333969
  0
VERTEX
  8
PLAN_1
  6
CONTINUOUS
 10
0.963673
 20
-3.330606
  0
VERTEX
  8
PLAN_1
  6
CONTINUOUS
 10
0.961575
 20
-3.327244
  0
VERTEX
  8
PLAN_1
  6
CONTINUOUS
 10
0.959894
 20
-3.323461
  0
VERTEX
  8
PLAN_1
  6
CONTINUOUS
 10
0.956531
 20
-3.315898
  0
VERTEX
  8
PLAN_1
  6
CONTINUOUS
 10
0.953587
 20
-3.307492
  0
VERTEX
  8
PLAN_1
  6
CONTINUOUS
 10
0.951488
 20
-3.299504
  0
VERTEX
  8
PLAN_1
  6
CONTINUOUS
 10
0.949807
 20
-3.291098
  0
VERTEX
  8
PLAN_1
  6
CONTINUOUS
 10
0.948965
 20
-3.282276
  0
VERTEX
  8
PLAN_1
  6
CONTINUOUS
 10
0.948126
 20
-3.274287
  0
VERTEX
  8
PLAN_1
  6
CONTINUOUS
 10
0.947705
 20
-3.265882
  0
VERTEX
  8
PLAN_1
  6
CONTINUOUS
 10
0.947283
 20
-3.258319
  0
VERTEX
  8
PLAN_1
  6
CONTINUOUS
 10
0.947705
 20
-3.250335
  0
VERTEX
  8
PLAN_1
  6
CONTINUOUS
 10
0.948126
 20
-3.242346
  0
VERTEX
  8
PLAN_1
  6
CONTINUOUS
 10
0.948965
 20
-3.233945
  0
VERTEX
  8
PLAN_1
  6
CONTINUOUS
 10
0.949807
 20
-3.225539
  0
VERTEX
  8
PLAN_1
  6
CONTINUOUS
 10
0.951488
 20
-3.217134
  0
VERTEX
  8
PLAN_1
  6
CONTINUOUS
 10
0.953587
 20
-3.208728
  0
VERTEX
  8
PLAN_1
  6
CONTINUOUS
 10
0.956531
 20
-3.200740
  0
VERTEX
  8
PLAN_1
  6
CONTINUOUS
 10
0.959894
 20
-3.192756
  0
VERTEX
  8
PLAN_1
  6
CONTINUOUS
 10
0.961575
 20
-3.188972
  0
VERTEX
  8
PLAN_1
  6
CONTINUOUS
 10
0.963673
 20
-3.185610
  0
VERTEX
  8
PLAN_1
  6
CONTINUOUS
 10
0.966197
 20
-3.182248
  0
VERTEX
  8
PLAN_1
  6
CONTINUOUS
 10
0.968299
 20
-3.178886
  0
VERTEX
  8
PLAN_1
  6
CONTINUOUS
 10
0.971240
 20
-3.175945
  0
VERTEX
  8
PLAN_1
  6
CONTINUOUS
 10
0.973760
 20
-3.173004
  0
VERTEX
  8
PLAN_1
  6
CONTINUOUS
 10
0.977122
 20
-3.170480
  0
VERTEX
  8
PLAN_1
  6
CONTINUOUS
 10
0.980067
 20
-3.167961
  0
VERTEX
  8
PLAN_1
  6
CONTINUOUS
 10
0.983429
 20
-3.165858
  0
VERTEX
  8
PLAN_1
  6
CONTINUOUS
 10
0.987209
 20
-3.163756
  0
VERTEX
  8
PLAN_1
  6
CONTINUOUS
 10
0.990992
 20
-3.162075
  0
VERTEX
  8
PLAN_1
  6
CONTINUOUS
 10
0.995197
 20
-3.160394
  0
VERTEX
  8
PLAN_1
  6
CONTINUOUS
 10
0.999819
 20
-3.159555
  0
VERTEX
  8
PLAN_1
  6
CONTINUOUS
 10
1.004441
 20
-3.158713
  0
VERTEX
  8
PLAN_1
  6
CONTINUOUS
 10
1.009063
 20
-3.158295
  0
VERTEX
  8
PLAN_1
  6
CONTINUOUS
 10
1.014106
 20
-3.157874
  0
VERTEX
  8
PLAN_1
  6
CONTINUOUS
 10
1.019571
 20
-3.158295
  0
VERTEX
  8
PLAN_1
  6
CONTINUOUS
 10
1.024193
 20
-3.158713
  0
VERTEX
  8
PLAN_1
  6
CONTINUOUS
 10
1.028819
 20
-3.159555
  0
VERTEX
  8
PLAN_1
  6
CONTINUOUS
 10
1.033441
 20
-3.160394
  0
VERTEX
  8
PLAN_1
  6
CONTINUOUS
 10
1.037224
 20
-3.162075
  0
VERTEX
  8
PLAN_1
  6
CONTINUOUS
 10
1.041425
 20
-3.163756
  0
VERTEX
  8
PLAN_1
  6
CONTINUOUS
 10
1.044787
 20
-3.165858
  0
VERTEX
  8
PLAN_1
  6
CONTINUOUS
 10
1.048571
 20
-3.167961
  0
VERTEX
  8
PLAN_1
  6
CONTINUOUS
 10
1.051512
 20
-3.170480
  0
VERTEX
  8
PLAN_1
  6
CONTINUOUS
 10
1.054453
 20
-3.173004
  0
VERTEX
  8
PLAN_1
  6
CONTINUOUS
 10
1.057394
 20
-3.175945
  0
VERTEX
  8
PLAN_1
  6
CONTINUOUS
 10
1.059917
 20
-3.178886
  0
VERTEX
  8
PLAN_1
  6
CONTINUOUS
 10
1.062437
 20
-3.182248
  0
VERTEX
  8
PLAN_1
  6
CONTINUOUS
 10
1.064961
 20
-3.185610
  0
VERTEX
  8
PLAN_1
  6
CONTINUOUS
 10
1.066642
 20
-3.188972
  0
VERTEX
  8
PLAN_1
  6
CONTINUOUS
 10
1.068744
 20
-3.192756
  0
VERTEX
  8
PLAN_1
  6
CONTINUOUS
 10
1.072106
 20
-3.200740
  0
VERTEX
  8
PLAN_1
  6
CONTINUOUS
 10
1.074626
 20
-3.208728
  0
VERTEX
  8
PLAN_1
  6
CONTINUOUS
 10
1.077150
 20
-3.217134
  0
VERTEX
  8
PLAN_1
  6
CONTINUOUS
 10
1.078409
 20
-3.225539
  0
VERTEX
  8
PLAN_1
  6
CONTINUOUS
 10
1.079669
 20
-3.233945
  0
VERTEX
  8
PLAN_1
  6
CONTINUOUS
 10
1.080512
 20
-3.242346
  0
VERTEX
  8
PLAN_1
  6
CONTINUOUS
 10
1.080929
 20
-3.250335
  0
VERTEX
  8
PLAN_1
  6
CONTINUOUS
 10
1.081350
 20
-3.258319
  0
VERTEX
  8
PLAN_1
  6
CONTINUOUS
 10
1.080929
 20
-3.265882
  0
VERTEX
  8
PLAN_1
  6
CONTINUOUS
 10
1.080512
 20
-3.274287
  0
VERTEX
  8
PLAN_1
  6
CONTINUOUS
 10
1.079669
 20
-3.282276
  0
VERTEX
  8
PLAN_1
  6
CONTINUOUS
 10
1.078409
 20
-3.291098
  0
VERTEX
  8
PLAN_1
  6
CONTINUOUS
 10
1.077150
 20
-3.299504
  0
VERTEX
  8
PLAN_1
  6
CONTINUOUS
 10
1.074626
 20
-3.307492
  0
VERTEX
  8
PLAN_1
  6
CONTINUOUS
 10
1.072106
 20
-3.315898
  0
VERTEX
  8
PLAN_1
  6
CONTINUOUS
 10
1.068744
 20
-3.323461
  0
VERTEX
  8
PLAN_1
  6
CONTINUOUS
 10
1.066642
 20
-3.327244
  0
VERTEX
  8
PLAN_1
  6
CONTINUOUS
 10
1.064961
 20
-3.330606
  0
VERTEX
  8
PLAN_1
  6
CONTINUOUS
 10
1.062437
 20
-3.333969
  0
VERTEX
  8
PLAN_1
  6
CONTINUOUS
 10
1.059917
 20
-3.337331
  0
VERTEX
  8
PLAN_1
  6
CONTINUOUS
 10
1.057394
 20
-3.340272
  0
VERTEX
  8
PLAN_1
  6
CONTINUOUS
 10
1.054453
 20
-3.343213
  0
VERTEX
  8
PLAN_1
  6
CONTINUOUS
 10
1.051512
 20
-3.345736
  0
VERTEX
  8
PLAN_1
  6
CONTINUOUS
 10
1.048571
 20
-3.348256
  0
VERTEX
  8
PLAN_1
  6
CONTINUOUS
 10
1.044787
 20
-3.350780
  0
VERTEX
  8
PLAN_1
  6
CONTINUOUS
 10
1.041425
 20
-3.352461
  0
VERTEX
  8
PLAN_1
  6
CONTINUOUS
 10
1.037224
 20
-3.354142
  0
VERTEX
  8
PLAN_1
  6
CONTINUOUS
 10
1.033441
 20
-3.355823
  0
VERTEX
  8
PLAN_1
  6
CONTINUOUS
 10
1.028819
 20
-3.356661
  0
VERTEX
  8
PLAN_1
  6
CONTINUOUS
 10
1.024193
 20
-3.357504
  0
VERTEX
  8
PLAN_1
  6
CONTINUOUS
 10
1.019571
 20
-3.358343
  0
VERTEX
  8
PLAN_1
  6
CONTINUOUS
 10
1.014106
 20
-3.358343
  0
SEQEND
  8
0
  0
POLYLINE
  8
PLAN_1
  6
CONTINUOUS
 66
     1
 40
0.003000
 41
0.003000
  0
VERTEX
  8
PLAN_1
  6
CONTINUOUS
 10
1.014106
 20
-3.179728
  0
VERTEX
  8
PLAN_1
  6
CONTINUOUS
 10
1.009063
 20
-3.180150
  0
VERTEX
  8
PLAN_1
  6
CONTINUOUS
 10
1.004441
 20
-3.181409
  0
VERTEX
  8
PLAN_1
  6
CONTINUOUS
 10
1.000240
 20
-3.183091
  0
VERTEX
  8
PLAN_1
  6
CONTINUOUS
 10
0.996035
 20
-3.185193
  0
VERTEX
  8
PLAN_1
  6
CONTINUOUS
 10
0.992252
 20
-3.188134
  0
VERTEX
  8
PLAN_1
  6
CONTINUOUS
 10
0.988890
 20
-3.191917
  0
VERTEX
  8
PLAN_1
  6
CONTINUOUS
 10
0.985949
 20
-3.196118
  0
VERTEX
  8
PLAN_1
  6
CONTINUOUS
 10
0.983429
 20
-3.200740
  0
VERTEX
  8
PLAN_1
  6
CONTINUOUS
 10
0.980906
 20
-3.206205
  0
VERTEX
  8
PLAN_1
  6
CONTINUOUS
 10
0.978803
 20
-3.212091
  0
VERTEX
  8
PLAN_1
  6
CONTINUOUS
 10
0.977122
 20
-3.218394
  0
VERTEX
  8
PLAN_1
  6
CONTINUOUS
 10
0.975862
 20
-3.225118
  0
VERTEX
  8
PLAN_1
  6
CONTINUOUS
 10
0.975024
 20
-3.232681
  0
VERTEX
  8
PLAN_1
  6
CONTINUOUS
 10
0.974181
 20
-3.240665
  0
VERTEX
  8
PLAN_1
  6
CONTINUOUS
 10
0.973760
 20
-3.249071
  0
VERTEX
  8
PLAN_1
  6
CONTINUOUS
 10
0.973343
 20
-3.258319
  0
VERTEX
  8
PLAN_1
  6
CONTINUOUS
 10
0.973760
 20
-3.267146
  0
VERTEX
  8
PLAN_1
  6
CONTINUOUS
 10
0.974181
 20
-3.275551
  0
VERTEX
  8
PLAN_1
  6
CONTINUOUS
 10
0.975024
 20
-3.283535
  0
VERTEX
  8
PLAN_1
  6
CONTINUOUS
 10
0.975862
 20
-3.291098
  0
VERTEX
  8
PLAN_1
  6
CONTINUOUS
 10
0.977122
 20
-3.297823
  0
VERTEX
  8
PLAN_1
  6
CONTINUOUS
 10
0.978803
 20
-3.304547
  0
VERTEX
  8
PLAN_1
  6
CONTINUOUS
 10
0.980906
 20
-3.310433
  0
VERTEX
  8
PLAN_1
  6
CONTINUOUS
 10
0.983429
 20
-3.315476
  0
VERTEX
  8
PLAN_1
  6
CONTINUOUS
 10
0.985949
 20
-3.320520
  0
VERTEX
  8
PLAN_1
  6
CONTINUOUS
 10
0.988890
 20
-3.324720
  0
VERTEX
  8
PLAN_1
  6
CONTINUOUS
 10
0.992252
 20
-3.328083
  0
VERTEX
  8
PLAN_1
  6
CONTINUOUS
 10
0.996035
 20
-3.331028
  0
VERTEX
  8
PLAN_1
  6
CONTINUOUS
 10
1.000240
 20
-3.333547
  0
VERTEX
  8
PLAN_1
  6
CONTINUOUS
 10
1.004441
 20
-3.335228
  0
VERTEX
  8
PLAN_1
  6
CONTINUOUS
 10
1.009063
 20
-3.336071
  0
VERTEX
  8
PLAN_1
  6
CONTINUOUS
 10
1.014106
 20
-3.336488
  0
VERTEX
  8
PLAN_1
  6
CONTINUOUS
 10
1.019571
 20
-3.336071
  0
VERTEX
  8
PLAN_1
  6
CONTINUOUS
 10
1.024193
 20
-3.335228
  0
VERTEX
  8
PLAN_1
  6
CONTINUOUS
 10
1.028398
 20
-3.333547
  0
VERTEX
  8
PLAN_1
  6
CONTINUOUS
 10
1.032598
 20
-3.331028
  0
VERTEX
  8
PLAN_1
  6
CONTINUOUS
 10
1.035961
 20
-3.328083
  0
VERTEX
  8
PLAN_1
  6
CONTINUOUS
 10
1.039323
 20
-3.324720
  0
VERTEX
  8
PLAN_1
  6
CONTINUOUS
 10
1.042685
 20
-3.320520
  0
VERTEX
  8
PLAN_1
  6
CONTINUOUS
 10
1.045209
 20
-3.315476
  0
VERTEX
  8
PLAN_1
  6
CONTINUOUS
 10
1.047728
 20
-3.310433
  0
VERTEX
  8
PLAN_1
  6
CONTINUOUS
 10
1.049409
 20
-3.304547
  0
VERTEX
  8
PLAN_1
  6
CONTINUOUS
 10
1.051091
 20
-3.297823
  0
VERTEX
  8
PLAN_1
  6
CONTINUOUS
 10
1.052772
 20
-3.291098
  0
VERTEX
  8
PLAN_1
  6
CONTINUOUS
 10
1.053614
 20
-3.283535
  0
VERTEX
  8
PLAN_1
  6
CONTINUOUS
 10
1.054453
 20
-3.275551
  0
VERTEX
  8
PLAN_1
  6
CONTINUOUS
 10
1.054874
 20
-3.267146
  0
VERTEX
  8
PLAN_1
  6
CONTINUOUS
 10
1.055295
 20
-3.258319
  0
VERTEX
  8
PLAN_1
  6
CONTINUOUS
 10
1.054874
 20
-3.249071
  0
VERTEX
  8
PLAN_1
  6
CONTINUOUS
 10
1.054453
 20
-3.240665
  0
VERTEX
  8
PLAN_1
  6
CONTINUOUS
 10
1.053614
 20
-3.232681
  0
VERTEX
  8
PLAN_1
  6
CONTINUOUS
 10
1.052772
 20
-3.225118
  0
VERTEX
  8
PLAN_1
  6
CONTINUOUS
 10
1.051091
 20
-3.218394
  0
VERTEX
  8
PLAN_1
  6
CONTINUOUS
 10
1.049409
 20
-3.212091
  0
VERTEX
  8
PLAN_1
  6
CONTINUOUS
 10
1.047728
 20
-3.206205
  0
VERTEX
  8
PLAN_1
  6
CONTINUOUS
 10
1.045209
 20
-3.200740
  0
VERTEX
  8
PLAN_1
  6
CONTINUOUS
 10
1.042685
 20
-3.196118
  0
VERTEX
  8
PLAN_1
  6
CONTINUOUS
 10
1.039323
 20
-3.191917
  0
VERTEX
  8
PLAN_1
  6
CONTINUOUS
 10
1.035961
 20
-3.188134
  0
VERTEX
  8
PLAN_1
  6
CONTINUOUS
 10
1.032598
 20
-3.185193
  0
VERTEX
  8
PLAN_1
  6
CONTINUOUS
 10
1.028398
 20
-3.183091
  0
VERTEX
  8
PLAN_1
  6
CONTINUOUS
 10
1.024193
 20
-3.181409
  0
VERTEX
  8
PLAN_1
  6
CONTINUOUS
 10
1.019571
 20
-3.180150
  0
VERTEX
  8
PLAN_1
  6
CONTINUOUS
 10
1.014106
 20
-3.179728
  0
SEQEND
  8
0
  0
POLYLINE
  8
PLAN_1
  6
CONTINUOUS
 66
     1
 40
0.003000
 41
0.003000
  0
VERTEX
  8
PLAN_1
  6
CONTINUOUS
 10
1.191043
 20
-3.352878
  0
VERTEX
  8
PLAN_1
  6
CONTINUOUS
 10
1.164984
 20
-3.352878
  0
VERTEX
  8
PLAN_1
  6
CONTINUOUS
 10
1.164984
 20
-3.214610
  0
VERTEX
  8
PLAN_1
  6
CONTINUOUS
 10
1.119594
 20
-3.214610
  0
VERTEX
  8
PLAN_1
  6
CONTINUOUS
 10
1.119594
 20
-3.195280
  0
VERTEX
  8
PLAN_1
  6
CONTINUOUS
 10
1.130524
 20
-3.194016
  0
VERTEX
  8
PLAN_1
  6
CONTINUOUS
 10
1.140189
 20
-3.192756
  0
VERTEX
  8
PLAN_1
  6
CONTINUOUS
 10
1.143972
 20
-3.191917
  0
VERTEX
  8
PLAN_1
  6
CONTINUOUS
 10
1.148173
 20
-3.190654
  0
VERTEX
  8
PLAN_1
  6
CONTINUOUS
 10
1.151535
 20
-3.189394
  0
VERTEX
  8
PLAN_1
  6
CONTINUOUS
 10
1.154898
 20
-3.187713
  0
VERTEX
  8
PLAN_1
  6
CONTINUOUS
 10
1.157839
 20
-3.185610
  0
VERTEX
  8
PLAN_1
  6
CONTINUOUS
 10
1.160362
 20
-3.183091
  0
VERTEX
  8
PLAN_1
  6
CONTINUOUS
 10
1.162882
 20
-3.180150
  0
VERTEX
  8
PLAN_1
  6
CONTINUOUS
 10
1.164984
 20
-3.176787
  0
VERTEX
  8
PLAN_1
  6
CONTINUOUS
 10
1.167087
 20
-3.173004
  0
VERTEX
  8
PLAN_1
  6
CONTINUOUS
 10
1.168768
 20
-3.168799
  0
VERTEX
  8
PLAN_1
  6
CONTINUOUS
 10
1.170449
 20
-3.163756
  0
VERTEX
  8
PLAN_1
  6
CONTINUOUS
 10
1.172130
 20
-3.157874
  0
VERTEX
  8
PLAN_1
  6
CONTINUOUS
 10
1.191043
 20
-3.157874
  0
VERTEX
  8
PLAN_1
  6
CONTINUOUS
 10
1.191043
 20
-3.352878
  0
SEQEND
  8
0
  0
POLYLINE
  8
PLAN_1
  6
CONTINUOUS
 66
     1
 40
0.003000
 41
0.003000
  0
VERTEX
  8
PLAN_1
  6
CONTINUOUS
 10
1.257445
 20
-3.224697
  0
VERTEX
  8
PLAN_1
  6
CONTINUOUS
 10
1.257866
 20
-3.218394
  0
VERTEX
  8
PLAN_1
  6
CONTINUOUS
 10
1.258705
 20
-3.211669
  0
VERTEX
  8
PLAN_1
  6
CONTINUOUS
 10
1.259965
 20
-3.205366
  0
VERTEX
  8
PLAN_1
  6
CONTINUOUS
 10
1.261646
 20
-3.199480
  0
VERTEX
  8
PLAN_1
  6
CONTINUOUS
 10
1.263748
 20
-3.193598
  0
VERTEX
  8
PLAN_1
  6
CONTINUOUS
 10
1.266689
 20
-3.188134
  0
VERTEX
  8
PLAN_1
  6
CONTINUOUS
 10
1.269634
 20
-3.182669
  0
VERTEX
  8
PLAN_1
  6
CONTINUOUS
 10
1.273413
 20
-3.178047
  0
VERTEX
  8
PLAN_1
  6
CONTINUOUS
 10
1.277618
 20
-3.173843
  0
VERTEX
  8
PLAN_1
  6
CONTINUOUS
 10
1.282240
 20
-3.169642
  0
VERTEX
  8
PLAN_1
  6
CONTINUOUS
 10
1.287705
 20
-3.166280
  0
VERTEX
  8
PLAN_1
  6
CONTINUOUS
 10
1.293169
 20
-3.163339
  0
VERTEX
  8
PLAN_1
  6
CONTINUOUS
 10
1.299051
 20
-3.161236
  0
VERTEX
  8
PLAN_1
  6
CONTINUOUS
 10
1.305776
 20
-3.159555
  0
VERTEX
  8
PLAN_1
  6
CONTINUOUS
 10
1.312921
 20
-3.158295
  0
VERTEX
  8
PLAN_1
  6
CONTINUOUS
 10
1.320484
 20
-3.157874
  0
VERTEX
  8
PLAN_1
  6
CONTINUOUS
 10
1.325949
 20
-3.158295
  0
VERTEX
  8
PLAN_1
  6
CONTINUOUS
 10
1.331413
 20
-3.158713
  0
VERTEX
  8
PLAN_1
  6
CONTINUOUS
 10
1.336457
 20
-3.159555
  0
VERTEX
  8
PLAN_1
  6
CONTINUOUS
 10
1.341079
 20
-3.160394
  0
VERTEX
  8
PLAN_1
  6
CONTINUOUS
 10
1.345701
 20
-3.162075
  0
VERTEX
  8
PLAN_1
  6
CONTINUOUS
 10
1.349484
 20
-3.163756
  0
VERTEX
  8
PLAN_1
  6
CONTINUOUS
 10
1.353685
 20
-3.165437
  0
VERTEX
  8
PLAN_1
  6
CONTINUOUS
 10
1.357047
 20
-3.167539
  0
VERTEX
  8
PLAN_1
  6
CONTINUOUS
 10
1.360409
 20
-3.170063
  0
VERTEX
  8
PLAN_1
  6
CONTINUOUS
 10
1.363772
 20
-3.172583
  0
VERTEX
  8
PLAN_1
  6
CONTINUOUS
 10
1.366717
 20
-3.175106
  0
VERTEX
  8
PLAN_1
  6
CONTINUOUS
 10
1.369236
 20
-3.178047
  0
VERTEX
  8
PLAN_1
  6
CONTINUOUS
 10
1.371760
 20
-3.181409
  0
VERTEX
  8
PLAN_1
  6
CONTINUOUS
 10
1.373858
 20
-3.184350
  0
VERTEX
  8
PLAN_1
  6
CONTINUOUS
 10
1.375961
 20
-3.187713
  0
VERTEX
  8
PLAN_1
  6
CONTINUOUS
 10
1.377642
 20
-3.191496
  0
VERTEX
  8
PLAN_1
  6
CONTINUOUS
 10
1.381004
 20
-3.198642
  0
VERTEX
  8
PLAN_1
  6
CONTINUOUS
 10
1.383528
 20
-3.205783
  0
VERTEX
  8
PLAN_1
  6
CONTINUOUS
 10
1.385209
 20
-3.213350
  0
VERTEX
  8
PLAN_1
  6
CONTINUOUS
 10
1.386469
 20
-3.220913
  0
VERTEX
  8
PLAN_1
  6
CONTINUOUS
 10
1.387728
 20
-3.228480
  0
VERTEX
  8
PLAN_1
  6
CONTINUOUS
 10
1.388150
 20
-3.235626
  0
VERTEX
  8
PLAN_1
  6
CONTINUOUS
 10
1.388571
 20
-3.242346
  0
VERTEX
  8
PLAN_1
  6
CONTINUOUS
 10
1.388571
 20
-3.248232
  0
VERTEX
  8
PLAN_1
  6
CONTINUOUS
 10
1.388150
 20
-3.259157
  0
VERTEX
  8
PLAN_1
  6
CONTINUOUS
 10
1.386890
 20
-3.274287
  0
VERTEX
  8
PLAN_1
  6
CONTINUOUS
 10
1.385626
 20
-3.283114
  0
VERTEX
  8
PLAN_1
  6
CONTINUOUS
 10
1.383945
 20
-3.292362
  0
VERTEX
  8
PLAN_1
  6
CONTINUOUS
 10
1.381425
 20
-3.301606
  0
VERTEX
  8
PLAN_1
  6
CONTINUOUS
 10
1.378484
 20
-3.311272
  0
VERTEX
  8
PLAN_1
  6
CONTINUOUS
 10
1.376382
 20
-3.315898
  0
VERTEX
  8
PLAN_1
  6
CONTINUOUS
 10
1.374280
 20
-3.320520
  0
VERTEX
  8
PLAN_1
  6
CONTINUOUS
 10
1.372177
 20
-3.324720
  0
VERTEX
  8
PLAN_1
  6
CONTINUOUS
 10
1.369657
 20
-3.328925
  0
VERTEX
  8
PLAN_1
  6
CONTINUOUS
 10
1.367134
 20
-3.333126
  0
VERTEX
  8
PLAN_1
  6
CONTINUOUS
 10
1.363772
 20
-3.336909
  0
VERTEX
  8
PLAN_1
  6
CONTINUOUS
 10
1.360831
 20
-3.340693
  0
VERTEX
  8
PLAN_1
  6
CONTINUOUS
 10
1.357047
 20
-3.344055
  0
VERTEX
  8
PLAN_1
  6
CONTINUOUS
 10
1.353268
 20
-3.347417
  0
VERTEX
  8
PLAN_1
  6
CONTINUOUS
 10
1.349063
 20
-3.349937
  0
VERTEX
  8
PLAN_1
  6
CONTINUOUS
 10
1.344862
 20
-3.352461
  0
VERTEX
  8
PLAN_1
  6
CONTINUOUS
 10
1.340240
 20
-3.354559
  0
VERTEX
  8
PLAN_1
  6
CONTINUOUS
 10
1.335197
 20
-3.356240
  0
VERTEX
  8
PLAN_1
  6
CONTINUOUS
 10
1.329732
 20
-3.357504
  0
VERTEX
  8
PLAN_1
  6
CONTINUOUS
 10
1.323846
 20
-3.357921
  0
VERTEX
  8
PLAN_1
  6
CONTINUOUS
 10
1.317965
 20
-3.358343
  0
VERTEX
  8
PLAN_1
  6
CONTINUOUS
 10
1.309559
 20
-3.357921
  0
VERTEX
  8
PLAN_1
  6
CONTINUOUS
 10
1.301992
 20
-3.357083
  0
VERTEX
  8
PLAN_1
  6
CONTINUOUS
 10
1.295268
 20
-3.354980
  0
VERTEX
  8
PLAN_1
  6
CONTINUOUS
 10
1.289386
 20
-3.352878
  0
VERTEX
  8
PLAN_1
  6
CONTINUOUS
 10
1.283921
 20
-3.349937
  0
VERTEX
  8
PLAN_1
  6
CONTINUOUS
 10
1.279299
 20
-3.346996
  0
VERTEX
  8
PLAN_1
  6
CONTINUOUS
 10
1.275094
 20
-3.343213
  0
VERTEX
  8
PLAN_1
  6
CONTINUOUS
 10
1.271732
 20
-3.339433
  0
VERTEX
  8
PLAN_1
  6
CONTINUOUS
 10
1.268370
 20
-3.335228
  0
VERTEX
  8
PLAN_1
  6
CONTINUOUS
 10
1.265850
 20
-3.331028
  0
VERTEX
  8
PLAN_1
  6
CONTINUOUS
 10
1.264169
 20
-3.326823
  0
VERTEX
  8
PLAN_1
  6
CONTINUOUS
 10
1.262488
 20
-3.322201
  0
VERTEX
  8
PLAN_1
  6
CONTINUOUS
 10
1.261228
 20
-3.317996
  0
VERTEX
  8
PLAN_1
  6
CONTINUOUS
 10
1.260386
 20
-3.313795
  0
VERTEX
  8
PLAN_1
  6
CONTINUOUS
 10
1.259965
 20
-3.310012
  0
VERTEX
  8
PLAN_1
  6
CONTINUOUS
 10
1.259965
 20
-3.306228
  0
VERTEX
  8
PLAN_1
  6
CONTINUOUS
 10
1.284343
 20
-3.306228
  0
VERTEX
  8
PLAN_1
  6
CONTINUOUS
 10
1.284764
 20
-3.309591
  0
VERTEX
  8
PLAN_1
  6
CONTINUOUS
 10
1.285181
 20
-3.313374
  0
VERTEX
  8
PLAN_1
  6
CONTINUOUS
 10
1.286024
 20
-3.316315
  0
VERTEX
  8
PLAN_1
  6
CONTINUOUS
 10
1.287283
 20
-3.319260
  0
VERTEX
  8
PLAN_1
  6
CONTINUOUS
 10
1.288543
 20
-3.322201
  0
VERTEX
  8
PLAN_1
  6
CONTINUOUS
 10
1.289807
 20
-3.324720
  0
VERTEX
  8
PLAN_1
  6
CONTINUOUS
 10
1.291906
 20
-3.327244
  0
VERTEX
  8
PLAN_1
  6
CONTINUOUS
 10
1.293587
 20
-3.329346
  0
VERTEX
  8
PLAN_1
  6
CONTINUOUS
 10
1.296110
 20
-3.331445
  0
VERTEX
  8
PLAN_1
  6
CONTINUOUS
 10
1.298213
 20
-3.333126
  0
VERTEX
  8
PLAN_1
  6
CONTINUOUS
 10
1.301154
 20
-3.334807
  0
VERTEX
  8
PLAN_1
  6
CONTINUOUS
 10
1.303673
 20
-3.336071
  0
VERTEX
  8
PLAN_1
  6
CONTINUOUS
 10
1.307035
 20
-3.336909
  0
VERTEX
  8
PLAN_1
  6
CONTINUOUS
 10
1.309980
 20
-3.337331
  0
VERTEX
  8
PLAN_1
  6
CONTINUOUS
 10
1.313760
 20
-3.337752
  0
VERTEX
  8
PLAN_1
  6
CONTINUOUS
 10
1.317122
 20
-3.338169
  0
VERTEX
  8
PLAN_1
  6
CONTINUOUS
 10
1.322165
 20
-3.337752
  0
VERTEX
  8
PLAN_1
  6
CONTINUOUS
 10
1.326791
 20
-3.336909
  0
VERTEX
  8
PLAN_1
  6
CONTINUOUS
 10
1.330992
 20
-3.335650
  0
VERTEX
  8
PLAN_1
  6
CONTINUOUS
 10
1.334776
 20
-3.333969
  0
VERTEX
  8
PLAN_1
  6
CONTINUOUS
 10
1.338559
 20
-3.331445
  0
VERTEX
  8
PLAN_1
  6
CONTINUOUS
 10
1.342339
 20
-3.328504
  0
VERTEX
  8
PLAN_1
  6
CONTINUOUS
 10
1.345283
 20
-3.324720
  0
VERTEX
  8
PLAN_1
  6
CONTINUOUS
 10
1.348224
 20
-3.320520
  0
VERTEX
  8
PLAN_1
  6
CONTINUOUS
 10
1.351165
 20
-3.315898
  0
VERTEX
  8
PLAN_1
  6
CONTINUOUS
 10
1.353685
 20
-3.310433
  0
VERTEX
  8
PLAN_1
  6
CONTINUOUS
 10
1.355787
 20
-3.304547
  0
VERTEX
  8
PLAN_1
  6
CONTINUOUS
 10
1.357890
 20
-3.297823
  0
VERTEX
  8
PLAN_1
  6
CONTINUOUS
 10
1.359992
 20
-3.290681
  0
VERTEX
  8
PLAN_1
  6
CONTINUOUS
 10
1.361252
 20
-3.282693
  0
VERTEX
  8
PLAN_1
  6
CONTINUOUS
 10
1.362933
 20
-3.274287
  0
VERTEX
  8
PLAN_1
  6
CONTINUOUS
 10
1.364193
 20
-3.265043
  0
VERTEX
  8
PLAN_1
  6
CONTINUOUS
 10
1.363772
 20
-3.264622
  0
VERTEX
  8
PLAN_1
  6
CONTINUOUS
 10
1.362091
 20
-3.267146
  0
VERTEX
  8
PLAN_1
  6
CONTINUOUS
 10
1.360409
 20
-3.269665
  0
VERTEX
  8
PLAN_1
  6
CONTINUOUS
 10
1.358311
 20
-3.272189
  0
VERTEX
  8
PLAN_1
  6
CONTINUOUS
 10
1.356209
 20
-3.274287
  0
VERTEX
  8
PLAN_1
  6
CONTINUOUS
 10
1.353685
 20
-3.276390
  0
VERTEX
  8
PLAN_1
  6
CONTINUOUS
 10
1.351165
 20
-3.278492
  0
VERTEX
  8
PLAN_1
  6
CONTINUOUS
 10
1.348224
 20
-3.280173
  0
VERTEX
  8
PLAN_1
  6
CONTINUOUS
 10
1.345283
 20
-3.281854
  0
VERTEX
  8
PLAN_1
  6
CONTINUOUS
 10
1.338976
 20
-3.284374
  0
VERTEX
  8
PLAN_1
  6
CONTINUOUS
 10
1.332673
 20
-3.286476
  0
VERTEX
  8
PLAN_1
  6
CONTINUOUS
 10
1.325528
 20
-3.287319
  0
VERTEX
  8
PLAN_1
  6
CONTINUOUS
 10
1.318803
 20
-3.287736
  0
VERTEX
  8
PLAN_1
  6
CONTINUOUS
 10
1.312079
 20
-3.287736
  0
VERTEX
  8
PLAN_1
  6
CONTINUOUS
 10
1.305776
 20
-3.286898
  0
VERTEX
  8
PLAN_1
  6
CONTINUOUS
 10
1.299894
 20
-3.285217
  0
VERTEX
  8
PLAN_1
  6
CONTINUOUS
 10
1.294008
 20
-3.283535
  0
VERTEX
  8
PLAN_1
  6
CONTINUOUS
 10
1.288543
 20
-3.281012
  0
VERTEX
  8
PLAN_1
  6
CONTINUOUS
 10
1.283500
 20
-3.278071
  0
VERTEX
  8
PLAN_1
  6
CONTINUOUS
 10
1.278878
 20
-3.274709
  0
VERTEX
  8
PLAN_1
  6
CONTINUOUS
 10
1.274677
 20
-3.270925
  0
VERTEX
  8
PLAN_1
  6
CONTINUOUS
 10
1.270894
 20
-3.266724
  0
VERTEX
  8
PLAN_1
  6
CONTINUOUS
 10
1.267531
 20
-3.261681
  0
VERTEX
  8
PLAN_1
  6
CONTINUOUS
 10
1.264591
 20
-3.256638
  0
VERTEX
  8
PLAN_1
  6
CONTINUOUS
 10
1.262067
 20
-3.251173
  0
VERTEX
  8
PLAN_1
  6
CONTINUOUS
 10
1.259965
 20
-3.245291
  0
VERTEX
  8
PLAN_1
  6
CONTINUOUS
 10
1.258705
 20
-3.238567
  0
VERTEX
  8
PLAN_1
  6
CONTINUOUS
 10
1.257866
 20
-3.231843
  0
VERTEX
  8
PLAN_1
  6
CONTINUOUS
 10
1.257445
 20
-3.224697
  0
SEQEND
  8
0
  0
POLYLINE
  8
PLAN_1
  6
CONTINUOUS
 66
     1
 40
0.003000
 41
0.003000
  0
VERTEX
  8
PLAN_1
  6
CONTINUOUS
 10
1.359992
 20
-3.221335
  0
VERTEX
  8
PLAN_1
  6
CONTINUOUS
 10
1.359992
 20
-3.217551
  0
VERTEX
  8
PLAN_1
  6
CONTINUOUS
 10
1.359571
 20
-3.213350
  0
VERTEX
  8
PLAN_1
  6
CONTINUOUS
 10
1.358728
 20
-3.209567
  0
VERTEX
  8
PLAN_1
  6
CONTINUOUS
 10
1.357890
 20
-3.205783
  0
VERTEX
  8
PLAN_1
  6
CONTINUOUS
 10
1.356630
 20
-3.202004
  0
VERTEX
  8
PLAN_1
  6
CONTINUOUS
 10
1.354949
 20
-3.198642
  0
VERTEX
  8
PLAN_1
  6
CONTINUOUS
 10
1.352846
 20
-3.195280
  0
VERTEX
  8
PLAN_1
  6
CONTINUOUS
 10
1.350744
 20
-3.192335
  0
VERTEX
  8
PLAN_1
  6
CONTINUOUS
 10
1.348224
 20
-3.189815
  0
VERTEX
  8
PLAN_1
  6
CONTINUOUS
 10
1.345283
 20
-3.187291
  0
VERTEX
  8
PLAN_1
  6
CONTINUOUS
 10
1.341921
 20
-3.185193
  0
VERTEX
  8
PLAN_1
  6
CONTINUOUS
 10
1.338559
 20
-3.183091
  0
VERTEX
  8
PLAN_1
  6
CONTINUOUS
 10
1.334776
 20
-3.181831
  0
VERTEX
  8
PLAN_1
  6
CONTINUOUS
 10
1.330154
 20
-3.180567
  0
VERTEX
  8
PLAN_1
  6
CONTINUOUS
 10
1.325528
 20
-3.180150
  0
VERTEX
  8
PLAN_1
  6
CONTINUOUS
 10
1.320484
 20
-3.179728
  0
VERTEX
  8
PLAN_1
  6
CONTINUOUS
 10
1.316283
 20
-3.180150
  0
VERTEX
  8
PLAN_1
  6
CONTINUOUS
 10
1.312500
 20
-3.180567
  0
VERTEX
  8
PLAN_1
  6
CONTINUOUS
 10
1.308717
 20
-3.181831
  0
VERTEX
  8
PLAN_1
  6
CONTINUOUS
 10
1.304937
 20
-3.183091
  0
VERTEX
  8
PLAN_1
  6
CONTINUOUS
 10
1.301575
 20
-3.184772
  0
VERTEX
  8
PLAN_1
  6
CONTINUOUS
 10
1.298630
 20
-3.186874
  0
VERTEX
  8
PLAN_1
  6
CONTINUOUS
 10
1.295689
 20
-3.189394
  0
VERTEX
  8
PLAN_1
  6
CONTINUOUS
 10
1.293169
 20
-3.191917
  0
VERTEX
  8
PLAN_1
  6
CONTINUOUS
 10
1.290646
 20
-3.194858
  0
VERTEX
  8
PLAN_1
  6
CONTINUOUS
 10
1.288543
 20
-3.198220
  0
VERTEX
  8
PLAN_1
  6
CONTINUOUS
 10
1.286862
 20
-3.202004
  0
VERTEX
  8
PLAN_1
  6
CONTINUOUS
 10
1.285602
 20
-3.205783
  0
VERTEX
  8
PLAN_1
  6
CONTINUOUS
 10
1.284343
 20
-3.209988
  0
VERTEX
  8
PLAN_1
  6
CONTINUOUS
 10
1.283500
 20
-3.214189
  0
VERTEX
  8
PLAN_1
  6
CONTINUOUS
 10
1.283083
 20
-3.218815
  0
VERTEX
  8
PLAN_1
  6
CONTINUOUS
 10
1.282661
 20
-3.223858
  0
VERTEX
  8
PLAN_1
  6
CONTINUOUS
 10
1.283083
 20
-3.230583
  0
VERTEX
  8
PLAN_1
  6
CONTINUOUS
 10
1.283921
 20
-3.236465
  0
VERTEX
  8
PLAN_1
  6
CONTINUOUS
 10
1.285181
 20
-3.241508
  0
VERTEX
  8
PLAN_1
  6
CONTINUOUS
 10
1.286862
 20
-3.246130
  0
VERTEX
  8
PLAN_1
  6
CONTINUOUS
 10
1.288543
 20
-3.249913
  0
VERTEX
  8
PLAN_1
  6
CONTINUOUS
 10
1.291067
 20
-3.253697
  0
VERTEX
  8
PLAN_1
  6
CONTINUOUS
 10
1.293587
 20
-3.256638
  0
VERTEX
  8
PLAN_1
  6
CONTINUOUS
 10
1.296531
 20
-3.258740
  0
VERTEX
  8
PLAN_1
  6
CONTINUOUS
 10
1.299472
 20
-3.260839
  0
VERTEX
  8
PLAN_1
  6
CONTINUOUS
 10
1.302835
 20
-3.262520
  0
VERTEX
  8
PLAN_1
  6
CONTINUOUS
 10
1.306197
 20
-3.263783
  0
VERTEX
  8
PLAN_1
  6
CONTINUOUS
 10
1.309559
 20
-3.264622
  0
VERTEX
  8
PLAN_1
  6
CONTINUOUS
 10
1.316283
 20
-3.265465
  0
VERTEX
  8
PLAN_1
  6
CONTINUOUS
 10
1.322587
 20
-3.265882
  0
VERTEX
  8
PLAN_1
  6
CONTINUOUS
 10
1.327630
 20
-3.265465
  0
VERTEX
  8
PLAN_1
  6
CONTINUOUS
 10
1.333933
 20
-3.264201
  0
VERTEX
  8
PLAN_1
  6
CONTINUOUS
 10
1.336878
 20
-3.263362
  0
VERTEX
  8
PLAN_1
  6
CONTINUOUS
 10
1.339819
 20
-3.262102
  0
VERTEX
  8
PLAN_1
  6
CONTINUOUS
 10
1.343181
 20
-3.260421
  0
VERTEX
  8
PLAN_1
  6
CONTINUOUS
 10
1.346122
 20
-3.258319
  0
VERTEX
  8
PLAN_1
  6
CONTINUOUS
 10
1.348642
 20
-3.255795
  0
VERTEX
  8
PLAN_1
  6
CONTINUOUS
 10
1.351587
 20
-3.252433
  0
VERTEX
  8
PLAN_1
  6
CONTINUOUS
 10
1.353685
 20
-3.249071
  0
VERTEX
  8
PLAN_1
  6
CONTINUOUS
 10
1.355787
 20
-3.244870
  0
VERTEX
  8
PLAN_1
  6
CONTINUOUS
 10
1.357469
 20
-3.239827
  0
VERTEX
  8
PLAN_1
  6
CONTINUOUS
 10
1.358728
 20
-3.234362
  0
VERTEX
  8
PLAN_1
  6
CONTINUOUS
 10
1.359571
 20
-3.228480
  0
VERTEX
  8
PLAN_1
  6
CONTINUOUS
 10
1.359992
 20
-3.221335
  0
SEQEND
  8
0
  0
POLYLINE
  8
PLAN_1
  6
CONTINUOUS
 66
     1
 40
0.003000
 41
0.003000
  0
VERTEX
  8
PLAN_1
  6
CONTINUOUS
 10
1.451189
 20
-3.352878
  0
VERTEX
  8
PLAN_1
  6
CONTINUOUS
 10
1.424291
 20
-3.352878
  0
VERTEX
  8
PLAN_1
  6
CONTINUOUS
 10
1.424291
 20
-3.153669
  0
VERTEX
  8
PLAN_1
  6
CONTINUOUS
 10
1.562142
 20
-3.153669
  0
VERTEX
  8
PLAN_1
  6
CONTINUOUS
 10
1.562142
 20
-3.177626
  0
VERTEX
  8
PLAN_1
  6
CONTINUOUS
 10
1.451189
 20
-3.177626
  0
VERTEX
  8
PLAN_1
  6
CONTINUOUS
 10
1.451189
 20
-3.238567
  0
VERTEX
  8
PLAN_1
  6
CONTINUOUS
 10
1.548693
 20
-3.238567
  0
VERTEX
  8
PLAN_1
  6
CONTINUOUS
 10
1.548693
 20
-3.262520
  0
VERTEX
  8
PLAN_1
  6
CONTINUOUS
 10
1.451189
 20
-3.262520
  0
VERTEX
  8
PLAN_1
  6
CONTINUOUS
 10
1.451189
 20
-3.352878
  0
SEQEND
  8
0
  0
SOLID
  8
PLAN_1
 10
1.581472
 20
-3.352878
 11
1.552476
 21
-3.352878
 12
1.581472
 22
-3.323461
 13
1.552476
 23
-3.323461
  0
POLYLINE
  8
PLAN_1
  6
CONTINUOUS
 66
     1
 40
0.003000
 41
0.003000
  0
VERTEX
  8
PLAN_1
  6
CONTINUOUS
 10
1.581472
 20
-3.352878
  0
VERTEX
  8
PLAN_1
  6
CONTINUOUS
 10
1.552476
 20
-3.352878
  0
VERTEX
  8
PLAN_1
  6
CONTINUOUS
 10
1.552476
 20
-3.323461
  0
VERTEX
  8
PLAN_1
  6
CONTINUOUS
 10
1.581472
 20
-3.323461
  0
VERTEX
  8
PLAN_1
  6
CONTINUOUS
 10
1.581472
 20
-3.352878
  0
SEQEND
  8
0
  0
POLYLINE
  8
PLAN_1
  6
CONTINUOUS
 66
     1
 40
0.003000
 41
0.003000
  0
VERTEX
  8
PLAN_1
  6
CONTINUOUS
 10
1.776480
 20
-3.352878
  0
VERTEX
  8
PLAN_1
  6
CONTINUOUS
 10
1.629386
 20
-3.352878
  0
VERTEX
  8
PLAN_1
  6
CONTINUOUS
 10
1.629386
 20
-3.153669
  0
VERTEX
  8
PLAN_1
  6
CONTINUOUS
 10
1.774378
 20
-3.153669
  0
VERTEX
  8
PLAN_1
  6
CONTINUOUS
 10
1.774378
 20
-3.177626
  0
VERTEX
  8
PLAN_1
  6
CONTINUOUS
 10
1.656283
 20
-3.177626
  0
VERTEX
  8
PLAN_1
  6
CONTINUOUS
 10
1.656283
 20
-3.238567
  0
VERTEX
  8
PLAN_1
  6
CONTINUOUS
 10
1.765134
 20
-3.238567
  0
VERTEX
  8
PLAN_1
  6
CONTINUOUS
 10
1.765134
 20
-3.262520
  0
VERTEX
  8
PLAN_1
  6
CONTINUOUS
 10
1.656283
 20
-3.262520
  0
VERTEX
  8
PLAN_1
  6
CONTINUOUS
 10
1.656283
 20
-3.329346
  0
VERTEX
  8
PLAN_1
  6
CONTINUOUS
 10
1.776480
 20
-3.329346
  0
VERTEX
  8
PLAN_1
  6
CONTINUOUS
 10
1.776480
 20
-3.352878
  0
SEQEND
  8
0
  0
POLYLINE
  8
PLAN_1
  6
CONTINUOUS
 66
     1
 40
0.003000
 41
0.003000
  0
VERTEX
  8
PLAN_1
  6
CONTINUOUS
 10
1.841622
 20
-3.352878
  0
VERTEX
  8
PLAN_1
  6
CONTINUOUS
 10
1.814724
 20
-3.352878
  0
VERTEX
  8
PLAN_1
  6
CONTINUOUS
 10
1.814724
 20
-3.153669
  0
VERTEX
  8
PLAN_1
  6
CONTINUOUS
 10
1.904244
 20
-3.153669
  0
VERTEX
  8
PLAN_1
  6
CONTINUOUS
 10
1.910969
 20
-3.154091
  0
VERTEX
  8
PLAN_1
  6
CONTINUOUS
 10
1.917272
 20
-3.154933
  0
VERTEX
  8
PLAN_1
  6
CONTINUOUS
 10
1.923154
 20
-3.156193
  0
VERTEX
  8
PLAN_1
  6
CONTINUOUS
 10
1.929039
 20
-3.157874
  0
VERTEX
  8
PLAN_1
  6
CONTINUOUS
 10
1.934083
 20
-3.160394
  0
VERTEX
  8
PLAN_1
  6
CONTINUOUS
 10
1.939126
 20
-3.162917
  0
VERTEX
  8
PLAN_1
  6
CONTINUOUS
 10
1.943748
 20
-3.166280
  0
VERTEX
  8
PLAN_1
  6
CONTINUOUS
 10
1.947531
 20
-3.169642
  0
VERTEX
  8
PLAN_1
  6
CONTINUOUS
 10
1.951311
 20
-3.173843
  0
VERTEX
  8
PLAN_1
  6
CONTINUOUS
 10
1.954256
 20
-3.178047
  0
VERTEX
  8
PLAN_1
  6
CONTINUOUS
 10
1.957197
 20
-3.182669
  0
VERTEX
  8
PLAN_1
  6
CONTINUOUS
 10
1.959299
 20
-3.187291
  0
VERTEX
  8
PLAN_1
  6
CONTINUOUS
 10
1.960980
 20
-3.192756
  0
VERTEX
  8
PLAN_1
  6
CONTINUOUS
 10
1.962240
 20
-3.198220
  0
VERTEX
  8
PLAN_1
  6
CONTINUOUS
 10
1.963079
 20
-3.204102
  0
VERTEX
  8
PLAN_1
  6
CONTINUOUS
 10
1.963500
 20
-3.209988
  0
VERTEX
  8
PLAN_1
  6
CONTINUOUS
 10
1.963079
 20
-3.215031
  0
VERTEX
  8
PLAN_1
  6
CONTINUOUS
 10
1.962661
 20
-3.220496
  0
VERTEX
  8
PLAN_1
  6
CONTINUOUS
 10
1.961398
 20
-3.225539
  0
VERTEX
  8
PLAN_1
  6
CONTINUOUS
 10
1.960138
 20
-3.231000
  0
VERTEX
  8
PLAN_1
  6
CONTINUOUS
 10
1.958457
 20
-3.236043
  0
VERTEX
  8
PLAN_1
  6
CONTINUOUS
 10
1.955937
 20
-3.240665
  0
VERTEX
  8
PLAN_1
  6
CONTINUOUS
 10
1.953413
 20
-3.245291
  0
VERTEX
  8
PLAN_1
  6
CONTINUOUS
 10
1.950051
 20
-3.249913
  0
VERTEX
  8
PLAN_1
  6
CONTINUOUS
 10
1.946272
 20
-3.253697
  0
VERTEX
  8
PLAN_1
  6
CONTINUOUS
 10
1.942067
 20
-3.257476
  0
VERTEX
  8
PLAN_1
  6
CONTINUOUS
 10
1.937024
 20
-3.260839
  0
VERTEX
  8
PLAN_1
  6
CONTINUOUS
 10
1.931559
 20
-3.263783
  0
VERTEX
  8
PLAN_1
  6
CONTINUOUS
 10
1.925677
 20
-3.265882
  0
VERTEX
  8
PLAN_1
  6
CONTINUOUS
 10
1.919374
 20
-3.267563
  0
VERTEX
  8
PLAN_1
  6
CONTINUOUS
 10
1.911807
 20
-3.268406
  0
VERTEX
  8
PLAN_1
  6
CONTINUOUS
 10
1.904244
 20
-3.268827
  0
VERTEX
  8
PLAN_1
  6
CONTINUOUS
 10
1.841622
 20
-3.268827
  0
VERTEX
  8
PLAN_1
  6
CONTINUOUS
 10
1.841622
 20
-3.352878
  0
SEQEND
  8
0
  0
POLYLINE
  8
PLAN_1
  6
CONTINUOUS
 66
     1
 40
0.003000
 41
0.003000
  0
VERTEX
  8
PLAN_1
  6
CONTINUOUS
 10
1.841622
 20
-3.246130
  0
VERTEX
  8
PLAN_1
  6
CONTINUOUS
 10
1.894996
 20
-3.246130
  0
VERTEX
  8
PLAN_1
  6
CONTINUOUS
 10
1.899618
 20
-3.245709
  0
VERTEX
  8
PLAN_1
  6
CONTINUOUS
 10
1.903823
 20
-3.245291
  0
VERTEX
  8
PLAN_1
  6
CONTINUOUS
 10
1.907606
 20
-3.244870
  0
VERTEX
  8
PLAN_1
  6
CONTINUOUS
 10
1.911386
 20
-3.244028
  0
VERTEX
  8
PLAN_1
  6
CONTINUOUS
 10
1.915169
 20
-3.243189
  0
VERTEX
  8
PLAN_1
  6
CONTINUOUS
 10
1.918531
 20
-3.241508
  0
VERTEX
  8
PLAN_1
  6
CONTINUOUS
 10
1.921472
 20
-3.240248
  0
VERTEX
  8
PLAN_1
  6
CONTINUOUS
 10
1.924417
 20
-3.238146
  0
VERTEX
  8
PLAN_1
  6
CONTINUOUS
 10
1.926937
 20
-3.236043
  0
VERTEX
  8
PLAN_1
  6
CONTINUOUS
 10
1.929039
 20
-3.233102
  0
VERTEX
  8
PLAN_1
  6
CONTINUOUS
 10
1.931142
 20
-3.230161
  0
VERTEX
  8
PLAN_1
  6
CONTINUOUS
 10
1.932823
 20
-3.227220
  0
VERTEX
  8
PLAN_1
  6
CONTINUOUS
 10
1.934083
 20
-3.223437
  0
VERTEX
  8
PLAN_1
  6
CONTINUOUS
 10
1.934921
 20
-3.219232
  0
VERTEX
  8
PLAN_1
  6
CONTINUOUS
 10
1.935343
 20
-3.215031
  0
VERTEX
  8
PLAN_1
  6
CONTINUOUS
 10
1.935764
 20
-3.209988
  0
VERTEX
  8
PLAN_1
  6
CONTINUOUS
 10
1.935343
 20
-3.205783
  0
VERTEX
  8
PLAN_1
  6
CONTINUOUS
 10
1.934921
 20
-3.201583
  0
VERTEX
  8
PLAN_1
  6
CONTINUOUS
 10
1.933661
 20
-3.197799
  0
VERTEX
  8
PLAN_1
  6
CONTINUOUS
 10
1.932402
 20
-3.194437
  0
VERTEX
  8
PLAN_1
  6
CONTINUOUS
 10
1.930720
 20
-3.191075
  0
VERTEX
  8
PLAN_1
  6
CONTINUOUS
 10
1.929039
 20
-3.188555
  0
VERTEX
  8
PLAN_1
  6
CONTINUOUS
 10
1.926516
 20
-3.186031
  0
VERTEX
  8
PLAN_1
  6
CONTINUOUS
 10
1.923996
 20
-3.183929
  0
VERTEX
  8
PLAN_1
  6
CONTINUOUS
 10
1.921472
 20
-3.182248
  0
VERTEX
  8
PLAN_1
  6
CONTINUOUS
 10
1.918531
 20
-3.180567
  0
VERTEX
  8
PLAN_1
  6
CONTINUOUS
 10
1.915169
 20
-3.179307
  0
VERTEX
  8
PLAN_1
  6
CONTINUOUS
 10
1.911807
 20
-3.178469
  0
VERTEX
  8
PLAN_1
  6
CONTINUOUS
 10
1.908024
 20
-3.177626
  0
VERTEX
  8
PLAN_1
  6
CONTINUOUS
 10
1.904244
 20
-3.177205
  0
VERTEX
  8
PLAN_1
  6
CONTINUOUS
 10
1.900039
 20
-3.176787
  0
VERTEX
  8
PLAN_1
  6
CONTINUOUS
 10
1.896256
 20
-3.176787
  0
VERTEX
  8
PLAN_1
  6
CONTINUOUS
 10
1.841622
 20
-3.176787
  0
VERTEX
  8
PLAN_1
  6
CONTINUOUS
 10
1.841622
 20
-3.246130
  0
SEQEND
  8
0
  0
POLYLINE
  8
PLAN_1
  6
CONTINUOUS
 66
     1
 40
0.003000
 41
0.003000
  0
VERTEX
  8
PLAN_1
  6
CONTINUOUS
 10
2.117319
 20
-3.212091
  0
VERTEX
  8
PLAN_1
  6
CONTINUOUS
 10
2.116480
 20
-3.206626
  0
VERTEX
  8
PLAN_1
  6
CONTINUOUS
 10
2.115638
 20
-3.201583
  0
VERTEX
  8
PLAN_1
  6
CONTINUOUS
 10
2.113957
 20
-3.196961
  0
VERTEX
  8
PLAN_1
  6
CONTINUOUS
 10
2.111858
 20
-3.192756
  0
VERTEX
  8
PLAN_1
  6
CONTINUOUS
 10
2.109756
 20
-3.188972
  0
VERTEX
  8
PLAN_1
  6
CONTINUOUS
 10
2.106815
 20
-3.185610
  0
VERTEX
  8
PLAN_1
  6
CONTINUOUS
 10
2.103870
 20
-3.182669
  0
VERTEX
  8
PLAN_1
  6
CONTINUOUS
 10
2.100508
 20
-3.180150
  0
VERTEX
  8
PLAN_1
  6
CONTINUOUS
 10
2.096728
 20
-3.178047
  0
VERTEX
  8
PLAN_1
  6
CONTINUOUS
 10
2.092945
 20
-3.176366
  0
VERTEX
  8
PLAN_1
  6
CONTINUOUS
 10
2.088740
 20
-3.174685
  0
VERTEX
  8
PLAN_1
  6
CONTINUOUS
 10
2.084961
 20
-3.173425
  0
VERTEX
  8
PLAN_1
  6
CONTINUOUS
 10
2.080756
 20
-3.172583
  0
VERTEX
  8
PLAN_1
  6
CONTINUOUS
 10
2.076134
 20
-3.172161
  0
VERTEX
  8
PLAN_1
  6
CONTINUOUS
 10
2.071929
 20
-3.171744
  0
VERTEX
  8
PLAN_1
  6
CONTINUOUS
 10
2.067728
 20
-3.171744
  0
VERTEX
  8
PLAN_1
  6
CONTINUOUS
 10
2.061004
 20
-3.171744
  0
VERTEX
  8
PLAN_1
  6
CONTINUOUS
 10
2.053437
 20
-3.172583
  0
VERTEX
  8
PLAN_1
  6
CONTINUOUS
 10
2.049657
 20
-3.173425
  0
VERTEX
  8
PLAN_1
  6
CONTINUOUS
 10
2.045874
 20
-3.174685
  0
VERTEX
  8
PLAN_1
  6
CONTINUOUS
 10
2.042091
 20
-3.175945
  0
VERTEX
  8
PLAN_1
  6
CONTINUOUS
 10
2.038728
 20
-3.177626
  0
VERTEX
  8
PLAN_1
  6
CONTINUOUS
 10
2.035366
 20
-3.179728
  0
VERTEX
  8
PLAN_1
  6
CONTINUOUS
 10
2.032004
 20
-3.182248
  0
VERTEX
  8
PLAN_1
  6
CONTINUOUS
 10
2.029484
 20
-3.185193
  0
VERTEX
  8
PLAN_1
  6
CONTINUOUS
 10
2.026961
 20
-3.188134
  0
VERTEX
  8
PLAN_1
  6
CONTINUOUS
 10
2.024862
 20
-3.191917
  0
VERTEX
  8
PLAN_1
  6
CONTINUOUS
 10
2.023598
 20
-3.196118
  0
VERTEX
  8
PLAN_1
  6
CONTINUOUS
 10
2.022760
 20
-3.201161
  0
VERTEX
  8
PLAN_1
  6
CONTINUOUS
 10
2.022339
 20
-3.206626
  0
VERTEX
  8
PLAN_1
  6
CONTINUOUS
 10
2.022339
 20
-3.209567
  0
VERTEX
  8
PLAN_1
  6
CONTINUOUS
 10
2.022760
 20
-3.212508
  0
VERTEX
  8
PLAN_1
  6
CONTINUOUS
 10
2.023598
 20
-3.215031
  0
VERTEX
  8
PLAN_1
  6
CONTINUOUS
 10
2.024441
 20
-3.217134
  0
VERTEX
  8
PLAN_1
  6
CONTINUOUS
 10
2.025280
 20
-3.219232
  0
VERTEX
  8
PLAN_1
  6
CONTINUOUS
 10
2.026543
 20
-3.221335
  0
VERTEX
  8
PLAN_1
  6
CONTINUOUS
 10
2.028224
 20
-3.223016
  0
VERTEX
  8
PLAN_1
  6
CONTINUOUS
 10
2.029484
 20
-3.224276
  0
VERTEX
  8
PLAN_1
  6
CONTINUOUS
 10
2.033268
 20
-3.227220
  0
VERTEX
  8
PLAN_1
  6
CONTINUOUS
 10
2.037047
 20
-3.228902
  0
VERTEX
  8
PLAN_1
  6
CONTINUOUS
 10
2.041673
 20
-3.230583
  0
VERTEX
  8
PLAN_1
  6
CONTINUOUS
 10
2.045874
 20
-3.231843
  0
VERTEX
  8
PLAN_1
  6
CONTINUOUS
 10
2.102610
 20
-3.244870
  0
VERTEX
  8
PLAN_1
  6
CONTINUOUS
 10
2.107654
 20
-3.246130
  0
VERTEX
  8
PLAN_1
  6
CONTINUOUS
 10
2.112276
 20
-3.247390
  0
VERTEX
  8
PLAN_1
  6
CONTINUOUS
 10
2.116480
 20
-3.249492
  0
VERTEX
  8
PLAN_1
  6
CONTINUOUS
 10
2.120681
 20
-3.251173
  0
VERTEX
  8
PLAN_1
  6
CONTINUOUS
 10
2.124886
 20
-3.253697
  0
VERTEX
  8
PLAN_1
  6
CONTINUOUS
 10
2.128248
 20
-3.256217
  0
VERTEX
  8
PLAN_1
  6
CONTINUOUS
 10
2.132031
 20
-3.258740
  0
VERTEX
  8
PLAN_1
  6
CONTINUOUS
 10
2.134972
 20
-3.261681
  0
VERTEX
  8
PLAN_1
  6
CONTINUOUS
 10
2.137913
 20
-3.265465
  0
VERTEX
  8
PLAN_1
  6
CONTINUOUS
 10
2.140437
 20
-3.268827
  0
VERTEX
  8
PLAN_1
  6
CONTINUOUS
 10
2.142535
 20
-3.273028
  0
VERTEX
  8
PLAN_1
  6
CONTINUOUS
 10
2.144638
 20
-3.277232
  0
VERTEX
  8
PLAN_1
  6
CONTINUOUS
 10
2.145898
 20
-3.281854
  0
VERTEX
  8
PLAN_1
  6
CONTINUOUS
 10
2.147161
 20
-3.286898
  0
VERTEX
  8
PLAN_1
  6
CONTINUOUS
 10
2.147579
 20
-3.292362
  0
VERTEX
  8
PLAN_1
  6
CONTINUOUS
 10
2.148000
 20
-3.298244
  0
VERTEX
  8
PLAN_1
  6
CONTINUOUS
 10
2.148000
 20
-3.302449
  0
VERTEX
  8
PLAN_1
  6
CONTINUOUS
 10
2.147579
 20
-3.306650
  0
VERTEX
  8
PLAN_1
  6
CONTINUOUS
 10
2.146740
 20
-3.310433
  0
VERTEX
  8
PLAN_1
  6
CONTINUOUS
 10
2.145898
 20
-3.314217
  0
VERTEX
  8
PLAN_1
  6
CONTINUOUS
 10
2.145059
 20
-3.317996
  0
VERTEX
  8
PLAN_1
  6
CONTINUOUS
 10
2.143799
 20
-3.321358
  0
VERTEX
  8
PLAN_1
  6
CONTINUOUS
 10
2.142118
 20
-3.324303
  0
VERTEX
  8
PLAN_1
  6
CONTINUOUS
 10
2.140437
 20
-3.327244
  0
VERTEX
  8
PLAN_1
  6
CONTINUOUS
 10
2.138756
 20
-3.330185
  0
VERTEX
  8
PLAN_1
  6
CONTINUOUS
 10
2.136654
 20
-3.333126
  0
VERTEX
  8
PLAN_1
  6
CONTINUOUS
 10
2.134551
 20
-3.335650
  0
VERTEX
  8
PLAN_1
  6
CONTINUOUS
 10
2.132449
 20
-3.337752
  0
VERTEX
  8
PLAN_1
  6
CONTINUOUS
 10
2.127406
 20
-3.342374
  0
VERTEX
  8
PLAN_1
  6
CONTINUOUS
 10
2.121945
 20
-3.345736
  0
VERTEX
  8
PLAN_1
  6
CONTINUOUS
 10
2.116059
 20
-3.349098
  0
VERTEX
  8
PLAN_1
  6
CONTINUOUS
 10
2.109756
 20
-3.351618
  0
VERTEX
  8
PLAN_1
  6
CONTINUOUS
 10
2.103031
 20
-3.353720
  0
VERTEX
  8
PLAN_1
  6
CONTINUOUS
 10
2.096728
 20
-3.355402
  0
VERTEX
  8
PLAN_1
  6
CONTINUOUS
 10
2.090004
 20
-3.356661
  0
VERTEX
  8
PLAN_1
  6
CONTINUOUS
 10
2.083280
 20
-3.357504
  0
VERTEX
  8
PLAN_1
  6
CONTINUOUS
 10
2.076555
 20
-3.358343
  0
VERTEX
  8
PLAN_1
  6
CONTINUOUS
 10
2.069831
 20
-3.358343
  0
VERTEX
  8
PLAN_1
  6
CONTINUOUS
 10
2.063524
 20
-3.358343
  0
VERTEX
  8
PLAN_1
  6
CONTINUOUS
 10
2.057220
 20
-3.357921
  0
VERTEX
  8
PLAN_1
  6
CONTINUOUS
 10
2.051339
 20
-3.357083
  0
VERTEX
  8
PLAN_1
  6
CONTINUOUS
 10
2.046295
 20
-3.356661
  0
VERTEX
  8
PLAN_1
  6
CONTINUOUS
 10
2.041252
 20
-3.355402
  0
VERTEX
  8
PLAN_1
  6
CONTINUOUS
 10
2.037047
 20
-3.354559
  0
VERTEX
  8
PLAN_1
  6
CONTINUOUS
 10
2.032846
 20
-3.353299
  0
VERTEX
  8
PLAN_1
  6
CONTINUOUS
 10
2.029484
 20
-3.351618
  0
VERTEX
  8
PLAN_1
  6
CONTINUOUS
 10
2.023181
 20
-3.348677
  0
VERTEX
  8
PLAN_1
  6
CONTINUOUS
 10
2.017717
 20
-3.345736
  0
VERTEX
  8
PLAN_1
  6
CONTINUOUS
 10
2.013512
 20
-3.342374
  0
VERTEX
  8
PLAN_1
  6
CONTINUOUS
 10
2.009732
 20
-3.339012
  0
VERTEX
  8
PLAN_1
  6
CONTINUOUS
 10
2.006787
 20
-3.336488
  0
VERTEX
  8
PLAN_1
  6
CONTINUOUS
 10
2.003846
 20
-3.333547
  0
VERTEX
  8
PLAN_1
  6
CONTINUOUS
 10
2.001744
 20
-3.330606
  0
VERTEX
  8
PLAN_1
  6
CONTINUOUS
 10
1.999646
 20
-3.327665
  0
VERTEX
  8
PLAN_1
  6
CONTINUOUS
 10
1.997543
 20
-3.324303
  0
VERTEX
  8
PLAN_1
  6
CONTINUOUS
 10
1.995862
 20
-3.321358
  0
VERTEX
  8
PLAN_1
  6
CONTINUOUS
 10
1.994602
 20
-3.318417
  0
VERTEX
  8
PLAN_1
  6
CONTINUOUS
 10
1.993339
 20
-3.315055
  0
VERTEX
  8
PLAN_1
  6
CONTINUOUS
 10
1.991657
 20
-3.308752
  0
VERTEX
  8
PLAN_1
  6
CONTINUOUS
 10
1.990398
 20
-3.302449
  0
VERTEX
  8
PLAN_1
  6
CONTINUOUS
 10
1.989559
 20
-3.295724
  0
VERTEX
  8
PLAN_1
  6
CONTINUOUS
 10
1.989559
 20
-3.288579
  0
VERTEX
  8
PLAN_1
  6
CONTINUOUS
 10
2.014776
 20
-3.288579
  0
VERTEX
  8
PLAN_1
  6
CONTINUOUS
 10
2.015193
 20
-3.295303
  0
VERTEX
  8
PLAN_1
  6
CONTINUOUS
 10
2.016035
 20
-3.301185
  0
VERTEX
  8
PLAN_1
  6
CONTINUOUS
 10
2.017717
 20
-3.306228
  0
VERTEX
  8
PLAN_1
  6
CONTINUOUS
 10
2.019819
 20
-3.311272
  0
VERTEX
  8
PLAN_1
  6
CONTINUOUS
 10
2.022339
 20
-3.315476
  0
VERTEX
  8
PLAN_1
  6
CONTINUOUS
 10
2.025280
 20
-3.319260
  0
VERTEX
  8
PLAN_1
  6
CONTINUOUS
 10
2.029063
 20
-3.322622
  0
VERTEX
  8
PLAN_1
  6
CONTINUOUS
 10
2.032846
 20
-3.325563
  0
VERTEX
  8
PLAN_1
  6
CONTINUOUS
 10
2.036630
 20
-3.328083
  0
VERTEX
  8
PLAN_1
  6
CONTINUOUS
 10
2.041252
 20
-3.330185
  0
VERTEX
  8
PLAN_1
  6
CONTINUOUS
 10
2.045453
 20
-3.331866
  0
VERTEX
  8
PLAN_1
  6
CONTINUOUS
 10
2.050496
 20
-3.333126
  0
VERTEX
  8
PLAN_1
  6
CONTINUOUS
 10
2.055118
 20
-3.333969
  0
VERTEX
  8
PLAN_1
  6
CONTINUOUS
 10
2.060161
 20
-3.334807
  0
VERTEX
  8
PLAN_1
  6
CONTINUOUS
 10
2.064787
 20
-3.335228
  0
VERTEX
  8
PLAN_1
  6
CONTINUOUS
 10
2.069831
 20
-3.335228
  0
VERTEX
  8
PLAN_1
  6
CONTINUOUS
 10
2.077394
 20
-3.335228
  0
VERTEX
  8
PLAN_1
  6
CONTINUOUS
 10
2.086220
 20
-3.333969
  0
VERTEX
  8
PLAN_1
  6
CONTINUOUS
 10
2.090421
 20
-3.333126
  0
VERTEX
  8
PLAN_1
  6
CONTINUOUS
 10
2.094626
 20
-3.332287
  0
VERTEX
  8
PLAN_1
  6
CONTINUOUS
 10
2.098827
 20
-3.331028
  0
VERTEX
  8
PLAN_1
  6
CONTINUOUS
 10
2.103031
 20
-3.329346
  0
VERTEX
  8
PLAN_1
  6
CONTINUOUS
 10
2.106815
 20
-3.327244
  0
VERTEX
  8
PLAN_1
  6
CONTINUOUS
 10
2.110594
 20
-3.324720
  0
VERTEX
  8
PLAN_1
  6
CONTINUOUS
 10
2.113539
 20
-3.322201
  0
VERTEX
  8
PLAN_1
  6
CONTINUOUS
 10
2.116480
 20
-3.318839
  0
VERTEX
  8
PLAN_1
  6
CONTINUOUS
 10
2.118583
 20
-3.315476
  0
VERTEX
  8
PLAN_1
  6
CONTINUOUS
 10
2.120264
 20
-3.311272
  0
VERTEX
  8
PLAN_1
  6
CONTINUOUS
 10
2.121524
 20
-3.306650
  0
VERTEX
  8
PLAN_1
  6
CONTINUOUS
 10
2.121945
 20
-3.301606
  0
VERTEX
  8
PLAN_1
  6
CONTINUOUS
 10
2.121945
 20
-3.297823
  0
VERTEX
  8
PLAN_1
  6
CONTINUOUS
 10
2.121524
 20
-3.294461
  0
VERTEX
  8
PLAN_1
  6
CONTINUOUS
 10
2.120681
 20
-3.291520
  0
VERTEX
  8
PLAN_1
  6
CONTINUOUS
 10
2.119843
 20
-3.288579
  0
VERTEX
  8
PLAN_1
  6
CONTINUOUS
 10
2.118583
 20
-3.286055
  0
VERTEX
  8
PLAN_1
  6
CONTINUOUS
 10
2.116902
 20
-3.283535
  0
VERTEX
  8
PLAN_1
  6
CONTINUOUS
 10
2.115220
 20
-3.281433
  0
VERTEX
  8
PLAN_1
  6
CONTINUOUS
 10
2.113118
 20
-3.279331
  0
VERTEX
  8
PLAN_1
  6
CONTINUOUS
 10
2.110177
 20
-3.277232
  0
VERTEX
  8
PLAN_1
  6
CONTINUOUS
 10
2.107232
 20
-3.275551
  0
VERTEX
  8
PLAN_1
  6
CONTINUOUS
 10
2.103870
 20
-3.273870
  0
VERTEX
  8
PLAN_1
  6
CONTINUOUS
 10
2.100091
 20
-3.272189
  0
VERTEX
  8
PLAN_1
  6
CONTINUOUS
 10
2.090843
 20
-3.269244
  0
VERTEX
  8
PLAN_1
  6
CONTINUOUS
 10
2.079496
 20
-3.266303
  0
VERTEX
  8
PLAN_1
  6
CONTINUOUS
 10
2.038728
 20
-3.257059
  0
VERTEX
  8
PLAN_1
  6
CONTINUOUS
 10
2.033268
 20
-3.255378
  0
VERTEX
  8
PLAN_1
  6
CONTINUOUS
 10
2.026543
 20
-3.253276
  0
VERTEX
  8
PLAN_1
  6
CONTINUOUS
 10
2.023181
 20
-3.251594
  0
VERTEX
  8
PLAN_1
  6
CONTINUOUS
 10
2.019398
 20
-3.249913
  0
VERTEX
  8
PLAN_1
  6
CONTINUOUS
 10
2.016035
 20
-3.247811
  0
VERTEX
  8
PLAN_1
  6
CONTINUOUS
 10
2.012673
 20
-3.245291
  0
VERTEX
  8
PLAN_1
  6
CONTINUOUS
 10
2.009311
 20
-3.242768
  0
VERTEX
  8
PLAN_1
  6
CONTINUOUS
 10
2.006370
 20
-3.239406
  0
VERTEX
  8
PLAN_1
  6
CONTINUOUS
 10
2.003425
 20
-3.235626
  0
VERTEX
  8
PLAN_1
  6
CONTINUOUS
 10
2.000906
 20
-3.231843
  0
VERTEX
  8
PLAN_1
  6
CONTINUOUS
 10
1.998803
 20
-3.227220
  0
VERTEX
  8
PLAN_1
  6
CONTINUOUS
 10
1.997543
 20
-3.222177
  0
VERTEX
  8
PLAN_1
  6
CONTINUOUS
 10
1.996701
 20
-3.216291
  0
VERTEX
  8
PLAN_1
  6
CONTINUOUS
 10
1.996283
 20
-3.209988
  0
VERTEX
  8
PLAN_1
  6
CONTINUOUS
 10
1.996283
 20
-3.204102
  0
VERTEX
  8
PLAN_1
  6
CONTINUOUS
 10
1.997122
 20
-3.198642
  0
VERTEX
  8
PLAN_1
  6
CONTINUOUS
 10
1.998382
 20
-3.192756
  0
VERTEX
  8
PLAN_1
  6
CONTINUOUS
 10
2.000063
 20
-3.187291
  0
VERTEX
  8
PLAN_1
  6
CONTINUOUS
 10
2.002165
 20
-3.182248
  0
VERTEX
  8
PLAN_1
  6
CONTINUOUS
 10
2.005106
 20
-3.176787
  0
VERTEX
  8
PLAN_1
  6
CONTINUOUS
 10
2.008469
 20
-3.172161
  0
VERTEX
  8
PLAN_1
  6
CONTINUOUS
 10
2.012252
 20
-3.167539
  0
VERTEX
  8
PLAN_1
  6
CONTINUOUS
 10
2.016874
 20
-3.163339
  0
VERTEX
  8
PLAN_1
  6
CONTINUOUS
 10
2.021917
 20
-3.159976
  0
VERTEX
  8
PLAN_1
  6
CONTINUOUS
 10
2.027382
 20
-3.156614
  0
VERTEX
  8
PLAN_1
  6
CONTINUOUS
 10
2.033685
 20
-3.153669
  0
VERTEX
  8
PLAN_1
  6
CONTINUOUS
 10
2.040409
 20
-3.151571
  0
VERTEX
  8
PLAN_1
  6
CONTINUOUS
 10
2.047976
 20
-3.149890
  0
VERTEX
  8
PLAN_1
  6
CONTINUOUS
 10
2.055961
 20
-3.149047
  0
VERTEX
  8
PLAN_1
  6
CONTINUOUS
 10
2.064787
 20
-3.148626
  0
VERTEX
  8
PLAN_1
  6
CONTINUOUS
 10
2.071091
 20
-3.148626
  0
VERTEX
  8
PLAN_1
  6
CONTINUOUS
 10
2.076972
 20
-3.149047
  0
VERTEX
  8
PLAN_1
  6
CONTINUOUS
 10
2.082858
 20
-3.149469
  0
VERTEX
  8
PLAN_1
  6
CONTINUOUS
 10
2.087902
 20
-3.150307
  0
VERTEX
  8
PLAN_1
  6
CONTINUOUS
 10
2.092945
 20
-3.151150
  0
VERTEX
  8
PLAN_1
  6
CONTINUOUS
 10
2.097567
 20
-3.152409
  0
VERTEX
  8
PLAN_1
  6
CONTINUOUS
 10
2.102189
 20
-3.153669
  0
VERTEX
  8
PLAN_1
  6
CONTINUOUS
 10
2.105972
 20
-3.155350
  0
VERTEX
  8
PLAN_1
  6
CONTINUOUS
 10
2.109756
 20
-3.157031
  0
VERTEX
  8
PLAN_1
  6
CONTINUOUS
 10
2.113539
 20
-3.158713
  0
VERTEX
  8
PLAN_1
  6
CONTINUOUS
 10
2.116480
 20
-3.160815
  0
VERTEX
  8
PLAN_1
  6
CONTINUOUS
 10
2.119843
 20
-3.162917
  0
VERTEX
  8
PLAN_1
  6
CONTINUOUS
 10
2.122362
 20
-3.165020
  0
VERTEX
  8
PLAN_1
  6
CONTINUOUS
 10
2.124886
 20
-3.167118
  0
VERTEX
  8
PLAN_1
  6
CONTINUOUS
 10
2.127406
 20
-3.169642
  0
VERTEX
  8
PLAN_1
  6
CONTINUOUS
 10
2.129508
 20
-3.172161
  0
VERTEX
  8
PLAN_1
  6
CONTINUOUS
 10
2.132870
 20
-3.177205
  0
VERTEX
  8
PLAN_1
  6
CONTINUOUS
 10
2.135811
 20
-3.182248
  0
VERTEX
  8
PLAN_1
  6
CONTINUOUS
 10
2.137913
 20
-3.187713
  0
VERTEX
  8
PLAN_1
  6
CONTINUOUS
 10
2.139594
 20
-3.192756
  0
VERTEX
  8
PLAN_1
  6
CONTINUOUS
 10
2.140854
 20
-3.198220
  0
VERTEX
  8
PLAN_1
  6
CONTINUOUS
 10
2.141697
 20
-3.202843
  0
VERTEX
  8
PLAN_1
  6
CONTINUOUS
 10
2.142118
 20
-3.207886
  0
VERTEX
  8
PLAN_1
  6
CONTINUOUS
 10
2.142535
 20
-3.212091
  0
VERTEX
  8
PLAN_1
  6
CONTINUOUS
 10
2.117319
 20
-3.212091
  0
SEQEND
  8
0
  0
POLYLINE
  8
PLAN_1
  6
CONTINUOUS
 66
     1
 40
0.008402
 41
0.008402
  0
VERTEX
  8
PLAN_1
  6
CONTINUOUS
 10
-1.888287
 20
2.256063
  0
VERTEX
  8
PLAN_1
  6
CONTINUOUS
 10
-1.888287
 20
1.897992
  0
VERTEX
  8
PLAN_1
  6
CONTINUOUS
 10
-0.690512
 20
1.897992
  0
VERTEX
  8
PLAN_1
  6
CONTINUOUS
 10
-0.690512
 20
2.256063
  0
SEQEND
  8
0
  0
POLYLINE
  8
PLAN_1
  6
CONTINUOUS
 66
     1
 40
0.007142
 41
0.007142
  0
VERTEX
  8
PLAN_1
  6
CONTINUOUS
 10
-1.841638
 20
1.897992
  0
VERTEX
  8
PLAN_1
  6
CONTINUOUS
 10
-1.841638
 20
1.987508
  0
VERTEX
  8
PLAN_1
  6
CONTINUOUS
 10
-1.888287
 20
1.987508
  0
SEQEND
  8
0
  0
POLYLINE
  8
PLAN_1
  6
CONTINUOUS
 66
     1
 40
0.007142
 41
0.007142
  0
VERTEX
  8
PLAN_1
  6
CONTINUOUS
 10
-0.731280
 20
1.897992
  0
VERTEX
  8
PLAN_1
  6
CONTINUOUS
 10
-0.731280
 20
1.987508
  0
VERTEX
  8
PLAN_1
  6
CONTINUOUS
 10
-0.690512
 20
1.987508
  0
SEQEND
  8
0
  0
POLYLINE
  8
PLAN_1
  6
CONTINUOUS
 66
     1
 40
0.008402
 41
0.008402
  0
VERTEX
  8
PLAN_1
  6
CONTINUOUS
 10
-1.649154
 20
1.516386
  0
VERTEX
  8
PLAN_1
  6
CONTINUOUS
 10
-1.594516
 20
1.307512
  0
VERTEX
  8
PLAN_1
  6
CONTINUOUS
 10
-0.983024
 20
1.307512
  0
VERTEX
  8
PLAN_1
  6
CONTINUOUS
 10
-0.914520
 20
1.516386
  0
VERTEX
  8
PLAN_1
  6
CONTINUOUS
 10
-1.649154
 20
1.516386
  0
SEQEND
  8
0
  0
POLYLINE
  8
PLAN_1
  6
CONTINUOUS
 66
     1
 40
0.007142
 41
0.007142
  0
VERTEX
  8
PLAN_1
  6
CONTINUOUS
 10
-1.600402
 20
1.513445
  0
VERTEX
  8
PLAN_1
  6
CONTINUOUS
 10
-1.547449
 20
1.307512
  0
SEQEND
  8
0
  0
POLYLINE
  8
PLAN_1
  6
CONTINUOUS
 66
     1
 40
0.007142
 41
0.007142
  0
VERTEX
  8
PLAN_1
  6
CONTINUOUS
 10
-1.565098
 20
1.513445
  0
VERTEX
  8
PLAN_1
  6
CONTINUOUS
 10
-1.512146
 20
1.307512
  0
SEQEND
  8
0
  0
POLYLINE
  8
PLAN_1
  6
CONTINUOUS
 66
     1
 40
0.007142
 41
0.007142
  0
VERTEX
  8
PLAN_1
  6
CONTINUOUS
 10
-0.983024
 20
1.515126
  0
VERTEX
  8
PLAN_1
  6
CONTINUOUS
 10
-1.035976
 20
1.309610
  0
SEQEND
  8
0
  0
POLYLINE
  8
PLAN_1
  6
CONTINUOUS
 66
     1
 40
0.007142
 41
0.007142
  0
VERTEX
  8
PLAN_1
  6
CONTINUOUS
 10
-1.018327
 20
1.515126
  0
VERTEX
  8
PLAN_1
  6
CONTINUOUS
 10
-1.071280
 20
1.309610
  0
SEQEND
  8
0
  0
POLYLINE
  8
PLAN_1
  6
CONTINUOUS
 66
     1
 40
0.008402
 41
0.008402
  0
VERTEX
  8
PLAN_1
  6
CONTINUOUS
 10
-0.846433
 20
2.606571
  0
VERTEX
  8
PLAN_1
  6
CONTINUOUS
 10
-0.846433
 20
2.652378
  0
VERTEX
  8
PLAN_1
  6
CONTINUOUS
 10
-1.736150
 20
2.652378
  0
VERTEX
  8
PLAN_1
  6
CONTINUOUS
 10
-1.736150
 20
2.606571
  0
SEQEND
  8
0
  0
POLYLINE
  8
PLAN_1
  6
CONTINUOUS
 66
     1
 40
0.008402
 41
0.008402
  0
VERTEX
  8
PLAN_1
  6
CONTINUOUS
 10
-1.676890
 20
2.892776
  0
VERTEX
  8
PLAN_1
  6
CONTINUOUS
 10
-1.675630
 20
2.895717
  0
VERTEX
  8
PLAN_1
  6
CONTINUOUS
 10
-1.674370
 20
2.898236
  0
VERTEX
  8
PLAN_1
  6
CONTINUOUS
 10
-1.673106
 20
2.900760
  0
VERTEX
  8
PLAN_1
  6
CONTINUOUS
 10
-1.671425
 20
2.903280
  0
VERTEX
  8
PLAN_1
  6
CONTINUOUS
 10
-1.669744
 20
2.905803
  0
VERTEX
  8
PLAN_1
  6
CONTINUOUS
 10
-1.667646
 20
2.907906
  0
VERTEX
  8
PLAN_1
  6
CONTINUOUS
 10
-1.665543
 20
2.910004
  0
VERTEX
  8
PLAN_1
  6
CONTINUOUS
 10
-1.663020
 20
2.911685
  0
VERTEX
  8
PLAN_1
  6
CONTINUOUS
 10
-1.660921
 20
2.913366
  0
VERTEX
  8
PLAN_1
  6
CONTINUOUS
 10
-1.657976
 20
2.915047
  0
VERTEX
  8
PLAN_1
  6
CONTINUOUS
 10
-1.655457
 20
2.916311
  0
VERTEX
  8
PLAN_1
  6
CONTINUOUS
 10
-1.652516
 20
2.917150
  0
VERTEX
  8
PLAN_1
  6
CONTINUOUS
 10
-1.649575
 20
2.917992
  0
VERTEX
  8
PLAN_1
  6
CONTINUOUS
 10
-1.646630
 20
2.918831
  0
VERTEX
  8
PLAN_1
  6
CONTINUOUS
 10
-1.643689
 20
2.919252
  0
VERTEX
  8
PLAN_1
  6
CONTINUOUS
 10
-1.640327
 20
2.919252
  0
SEQEND
  8
0
  0
POLYLINE
  8
PLAN_1
  6
CONTINUOUS
 66
     1
 40
0.008402
 41
0.008402
  0
VERTEX
  8
PLAN_1
  6
CONTINUOUS
 10
-1.640327
 20
2.919252
  0
VERTEX
  8
PLAN_1
  6
CONTINUOUS
 10
-0.940996
 20
2.919252
  0
SEQEND
  8
0
  0
POLYLINE
  8
PLAN_1
  6
CONTINUOUS
 66
     1
 40
0.008402
 41
0.008402
  0
VERTEX
  8
PLAN_1
  6
CONTINUOUS
 10
-0.940996
 20
2.919252
  0
VERTEX
  8
PLAN_1
  6
CONTINUOUS
 10
-0.937213
 20
2.919252
  0
VERTEX
  8
PLAN_1
  6
CONTINUOUS
 10
-0.933429
 20
2.918409
  0
VERTEX
  8
PLAN_1
  6
CONTINUOUS
 10
-0.929650
 20
2.917571
  0
VERTEX
  8
PLAN_1
  6
CONTINUOUS
 10
-0.926287
 20
2.916311
  0
VERTEX
  8
PLAN_1
  6
CONTINUOUS
 10
-0.922925
 20
2.914630
  0
VERTEX
  8
PLAN_1
  6
CONTINUOUS
 10
-0.919563
 20
2.912528
  0
VERTEX
  8
PLAN_1
  6
CONTINUOUS
 10
-0.916618
 20
2.910425
  0
VERTEX
  8
PLAN_1
  6
CONTINUOUS
 10
-0.914098
 20
2.907906
  0
VERTEX
  8
PLAN_1
  6
CONTINUOUS
 10
-0.911575
 20
2.905382
  0
VERTEX
  8
PLAN_1
  6
CONTINUOUS
 10
-0.909476
 20
2.902441
  0
VERTEX
  8
PLAN_1
  6
CONTINUOUS
 10
-0.907374
 20
2.899079
  0
VERTEX
  8
PLAN_1
  6
CONTINUOUS
 10
-0.906114
 20
2.896138
  0
VERTEX
  8
PLAN_1
  6
CONTINUOUS
 10
-0.904850
 20
2.892354
  0
VERTEX
  8
PLAN_1
  6
CONTINUOUS
 10
-0.903591
 20
2.888571
  0
VERTEX
  8
PLAN_1
  6
CONTINUOUS
 10
-0.903169
 20
2.884787
  0
VERTEX
  8
PLAN_1
  6
CONTINUOUS
 10
-0.902752
 20
2.881008
  0
SEQEND
  8
0
  0
POLYLINE
  8
PLAN_1
  6
CONTINUOUS
 66
     1
 40
0.008402
 41
0.008402
  0
VERTEX
  8
PLAN_1
  6
CONTINUOUS
 10
-0.902752
 20
2.881008
  0
VERTEX
  8
PLAN_1
  6
CONTINUOUS
 10
-0.846433
 20
2.652378
  0
VERTEX
  8
PLAN_1
  6
CONTINUOUS
 10
-1.736150
 20
2.652378
  0
VERTEX
  8
PLAN_1
  6
CONTINUOUS
 10
-1.676890
 20
2.892776
  0
SEQEND
  8
0
  0
POLYLINE
  8
PLAN_1
  6
CONTINUOUS
 66
     1
 40
0.008402
 41
0.008402
  0
VERTEX
  8
PLAN_1
  6
CONTINUOUS
 10
-1.068756
 20
3.032303
  0
VERTEX
  8
PLAN_1
  6
CONTINUOUS
 10
-1.078843
 20
3.040709
  0
VERTEX
  8
PLAN_1
  6
CONTINUOUS
 10
-1.089772
 20
3.048697
  0
VERTEX
  8
PLAN_1
  6
CONTINUOUS
 10
-1.101118
 20
3.056681
  0
VERTEX
  8
PLAN_1
  6
CONTINUOUS
 10
-1.113307
 20
3.063827
  0
VERTEX
  8
PLAN_1
  6
CONTINUOUS
 10
-1.125913
 20
3.070547
  0
VERTEX
  8
PLAN_1
  6
CONTINUOUS
 10
-1.138945
 20
3.076854
  0
VERTEX
  8
PLAN_1
  6
CONTINUOUS
 10
-1.152394
 20
3.082736
  0
VERTEX
  8
PLAN_1
  6
CONTINUOUS
 10
-1.166260
 20
3.088201
  0
VERTEX
  8
PLAN_1
  6
CONTINUOUS
 10
-1.180551
 20
3.092823
  0
VERTEX
  8
PLAN_1
  6
CONTINUOUS
 10
-1.195260
 20
3.097028
  0
VERTEX
  8
PLAN_1
  6
CONTINUOUS
 10
-1.210811
 20
3.100390
  0
VERTEX
  8
PLAN_1
  6
CONTINUOUS
 10
-1.226358
 20
3.103331
  0
VERTEX
  8
PLAN_1
  6
CONTINUOUS
 10
-1.241909
 20
3.105850
  0
VERTEX
  8
PLAN_1
  6
CONTINUOUS
 10
-1.258299
 20
3.107531
  0
VERTEX
  8
PLAN_1
  6
CONTINUOUS
 10
-1.274689
 20
3.108374
  0
VERTEX
  8
PLAN_1
  6
CONTINUOUS
 10
-1.291083
 20
3.108795
  0
VERTEX
  8
PLAN_1
  6
CONTINUOUS
 10
-1.307894
 20
3.108374
  0
VERTEX
  8
PLAN_1
  6
CONTINUOUS
 10
-1.324283
 20
3.107531
  0
VERTEX
  8
PLAN_1
  6
CONTINUOUS
 10
-1.340673
 20
3.105850
  0
VERTEX
  8
PLAN_1
  6
CONTINUOUS
 10
-1.356642
 20
3.103331
  0
VERTEX
  8
PLAN_1
  6
CONTINUOUS
 10
-1.372193
 20
3.100390
  0
VERTEX
  8
PLAN_1
  6
CONTINUOUS
 10
-1.387323
 20
3.097028
  0
VERTEX
  8
PLAN_1
  6
CONTINUOUS
 10
-1.402031
 20
3.092823
  0
VERTEX
  8
PLAN_1
  6
CONTINUOUS
 10
-1.416323
 20
3.087780
  0
VERTEX
  8
PLAN_1
  6
CONTINUOUS
 10
-1.430193
 20
3.082736
  0
VERTEX
  8
PLAN_1
  6
CONTINUOUS
 10
-1.444059
 20
3.076854
  0
VERTEX
  8
PLAN_1
  6
CONTINUOUS
 10
-1.457087
 20
3.070547
  0
VERTEX
  8
PLAN_1
  6
CONTINUOUS
 10
-1.469276
 20
3.063827
  0
VERTEX
  8
PLAN_1
  6
CONTINUOUS
 10
-1.481465
 20
3.056681
  0
VERTEX
  8
PLAN_1
  6
CONTINUOUS
 10
-1.492811
 20
3.048697
  0
VERTEX
  8
PLAN_1
  6
CONTINUOUS
 10
-1.503740
 20
3.040709
  0
VERTEX
  8
PLAN_1
  6
CONTINUOUS
 10
-1.513827
 20
3.031886
  0
SEQEND
  8
0
  0
POLYLINE
  8
PLAN_1
  6
CONTINUOUS
 66
     1
 40
0.008402
 41
0.008402
  0
VERTEX
  8
PLAN_1
  6
CONTINUOUS
 10
-1.513827
 20
3.031886
  0
VERTEX
  8
PLAN_1
  6
CONTINUOUS
 10
-1.513827
 20
2.919252
  0
VERTEX
  8
PLAN_1
  6
CONTINUOUS
 10
-1.068756
 20
2.919252
  0
VERTEX
  8
PLAN_1
  6
CONTINUOUS
 10
-1.068756
 20
3.032303
  0
SEQEND
  8
0
  0
POLYLINE
  8
PLAN_1
  6
CONTINUOUS
 66
     1
 40
0.008402
 41
0.008402
  0
VERTEX
  8
PLAN_1
  6
CONTINUOUS
 10
-1.646630
 20
2.606988
  0
VERTEX
  8
PLAN_1
  6
CONTINUOUS
 10
-1.646630
 20
2.540165
  0
VERTEX
  8
PLAN_1
  6
CONTINUOUS
 10
-1.888287
 20
2.540165
  0
VERTEX
  8
PLAN_1
  6
CONTINUOUS
 10
-1.888287
 20
2.606988
  0
VERTEX
  8
PLAN_1
  6
CONTINUOUS
 10
-1.792465
 20
2.606571
  0
VERTEX
  8
PLAN_1
  6
CONTINUOUS
 10
-1.792465
 20
2.572528
  0
VERTEX
  8
PLAN_1
  6
CONTINUOUS
 10
-1.745815
 20
2.572528
  0
VERTEX
  8
PLAN_1
  6
CONTINUOUS
 10
-1.745815
 20
2.606571
  0
VERTEX
  8
PLAN_1
  6
CONTINUOUS
 10
-1.646630
 20
2.606988
  0
SEQEND
  8
0
  0
POLYLINE
  8
PLAN_1
  6
CONTINUOUS
 66
     1
 40
0.008402
 41
0.008402
  0
VERTEX
  8
PLAN_1
  6
CONTINUOUS
 10
-0.690512
 20
2.606988
  0
VERTEX
  8
PLAN_1
  6
CONTINUOUS
 10
-0.690512
 20
2.540165
  0
VERTEX
  8
PLAN_1
  6
CONTINUOUS
 10
-0.935953
 20
2.540165
  0
VERTEX
  8
PLAN_1
  6
CONTINUOUS
 10
-0.935953
 20
2.606988
  0
VERTEX
  8
PLAN_1
  6
CONTINUOUS
 10
-0.836768
 20
2.606571
  0
VERTEX
  8
PLAN_1
  6
CONTINUOUS
 10
-0.836768
 20
2.572528
  0
VERTEX
  8
PLAN_1
  6
CONTINUOUS
 10
-0.790118
 20
2.572528
  0
VERTEX
  8
PLAN_1
  6
CONTINUOUS
 10
-0.790118
 20
2.606571
  0
VERTEX
  8
PLAN_1
  6
CONTINUOUS
 10
-0.690512
 20
2.606988
  0
SEQEND
  8
0
  0
POLYLINE
  8
PLAN_1
  6
CONTINUOUS
 66
     1
 40
0.008402
 41
0.008402
  0
VERTEX
  8
PLAN_1
  6
CONTINUOUS
 10
-0.690512
 20
2.256063
  0
VERTEX
  8
PLAN_1
  6
CONTINUOUS
 10
-0.690512
 20
2.538067
  0
VERTEX
  8
PLAN_1
  6
CONTINUOUS
 10
-1.888287
 20
2.538067
  0
VERTEX
  8
PLAN_1
  6
CONTINUOUS
 10
-1.888287
 20
2.256063
  0
VERTEX
  8
PLAN_1
  6
CONTINUOUS
 10
-0.690512
 20
2.256063
  0
SEQEND
  8
0
  0
POLYLINE
  8
PLAN_1
  6
CONTINUOUS
 66
     1
 40
0.008402
 41
0.008402
  0
VERTEX
  8
PLAN_1
  6
CONTINUOUS
 10
-1.072961
 20
3.036087
  0
VERTEX
  8
PLAN_1
  6
CONTINUOUS
 10
-1.507941
 20
3.036087
  0
SEQEND
  8
0
  0
POLYLINE
  8
PLAN_1
  6
CONTINUOUS
 66
     1
 40
0.008402
 41
0.008402
  0
VERTEX
  8
PLAN_1
  6
CONTINUOUS
 10
-0.822480
 20
1.558413
  0
VERTEX
  8
PLAN_1
  6
CONTINUOUS
 10
-0.822480
 20
1.848402
  0
VERTEX
  8
PLAN_1
  6
CONTINUOUS
 10
-1.747075
 20
1.848402
  0
VERTEX
  8
PLAN_1
  6
CONTINUOUS
 10
-1.747075
 20
1.558413
  0
VERTEX
  8
PLAN_1
  6
CONTINUOUS
 10
-1.705047
 20
1.516386
  0
VERTEX
  8
PLAN_1
  6
CONTINUOUS
 10
-0.864504
 20
1.516386
  0
VERTEX
  8
PLAN_1
  6
CONTINUOUS
 10
-0.822480
 20
1.558413
  0
SEQEND
  8
0
  0
POLYLINE
  8
PLAN_1
  6
CONTINUOUS
 66
     1
 40
0.008402
 41
0.008402
  0
VERTEX
  8
PLAN_1
  6
CONTINUOUS
 10
-1.747075
 20
1.561776
  0
VERTEX
  8
PLAN_1
  6
CONTINUOUS
 10
-0.822480
 20
1.561776
  0
SEQEND
  8
0
  0
POLYLINE
  8
PLAN_1
  6
CONTINUOUS
 66
     1
 40
0.008402
 41
0.008402
  0
VERTEX
  8
PLAN_1
  6
CONTINUOUS
 10
-0.763642
 20
1.848402
  0
VERTEX
  8
PLAN_1
  6
CONTINUOUS
 10
-0.763642
 20
1.897992
  0
VERTEX
  8
PLAN_1
  6
CONTINUOUS
 10
-1.810118
 20
1.897992
  0
VERTEX
  8
PLAN_1
  6
CONTINUOUS
 10
-1.810118
 20
1.848402
  0
VERTEX
  8
PLAN_1
  6
CONTINUOUS
 10
-0.763642
 20
1.848402
  0
SEQEND
  8
0
  0
POLYLINE
  8
PLAN_1
 62
     5
  6
CONTINUOUS
 66
     1
 40
0.003000
 41
0.003000
  0
VERTEX
  8
PLAN_1
 62
     5
  6
CONTINUOUS
 10
-2.153898
 20
1.178906
  0
VERTEX
  8
PLAN_1
 62
     5
  6
CONTINUOUS
 10
-2.153898
 20
1.186894
  0
SEQEND
  8
0
  0
POLYLINE
  8
PLAN_1
 62
     5
  6
CONTINUOUS
 66
     1
 40
0.003000
 41
0.003000
  0
VERTEX
  8
PLAN_1
 62
     5
  6
CONTINUOUS
 10
-2.153898
 20
1.195299
  0
VERTEX
  8
PLAN_1
 62
     5
  6
CONTINUOUS
 10
-2.153898
 20
1.203705
  0
SEQEND
  8
0
  0
POLYLINE
  8
PLAN_1
 62
     5
  6
CONTINUOUS
 66
     1
 40
0.003000
 41
0.003000
  0
VERTEX
  8
PLAN_1
 62
     5
  6
CONTINUOUS
 10
-2.153898
 20
1.212110
  0
VERTEX
  8
PLAN_1
 62
     5
  6
CONTINUOUS
 10
-2.153898
 20
1.220516
  0
SEQEND
  8
0
  0
POLYLINE
  8
PLAN_1
 62
     5
  6
CONTINUOUS
 66
     1
 40
0.003000
 41
0.003000
  0
VERTEX
  8
PLAN_1
 62
     5
  6
CONTINUOUS
 10
-2.153898
 20
1.228500
  0
VERTEX
  8
PLAN_1
 62
     5
  6
CONTINUOUS
 10
-2.153898
 20
1.236906
  0
SEQEND
  8
0
  0
POLYLINE
  8
PLAN_1
 62
     5
  6
CONTINUOUS
 66
     1
 40
0.003000
 41
0.003000
  0
VERTEX
  8
PLAN_1
 62
     5
  6
CONTINUOUS
 10
-2.153898
 20
1.245311
  0
VERTEX
  8
PLAN_1
 62
     5
  6
CONTINUOUS
 10
-2.153898
 20
1.253717
  0
SEQEND
  8
0
  0
POLYLINE
  8
PLAN_1
 62
     5
  6
CONTINUOUS
 66
     1
 40
0.003000
 41
0.003000
  0
VERTEX
  8
PLAN_1
 62
     5
  6
CONTINUOUS
 10
-2.153898
 20
1.262122
  0
VERTEX
  8
PLAN_1
 62
     5
  6
CONTINUOUS
 10
-2.153898
 20
1.270528
  0
SEQEND
  8
0
  0
POLYLINE
  8
PLAN_1
 62
     5
  6
CONTINUOUS
 66
     1
 40
0.003000
 41
0.003000
  0
VERTEX
  8
PLAN_1
 62
     5
  6
CONTINUOUS
 10
-2.153898
 20
1.278512
  0
VERTEX
  8
PLAN_1
 62
     5
  6
CONTINUOUS
 10
-2.153898
 20
1.286917
  0
SEQEND
  8
0
  0
POLYLINE
  8
PLAN_1
 62
     5
  6
CONTINUOUS
 66
     1
 40
0.003000
 41
0.003000
  0
VERTEX
  8
PLAN_1
 62
     5
  6
CONTINUOUS
 10
-2.153898
 20
1.295323
  0
VERTEX
  8
PLAN_1
 62
     5
  6
CONTINUOUS
 10
-2.153898
 20
1.303728
  0
SEQEND
  8
0
  0
POLYLINE
  8
PLAN_1
 62
     5
  6
CONTINUOUS
 66
     1
 40
0.003000
 41
0.003000
  0
VERTEX
  8
PLAN_1
 62
     5
  6
CONTINUOUS
 10
-2.153898
 20
1.312134
  0
VERTEX
  8
PLAN_1
 62
     5
  6
CONTINUOUS
 10
-2.153898
 20
1.320118
  0
SEQEND
  8
0
  0
POLYLINE
  8
PLAN_1
 62
     5
  6
CONTINUOUS
 66
     1
 40
0.003000
 41
0.003000
  0
VERTEX
  8
PLAN_1
 62
     5
  6
CONTINUOUS
 10
-2.153898
 20
1.328524
  0
VERTEX
  8
PLAN_1
 62
     5
  6
CONTINUOUS
 10
-2.153898
 20
1.336929
  0
SEQEND
  8
0
  0
POLYLINE
  8
PLAN_1
 62
     5
  6
CONTINUOUS
 66
     1
 40
0.003000
 41
0.003000
  0
VERTEX
  8
PLAN_1
 62
     5
  6
CONTINUOUS
 10
-2.153898
 20
1.345335
  0
VERTEX
  8
PLAN_1
 62
     5
  6
CONTINUOUS
 10
-2.153898
 20
1.353740
  0
SEQEND
  8
0
  0
POLYLINE
  8
PLAN_1
 62
     5
  6
CONTINUOUS
 66
     1
 40
0.003000
 41
0.003000
  0
VERTEX
  8
PLAN_1
 62
     5
  6
CONTINUOUS
 10
-2.153898
 20
1.362146
  0
VERTEX
  8
PLAN_1
 62
     5
  6
CONTINUOUS
 10
-2.153898
 20
1.370130
  0
SEQEND
  8
0
  0
POLYLINE
  8
PLAN_1
 62
     5
  6
CONTINUOUS
 66
     1
 40
0.003000
 41
0.003000
  0
VERTEX
  8
PLAN_1
 62
     5
  6
CONTINUOUS
 10
-2.153898
 20
1.378535
  0
VERTEX
  8
PLAN_1
 62
     5
  6
CONTINUOUS
 10
-2.153898
 20
1.386941
  0
SEQEND
  8
0
  0
POLYLINE
  8
PLAN_1
 62
     5
  6
CONTINUOUS
 66
     1
 40
0.003000
 41
0.003000
  0
VERTEX
  8
PLAN_1
 62
     5
  6
CONTINUOUS
 10
-2.153898
 20
1.395346
  0
VERTEX
  8
PLAN_1
 62
     5
  6
CONTINUOUS
 10
-2.153898
 20
1.403752
  0
SEQEND
  8
0
  0
POLYLINE
  8
PLAN_1
 62
     5
  6
CONTINUOUS
 66
     1
 40
0.003000
 41
0.003000
  0
VERTEX
  8
PLAN_1
 62
     5
  6
CONTINUOUS
 10
-2.153898
 20
1.411736
  0
VERTEX
  8
PLAN_1
 62
     5
  6
CONTINUOUS
 10
-2.153898
 20
1.420142
  0
SEQEND
  8
0
  0
POLYLINE
  8
PLAN_1
 62
     5
  6
CONTINUOUS
 66
     1
 40
0.003000
 41
0.003000
  0
VERTEX
  8
PLAN_1
 62
     5
  6
CONTINUOUS
 10
-2.153898
 20
1.428547
  0
VERTEX
  8
PLAN_1
 62
     5
  6
CONTINUOUS
 10
-2.153898
 20
1.436953
  0
SEQEND
  8
0
  0
POLYLINE
  8
PLAN_1
 62
     5
  6
CONTINUOUS
 66
     1
 40
0.003000
 41
0.003000
  0
VERTEX
  8
PLAN_1
 62
     5
  6
CONTINUOUS
 10
-2.153898
 20
1.445358
  0
VERTEX
  8
PLAN_1
 62
     5
  6
CONTINUOUS
 10
-2.153898
 20
1.453764
  0
SEQEND
  8
0
  0
POLYLINE
  8
PLAN_1
 62
     5
  6
CONTINUOUS
 66
     1
 40
0.003000
 41
0.003000
  0
VERTEX
  8
PLAN_1
 62
     5
  6
CONTINUOUS
 10
-2.153898
 20
1.461752
  0
VERTEX
  8
PLAN_1
 62
     5
  6
CONTINUOUS
 10
-2.153898
 20
1.470154
  0
SEQEND
  8
0
  0
POLYLINE
  8
PLAN_1
 62
     5
  6
CONTINUOUS
 66
     1
 40
0.003000
 41
0.003000
  0
VERTEX
  8
PLAN_1
 62
     5
  6
CONTINUOUS
 10
-2.153898
 20
1.478559
  0
VERTEX
  8
PLAN_1
 62
     5
  6
CONTINUOUS
 10
-2.153898
 20
1.486965
  0
SEQEND
  8
0
  0
POLYLINE
  8
PLAN_1
 62
     5
  6
CONTINUOUS
 66
     1
 40
0.003000
 41
0.003000
  0
VERTEX
  8
PLAN_1
 62
     5
  6
CONTINUOUS
 10
-2.153898
 20
1.495370
  0
VERTEX
  8
PLAN_1
 62
     5
  6
CONTINUOUS
 10
-2.153898
 20
1.503358
  0
SEQEND
  8
0
  0
POLYLINE
  8
PLAN_1
 62
     5
  6
CONTINUOUS
 66
     1
 40
0.003000
 41
0.003000
  0
VERTEX
  8
PLAN_1
 62
     5
  6
CONTINUOUS
 10
-2.153898
 20
1.511764
  0
VERTEX
  8
PLAN_1
 62
     5
  6
CONTINUOUS
 10
-2.153898
 20
1.520169
  0
SEQEND
  8
0
  0
POLYLINE
  8
PLAN_1
 62
     5
  6
CONTINUOUS
 66
     1
 40
0.003000
 41
0.003000
  0
VERTEX
  8
PLAN_1
 62
     5
  6
CONTINUOUS
 10
-2.153898
 20
1.528575
  0
VERTEX
  8
PLAN_1
 62
     5
  6
CONTINUOUS
 10
-2.153898
 20
1.536980
  0
SEQEND
  8
0
  0
POLYLINE
  8
PLAN_1
 62
     5
  6
CONTINUOUS
 66
     1
 40
0.003000
 41
0.003000
  0
VERTEX
  8
PLAN_1
 62
     5
  6
CONTINUOUS
 10
-2.153898
 20
1.545386
  0
VERTEX
  8
PLAN_1
 62
     5
  6
CONTINUOUS
 10
-2.153898
 20
1.553370
  0
SEQEND
  8
0
  0
POLYLINE
  8
PLAN_1
 62
     5
  6
CONTINUOUS
 66
     1
 40
0.003000
 41
0.003000
  0
VERTEX
  8
PLAN_1
 62
     5
  6
CONTINUOUS
 10
-2.153898
 20
1.561776
  0
VERTEX
  8
PLAN_1
 62
     5
  6
CONTINUOUS
 10
-2.153898
 20
1.570181
  0
SEQEND
  8
0
  0
POLYLINE
  8
PLAN_1
 62
     5
  6
CONTINUOUS
 66
     1
 40
0.003000
 41
0.003000
  0
VERTEX
  8
PLAN_1
 62
     5
  6
CONTINUOUS
 10
-2.153898
 20
1.578587
  0
VERTEX
  8
PLAN_1
 62
     5
  6
CONTINUOUS
 10
-2.153898
 20
1.586992
  0
SEQEND
  8
0
  0
POLYLINE
  8
PLAN_1
 62
     5
  6
CONTINUOUS
 66
     1
 40
0.003000
 41
0.003000
  0
VERTEX
  8
PLAN_1
 62
     5
  6
CONTINUOUS
 10
-2.153898
 20
1.594976
  0
VERTEX
  8
PLAN_1
 62
     5
  6
CONTINUOUS
 10
-2.153898
 20
1.603382
  0
SEQEND
  8
0
  0
POLYLINE
  8
PLAN_1
 62
     5
  6
CONTINUOUS
 66
     1
 40
0.003000
 41
0.003000
  0
VERTEX
  8
PLAN_1
 62
     5
  6
CONTINUOUS
 10
-2.153898
 20
1.611787
  0
VERTEX
  8
PLAN_1
 62
     5
  6
CONTINUOUS
 10
-2.153898
 20
1.620193
  0
SEQEND
  8
0
  0
POLYLINE
  8
PLAN_1
 62
     5
  6
CONTINUOUS
 66
     1
 40
0.003000
 41
0.003000
  0
VERTEX
  8
PLAN_1
 62
     5
  6
CONTINUOUS
 10
-2.153898
 20
1.628598
  0
VERTEX
  8
PLAN_1
 62
     5
  6
CONTINUOUS
 10
-2.153898
 20
1.637004
  0
SEQEND
  8
0
  0
POLYLINE
  8
PLAN_1
 62
     5
  6
CONTINUOUS
 66
     1
 40
0.003000
 41
0.003000
  0
VERTEX
  8
PLAN_1
 62
     5
  6
CONTINUOUS
 10
-2.153898
 20
1.644988
  0
VERTEX
  8
PLAN_1
 62
     5
  6
CONTINUOUS
 10
-2.153898
 20
1.653394
  0
SEQEND
  8
0
  0
POLYLINE
  8
PLAN_1
 62
     5
  6
CONTINUOUS
 66
     1
 40
0.003000
 41
0.003000
  0
VERTEX
  8
PLAN_1
 62
     5
  6
CONTINUOUS
 10
-2.153898
 20
1.661799
  0
VERTEX
  8
PLAN_1
 62
     5
  6
CONTINUOUS
 10
-2.153898
 20
1.670205
  0
SEQEND
  8
0
  0
POLYLINE
  8
PLAN_1
 62
     5
  6
CONTINUOUS
 66
     1
 40
0.003000
 41
0.003000
  0
VERTEX
  8
PLAN_1
 62
     5
  6
CONTINUOUS
 10
-2.153898
 20
1.678610
  0
VERTEX
  8
PLAN_1
 62
     5
  6
CONTINUOUS
 10
-2.153898
 20
1.686594
  0
SEQEND
  8
0
  0
POLYLINE
  8
PLAN_1
 62
     5
  6
CONTINUOUS
 66
     1
 40
0.003000
 41
0.003000
  0
VERTEX
  8
PLAN_1
 62
     5
  6
CONTINUOUS
 10
-2.153898
 20
1.695000
  0
VERTEX
  8
PLAN_1
 62
     5
  6
CONTINUOUS
 10
-2.153898
 20
1.703406
  0
SEQEND
  8
0
  0
POLYLINE
  8
PLAN_1
 62
     5
  6
CONTINUOUS
 66
     1
 40
0.003000
 41
0.003000
  0
VERTEX
  8
PLAN_1
 62
     5
  6
CONTINUOUS
 10
-2.153898
 20
1.711811
  0
VERTEX
  8
PLAN_1
 62
     5
  6
CONTINUOUS
 10
-2.153898
 20
1.720217
  0
SEQEND
  8
0
  0
POLYLINE
  8
PLAN_1
 62
     5
  6
CONTINUOUS
 66
     1
 40
0.003000
 41
0.003000
  0
VERTEX
  8
PLAN_1
 62
     5
  6
CONTINUOUS
 10
-2.153898
 20
1.728622
  0
VERTEX
  8
PLAN_1
 62
     5
  6
CONTINUOUS
 10
-2.153898
 20
1.735346
  0
SEQEND
  8
0
  0
POLYLINE
  8
PLAN_1
 62
     5
  6
CONTINUOUS
 66
     1
 40
0.003000
 41
0.003000
  0
VERTEX
  8
PLAN_1
 62
     5
  6
CONTINUOUS
 10
-2.153898
 20
1.728622
  0
VERTEX
  8
PLAN_1
 62
     5
  6
CONTINUOUS
 10
-2.153898
 20
1.735346
  0
SEQEND
  8
0
  0
POLYLINE
  8
PLAN_1
 62
     5
  6
CONTINUOUS
 66
     1
 40
0.003000
 41
0.003000
  0
VERTEX
  8
PLAN_1
 62
     5
  6
CONTINUOUS
 10
-2.153898
 20
1.735346
  0
VERTEX
  8
PLAN_1
 62
     5
  6
CONTINUOUS
 10
-2.153898
 20
1.737028
  0
VERTEX
  8
PLAN_1
 62
     5
  6
CONTINUOUS
 10
-2.153480
 20
1.742071
  0
VERTEX
  8
PLAN_1
 62
     5
  6
CONTINUOUS
 10
-2.153059
 20
1.743752
  0
SEQEND
  8
0
  0
POLYLINE
  8
PLAN_1
 62
     5
  6
CONTINUOUS
 66
     1
 40
0.003000
 41
0.003000
  0
VERTEX
  8
PLAN_1
 62
     5
  6
CONTINUOUS
 10
-2.152217
 20
1.751736
  0
VERTEX
  8
PLAN_1
 62
     5
  6
CONTINUOUS
 10
-2.150535
 20
1.760142
  0
SEQEND
  8
0
  0
POLYLINE
  8
PLAN_1
 62
     5
  6
CONTINUOUS
 66
     1
 40
0.003000
 41
0.003000
  0
VERTEX
  8
PLAN_1
 62
     5
  6
CONTINUOUS
 10
-2.148437
 20
1.768126
  0
VERTEX
  8
PLAN_1
 62
     5
  6
CONTINUOUS
 10
-2.147173
 20
1.773169
  0
VERTEX
  8
PLAN_1
 62
     5
  6
CONTINUOUS
 10
-2.146335
 20
1.776114
  0
SEQEND
  8
0
  0
POLYLINE
  8
PLAN_1
 62
     5
  6
CONTINUOUS
 66
     1
 40
0.003000
 41
0.003000
  0
VERTEX
  8
PLAN_1
 62
     5
  6
CONTINUOUS
 10
-2.143811
 20
1.784098
  0
VERTEX
  8
PLAN_1
 62
     5
  6
CONTINUOUS
 10
-2.142972
 20
1.786618
  0
VERTEX
  8
PLAN_1
 62
     5
  6
CONTINUOUS
 10
-2.140870
 20
1.791661
  0
SEQEND
  8
0
  0
POLYLINE
  8
PLAN_1
 62
     5
  6
CONTINUOUS
 66
     1
 40
0.003000
 41
0.003000
  0
VERTEX
  8
PLAN_1
 62
     5
  6
CONTINUOUS
 10
-2.137508
 20
1.799650
  0
VERTEX
  8
PLAN_1
 62
     5
  6
CONTINUOUS
 10
-2.136669
 20
1.801331
  0
VERTEX
  8
PLAN_1
 62
     5
  6
CONTINUOUS
 10
-2.134146
 20
1.806791
  0
SEQEND
  8
0
  0
POLYLINE
  8
PLAN_1
 62
     5
  6
CONTINUOUS
 66
     1
 40
0.003000
 41
0.003000
  0
VERTEX
  8
PLAN_1
 62
     5
  6
CONTINUOUS
 10
-2.129945
 20
1.814358
  0
VERTEX
  8
PLAN_1
 62
     5
  6
CONTINUOUS
 10
-2.128681
 20
1.816461
  0
VERTEX
  8
PLAN_1
 62
     5
  6
CONTINUOUS
 10
-2.125740
 20
1.821504
  0
SEQEND
  8
0
  0
POLYLINE
  8
PLAN_1
 62
     5
  6
CONTINUOUS
 66
     1
 40
0.003000
 41
0.003000
  0
VERTEX
  8
PLAN_1
 62
     5
  6
CONTINUOUS
 10
-2.121118
 20
1.828228
  0
VERTEX
  8
PLAN_1
 62
     5
  6
CONTINUOUS
 10
-2.118594
 20
1.831591
  0
VERTEX
  8
PLAN_1
 62
     5
  6
CONTINUOUS
 10
-2.115654
 20
1.834953
  0
SEQEND
  8
0
  0
POLYLINE
  8
PLAN_1
 62
     5
  6
CONTINUOUS
 66
     1
 40
0.003000
 41
0.003000
  0
VERTEX
  8
PLAN_1
 62
     5
  6
CONTINUOUS
 10
-2.110610
 20
1.841256
  0
VERTEX
  8
PLAN_1
 62
     5
  6
CONTINUOUS
 10
-2.105567
 20
1.846299
  0
VERTEX
  8
PLAN_1
 62
     5
  6
CONTINUOUS
 10
-2.104728
 20
1.847138
  0
SEQEND
  8
0
  0
POLYLINE
  8
PLAN_1
 62
     5
  6
CONTINUOUS
 66
     1
 40
0.003000
 41
0.003000
  0
VERTEX
  8
PLAN_1
 62
     5
  6
CONTINUOUS
 10
-2.098843
 20
1.853024
  0
VERTEX
  8
PLAN_1
 62
     5
  6
CONTINUOUS
 10
-2.098421
 20
1.853445
  0
VERTEX
  8
PLAN_1
 62
     5
  6
CONTINUOUS
 10
-2.092539
 20
1.858488
  0
SEQEND
  8
0
  0
POLYLINE
  8
PLAN_1
 62
     5
  6
CONTINUOUS
 66
     1
 40
0.003000
 41
0.003000
  0
VERTEX
  8
PLAN_1
 62
     5
  6
CONTINUOUS
 10
-2.085815
 20
1.863531
  0
VERTEX
  8
PLAN_1
 62
     5
  6
CONTINUOUS
 10
-2.081610
 20
1.866472
  0
VERTEX
  8
PLAN_1
 62
     5
  6
CONTINUOUS
 10
-2.078669
 20
1.868154
  0
SEQEND
  8
0
  0
POLYLINE
  8
PLAN_1
 62
     5
  6
CONTINUOUS
 66
     1
 40
0.003000
 41
0.003000
  0
VERTEX
  8
PLAN_1
 62
     5
  6
CONTINUOUS
 10
-2.071945
 20
1.872354
  0
VERTEX
  8
PLAN_1
 62
     5
  6
CONTINUOUS
 10
-2.066902
 20
1.875295
  0
VERTEX
  8
PLAN_1
 62
     5
  6
CONTINUOUS
 10
-2.064382
 20
1.876559
  0
SEQEND
  8
0
  0
POLYLINE
  8
PLAN_1
 62
     5
  6
CONTINUOUS
 66
     1
 40
0.003000
 41
0.003000
  0
VERTEX
  8
PLAN_1
 62
     5
  6
CONTINUOUS
 10
-2.056815
 20
1.879921
  0
VERTEX
  8
PLAN_1
 62
     5
  6
CONTINUOUS
 10
-2.055976
 20
1.880339
  0
VERTEX
  8
PLAN_1
 62
     5
  6
CONTINUOUS
 10
-2.050091
 20
1.882862
  0
VERTEX
  8
PLAN_1
 62
     5
  6
CONTINUOUS
 10
-2.049252
 20
1.883283
  0
SEQEND
  8
0
  0
POLYLINE
  8
PLAN_1
 62
     5
  6
CONTINUOUS
 66
     1
 40
0.003000
 41
0.003000
  0
VERTEX
  8
PLAN_1
 62
     5
  6
CONTINUOUS
 10
-2.041268
 20
1.886224
  0
VERTEX
  8
PLAN_1
 62
     5
  6
CONTINUOUS
 10
-2.038323
 20
1.887063
  0
VERTEX
  8
PLAN_1
 62
     5
  6
CONTINUOUS
 10
-2.033280
 20
1.888744
  0
SEQEND
  8
0
  0
POLYLINE
  8
PLAN_1
 62
     5
  6
CONTINUOUS
 66
     1
 40
0.003000
 41
0.003000
  0
VERTEX
  8
PLAN_1
 62
     5
  6
CONTINUOUS
 10
-2.025295
 20
1.890846
  0
VERTEX
  8
PLAN_1
 62
     5
  6
CONTINUOUS
 10
-2.018150
 20
1.892528
  0
VERTEX
  8
PLAN_1
 62
     5
  6
CONTINUOUS
 10
-2.017311
 20
1.892528
  0
SEQEND
  8
0
  0
POLYLINE
  8
PLAN_1
 62
     5
  6
CONTINUOUS
 66
     1
 40
0.003000
 41
0.003000
  0
VERTEX
  8
PLAN_1
 62
     5
  6
CONTINUOUS
 10
-2.009327
 20
1.894209
  0
VERTEX
  8
PLAN_1
 62
     5
  6
CONTINUOUS
 10
-2.003862
 20
1.895051
  0
VERTEX
  8
PLAN_1
 62
     5
  6
CONTINUOUS
 10
-2.000921
 20
1.895469
  0
SEQEND
  8
0
  0
POLYLINE
  8
PLAN_1
 62
     5
  6
CONTINUOUS
 66
     1
 40
0.003000
 41
0.003000
  0
VERTEX
  8
PLAN_1
 62
     5
  6
CONTINUOUS
 10
-1.992516
 20
1.896311
  0
VERTEX
  8
PLAN_1
 62
     5
  6
CONTINUOUS
 10
-1.988311
 20
1.896732
  0
VERTEX
  8
PLAN_1
 62
     5
  6
CONTINUOUS
 10
-1.984528
 20
1.897150
  0
SEQEND
  8
0
  0
POLYLINE
  8
PLAN_1
 62
     5
  6
CONTINUOUS
 66
     1
 40
0.003000
 41
0.003000
  0
VERTEX
  8
PLAN_1
 62
     5
  6
CONTINUOUS
 10
-1.976122
 20
1.897571
  0
VERTEX
  8
PLAN_1
 62
     5
  6
CONTINUOUS
 10
-1.971921
 20
1.897992
  0
VERTEX
  8
PLAN_1
 62
     5
  6
CONTINUOUS
 10
-1.967717
 20
1.897992
  0
SEQEND
  8
0
  0
POLYLINE
  8
PLAN_1
 62
     5
  6
CONTINUOUS
 66
     1
 40
0.003000
 41
0.003000
  0
VERTEX
  8
PLAN_1
 62
     5
  6
CONTINUOUS
 10
-1.959311
 20
1.897992
  0
VERTEX
  8
PLAN_1
 62
     5
  6
CONTINUOUS
 10
-1.950909
 20
1.897992
  0
SEQEND
  8
0
  0
POLYLINE
  8
PLAN_1
 62
     5
  6
CONTINUOUS
 66
     1
 40
0.003000
 41
0.003000
  0
VERTEX
  8
PLAN_1
 62
     5
  6
CONTINUOUS
 10
-1.942504
 20
1.897992
  0
VERTEX
  8
PLAN_1
 62
     5
  6
CONTINUOUS
 10
-1.934516
 20
1.897992
  0
SEQEND
  8
0
  0
POLYLINE
  8
PLAN_1
 62
     5
  6
CONTINUOUS
 66
     1
 40
0.003000
 41
0.003000
  0
VERTEX
  8
PLAN_1
 62
     5
  6
CONTINUOUS
 10
-1.926110
 20
1.897992
  0
VERTEX
  8
PLAN_1
 62
     5
  6
CONTINUOUS
 10
-1.917705
 20
1.897992
  0
SEQEND
  8
0
  0
POLYLINE
  8
PLAN_1
 62
     5
  6
CONTINUOUS
 66
     1
 40
0.003000
 41
0.003000
  0
VERTEX
  8
PLAN_1
 62
     5
  6
CONTINUOUS
 10
-1.909299
 20
1.897992
  0
VERTEX
  8
PLAN_1
 62
     5
  6
CONTINUOUS
 10
-1.900894
 20
1.897992
  0
SEQEND
  8
0
  0
POLYLINE
  8
PLAN_1
 62
     5
  6
CONTINUOUS
 66
     1
 40
0.003000
 41
0.003000
  0
VERTEX
  8
PLAN_1
 62
     5
  6
CONTINUOUS
 10
-1.892909
 20
1.897992
  0
VERTEX
  8
PLAN_1
 62
     5
  6
CONTINUOUS
 10
-1.884504
 20
1.897992
  0
SEQEND
  8
0
  0
POLYLINE
  8
PLAN_1
 62
     5
  6
CONTINUOUS
 66
     1
 40
0.003000
 41
0.003000
  0
VERTEX
  8
PLAN_1
 62
     5
  6
CONTINUOUS
 10
-1.876098
 20
1.897992
  0
VERTEX
  8
PLAN_1
 62
     5
  6
CONTINUOUS
 10
-1.867693
 20
1.897992
  0
SEQEND
  8
0
  0
POLYLINE
  8
PLAN_1
 62
     5
  6
CONTINUOUS
 66
     1
 40
0.003000
 41
0.003000
  0
VERTEX
  8
PLAN_1
 62
     5
  6
CONTINUOUS
 10
-1.859287
 20
1.897992
  0
VERTEX
  8
PLAN_1
 62
     5
  6
CONTINUOUS
 10
-1.850882
 20
1.897992
  0
SEQEND
  8
0
  0
POLYLINE
  8
PLAN_1
 62
     5
  6
CONTINUOUS
 66
     1
 40
0.003000
 41
0.003000
  0
VERTEX
  8
PLAN_1
 62
     5
  6
CONTINUOUS
 10
-1.842898
 20
1.897992
  0
VERTEX
  8
PLAN_1
 62
     5
  6
CONTINUOUS
 10
-1.834492
 20
1.897992
  0
SEQEND
  8
0
  0
POLYLINE
  8
PLAN_1
 62
     5
  6
CONTINUOUS
 66
     1
 40
0.003000
 41
0.003000
  0
VERTEX
  8
PLAN_1
 62
     5
  6
CONTINUOUS
 10
-1.826087
 20
1.897992
  0
VERTEX
  8
PLAN_1
 62
     5
  6
CONTINUOUS
 10
-1.817681
 20
1.897992
  0
SEQEND
  8
0
  0
POLYLINE
  8
PLAN_1
 62
     5
  6
CONTINUOUS
 66
     1
 40
0.003000
 41
0.003000
  0
VERTEX
  8
PLAN_1
 62
     5
  6
CONTINUOUS
 10
-1.809276
 20
1.897992
  0
VERTEX
  8
PLAN_1
 62
     5
  6
CONTINUOUS
 10
-1.801291
 20
1.897992
  0
SEQEND
  8
0
  0
POLYLINE
  8
PLAN_1
 62
     5
  6
CONTINUOUS
 66
     1
 40
0.003000
 41
0.003000
  0
VERTEX
  8
PLAN_1
 62
     5
  6
CONTINUOUS
 10
-1.792886
 20
1.897992
  0
VERTEX
  8
PLAN_1
 62
     5
  6
CONTINUOUS
 10
-1.784480
 20
1.897992
  0
SEQEND
  8
0
  0
POLYLINE
  8
PLAN_1
 62
     5
  6
CONTINUOUS
 66
     1
 40
0.003000
 41
0.003000
  0
VERTEX
  8
PLAN_1
 62
     5
  6
CONTINUOUS
 10
-1.776075
 20
1.897992
  0
VERTEX
  8
PLAN_1
 62
     5
  6
CONTINUOUS
 10
-1.767669
 20
1.897992
  0
SEQEND
  8
0
  0
POLYLINE
  8
PLAN_1
 62
     5
  6
CONTINUOUS
 66
     1
 40
0.003000
 41
0.003000
  0
VERTEX
  8
PLAN_1
 62
     5
  6
CONTINUOUS
 10
-1.759264
 20
1.897992
  0
VERTEX
  8
PLAN_1
 62
     5
  6
CONTINUOUS
 10
-1.751280
 20
1.897992
  0
SEQEND
  8
0
  0
POLYLINE
  8
PLAN_1
 62
     5
  6
CONTINUOUS
 66
     1
 40
0.003000
 41
0.003000
  0
VERTEX
  8
PLAN_1
 62
     5
  6
CONTINUOUS
 10
-1.742874
 20
1.897992
  0
VERTEX
  8
PLAN_1
 62
     5
  6
CONTINUOUS
 10
-1.734469
 20
1.897992
  0
SEQEND
  8
0
  0
POLYLINE
  8
PLAN_1
 62
     5
  6
CONTINUOUS
 66
     1
 40
0.003000
 41
0.003000
  0
VERTEX
  8
PLAN_1
 62
     5
  6
CONTINUOUS
 10
-1.726063
 20
1.897992
  0
VERTEX
  8
PLAN_1
 62
     5
  6
CONTINUOUS
 10
-1.717657
 20
1.897992
  0
SEQEND
  8
0
  0
POLYLINE
  8
PLAN_1
 62
     5
  6
CONTINUOUS
 66
     1
 40
0.003000
 41
0.003000
  0
VERTEX
  8
PLAN_1
 62
     5
  6
CONTINUOUS
 10
-1.709673
 20
1.897992
  0
VERTEX
  8
PLAN_1
 62
     5
  6
CONTINUOUS
 10
-1.701268
 20
1.897992
  0
SEQEND
  8
0
  0
POLYLINE
  8
PLAN_1
 62
     5
  6
CONTINUOUS
 66
     1
 40
0.003000
 41
0.003000
  0
VERTEX
  8
PLAN_1
 62
     5
  6
CONTINUOUS
 10
-1.692862
 20
1.897992
  0
VERTEX
  8
PLAN_1
 62
     5
  6
CONTINUOUS
 10
-1.684457
 20
1.897992
  0
SEQEND
  8
0
  0
POLYLINE
  8
PLAN_1
 62
     5
  6
CONTINUOUS
 66
     1
 40
0.003000
 41
0.003000
  0
VERTEX
  8
PLAN_1
 62
     5
  6
CONTINUOUS
 10
-1.676051
 20
1.897992
  0
VERTEX
  8
PLAN_1
 62
     5
  6
CONTINUOUS
 10
-1.670165
 20
1.897992
  0
VERTEX
  8
PLAN_1
 62
     5
  6
CONTINUOUS
 10
-1.667646
 20
1.897992
  0
SEQEND
  8
0
  0
POLYLINE
  8
PLAN_1
 62
     5
  6
CONTINUOUS
 66
     1
 40
0.003000
 41
0.003000
  0
VERTEX
  8
PLAN_1
 62
     5
  6
CONTINUOUS
 10
-1.659657
 20
1.897992
  0
VERTEX
  8
PLAN_1
 62
     5
  6
CONTINUOUS
 10
-1.651256
 20
1.897992
  0
SEQEND
  8
0
  0
POLYLINE
  8
PLAN_1
 62
     5
  6
CONTINUOUS
 66
     1
 40
0.003000
 41
0.003000
  0
VERTEX
  8
PLAN_1
 62
     5
  6
CONTINUOUS
 10
-1.642850
 20
1.897992
  0
VERTEX
  8
PLAN_1
 62
     5
  6
CONTINUOUS
 10
-1.634445
 20
1.897992
  0
SEQEND
  8
0
  0
POLYLINE
  8
PLAN_1
 62
     5
  6
CONTINUOUS
 66
     1
 40
0.003000
 41
0.003000
  0
VERTEX
  8
PLAN_1
 62
     5
  6
CONTINUOUS
 10
-1.626039
 20
1.897992
  0
VERTEX
  8
PLAN_1
 62
     5
  6
CONTINUOUS
 10
-1.618051
 20
1.897992
  0
SEQEND
  8
0
  0
POLYLINE
  8
PLAN_1
 62
     5
  6
CONTINUOUS
 66
     1
 40
0.003000
 41
0.003000
  0
VERTEX
  8
PLAN_1
 62
     5
  6
CONTINUOUS
 10
-1.609646
 20
1.897992
  0
VERTEX
  8
PLAN_1
 62
     5
  6
CONTINUOUS
 10
-1.601240
 20
1.897992
  0
SEQEND
  8
0
  0
POLYLINE
  8
PLAN_1
 62
     5
  6
CONTINUOUS
 66
     1
 40
0.003000
 41
0.003000
  0
VERTEX
  8
PLAN_1
 62
     5
  6
CONTINUOUS
 10
-1.592835
 20
1.897992
  0
VERTEX
  8
PLAN_1
 62
     5
  6
CONTINUOUS
 10
-1.584429
 20
1.897992
  0
SEQEND
  8
0
  0
POLYLINE
  8
PLAN_1
 62
     5
  6
CONTINUOUS
 66
     1
 40
0.003000
 41
0.003000
  0
VERTEX
  8
PLAN_1
 62
     5
  6
CONTINUOUS
 10
-1.576024
 20
1.897992
  0
VERTEX
  8
PLAN_1
 62
     5
  6
CONTINUOUS
 10
-1.568039
 20
1.897992
  0
SEQEND
  8
0
  0
POLYLINE
  8
PLAN_1
 62
     5
  6
CONTINUOUS
 66
     1
 40
0.003000
 41
0.003000
  0
VERTEX
  8
PLAN_1
 62
     5
  6
CONTINUOUS
 10
-1.559634
 20
1.897992
  0
VERTEX
  8
PLAN_1
 62
     5
  6
CONTINUOUS
 10
-1.551228
 20
1.897992
  0
SEQEND
  8
0
  0
POLYLINE
  8
PLAN_1
 62
     5
  6
CONTINUOUS
 66
     1
 40
0.003000
 41
0.003000
  0
VERTEX
  8
PLAN_1
 62
     5
  6
CONTINUOUS
 10
-1.542823
 20
1.897992
  0
VERTEX
  8
PLAN_1
 62
     5
  6
CONTINUOUS
 10
-1.534417
 20
1.897992
  0
SEQEND
  8
0
  0
POLYLINE
  8
PLAN_1
 62
     5
  6
CONTINUOUS
 66
     1
 40
0.003000
 41
0.003000
  0
VERTEX
  8
PLAN_1
 62
     5
  6
CONTINUOUS
 10
-1.526433
 20
1.897992
  0
VERTEX
  8
PLAN_1
 62
     5
  6
CONTINUOUS
 10
-1.518028
 20
1.897992
  0
SEQEND
  8
0
  0
POLYLINE
  8
PLAN_1
 62
     5
  6
CONTINUOUS
 66
     1
 40
0.003000
 41
0.003000
  0
VERTEX
  8
PLAN_1
 62
     5
  6
CONTINUOUS
 10
-1.509622
 20
1.897992
  0
VERTEX
  8
PLAN_1
 62
     5
  6
CONTINUOUS
 10
-1.501217
 20
1.897992
  0
SEQEND
  8
0
  0
POLYLINE
  8
PLAN_1
 62
     5
  6
CONTINUOUS
 66
     1
 40
0.003000
 41
0.003000
  0
VERTEX
  8
PLAN_1
 62
     5
  6
CONTINUOUS
 10
-1.492811
 20
1.897992
  0
VERTEX
  8
PLAN_1
 62
     5
  6
CONTINUOUS
 10
-1.484406
 20
1.897992
  0
SEQEND
  8
0
  0
POLYLINE
  8
PLAN_1
 62
     5
  6
CONTINUOUS
 66
     1
 40
0.003000
 41
0.003000
  0
VERTEX
  8
PLAN_1
 62
     5
  6
CONTINUOUS
 10
-1.476421
 20
1.897992
  0
VERTEX
  8
PLAN_1
 62
     5
  6
CONTINUOUS
 10
-1.468016
 20
1.897992
  0
SEQEND
  8
0
  0
POLYLINE
  8
PLAN_1
 62
     5
  6
CONTINUOUS
 66
     1
 40
0.003000
 41
0.003000
  0
VERTEX
  8
PLAN_1
 62
     5
  6
CONTINUOUS
 10
-1.459610
 20
1.897992
  0
VERTEX
  8
PLAN_1
 62
     5
  6
CONTINUOUS
 10
-1.451205
 20
1.897992
  0
SEQEND
  8
0
  0
POLYLINE
  8
PLAN_1
 62
     5
  6
CONTINUOUS
 66
     1
 40
0.003000
 41
0.003000
  0
VERTEX
  8
PLAN_1
 62
     5
  6
CONTINUOUS
 10
-1.442799
 20
1.897992
  0
VERTEX
  8
PLAN_1
 62
     5
  6
CONTINUOUS
 10
-1.434815
 20
1.897992
  0
SEQEND
  8
0
  0
POLYLINE
  8
PLAN_1
 62
     5
  6
CONTINUOUS
 66
     1
 40
0.003000
 41
0.003000
  0
VERTEX
  8
PLAN_1
 62
     5
  6
CONTINUOUS
 10
-1.426409
 20
1.897992
  0
VERTEX
  8
PLAN_1
 62
     5
  6
CONTINUOUS
 10
-1.418004
 20
1.897992
  0
SEQEND
  8
0
  0
POLYLINE
  8
PLAN_1
 62
     5
  6
CONTINUOUS
 66
     1
 40
0.003000
 41
0.003000
  0
VERTEX
  8
PLAN_1
 62
     5
  6
CONTINUOUS
 10
-1.409598
 20
1.897992
  0
VERTEX
  8
PLAN_1
 62
     5
  6
CONTINUOUS
 10
-1.401193
 20
1.897992
  0
SEQEND
  8
0
  0
POLYLINE
  8
PLAN_1
 62
     5
  6
CONTINUOUS
 66
     1
 40
0.003000
 41
0.003000
  0
VERTEX
  8
PLAN_1
 62
     5
  6
CONTINUOUS
 10
-1.392787
 20
1.897992
  0
VERTEX
  8
PLAN_1
 62
     5
  6
CONTINUOUS
 10
-1.384803
 20
1.897992
  0
SEQEND
  8
0
  0
POLYLINE
  8
PLAN_1
 62
     5
  6
CONTINUOUS
 66
     1
 40
0.003000
 41
0.003000
  0
VERTEX
  8
PLAN_1
 62
     5
  6
CONTINUOUS
 10
-1.376398
 20
1.897992
  0
VERTEX
  8
PLAN_1
 62
     5
  6
CONTINUOUS
 10
-1.367992
 20
1.897992
  0
SEQEND
  8
0
  0
POLYLINE
  8
PLAN_1
 62
     5
  6
CONTINUOUS
 66
     1
 40
0.003000
 41
0.003000
  0
VERTEX
  8
PLAN_1
 62
     5
  6
CONTINUOUS
 10
-1.359587
 20
1.897992
  0
VERTEX
  8
PLAN_1
 62
     5
  6
CONTINUOUS
 10
-1.351181
 20
1.897992
  0
SEQEND
  8
0
  0
POLYLINE
  8
PLAN_1
 62
     5
  6
CONTINUOUS
 66
     1
 40
0.003000
 41
0.003000
  0
VERTEX
  8
PLAN_1
 62
     5
  6
CONTINUOUS
 10
-1.343197
 20
1.897992
  0
VERTEX
  8
PLAN_1
 62
     5
  6
CONTINUOUS
 10
-1.334791
 20
1.897992
  0
SEQEND
  8
0
  0
POLYLINE
  8
PLAN_1
 62
     5
  6
CONTINUOUS
 66
     1
 40
0.003000
 41
0.003000
  0
VERTEX
  8
PLAN_1
 62
     5
  6
CONTINUOUS
 10
-1.326386
 20
1.897992
  0
VERTEX
  8
PLAN_1
 62
     5
  6
CONTINUOUS
 10
-1.317980
 20
1.897992
  0
SEQEND
  8
0
  0
POLYLINE
  8
PLAN_1
 62
     5
  6
CONTINUOUS
 66
     1
 40
0.003000
 41
0.003000
  0
VERTEX
  8
PLAN_1
 62
     5
  6
CONTINUOUS
 10
-1.309575
 20
1.897992
  0
VERTEX
  8
PLAN_1
 62
     5
  6
CONTINUOUS
 10
-1.301169
 20
1.897992
  0
SEQEND
  8
0
  0
POLYLINE
  8
PLAN_1
 62
     5
  6
CONTINUOUS
 66
     1
 40
0.003000
 41
0.003000
  0
VERTEX
  8
PLAN_1
 62
     5
  6
CONTINUOUS
 10
-1.293181
 20
1.897992
  0
VERTEX
  8
PLAN_1
 62
     5
  6
CONTINUOUS
 10
-1.284776
 20
1.897992
  0
SEQEND
  8
0
  0
POLYLINE
  8
PLAN_1
 62
     5
  6
CONTINUOUS
 66
     1
 40
0.003000
 41
0.003000
  0
VERTEX
  8
PLAN_1
 62
     5
  6
CONTINUOUS
 10
-1.276370
 20
1.897992
  0
VERTEX
  8
PLAN_1
 62
     5
  6
CONTINUOUS
 10
-1.267965
 20
1.897992
  0
SEQEND
  8
0
  0
POLYLINE
  8
PLAN_1
 62
     5
  6
CONTINUOUS
 66
     1
 40
0.003000
 41
0.003000
  0
VERTEX
  8
PLAN_1
 62
     5
  6
CONTINUOUS
 10
-1.259559
 20
1.897992
  0
VERTEX
  8
PLAN_1
 62
     5
  6
CONTINUOUS
 10
-1.251575
 20
1.897992
  0
SEQEND
  8
0
  0
POLYLINE
  8
PLAN_1
 62
     5
  6
CONTINUOUS
 66
     1
 40
0.003000
 41
0.003000
  0
VERTEX
  8
PLAN_1
 62
     5
  6
CONTINUOUS
 10
-1.243169
 20
1.897992
  0
VERTEX
  8
PLAN_1
 62
     5
  6
CONTINUOUS
 10
-1.234764
 20
1.897992
  0
SEQEND
  8
0
  0
POLYLINE
  8
PLAN_1
 62
     5
  6
CONTINUOUS
 66
     1
 40
0.003000
 41
0.003000
  0
VERTEX
  8
PLAN_1
 62
     5
  6
CONTINUOUS
 10
-1.226358
 20
1.897992
  0
VERTEX
  8
PLAN_1
 62
     5
  6
CONTINUOUS
 10
-1.217953
 20
1.897992
  0
SEQEND
  8
0
  0
POLYLINE
  8
PLAN_1
 62
     5
  6
CONTINUOUS
 66
     1
 40
0.003000
 41
0.003000
  0
VERTEX
  8
PLAN_1
 62
     5
  6
CONTINUOUS
 10
-1.209547
 20
1.897992
  0
VERTEX
  8
PLAN_1
 62
     5
  6
CONTINUOUS
 10
-1.207028
 20
1.897992
  0
VERTEX
  8
PLAN_1
 62
     5
  6
CONTINUOUS
 10
-1.201563
 20
1.897992
  0
SEQEND
  8
0
  0
POLYLINE
  8
PLAN_1
 62
     5
  6
CONTINUOUS
 66
     1
 40
0.003000
 41
0.003000
  0
VERTEX
  8
PLAN_1
 62
     5
  6
CONTINUOUS
 10
-1.193157
 20
1.897992
  0
VERTEX
  8
PLAN_1
 62
     5
  6
CONTINUOUS
 10
-1.184752
 20
1.897992
  0
SEQEND
  8
0
  0
POLYLINE
  8
PLAN_1
 62
     5
  6
CONTINUOUS
 66
     1
 40
0.003000
 41
0.003000
  0
VERTEX
  8
PLAN_1
 62
     5
  6
CONTINUOUS
 10
-1.176346
 20
1.897992
  0
VERTEX
  8
PLAN_1
 62
     5
  6
CONTINUOUS
 10
-1.167941
 20
1.897992
  0
SEQEND
  8
0
  0
POLYLINE
  8
PLAN_1
 62
     5
  6
CONTINUOUS
 66
     1
 40
0.003000
 41
0.003000
  0
VERTEX
  8
PLAN_1
 62
     5
  6
CONTINUOUS
 10
-1.159957
 20
1.897992
  0
VERTEX
  8
PLAN_1
 62
     5
  6
CONTINUOUS
 10
-1.151551
 20
1.897992
  0
SEQEND
  8
0
  0
POLYLINE
  8
PLAN_1
 62
     5
  6
CONTINUOUS
 66
     1
 40
0.003000
 41
0.003000
  0
VERTEX
  8
PLAN_1
 62
     5
  6
CONTINUOUS
 10
-1.143146
 20
1.897992
  0
VERTEX
  8
PLAN_1
 62
     5
  6
CONTINUOUS
 10
-1.134740
 20
1.897992
  0
SEQEND
  8
0
  0
POLYLINE
  8
PLAN_1
 62
     5
  6
CONTINUOUS
 66
     1
 40
0.003000
 41
0.003000
  0
VERTEX
  8
PLAN_1
 62
     5
  6
CONTINUOUS
 10
-1.126335
 20
1.897992
  0
VERTEX
  8
PLAN_1
 62
     5
  6
CONTINUOUS
 10
-1.117929
 20
1.897992
  0
SEQEND
  8
0
  0
POLYLINE
  8
PLAN_1
 62
     5
  6
CONTINUOUS
 66
     1
 40
0.003000
 41
0.003000
  0
VERTEX
  8
PLAN_1
 62
     5
  6
CONTINUOUS
 10
-1.109945
 20
1.897992
  0
VERTEX
  8
PLAN_1
 62
     5
  6
CONTINUOUS
 10
-1.101539
 20
1.897992
  0
SEQEND
  8
0
  0
POLYLINE
  8
PLAN_1
 62
     5
  6
CONTINUOUS
 66
     1
 40
0.003000
 41
0.003000
  0
VERTEX
  8
PLAN_1
 62
     5
  6
CONTINUOUS
 10
-1.093134
 20
1.897992
  0
VERTEX
  8
PLAN_1
 62
     5
  6
CONTINUOUS
 10
-1.084728
 20
1.897992
  0
SEQEND
  8
0
  0
POLYLINE
  8
PLAN_1
 62
     5
  6
CONTINUOUS
 66
     1
 40
0.003000
 41
0.003000
  0
VERTEX
  8
PLAN_1
 62
     5
  6
CONTINUOUS
 10
-1.076323
 20
1.897992
  0
VERTEX
  8
PLAN_1
 62
     5
  6
CONTINUOUS
 10
-1.068339
 20
1.897992
  0
SEQEND
  8
0
  0
POLYLINE
  8
PLAN_1
 62
     5
  6
CONTINUOUS
 66
     1
 40
0.003000
 41
0.003000
  0
VERTEX
  8
PLAN_1
 62
     5
  6
CONTINUOUS
 10
-1.059933
 20
1.897992
  0
VERTEX
  8
PLAN_1
 62
     5
  6
CONTINUOUS
 10
-1.051528
 20
1.897992
  0
SEQEND
  8
0
  0
POLYLINE
  8
PLAN_1
 62
     5
  6
CONTINUOUS
 66
     1
 40
0.003000
 41
0.003000
  0
VERTEX
  8
PLAN_1
 62
     5
  6
CONTINUOUS
 10
-1.043122
 20
1.897992
  0
VERTEX
  8
PLAN_1
 62
     5
  6
CONTINUOUS
 10
-1.034717
 20
1.897992
  0
SEQEND
  8
0
  0
POLYLINE
  8
PLAN_1
 62
     5
  6
CONTINUOUS
 66
     1
 40
0.003000
 41
0.003000
  0
VERTEX
  8
PLAN_1
 62
     5
  6
CONTINUOUS
 10
-1.026732
 20
1.897992
  0
VERTEX
  8
PLAN_1
 62
     5
  6
CONTINUOUS
 10
-1.018327
 20
1.897992
  0
SEQEND
  8
0
  0
POLYLINE
  8
PLAN_1
 62
     5
  6
CONTINUOUS
 66
     1
 40
0.003000
 41
0.003000
  0
VERTEX
  8
PLAN_1
 62
     5
  6
CONTINUOUS
 10
-1.009921
 20
1.897992
  0
VERTEX
  8
PLAN_1
 62
     5
  6
CONTINUOUS
 10
-1.001516
 20
1.897992
  0
SEQEND
  8
0
  0
POLYLINE
  8
PLAN_1
 62
     5
  6
CONTINUOUS
 66
     1
 40
0.003000
 41
0.003000
  0
VERTEX
  8
PLAN_1
 62
     5
  6
CONTINUOUS
 10
-0.993110
 20
1.897992
  0
VERTEX
  8
PLAN_1
 62
     5
  6
CONTINUOUS
 10
-0.984705
 20
1.897992
  0
SEQEND
  8
0
  0
POLYLINE
  8
PLAN_1
 62
     5
  6
CONTINUOUS
 66
     1
 40
0.003000
 41
0.003000
  0
VERTEX
  8
PLAN_1
 62
     5
  6
CONTINUOUS
 10
-0.976717
 20
1.897992
  0
VERTEX
  8
PLAN_1
 62
     5
  6
CONTINUOUS
 10
-0.975878
 20
1.897992
  0
VERTEX
  8
PLAN_1
 62
     5
  6
CONTINUOUS
 10
-0.968311
 20
1.897992
  0
SEQEND
  8
0
  0
POLYLINE
  8
PLAN_1
 62
     5
  6
CONTINUOUS
 66
     1
 40
0.003000
 41
0.003000
  0
VERTEX
  8
PLAN_1
 62
     5
  6
CONTINUOUS
 10
-0.959906
 20
1.897992
  0
VERTEX
  8
PLAN_1
 62
     5
  6
CONTINUOUS
 10
-0.951504
 20
1.897992
  0
SEQEND
  8
0
  0
POLYLINE
  8
PLAN_1
 62
     5
  6
CONTINUOUS
 66
     1
 40
0.003000
 41
0.003000
  0
VERTEX
  8
PLAN_1
 62
     5
  6
CONTINUOUS
 10
-0.943098
 20
1.897992
  0
VERTEX
  8
PLAN_1
 62
     5
  6
CONTINUOUS
 10
-0.935110
 20
1.897992
  0
SEQEND
  8
0
  0
POLYLINE
  8
PLAN_1
 62
     5
  6
CONTINUOUS
 66
     1
 40
0.003000
 41
0.003000
  0
VERTEX
  8
PLAN_1
 62
     5
  6
CONTINUOUS
 10
-0.926705
 20
1.897992
  0
VERTEX
  8
PLAN_1
 62
     5
  6
CONTINUOUS
 10
-0.918299
 20
1.897992
  0
SEQEND
  8
0
  0
POLYLINE
  8
PLAN_1
 62
     5
  6
CONTINUOUS
 66
     1
 40
0.003000
 41
0.003000
  0
VERTEX
  8
PLAN_1
 62
     5
  6
CONTINUOUS
 10
-0.909894
 20
1.897992
  0
VERTEX
  8
PLAN_1
 62
     5
  6
CONTINUOUS
 10
-0.901488
 20
1.897992
  0
SEQEND
  8
0
  0
POLYLINE
  8
PLAN_1
 62
     5
  6
CONTINUOUS
 66
     1
 40
0.003000
 41
0.003000
  0
VERTEX
  8
PLAN_1
 62
     5
  6
CONTINUOUS
 10
-0.893083
 20
1.897992
  0
VERTEX
  8
PLAN_1
 62
     5
  6
CONTINUOUS
 10
-0.885098
 20
1.897992
  0
SEQEND
  8
0
  0
POLYLINE
  8
PLAN_1
 62
     5
  6
CONTINUOUS
 66
     1
 40
0.003000
 41
0.003000
  0
VERTEX
  8
PLAN_1
 62
     5
  6
CONTINUOUS
 10
-0.876693
 20
1.897992
  0
VERTEX
  8
PLAN_1
 62
     5
  6
CONTINUOUS
 10
-0.868287
 20
1.897992
  0
SEQEND
  8
0
  0
POLYLINE
  8
PLAN_1
 62
     5
  6
CONTINUOUS
 66
     1
 40
0.003000
 41
0.003000
  0
VERTEX
  8
PLAN_1
 62
     5
  6
CONTINUOUS
 10
-0.859882
 20
1.897992
  0
VERTEX
  8
PLAN_1
 62
     5
  6
CONTINUOUS
 10
-0.851476
 20
1.897992
  0
SEQEND
  8
0
  0
POLYLINE
  8
PLAN_1
 62
     5
  6
CONTINUOUS
 66
     1
 40
0.003000
 41
0.003000
  0
VERTEX
  8
PLAN_1
 62
     5
  6
CONTINUOUS
 10
-0.843492
 20
1.897992
  0
VERTEX
  8
PLAN_1
 62
     5
  6
CONTINUOUS
 10
-0.835087
 20
1.897992
  0
SEQEND
  8
0
  0
POLYLINE
  8
PLAN_1
 62
     5
  6
CONTINUOUS
 66
     1
 40
0.003000
 41
0.003000
  0
VERTEX
  8
PLAN_1
 62
     5
  6
CONTINUOUS
 10
-0.826681
 20
1.897992
  0
VERTEX
  8
PLAN_1
 62
     5
  6
CONTINUOUS
 10
-0.818276
 20
1.897992
  0
SEQEND
  8
0
  0
POLYLINE
  8
PLAN_1
 62
     5
  6
CONTINUOUS
 66
     1
 40
0.003000
 41
0.003000
  0
VERTEX
  8
PLAN_1
 62
     5
  6
CONTINUOUS
 10
-0.809870
 20
1.897992
  0
VERTEX
  8
PLAN_1
 62
     5
  6
CONTINUOUS
 10
-0.801465
 20
1.897992
  0
SEQEND
  8
0
  0
POLYLINE
  8
PLAN_1
 62
     5
  6
CONTINUOUS
 66
     1
 40
0.003000
 41
0.003000
  0
VERTEX
  8
PLAN_1
 62
     5
  6
CONTINUOUS
 10
-0.793480
 20
1.897992
  0
VERTEX
  8
PLAN_1
 62
     5
  6
CONTINUOUS
 10
-0.785075
 20
1.897992
  0
SEQEND
  8
0
  0
POLYLINE
  8
PLAN_1
 62
     5
  6
CONTINUOUS
 66
     1
 40
0.003000
 41
0.003000
  0
VERTEX
  8
PLAN_1
 62
     5
  6
CONTINUOUS
 10
-0.776669
 20
1.897992
  0
VERTEX
  8
PLAN_1
 62
     5
  6
CONTINUOUS
 10
-0.768264
 20
1.897992
  0
SEQEND
  8
0
  0
POLYLINE
  8
PLAN_1
 62
     5
  6
CONTINUOUS
 66
     1
 40
0.003000
 41
0.003000
  0
VERTEX
  8
PLAN_1
 62
     5
  6
CONTINUOUS
 10
-0.759858
 20
1.897992
  0
VERTEX
  8
PLAN_1
 62
     5
  6
CONTINUOUS
 10
-0.751874
 20
1.897992
  0
SEQEND
  8
0
  0
POLYLINE
  8
PLAN_1
 62
     5
  6
CONTINUOUS
 66
     1
 40
0.003000
 41
0.003000
  0
VERTEX
  8
PLAN_1
 62
     5
  6
CONTINUOUS
 10
-0.743469
 20
1.897992
  0
VERTEX
  8
PLAN_1
 62
     5
  6
CONTINUOUS
 10
-0.735063
 20
1.897992
  0
SEQEND
  8
0
  0
POLYLINE
  8
PLAN_1
 62
     5
  6
CONTINUOUS
 66
     1
 40
0.003000
 41
0.003000
  0
VERTEX
  8
PLAN_1
 62
     5
  6
CONTINUOUS
 10
-0.726657
 20
1.897992
  0
VERTEX
  8
PLAN_1
 62
     5
  6
CONTINUOUS
 10
-0.718252
 20
1.897992
  0
SEQEND
  8
0
  0
POLYLINE
  8
PLAN_1
 62
     5
  6
CONTINUOUS
 66
     1
 40
0.003000
 41
0.003000
  0
VERTEX
  8
PLAN_1
 62
     5
  6
CONTINUOUS
 10
-0.709846
 20
1.897992
  0
VERTEX
  8
PLAN_1
 62
     5
  6
CONTINUOUS
 10
-0.701862
 20
1.897992
  0
SEQEND
  8
0
  0
POLYLINE
  8
PLAN_1
 62
     5
  6
CONTINUOUS
 66
     1
 40
0.003000
 41
0.003000
  0
VERTEX
  8
PLAN_1
 62
     5
  6
CONTINUOUS
 10
-0.693457
 20
1.897992
  0
VERTEX
  8
PLAN_1
 62
     5
  6
CONTINUOUS
 10
-0.685051
 20
1.897992
  0
SEQEND
  8
0
  0
POLYLINE
  8
PLAN_1
 62
     5
  6
CONTINUOUS
 66
     1
 40
0.003000
 41
0.003000
  0
VERTEX
  8
PLAN_1
 62
     5
  6
CONTINUOUS
 10
-0.676646
 20
1.897992
  0
VERTEX
  8
PLAN_1
 62
     5
  6
CONTINUOUS
 10
-0.668240
 20
1.897992
  0
SEQEND
  8
0
  0
POLYLINE
  8
PLAN_1
 62
     5
  6
CONTINUOUS
 66
     1
 40
0.003000
 41
0.003000
  0
VERTEX
  8
PLAN_1
 62
     5
  6
CONTINUOUS
 10
-0.660252
 20
1.897992
  0
VERTEX
  8
PLAN_1
 62
     5
  6
CONTINUOUS
 10
-0.651850
 20
1.897992
  0
SEQEND
  8
0
  0
POLYLINE
  8
PLAN_1
 62
     5
  6
CONTINUOUS
 66
     1
 40
0.003000
 41
0.003000
  0
VERTEX
  8
PLAN_1
 62
     5
  6
CONTINUOUS
 10
-0.643445
 20
1.897992
  0
VERTEX
  8
PLAN_1
 62
     5
  6
CONTINUOUS
 10
-0.642181
 20
1.897992
  0
VERTEX
  8
PLAN_1
 62
     5
  6
CONTINUOUS
 10
-0.635039
 20
1.897992
  0
SEQEND
  8
0
  0
POLYLINE
  8
PLAN_1
 62
     5
  6
CONTINUOUS
 66
     1
 40
0.003000
 41
0.003000
  0
VERTEX
  8
PLAN_1
 62
     5
  6
CONTINUOUS
 10
-0.626634
 20
1.897992
  0
VERTEX
  8
PLAN_1
 62
     5
  6
CONTINUOUS
 10
-0.618228
 20
1.897992
  0
SEQEND
  8
0
  0
POLYLINE
  8
PLAN_1
 62
     5
  6
CONTINUOUS
 66
     1
 40
0.003000
 41
0.003000
  0
VERTEX
  8
PLAN_1
 62
     5
  6
CONTINUOUS
 10
-0.610240
 20
1.897992
  0
VERTEX
  8
PLAN_1
 62
     5
  6
CONTINUOUS
 10
-0.601835
 20
1.897992
  0
SEQEND
  8
0
  0
POLYLINE
  8
PLAN_1
 62
     5
  6
CONTINUOUS
 66
     1
 40
0.003000
 41
0.003000
  0
VERTEX
  8
PLAN_1
 62
     5
  6
CONTINUOUS
 10
-0.593429
 20
1.897992
  0
VERTEX
  8
PLAN_1
 62
     5
  6
CONTINUOUS
 10
-0.590909
 20
1.897992
  0
VERTEX
  8
PLAN_1
 62
     5
  6
CONTINUOUS
 10
-0.589228
 20
1.897992
  0
VERTEX
  8
PLAN_1
 62
     5
  6
CONTINUOUS
 10
-0.585024
 20
1.897992
  0
SEQEND
  8
0
  0
POLYLINE
  8
PLAN_1
 62
     5
  6
CONTINUOUS
 66
     1
 40
0.003000
 41
0.003000
  0
VERTEX
  8
PLAN_1
 62
     5
  6
CONTINUOUS
 10
-0.576618
 20
1.897150
  0
VERTEX
  8
PLAN_1
 62
     5
  6
CONTINUOUS
 10
-0.575780
 20
1.897150
  0
VERTEX
  8
PLAN_1
 62
     5
  6
CONTINUOUS
 10
-0.568634
 20
1.896311
  0
SEQEND
  8
0
  0
POLYLINE
  8
PLAN_1
 62
     5
  6
CONTINUOUS
 66
     1
 40
0.003000
 41
0.003000
  0
VERTEX
  8
PLAN_1
 62
     5
  6
CONTINUOUS
 10
-0.560228
 20
1.895051
  0
VERTEX
  8
PLAN_1
 62
     5
  6
CONTINUOUS
 10
-0.558547
 20
1.894630
  0
VERTEX
  8
PLAN_1
 62
     5
  6
CONTINUOUS
 10
-0.552244
 20
1.893370
  0
SEQEND
  8
0
  0
POLYLINE
  8
PLAN_1
 62
     5
  6
CONTINUOUS
 66
     1
 40
0.003000
 41
0.003000
  0
VERTEX
  8
PLAN_1
 62
     5
  6
CONTINUOUS
 10
-0.544260
 20
1.890846
  0
VERTEX
  8
PLAN_1
 62
     5
  6
CONTINUOUS
 10
-0.537957
 20
1.889165
  0
VERTEX
  8
PLAN_1
 62
     5
  6
CONTINUOUS
 10
-0.536276
 20
1.888327
  0
SEQEND
  8
0
  0
POLYLINE
  8
PLAN_1
 62
     5
  6
CONTINUOUS
 66
     1
 40
0.003000
 41
0.003000
  0
VERTEX
  8
PLAN_1
 62
     5
  6
CONTINUOUS
 10
-0.528287
 20
1.885382
  0
VERTEX
  8
PLAN_1
 62
     5
  6
CONTINUOUS
 10
-0.522827
 20
1.882862
  0
VERTEX
  8
PLAN_1
 62
     5
  6
CONTINUOUS
 10
-0.520724
 20
1.882020
  0
SEQEND
  8
0
  0
POLYLINE
  8
PLAN_1
 62
     5
  6
CONTINUOUS
 66
     1
 40
0.003000
 41
0.003000
  0
VERTEX
  8
PLAN_1
 62
     5
  6
CONTINUOUS
 10
-0.513579
 20
1.878240
  0
VERTEX
  8
PLAN_1
 62
     5
  6
CONTINUOUS
 10
-0.507276
 20
1.874878
  0
VERTEX
  8
PLAN_1
 62
     5
  6
CONTINUOUS
 10
-0.506016
 20
1.874035
  0
SEQEND
  8
0
  0
POLYLINE
  8
PLAN_1
 62
     5
  6
CONTINUOUS
 66
     1
 40
0.003000
 41
0.003000
  0
VERTEX
  8
PLAN_1
 62
     5
  6
CONTINUOUS
 10
-0.499291
 20
1.869413
  0
VERTEX
  8
PLAN_1
 62
     5
  6
CONTINUOUS
 10
-0.492567
 20
1.864370
  0
SEQEND
  8
0
  0
POLYLINE
  8
PLAN_1
 62
     5
  6
CONTINUOUS
 66
     1
 40
0.003000
 41
0.003000
  0
VERTEX
  8
PLAN_1
 62
     5
  6
CONTINUOUS
 10
-0.486260
 20
1.859327
  0
VERTEX
  8
PLAN_1
 62
     5
  6
CONTINUOUS
 10
-0.483740
 20
1.857224
  0
VERTEX
  8
PLAN_1
 62
     5
  6
CONTINUOUS
 10
-0.479957
 20
1.853445
  0
SEQEND
  8
0
  0
POLYLINE
  8
PLAN_1
 62
     5
  6
CONTINUOUS
 66
     1
 40
0.003000
 41
0.003000
  0
VERTEX
  8
PLAN_1
 62
     5
  6
CONTINUOUS
 10
-0.474075
 20
1.847559
  0
VERTEX
  8
PLAN_1
 62
     5
  6
CONTINUOUS
 10
-0.469031
 20
1.841677
  0
VERTEX
  8
PLAN_1
 62
     5
  6
CONTINUOUS
 10
-0.468610
 20
1.841256
  0
SEQEND
  8
0
  0
POLYLINE
  8
PLAN_1
 62
     5
  6
CONTINUOUS
 66
     1
 40
0.003000
 41
0.003000
  0
VERTEX
  8
PLAN_1
 62
     5
  6
CONTINUOUS
 10
-0.463567
 20
1.834531
  0
VERTEX
  8
PLAN_1
 62
     5
  6
CONTINUOUS
 10
-0.462307
 20
1.832850
  0
VERTEX
  8
PLAN_1
 62
     5
  6
CONTINUOUS
 10
-0.458945
 20
1.828228
  0
VERTEX
  8
PLAN_1
 62
     5
  6
CONTINUOUS
 10
-0.458945
 20
1.827807
  0
SEQEND
  8
0
  0
POLYLINE
  8
PLAN_1
 62
     5
  6
CONTINUOUS
 66
     1
 40
0.003000
 41
0.003000
  0
VERTEX
  8
PLAN_1
 62
     5
  6
CONTINUOUS
 10
-0.454323
 20
1.820661
  0
VERTEX
  8
PLAN_1
 62
     5
  6
CONTINUOUS
 10
-0.452642
 20
1.817720
  0
VERTEX
  8
PLAN_1
 62
     5
  6
CONTINUOUS
 10
-0.450539
 20
1.813516
  0
SEQEND
  8
0
  0
POLYLINE
  8
PLAN_1
 62
     5
  6
CONTINUOUS
 66
     1
 40
0.003000
 41
0.003000
  0
VERTEX
  8
PLAN_1
 62
     5
  6
CONTINUOUS
 10
-0.446756
 20
1.805953
  0
VERTEX
  8
PLAN_1
 62
     5
  6
CONTINUOUS
 10
-0.443815
 20
1.800067
  0
VERTEX
  8
PLAN_1
 62
     5
  6
CONTINUOUS
 10
-0.443394
 20
1.798386
  0
SEQEND
  8
0
  0
POLYLINE
  8
PLAN_1
 62
     5
  6
CONTINUOUS
 66
     1
 40
0.003000
 41
0.003000
  0
VERTEX
  8
PLAN_1
 62
     5
  6
CONTINUOUS
 10
-0.440031
 20
1.790823
  0
VERTEX
  8
PLAN_1
 62
     5
  6
CONTINUOUS
 10
-0.438772
 20
1.787461
  0
VERTEX
  8
PLAN_1
 62
     5
  6
CONTINUOUS
 10
-0.437512
 20
1.782839
  0
SEQEND
  8
0
  0
POLYLINE
  8
PLAN_1
 62
     5
  6
CONTINUOUS
 66
     1
 40
0.003000
 41
0.003000
  0
VERTEX
  8
PLAN_1
 62
     5
  6
CONTINUOUS
 10
-0.434988
 20
1.774850
  0
VERTEX
  8
PLAN_1
 62
     5
  6
CONTINUOUS
 10
-0.434150
 20
1.773591
  0
VERTEX
  8
PLAN_1
 62
     5
  6
CONTINUOUS
 10
-0.432469
 20
1.766866
  0
SEQEND
  8
0
  0
POLYLINE
  8
PLAN_1
 62
     5
  6
CONTINUOUS
 66
     1
 40
0.003000
 41
0.003000
  0
VERTEX
  8
PLAN_1
 62
     5
  6
CONTINUOUS
 10
-0.430787
 20
1.758882
  0
VERTEX
  8
PLAN_1
 62
     5
  6
CONTINUOUS
 10
-0.430366
 20
1.758461
  0
VERTEX
  8
PLAN_1
 62
     5
  6
CONTINUOUS
 10
-0.429106
 20
1.750898
  0
SEQEND
  8
0
  0
POLYLINE
  8
PLAN_1
 62
     5
  6
CONTINUOUS
 66
     1
 40
0.003000
 41
0.003000
  0
VERTEX
  8
PLAN_1
 62
     5
  6
CONTINUOUS
 10
-0.427425
 20
1.742492
  0
VERTEX
  8
PLAN_1
 62
     5
  6
CONTINUOUS
 10
-0.427425
 20
1.742071
  0
VERTEX
  8
PLAN_1
 62
     5
  6
CONTINUOUS
 10
-0.426583
 20
1.734087
  0
SEQEND
  8
0
  0
POLYLINE
  8
PLAN_1
 62
     5
  6
CONTINUOUS
 66
     1
 40
0.003000
 41
0.003000
  0
VERTEX
  8
PLAN_1
 62
     5
  6
CONTINUOUS
 10
-0.425323
 20
1.726102
  0
VERTEX
  8
PLAN_1
 62
     5
  6
CONTINUOUS
 10
-0.425323
 20
1.724421
  0
VERTEX
  8
PLAN_1
 62
     5
  6
CONTINUOUS
 10
-0.424480
 20
1.717697
  0
SEQEND
  8
0
  0
POLYLINE
  8
PLAN_1
 62
     5
  6
CONTINUOUS
 66
     1
 40
0.003000
 41
0.003000
  0
VERTEX
  8
PLAN_1
 62
     5
  6
CONTINUOUS
 10
-0.424063
 20
1.709291
  0
VERTEX
  8
PLAN_1
 62
     5
  6
CONTINUOUS
 10
-0.423642
 20
1.705929
  0
VERTEX
  8
PLAN_1
 62
     5
  6
CONTINUOUS
 10
-0.423642
 20
1.700886
  0
SEQEND
  8
0
  0
POLYLINE
  8
PLAN_1
 62
     5
  6
CONTINUOUS
 66
     1
 40
0.003000
 41
0.003000
  0
VERTEX
  8
PLAN_1
 62
     5
  6
CONTINUOUS
 10
-0.423642
 20
1.692898
  0
VERTEX
  8
PLAN_1
 62
     5
  6
CONTINUOUS
 10
-0.423220
 20
1.685756
  0
VERTEX
  8
PLAN_1
 62
     5
  6
CONTINUOUS
 10
-0.423220
 20
1.684492
  0
SEQEND
  8
0
  0
POLYLINE
  8
PLAN_1
 62
     5
  6
CONTINUOUS
 66
     1
 40
0.003000
 41
0.003000
  0
VERTEX
  8
PLAN_1
 62
     5
  6
CONTINUOUS
 10
-0.423220
 20
1.676087
  0
VERTEX
  8
PLAN_1
 62
     5
  6
CONTINUOUS
 10
-0.423220
 20
1.667681
  0
SEQEND
  8
0
  0
POLYLINE
  8
PLAN_1
 62
     5
  6
CONTINUOUS
 66
     1
 40
0.003000
 41
0.003000
  0
VERTEX
  8
PLAN_1
 62
     5
  6
CONTINUOUS
 10
-0.423220
 20
1.659280
  0
VERTEX
  8
PLAN_1
 62
     5
  6
CONTINUOUS
 10
-0.423220
 20
1.651291
  0
SEQEND
  8
0
  0
POLYLINE
  8
PLAN_1
 62
     5
  6
CONTINUOUS
 66
     1
 40
0.003000
 41
0.003000
  0
VERTEX
  8
PLAN_1
 62
     5
  6
CONTINUOUS
 10
-0.423220
 20
1.642886
  0
VERTEX
  8
PLAN_1
 62
     5
  6
CONTINUOUS
 10
-0.423220
 20
1.634480
  0
SEQEND
  8
0
  0
POLYLINE
  8
PLAN_1
 62
     5
  6
CONTINUOUS
 66
     1
 40
0.003000
 41
0.003000
  0
VERTEX
  8
PLAN_1
 62
     5
  6
CONTINUOUS
 10
-0.423220
 20
1.626075
  0
VERTEX
  8
PLAN_1
 62
     5
  6
CONTINUOUS
 10
-0.423220
 20
1.617669
  0
SEQEND
  8
0
  0
POLYLINE
  8
PLAN_1
 62
     5
  6
CONTINUOUS
 66
     1
 40
0.003000
 41
0.003000
  0
VERTEX
  8
PLAN_1
 62
     5
  6
CONTINUOUS
 10
-0.423220
 20
1.609264
  0
VERTEX
  8
PLAN_1
 62
     5
  6
CONTINUOUS
 10
-0.423220
 20
1.601280
  0
SEQEND
  8
0
  0
POLYLINE
  8
PLAN_1
 62
     5
  6
CONTINUOUS
 66
     1
 40
0.003000
 41
0.003000
  0
VERTEX
  8
PLAN_1
 62
     5
  6
CONTINUOUS
 10
-0.423220
 20
1.592874
  0
VERTEX
  8
PLAN_1
 62
     5
  6
CONTINUOUS
 10
-0.423220
 20
1.584469
  0
SEQEND
  8
0
  0
POLYLINE
  8
PLAN_1
 62
     5
  6
CONTINUOUS
 66
     1
 40
0.003000
 41
0.003000
  0
VERTEX
  8
PLAN_1
 62
     5
  6
CONTINUOUS
 10
-0.423220
 20
1.576063
  0
VERTEX
  8
PLAN_1
 62
     5
  6
CONTINUOUS
 10
-0.423220
 20
1.567657
  0
SEQEND
  8
0
  0
POLYLINE
  8
PLAN_1
 62
     5
  6
CONTINUOUS
 66
     1
 40
0.003000
 41
0.003000
  0
VERTEX
  8
PLAN_1
 62
     5
  6
CONTINUOUS
 10
-0.423220
 20
1.559673
  0
VERTEX
  8
PLAN_1
 62
     5
  6
CONTINUOUS
 10
-0.423220
 20
1.551268
  0
SEQEND
  8
0
  0
POLYLINE
  8
PLAN_1
 62
     5
  6
CONTINUOUS
 66
     1
 40
0.003000
 41
0.003000
  0
VERTEX
  8
PLAN_1
 62
     5
  6
CONTINUOUS
 10
-0.423220
 20
1.542862
  0
VERTEX
  8
PLAN_1
 62
     5
  6
CONTINUOUS
 10
-0.423220
 20
1.534457
  0
SEQEND
  8
0
  0
POLYLINE
  8
PLAN_1
 62
     5
  6
CONTINUOUS
 66
     1
 40
0.003000
 41
0.003000
  0
VERTEX
  8
PLAN_1
 62
     5
  6
CONTINUOUS
 10
-0.423220
 20
1.526051
  0
VERTEX
  8
PLAN_1
 62
     5
  6
CONTINUOUS
 10
-0.423220
 20
1.517646
  0
SEQEND
  8
0
  0
POLYLINE
  8
PLAN_1
 62
     5
  6
CONTINUOUS
 66
     1
 40
0.003000
 41
0.003000
  0
VERTEX
  8
PLAN_1
 62
     5
  6
CONTINUOUS
 10
-0.423220
 20
1.509661
  0
VERTEX
  8
PLAN_1
 62
     5
  6
CONTINUOUS
 10
-0.423220
 20
1.501256
  0
SEQEND
  8
0
  0
POLYLINE
  8
PLAN_1
 62
     5
  6
CONTINUOUS
 66
     1
 40
0.003000
 41
0.003000
  0
VERTEX
  8
PLAN_1
 62
     5
  6
CONTINUOUS
 10
-0.423220
 20
1.492850
  0
VERTEX
  8
PLAN_1
 62
     5
  6
CONTINUOUS
 10
-0.423220
 20
1.484445
  0
SEQEND
  8
0
  0
POLYLINE
  8
PLAN_1
 62
     5
  6
CONTINUOUS
 66
     1
 40
0.003000
 41
0.003000
  0
VERTEX
  8
PLAN_1
 62
     5
  6
CONTINUOUS
 10
-0.423220
 20
1.476039
  0
VERTEX
  8
PLAN_1
 62
     5
  6
CONTINUOUS
 10
-0.423220
 20
1.468055
  0
SEQEND
  8
0
  0
POLYLINE
  8
PLAN_1
 62
     5
  6
CONTINUOUS
 66
     1
 40
0.003000
 41
0.003000
  0
VERTEX
  8
PLAN_1
 62
     5
  6
CONTINUOUS
 10
-0.423220
 20
1.459650
  0
VERTEX
  8
PLAN_1
 62
     5
  6
CONTINUOUS
 10
-0.423220
 20
1.451244
  0
SEQEND
  8
0
  0
POLYLINE
  8
PLAN_1
 62
     5
  6
CONTINUOUS
 66
     1
 40
0.003000
 41
0.003000
  0
VERTEX
  8
PLAN_1
 62
     5
  6
CONTINUOUS
 10
-0.423220
 20
1.442839
  0
VERTEX
  8
PLAN_1
 62
     5
  6
CONTINUOUS
 10
-0.423220
 20
1.434433
  0
SEQEND
  8
0
  0
POLYLINE
  8
PLAN_1
 62
     5
  6
CONTINUOUS
 66
     1
 40
0.003000
 41
0.003000
  0
VERTEX
  8
PLAN_1
 62
     5
  6
CONTINUOUS
 10
-0.423220
 20
1.426028
  0
VERTEX
  8
PLAN_1
 62
     5
  6
CONTINUOUS
 10
-0.423220
 20
1.424346
  0
VERTEX
  8
PLAN_1
 62
     5
  6
CONTINUOUS
 10
-0.423220
 20
1.418043
  0
SEQEND
  8
0
  0
POLYLINE
  8
PLAN_1
 62
     5
  6
CONTINUOUS
 66
     1
 40
0.003000
 41
0.003000
  0
VERTEX
  8
PLAN_1
 62
     5
  6
CONTINUOUS
 10
-0.423220
 20
1.409638
  0
VERTEX
  8
PLAN_1
 62
     5
  6
CONTINUOUS
 10
-0.423220
 20
1.401232
  0
SEQEND
  8
0
  0
POLYLINE
  8
PLAN_1
 62
     5
  6
CONTINUOUS
 66
     1
 40
0.003000
 41
0.003000
  0
VERTEX
  8
PLAN_1
 62
     5
  6
CONTINUOUS
 10
-0.423220
 20
1.392827
  0
VERTEX
  8
PLAN_1
 62
     5
  6
CONTINUOUS
 10
-0.423220
 20
1.384421
  0
SEQEND
  8
0
  0
POLYLINE
  8
PLAN_1
 62
     5
  6
CONTINUOUS
 66
     1
 40
0.003000
 41
0.003000
  0
VERTEX
  8
PLAN_1
 62
     5
  6
CONTINUOUS
 10
-0.423220
 20
1.376433
  0
VERTEX
  8
PLAN_1
 62
     5
  6
CONTINUOUS
 10
-0.423220
 20
1.368028
  0
SEQEND
  8
0
  0
POLYLINE
  8
PLAN_1
 62
     5
  6
CONTINUOUS
 66
     1
 40
0.003000
 41
0.003000
  0
VERTEX
  8
PLAN_1
 62
     5
  6
CONTINUOUS
 10
-0.423220
 20
1.359626
  0
VERTEX
  8
PLAN_1
 62
     5
  6
CONTINUOUS
 10
-0.423220
 20
1.351220
  0
SEQEND
  8
0
  0
POLYLINE
  8
PLAN_1
 62
     5
  6
CONTINUOUS
 66
     1
 40
0.003000
 41
0.003000
  0
VERTEX
  8
PLAN_1
 62
     5
  6
CONTINUOUS
 10
-0.423220
 20
1.342815
  0
VERTEX
  8
PLAN_1
 62
     5
  6
CONTINUOUS
 10
-0.423220
 20
1.334409
  0
SEQEND
  8
0
  0
POLYLINE
  8
PLAN_1
 62
     5
  6
CONTINUOUS
 66
     1
 40
0.003000
 41
0.003000
  0
VERTEX
  8
PLAN_1
 62
     5
  6
CONTINUOUS
 10
-0.423220
 20
1.326421
  0
VERTEX
  8
PLAN_1
 62
     5
  6
CONTINUOUS
 10
-0.423220
 20
1.318016
  0
SEQEND
  8
0
  0
POLYLINE
  8
PLAN_1
 62
     5
  6
CONTINUOUS
 66
     1
 40
0.003000
 41
0.003000
  0
VERTEX
  8
PLAN_1
 62
     5
  6
CONTINUOUS
 10
-0.423220
 20
1.309610
  0
VERTEX
  8
PLAN_1
 62
     5
  6
CONTINUOUS
 10
-0.423220
 20
1.301205
  0
SEQEND
  8
0
  0
POLYLINE
  8
PLAN_1
 62
     5
  6
CONTINUOUS
 66
     1
 40
0.003000
 41
0.003000
  0
VERTEX
  8
PLAN_1
 62
     5
  6
CONTINUOUS
 10
-0.423220
 20
1.292799
  0
VERTEX
  8
PLAN_1
 62
     5
  6
CONTINUOUS
 10
-0.423220
 20
1.284815
  0
SEQEND
  8
0
  0
POLYLINE
  8
PLAN_1
 62
     5
  6
CONTINUOUS
 66
     1
 40
0.003000
 41
0.003000
  0
VERTEX
  8
PLAN_1
 62
     5
  6
CONTINUOUS
 10
-0.423220
 20
1.276409
  0
VERTEX
  8
PLAN_1
 62
     5
  6
CONTINUOUS
 10
-0.423220
 20
1.273047
  0
VERTEX
  8
PLAN_1
 62
     5
  6
CONTINUOUS
 10
-0.423220
 20
1.268004
  0
SEQEND
  8
0
  0
POLYLINE
  8
PLAN_1
 62
     5
  6
CONTINUOUS
 66
     1
 40
0.003000
 41
0.003000
  0
VERTEX
  8
PLAN_1
 62
     5
  6
CONTINUOUS
 10
-0.423220
 20
1.259598
  0
VERTEX
  8
PLAN_1
 62
     5
  6
CONTINUOUS
 10
-0.423220
 20
1.251193
  0
SEQEND
  8
0
  0
POLYLINE
  8
PLAN_1
 62
     5
  6
CONTINUOUS
 66
     1
 40
0.003000
 41
0.003000
  0
VERTEX
  8
PLAN_1
 62
     5
  6
CONTINUOUS
 10
-0.423220
 20
1.242787
  0
VERTEX
  8
PLAN_1
 62
     5
  6
CONTINUOUS
 10
-0.423220
 20
1.234803
  0
SEQEND
  8
0
  0
POLYLINE
  8
PLAN_1
 62
     5
  6
CONTINUOUS
 66
     1
 40
0.003000
 41
0.003000
  0
VERTEX
  8
PLAN_1
 62
     5
  6
CONTINUOUS
 10
-0.423220
 20
1.226398
  0
VERTEX
  8
PLAN_1
 62
     5
  6
CONTINUOUS
 10
-0.423220
 20
1.217992
  0
SEQEND
  8
0
  0
POLYLINE
  8
PLAN_1
 62
     5
  6
CONTINUOUS
 66
     1
 40
0.003000
 41
0.003000
  0
VERTEX
  8
PLAN_1
 62
     5
  6
CONTINUOUS
 10
-0.423220
 20
1.209587
  0
VERTEX
  8
PLAN_1
 62
     5
  6
CONTINUOUS
 10
-0.423220
 20
1.201181
  0
SEQEND
  8
0
  0
POLYLINE
  8
PLAN_1
 62
     5
  6
CONTINUOUS
 66
     1
 40
0.003000
 41
0.003000
  0
VERTEX
  8
PLAN_1
 62
     5
  6
CONTINUOUS
 10
-0.423220
 20
1.193197
  0
VERTEX
  8
PLAN_1
 62
     5
  6
CONTINUOUS
 10
-0.423220
 20
1.184791
  0
SEQEND
  8
0
  0
POLYLINE
  8
PLAN_1
 62
     5
  6
CONTINUOUS
 66
     1
 40
0.003000
 41
0.003000
  0
VERTEX
  8
PLAN_1
 62
     5
  6
CONTINUOUS
 10
-0.423220
 20
1.176386
  0
VERTEX
  8
PLAN_1
 62
     5
  6
CONTINUOUS
 10
-0.423220
 20
1.167980
  0
SEQEND
  8
0
  0
POLYLINE
  8
PLAN_1
  6
CONTINUOUS
 66
     1
 40
0.003000
 41
0.003000
  0
VERTEX
  8
PLAN_1
  6
CONTINUOUS
 10
-0.642181
 20
1.623555
  0
VERTEX
  8
PLAN_1
  6
CONTINUOUS
 10
-0.635878
 20
1.623555
  0
VERTEX
  8
PLAN_1
  6
CONTINUOUS
 10
-0.629575
 20
1.624815
  0
VERTEX
  8
PLAN_1
  6
CONTINUOUS
 10
-0.623689
 20
1.626075
  0
VERTEX
  8
PLAN_1
  6
CONTINUOUS
 10
-0.617807
 20
1.628177
  0
VERTEX
  8
PLAN_1
  6
CONTINUOUS
 10
-0.612764
 20
1.631118
  0
VERTEX
  8
PLAN_1
  6
CONTINUOUS
 10
-0.607299
 20
1.634063
  0
VERTEX
  8
PLAN_1
  6
CONTINUOUS
 10
-0.602677
 20
1.637843
  0
VERTEX
  8
PLAN_1
  6
CONTINUOUS
 10
-0.598055
 20
1.641626
  0
VERTEX
  8
PLAN_1
  6
CONTINUOUS
 10
-0.594272
 20
1.646248
  0
VERTEX
  8
PLAN_1
  6
CONTINUOUS
 10
-0.590488
 20
1.650874
  0
VERTEX
  8
PLAN_1
  6
CONTINUOUS
 10
-0.587547
 20
1.655917
  0
VERTEX
  8
PLAN_1
  6
CONTINUOUS
 10
-0.585024
 20
1.661378
  0
VERTEX
  8
PLAN_1
  6
CONTINUOUS
 10
-0.582925
 20
1.667264
  0
VERTEX
  8
PLAN_1
  6
CONTINUOUS
 10
-0.581244
 20
1.673146
  0
VERTEX
  8
PLAN_1
  6
CONTINUOUS
 10
-0.580402
 20
1.679449
  0
VERTEX
  8
PLAN_1
  6
CONTINUOUS
 10
-0.579980
 20
1.685756
  0
VERTEX
  8
PLAN_1
  6
CONTINUOUS
 10
-0.580402
 20
1.692059
  0
VERTEX
  8
PLAN_1
  6
CONTINUOUS
 10
-0.581244
 20
1.698362
  0
VERTEX
  8
PLAN_1
  6
CONTINUOUS
 10
-0.582925
 20
1.704248
  0
VERTEX
  8
PLAN_1
  6
CONTINUOUS
 10
-0.585024
 20
1.710130
  0
VERTEX
  8
PLAN_1
  6
CONTINUOUS
 10
-0.587547
 20
1.715594
  0
VERTEX
  8
PLAN_1
  6
CONTINUOUS
 10
-0.590488
 20
1.720638
  0
VERTEX
  8
PLAN_1
  6
CONTINUOUS
 10
-0.594272
 20
1.725260
  0
VERTEX
  8
PLAN_1
  6
CONTINUOUS
 10
-0.598055
 20
1.729882
  0
VERTEX
  8
PLAN_1
  6
CONTINUOUS
 10
-0.602677
 20
1.733665
  0
VERTEX
  8
PLAN_1
  6
CONTINUOUS
 10
-0.607299
 20
1.737449
  0
VERTEX
  8
PLAN_1
  6
CONTINUOUS
 10
-0.612764
 20
1.740390
  0
VERTEX
  8
PLAN_1
  6
CONTINUOUS
 10
-0.617807
 20
1.743331
  0
VERTEX
  8
PLAN_1
  6
CONTINUOUS
 10
-0.623689
 20
1.745433
  0
VERTEX
  8
PLAN_1
  6
CONTINUOUS
 10
-0.629575
 20
1.746693
  0
VERTEX
  8
PLAN_1
  6
CONTINUOUS
 10
-0.635878
 20
1.747535
  0
VERTEX
  8
PLAN_1
  6
CONTINUOUS
 10
-0.642181
 20
1.747957
  0
VERTEX
  8
PLAN_1
  6
CONTINUOUS
 10
-0.648488
 20
1.747535
  0
VERTEX
  8
PLAN_1
  6
CONTINUOUS
 10
-0.654791
 20
1.746693
  0
VERTEX
  8
PLAN_1
  6
CONTINUOUS
 10
-0.660673
 20
1.745433
  0
VERTEX
  8
PLAN_1
  6
CONTINUOUS
 10
-0.666559
 20
1.743331
  0
VERTEX
  8
PLAN_1
  6
CONTINUOUS
 10
-0.672020
 20
1.740390
  0
VERTEX
  8
PLAN_1
  6
CONTINUOUS
 10
-0.677063
 20
1.737449
  0
VERTEX
  8
PLAN_1
  6
CONTINUOUS
 10
-0.681689
 20
1.733665
  0
VERTEX
  8
PLAN_1
  6
CONTINUOUS
 10
-0.686311
 20
1.729882
  0
VERTEX
  8
PLAN_1
  6
CONTINUOUS
 10
-0.690512
 20
1.725260
  0
VERTEX
  8
PLAN_1
  6
CONTINUOUS
 10
-0.693874
 20
1.720638
  0
VERTEX
  8
PLAN_1
  6
CONTINUOUS
 10
-0.697236
 20
1.715594
  0
VERTEX
  8
PLAN_1
  6
CONTINUOUS
 10
-0.699760
 20
1.710130
  0
VERTEX
  8
PLAN_1
  6
CONTINUOUS
 10
-0.701862
 20
1.704248
  0
VERTEX
  8
PLAN_1
  6
CONTINUOUS
 10
-0.703122
 20
1.698362
  0
VERTEX
  8
PLAN_1
  6
CONTINUOUS
 10
-0.704382
 20
1.692059
  0
VERTEX
  8
PLAN_1
  6
CONTINUOUS
 10
-0.704382
 20
1.685756
  0
VERTEX
  8
PLAN_1
  6
CONTINUOUS
 10
-0.704382
 20
1.679449
  0
VERTEX
  8
PLAN_1
  6
CONTINUOUS
 10
-0.703122
 20
1.673146
  0
VERTEX
  8
PLAN_1
  6
CONTINUOUS
 10
-0.701862
 20
1.667264
  0
VERTEX
  8
PLAN_1
  6
CONTINUOUS
 10
-0.699760
 20
1.661378
  0
VERTEX
  8
PLAN_1
  6
CONTINUOUS
 10
-0.697236
 20
1.655917
  0
VERTEX
  8
PLAN_1
  6
CONTINUOUS
 10
-0.693874
 20
1.650874
  0
VERTEX
  8
PLAN_1
  6
CONTINUOUS
 10
-0.690512
 20
1.646248
  0
VERTEX
  8
PLAN_1
  6
CONTINUOUS
 10
-0.686311
 20
1.641626
  0
VERTEX
  8
PLAN_1
  6
CONTINUOUS
 10
-0.681689
 20
1.637843
  0
VERTEX
  8
PLAN_1
  6
CONTINUOUS
 10
-0.677063
 20
1.634063
  0
VERTEX
  8
PLAN_1
  6
CONTINUOUS
 10
-0.672020
 20
1.631118
  0
VERTEX
  8
PLAN_1
  6
CONTINUOUS
 10
-0.666559
 20
1.628177
  0
VERTEX
  8
PLAN_1
  6
CONTINUOUS
 10
-0.660673
 20
1.626075
  0
VERTEX
  8
PLAN_1
  6
CONTINUOUS
 10
-0.654791
 20
1.624815
  0
VERTEX
  8
PLAN_1
  6
CONTINUOUS
 10
-0.648488
 20
1.623555
  0
VERTEX
  8
PLAN_1
  6
CONTINUOUS
 10
-0.642181
 20
1.623555
  0
SEQEND
  8
0
  0
POLYLINE
  8
PLAN_1
  6
CONTINUOUS
 66
     1
 40
0.004201
 41
0.004201
  0
VERTEX
  8
PLAN_1
  6
CONTINUOUS
 10
-0.643024
 20
1.824024
  0
VERTEX
  8
PLAN_1
  6
CONTINUOUS
 10
-0.643024
 20
1.531094
  0
SEQEND
  8
0
  0
POLYLINE
  8
PLAN_1
  6
CONTINUOUS
 66
     1
 40
0.004201
 41
0.004201
  0
VERTEX
  8
PLAN_1
  6
CONTINUOUS
 10
-0.788858
 20
1.687437
  0
VERTEX
  8
PLAN_1
  6
CONTINUOUS
 10
-0.495508
 20
1.687437
  0
SEQEND
  8
0
  0
POLYLINE
  8
PLAN_1
  6
CONTINUOUS
 66
     1
 40
0.003000
 41
0.003000
  0
VERTEX
  8
PLAN_1
  6
CONTINUOUS
 10
-1.939142
 20
1.623555
  0
VERTEX
  8
PLAN_1
  6
CONTINUOUS
 10
-1.932835
 20
1.623555
  0
VERTEX
  8
PLAN_1
  6
CONTINUOUS
 10
-1.926531
 20
1.624815
  0
VERTEX
  8
PLAN_1
  6
CONTINUOUS
 10
-1.920650
 20
1.626075
  0
VERTEX
  8
PLAN_1
  6
CONTINUOUS
 10
-1.915185
 20
1.628177
  0
VERTEX
  8
PLAN_1
  6
CONTINUOUS
 10
-1.909720
 20
1.631118
  0
VERTEX
  8
PLAN_1
  6
CONTINUOUS
 10
-1.904256
 20
1.634063
  0
VERTEX
  8
PLAN_1
  6
CONTINUOUS
 10
-1.899634
 20
1.637843
  0
VERTEX
  8
PLAN_1
  6
CONTINUOUS
 10
-1.895012
 20
1.641626
  0
VERTEX
  8
PLAN_1
  6
CONTINUOUS
 10
-1.891228
 20
1.646248
  0
VERTEX
  8
PLAN_1
  6
CONTINUOUS
 10
-1.887445
 20
1.650874
  0
VERTEX
  8
PLAN_1
  6
CONTINUOUS
 10
-1.884504
 20
1.655917
  0
VERTEX
  8
PLAN_1
  6
CONTINUOUS
 10
-1.881984
 20
1.661378
  0
VERTEX
  8
PLAN_1
  6
CONTINUOUS
 10
-1.879882
 20
1.667264
  0
VERTEX
  8
PLAN_1
  6
CONTINUOUS
 10
-1.878201
 20
1.673146
  0
VERTEX
  8
PLAN_1
  6
CONTINUOUS
 10
-1.877358
 20
1.679449
  0
VERTEX
  8
PLAN_1
  6
CONTINUOUS
 10
-1.876941
 20
1.685756
  0
VERTEX
  8
PLAN_1
  6
CONTINUOUS
 10
-1.877358
 20
1.692059
  0
VERTEX
  8
PLAN_1
  6
CONTINUOUS
 10
-1.878201
 20
1.698362
  0
VERTEX
  8
PLAN_1
  6
CONTINUOUS
 10
-1.879882
 20
1.704248
  0
VERTEX
  8
PLAN_1
  6
CONTINUOUS
 10
-1.881984
 20
1.710130
  0
VERTEX
  8
PLAN_1
  6
CONTINUOUS
 10
-1.884504
 20
1.715594
  0
VERTEX
  8
PLAN_1
  6
CONTINUOUS
 10
-1.887445
 20
1.720638
  0
VERTEX
  8
PLAN_1
  6
CONTINUOUS
 10
-1.891228
 20
1.725260
  0
VERTEX
  8
PLAN_1
  6
CONTINUOUS
 10
-1.895012
 20
1.729882
  0
VERTEX
  8
PLAN_1
  6
CONTINUOUS
 10
-1.899634
 20
1.733665
  0
VERTEX
  8
PLAN_1
  6
CONTINUOUS
 10
-1.904256
 20
1.737449
  0
VERTEX
  8
PLAN_1
  6
CONTINUOUS
 10
-1.909720
 20
1.740390
  0
VERTEX
  8
PLAN_1
  6
CONTINUOUS
 10
-1.915185
 20
1.743331
  0
VERTEX
  8
PLAN_1
  6
CONTINUOUS
 10
-1.920650
 20
1.745433
  0
VERTEX
  8
PLAN_1
  6
CONTINUOUS
 10
-1.926531
 20
1.746693
  0
VERTEX
  8
PLAN_1
  6
CONTINUOUS
 10
-1.932835
 20
1.747535
  0
VERTEX
  8
PLAN_1
  6
CONTINUOUS
 10
-1.939142
 20
1.747957
  0
VERTEX
  8
PLAN_1
  6
CONTINUOUS
 10
-1.945445
 20
1.747535
  0
VERTEX
  8
PLAN_1
  6
CONTINUOUS
 10
-1.951748
 20
1.746693
  0
VERTEX
  8
PLAN_1
  6
CONTINUOUS
 10
-1.957630
 20
1.745433
  0
VERTEX
  8
PLAN_1
  6
CONTINUOUS
 10
-1.963516
 20
1.743331
  0
VERTEX
  8
PLAN_1
  6
CONTINUOUS
 10
-1.968980
 20
1.740390
  0
VERTEX
  8
PLAN_1
  6
CONTINUOUS
 10
-1.974024
 20
1.737449
  0
VERTEX
  8
PLAN_1
  6
CONTINUOUS
 10
-1.979067
 20
1.733665
  0
VERTEX
  8
PLAN_1
  6
CONTINUOUS
 10
-1.983268
 20
1.729882
  0
VERTEX
  8
PLAN_1
  6
CONTINUOUS
 10
-1.987472
 20
1.725260
  0
VERTEX
  8
PLAN_1
  6
CONTINUOUS
 10
-1.990835
 20
1.720638
  0
VERTEX
  8
PLAN_1
  6
CONTINUOUS
 10
-1.994197
 20
1.715594
  0
VERTEX
  8
PLAN_1
  6
CONTINUOUS
 10
-1.996717
 20
1.710130
  0
VERTEX
  8
PLAN_1
  6
CONTINUOUS
 10
-1.998819
 20
1.704248
  0
VERTEX
  8
PLAN_1
  6
CONTINUOUS
 10
-2.000079
 20
1.698362
  0
VERTEX
  8
PLAN_1
  6
CONTINUOUS
 10
-2.001339
 20
1.692059
  0
VERTEX
  8
PLAN_1
  6
CONTINUOUS
 10
-2.001339
 20
1.685756
  0
VERTEX
  8
PLAN_1
  6
CONTINUOUS
 10
-2.001339
 20
1.679449
  0
VERTEX
  8
PLAN_1
  6
CONTINUOUS
 10
-2.000079
 20
1.673146
  0
VERTEX
  8
PLAN_1
  6
CONTINUOUS
 10
-1.998819
 20
1.667264
  0
VERTEX
  8
PLAN_1
  6
CONTINUOUS
 10
-1.996717
 20
1.661378
  0
VERTEX
  8
PLAN_1
  6
CONTINUOUS
 10
-1.994197
 20
1.655917
  0
VERTEX
  8
PLAN_1
  6
CONTINUOUS
 10
-1.990835
 20
1.650874
  0
VERTEX
  8
PLAN_1
  6
CONTINUOUS
 10
-1.987472
 20
1.646248
  0
VERTEX
  8
PLAN_1
  6
CONTINUOUS
 10
-1.983268
 20
1.641626
  0
VERTEX
  8
PLAN_1
  6
CONTINUOUS
 10
-1.979067
 20
1.637843
  0
VERTEX
  8
PLAN_1
  6
CONTINUOUS
 10
-1.974024
 20
1.634063
  0
VERTEX
  8
PLAN_1
  6
CONTINUOUS
 10
-1.968980
 20
1.631118
  0
VERTEX
  8
PLAN_1
  6
CONTINUOUS
 10
-1.963516
 20
1.628177
  0
VERTEX
  8
PLAN_1
  6
CONTINUOUS
 10
-1.957630
 20
1.626075
  0
VERTEX
  8
PLAN_1
  6
CONTINUOUS
 10
-1.951748
 20
1.624815
  0
VERTEX
  8
PLAN_1
  6
CONTINUOUS
 10
-1.945445
 20
1.623555
  0
VERTEX
  8
PLAN_1
  6
CONTINUOUS
 10
-1.939142
 20
1.623555
  0
SEQEND
  8
0
  0
POLYLINE
  8
PLAN_1
  6
CONTINUOUS
 66
     1
 40
0.004201
 41
0.004201
  0
VERTEX
  8
PLAN_1
  6
CONTINUOUS
 10
-1.939980
 20
1.824024
  0
VERTEX
  8
PLAN_1
  6
CONTINUOUS
 10
-1.939980
 20
1.531094
  0
SEQEND
  8
0
  0
POLYLINE
  8
PLAN_1
  6
CONTINUOUS
 66
     1
 40
0.004201
 41
0.004201
  0
VERTEX
  8
PLAN_1
  6
CONTINUOUS
 10
-2.085815
 20
1.687437
  0
VERTEX
  8
PLAN_1
  6
CONTINUOUS
 10
-1.792886
 20
1.687437
  0
SEQEND
  8
0
  0
POLYLINE
  8
PLAN_1
 62
     2
  6
CONTINUOUS
 66
     1
 40
0.004201
 41
0.004201
  0
VERTEX
  8
PLAN_1
 62
     2
  6
CONTINUOUS
 10
-1.072961
 20
3.289512
  0
VERTEX
  8
PLAN_1
 62
     2
  6
CONTINUOUS
 10
-1.072961
 20
3.055839
  0
SEQEND
  8
0
  0
POLYLINE
  8
PLAN_1
 62
     2
  6
CONTINUOUS
 66
     1
 40
0.004201
 41
0.004201
  0
VERTEX
  8
PLAN_1
 62
     2
  6
CONTINUOUS
 10
-0.264358
 20
1.713071
  0
VERTEX
  8
PLAN_1
 62
     2
  6
CONTINUOUS
 10
-0.264358
 20
3.079374
  0
SEQEND
  8
0
  0
SOLID
  8
PLAN_1
 62
     2
 10
-0.264358
 20
3.108795
 11
-0.279909
 21
3.049535
 12
-0.264358
 22
3.108795
 13
-0.248390
 23
3.049535
  0
POLYLINE
  8
PLAN_1
 62
     2
  6
CONTINUOUS
 66
     1
 40
0.003000
 41
0.003000
  0
VERTEX
  8
PLAN_1
 62
     2
  6
CONTINUOUS
 10
-0.264358
 20
3.108795
  0
VERTEX
  8
PLAN_1
 62
     2
  6
CONTINUOUS
 10
-0.279909
 20
3.049535
  0
VERTEX
  8
PLAN_1
 62
     2
  6
CONTINUOUS
 10
-0.248390
 20
3.049535
  0
VERTEX
  8
PLAN_1
 62
     2
  6
CONTINUOUS
 10
-0.264358
 20
3.108795
  0
SEQEND
  8
0
  0
SOLID
  8
PLAN_1
 62
     2
 10
-0.264358
 20
1.683654
 11
-0.279909
 21
1.742492
 12
-0.264358
 22
1.683654
 13
-0.248390
 23
1.742492
  0
POLYLINE
  8
PLAN_1
 62
     2
  6
CONTINUOUS
 66
     1
 40
0.003000
 41
0.003000
  0
VERTEX
  8
PLAN_1
 62
     2
  6
CONTINUOUS
 10
-0.264358
 20
1.683654
  0
VERTEX
  8
PLAN_1
 62
     2
  6
CONTINUOUS
 10
-0.279909
 20
1.742492
  0
VERTEX
  8
PLAN_1
 62
     2
  6
CONTINUOUS
 10
-0.248390
 20
1.742492
  0
VERTEX
  8
PLAN_1
 62
     2
  6
CONTINUOUS
 10
-0.264358
 20
1.683654
  0
SEQEND
  8
0
  0
POLYLINE
  8
PLAN_1
 62
     2
  6
CONTINUOUS
 66
     1
 40
0.003000
 41
0.003000
  0
VERTEX
  8
PLAN_1
 62
     2
  6
CONTINUOUS
 10
-0.329500
 20
2.325409
  0
VERTEX
  8
PLAN_1
 62
     2
  6
CONTINUOUS
 10
-0.329500
 20
2.326248
  0
VERTEX
  8
PLAN_1
 62
     2
  6
CONTINUOUS
 10
-0.329500
 20
2.326669
  0
VERTEX
  8
PLAN_1
 62
     2
  6
CONTINUOUS
 10
-0.329500
 20
2.327508
  0
VERTEX
  8
PLAN_1
 62
     2
  6
CONTINUOUS
 10
-0.329500
 20
2.327929
  0
VERTEX
  8
PLAN_1
 62
     2
  6
CONTINUOUS
 10
-0.329500
 20
2.328772
  0
VERTEX
  8
PLAN_1
 62
     2
  6
CONTINUOUS
 10
-0.329500
 20
2.329189
  0
VERTEX
  8
PLAN_1
 62
     2
  6
CONTINUOUS
 10
-0.329500
 20
2.329610
  0
VERTEX
  8
PLAN_1
 62
     2
  6
CONTINUOUS
 10
-0.329500
 20
2.330453
  0
VERTEX
  8
PLAN_1
 62
     2
  6
CONTINUOUS
 10
-0.329500
 20
2.332972
  0
VERTEX
  8
PLAN_1
 62
     2
  6
CONTINUOUS
 10
-0.329921
 20
2.335496
  0
VERTEX
  8
PLAN_1
 62
     2
  6
CONTINUOUS
 10
-0.330760
 20
2.338016
  0
VERTEX
  8
PLAN_1
 62
     2
  6
CONTINUOUS
 10
-0.332024
 20
2.340118
  0
VERTEX
  8
PLAN_1
 62
     2
  6
CONTINUOUS
 10
-0.333283
 20
2.341799
  0
VERTEX
  8
PLAN_1
 62
     2
  6
CONTINUOUS
 10
-0.335386
 20
2.343059
  0
VERTEX
  8
PLAN_1
 62
     2
  6
CONTINUOUS
 10
-0.338327
 20
2.343902
  0
VERTEX
  8
PLAN_1
 62
     2
  6
CONTINUOUS
 10
-0.341268
 20
2.344319
  0
VERTEX
  8
PLAN_1
 62
     2
  6
CONTINUOUS
 10
-0.342949
 20
2.344319
  0
VERTEX
  8
PLAN_1
 62
     2
  6
CONTINUOUS
 10
-0.345051
 20
2.343902
  0
VERTEX
  8
PLAN_1
 62
     2
  6
CONTINUOUS
 10
-0.346732
 20
2.343059
  0
VERTEX
  8
PLAN_1
 62
     2
  6
CONTINUOUS
 10
-0.348835
 20
2.341799
  0
VERTEX
  8
PLAN_1
 62
     2
  6
CONTINUOUS
 10
-0.350516
 20
2.339697
  0
VERTEX
  8
PLAN_1
 62
     2
  6
CONTINUOUS
 10
-0.351776
 20
2.337594
  0
VERTEX
  8
PLAN_1
 62
     2
  6
CONTINUOUS
 10
-0.352614
 20
2.334654
  0
VERTEX
  8
PLAN_1
 62
     2
  6
CONTINUOUS
 10
-0.352614
 20
2.330870
  0
VERTEX
  8
PLAN_1
 62
     2
  6
CONTINUOUS
 10
-0.352614
 20
2.328350
  0
VERTEX
  8
PLAN_1
 62
     2
  6
CONTINUOUS
 10
-0.352197
 20
2.326248
  0
VERTEX
  8
PLAN_1
 62
     2
  6
CONTINUOUS
 10
-0.351776
 20
2.324567
  0
VERTEX
  8
PLAN_1
 62
     2
  6
CONTINUOUS
 10
-0.350933
 20
2.323307
  0
VERTEX
  8
PLAN_1
 62
     2
  6
CONTINUOUS
 10
-0.349252
 20
2.320783
  0
VERTEX
  8
PLAN_1
 62
     2
  6
CONTINUOUS
 10
-0.346732
 20
2.319102
  0
VERTEX
  8
PLAN_1
 62
     2
  6
CONTINUOUS
 10
-0.344209
 20
2.317843
  0
VERTEX
  8
PLAN_1
 62
     2
  6
CONTINUOUS
 10
-0.341689
 20
2.317004
  0
VERTEX
  8
PLAN_1
 62
     2
  6
CONTINUOUS
 10
-0.339165
 20
2.316583
  0
VERTEX
  8
PLAN_1
 62
     2
  6
CONTINUOUS
 10
-0.337067
 20
2.316583
  0
VERTEX
  8
PLAN_1
 62
     2
  6
CONTINUOUS
 10
-0.337067
 20
2.307756
  0
VERTEX
  8
PLAN_1
 62
     2
  6
CONTINUOUS
 10
-0.341268
 20
2.307756
  0
VERTEX
  8
PLAN_1
 62
     2
  6
CONTINUOUS
 10
-0.345472
 20
2.308598
  0
VERTEX
  8
PLAN_1
 62
     2
  6
CONTINUOUS
 10
-0.347571
 20
2.309016
  0
VERTEX
  8
PLAN_1
 62
     2
  6
CONTINUOUS
 10
-0.349252
 20
2.309858
  0
VERTEX
  8
PLAN_1
 62
     2
  6
CONTINUOUS
 10
-0.351354
 20
2.311118
  0
VERTEX
  8
PLAN_1
 62
     2
  6
CONTINUOUS
 10
-0.353035
 20
2.312378
  0
VERTEX
  8
PLAN_1
 62
     2
  6
CONTINUOUS
 10
-0.354717
 20
2.313642
  0
VERTEX
  8
PLAN_1
 62
     2
  6
CONTINUOUS
 10
-0.356398
 20
2.315323
  0
VERTEX
  8
PLAN_1
 62
     2
  6
CONTINUOUS
 10
-0.357657
 20
2.317004
  0
VERTEX
  8
PLAN_1
 62
     2
  6
CONTINUOUS
 10
-0.358917
 20
2.319524
  0
VERTEX
  8
PLAN_1
 62
     2
  6
CONTINUOUS
 10
-0.359760
 20
2.322047
  0
VERTEX
  8
PLAN_1
 62
     2
  6
CONTINUOUS
 10
-0.360598
 20
2.324567
  0
VERTEX
  8
PLAN_1
 62
     2
  6
CONTINUOUS
 10
-0.361020
 20
2.327929
  0
VERTEX
  8
PLAN_1
 62
     2
  6
CONTINUOUS
 10
-0.361020
 20
2.331291
  0
VERTEX
  8
PLAN_1
 62
     2
  6
CONTINUOUS
 10
-0.360598
 20
2.336335
  0
VERTEX
  8
PLAN_1
 62
     2
  6
CONTINUOUS
 10
-0.359760
 20
2.340539
  0
VERTEX
  8
PLAN_1
 62
     2
  6
CONTINUOUS
 10
-0.358079
 20
2.344740
  0
VERTEX
  8
PLAN_1
 62
     2
  6
CONTINUOUS
 10
-0.355555
 20
2.347681
  0
VERTEX
  8
PLAN_1
 62
     2
  6
CONTINUOUS
 10
-0.352614
 20
2.350205
  0
VERTEX
  8
PLAN_1
 62
     2
  6
CONTINUOUS
 10
-0.349673
 20
2.352307
  0
VERTEX
  8
PLAN_1
 62
     2
  6
CONTINUOUS
 10
-0.345890
 20
2.353567
  0
VERTEX
  8
PLAN_1
 62
     2
  6
CONTINUOUS
 10
-0.341689
 20
2.353567
  0
VERTEX
  8
PLAN_1
 62
     2
  6
CONTINUOUS
 10
-0.338327
 20
2.353567
  0
VERTEX
  8
PLAN_1
 62
     2
  6
CONTINUOUS
 10
-0.335803
 20
2.352724
  0
VERTEX
  8
PLAN_1
 62
     2
  6
CONTINUOUS
 10
-0.333283
 20
2.351886
  0
VERTEX
  8
PLAN_1
 62
     2
  6
CONTINUOUS
 10
-0.331181
 20
2.350626
  0
VERTEX
  8
PLAN_1
 62
     2
  6
CONTINUOUS
 10
-0.329500
 20
2.348945
  0
VERTEX
  8
PLAN_1
 62
     2
  6
CONTINUOUS
 10
-0.328240
 20
2.347681
  0
VERTEX
  8
PLAN_1
 62
     2
  6
CONTINUOUS
 10
-0.327398
 20
2.346000
  0
VERTEX
  8
PLAN_1
 62
     2
  6
CONTINUOUS
 10
-0.326559
 20
2.344319
  0
VERTEX
  8
PLAN_1
 62
     2
  6
CONTINUOUS
 10
-0.325717
 20
2.346843
  0
VERTEX
  8
PLAN_1
 62
     2
  6
CONTINUOUS
 10
-0.324035
 20
2.349362
  0
VERTEX
  8
PLAN_1
 62
     2
  6
CONTINUOUS
 10
-0.322776
 20
2.351465
  0
VERTEX
  8
PLAN_1
 62
     2
  6
CONTINUOUS
 10
-0.320673
 20
2.353146
  0
VERTEX
  8
PLAN_1
 62
     2
  6
CONTINUOUS
 10
-0.318575
 20
2.354406
  0
VERTEX
  8
PLAN_1
 62
     2
  6
CONTINUOUS
 10
-0.316051
 20
2.355669
  0
VERTEX
  8
PLAN_1
 62
     2
  6
CONTINUOUS
 10
-0.312689
 20
2.356508
  0
VERTEX
  8
PLAN_1
 62
     2
  6
CONTINUOUS
 10
-0.309327
 20
2.356508
  0
VERTEX
  8
PLAN_1
 62
     2
  6
CONTINUOUS
 10
-0.305126
 20
2.356087
  0
VERTEX
  8
PLAN_1
 62
     2
  6
CONTINUOUS
 10
-0.300921
 20
2.355248
  0
VERTEX
  8
PLAN_1
 62
     2
  6
CONTINUOUS
 10
-0.298819
 20
2.354406
  0
VERTEX
  8
PLAN_1
 62
     2
  6
CONTINUOUS
 10
-0.296720
 20
2.353146
  0
VERTEX
  8
PLAN_1
 62
     2
  6
CONTINUOUS
 10
-0.295039
 20
2.351886
  0
VERTEX
  8
PLAN_1
 62
     2
  6
CONTINUOUS
 10
-0.293358
 20
2.350205
  0
VERTEX
  8
PLAN_1
 62
     2
  6
CONTINUOUS
 10
-0.291677
 20
2.348524
  0
VERTEX
  8
PLAN_1
 62
     2
  6
CONTINUOUS
 10
-0.290413
 20
2.346843
  0
VERTEX
  8
PLAN_1
 62
     2
  6
CONTINUOUS
 10
-0.289154
 20
2.344740
  0
VERTEX
  8
PLAN_1
 62
     2
  6
CONTINUOUS
 10
-0.287894
 20
2.342220
  0
VERTEX
  8
PLAN_1
 62
     2
  6
CONTINUOUS
 10
-0.287051
 20
2.339697
  0
VERTEX
  8
PLAN_1
 62
     2
  6
CONTINUOUS
 10
-0.286634
 20
2.336756
  0
VERTEX
  8
PLAN_1
 62
     2
  6
CONTINUOUS
 10
-0.286213
 20
2.333815
  0
VERTEX
  8
PLAN_1
 62
     2
  6
CONTINUOUS
 10
-0.285791
 20
2.330453
  0
VERTEX
  8
PLAN_1
 62
     2
  6
CONTINUOUS
 10
-0.285791
 20
2.328350
  0
VERTEX
  8
PLAN_1
 62
     2
  6
CONTINUOUS
 10
-0.286213
 20
2.326248
  0
VERTEX
  8
PLAN_1
 62
     2
  6
CONTINUOUS
 10
-0.286634
 20
2.324567
  0
VERTEX
  8
PLAN_1
 62
     2
  6
CONTINUOUS
 10
-0.286634
 20
2.322886
  0
VERTEX
  8
PLAN_1
 62
     2
  6
CONTINUOUS
 10
-0.287472
 20
2.321205
  0
VERTEX
  8
PLAN_1
 62
     2
  6
CONTINUOUS
 10
-0.287894
 20
2.319524
  0
VERTEX
  8
PLAN_1
 62
     2
  6
CONTINUOUS
 10
-0.288315
 20
2.318264
  0
VERTEX
  8
PLAN_1
 62
     2
  6
CONTINUOUS
 10
-0.289154
 20
2.316583
  0
VERTEX
  8
PLAN_1
 62
     2
  6
CONTINUOUS
 10
-0.290835
 20
2.314059
  0
VERTEX
  8
PLAN_1
 62
     2
  6
CONTINUOUS
 10
-0.292937
 20
2.311539
  0
VERTEX
  8
PLAN_1
 62
     2
  6
CONTINUOUS
 10
-0.295457
 20
2.309858
  0
VERTEX
  8
PLAN_1
 62
     2
  6
CONTINUOUS
 10
-0.297980
 20
2.308598
  0
VERTEX
  8
PLAN_1
 62
     2
  6
CONTINUOUS
 10
-0.300921
 20
2.307335
  0
VERTEX
  8
PLAN_1
 62
     2
  6
CONTINUOUS
 10
-0.303862
 20
2.306496
  0
VERTEX
  8
PLAN_1
 62
     2
  6
CONTINUOUS
 10
-0.307224
 20
2.306075
  0
VERTEX
  8
PLAN_1
 62
     2
  6
CONTINUOUS
 10
-0.310169
 20
2.305654
  0
VERTEX
  8
PLAN_1
 62
     2
  6
CONTINUOUS
 10
-0.310169
 20
2.315323
  0
VERTEX
  8
PLAN_1
 62
     2
  6
CONTINUOUS
 10
-0.307646
 20
2.315323
  0
VERTEX
  8
PLAN_1
 62
     2
  6
CONTINUOUS
 10
-0.304705
 20
2.315740
  0
VERTEX
  8
PLAN_1
 62
     2
  6
CONTINUOUS
 10
-0.302181
 20
2.316583
  0
VERTEX
  8
PLAN_1
 62
     2
  6
CONTINUOUS
 10
-0.299661
 20
2.318264
  0
VERTEX
  8
PLAN_1
 62
     2
  6
CONTINUOUS
 10
-0.297559
 20
2.319945
  0
VERTEX
  8
PLAN_1
 62
     2
  6
CONTINUOUS
 10
-0.295878
 20
2.322886
  0
VERTEX
  8
PLAN_1
 62
     2
  6
CONTINUOUS
 10
-0.295039
 20
2.324567
  0
VERTEX
  8
PLAN_1
 62
     2
  6
CONTINUOUS
 10
-0.294618
 20
2.326248
  0
VERTEX
  8
PLAN_1
 62
     2
  6
CONTINUOUS
 10
-0.294197
 20
2.328350
  0
VERTEX
  8
PLAN_1
 62
     2
  6
CONTINUOUS
 10
-0.294197
 20
2.330870
  0
VERTEX
  8
PLAN_1
 62
     2
  6
CONTINUOUS
 10
-0.294197
 20
2.334232
  0
VERTEX
  8
PLAN_1
 62
     2
  6
CONTINUOUS
 10
-0.295039
 20
2.337177
  0
VERTEX
  8
PLAN_1
 62
     2
  6
CONTINUOUS
 10
-0.296299
 20
2.340118
  0
VERTEX
  8
PLAN_1
 62
     2
  6
CONTINUOUS
 10
-0.297980
 20
2.342220
  0
VERTEX
  8
PLAN_1
 62
     2
  6
CONTINUOUS
 10
-0.300083
 20
2.344319
  0
VERTEX
  8
PLAN_1
 62
     2
  6
CONTINUOUS
 10
-0.302602
 20
2.345583
  0
VERTEX
  8
PLAN_1
 62
     2
  6
CONTINUOUS
 10
-0.305126
 20
2.346421
  0
VERTEX
  8
PLAN_1
 62
     2
  6
CONTINUOUS
 10
-0.308488
 20
2.346843
  0
VERTEX
  8
PLAN_1
 62
     2
  6
CONTINUOUS
 10
-0.310587
 20
2.346843
  0
VERTEX
  8
PLAN_1
 62
     2
  6
CONTINUOUS
 10
-0.312268
 20
2.346421
  0
VERTEX
  8
PLAN_1
 62
     2
  6
CONTINUOUS
 10
-0.313949
 20
2.345583
  0
VERTEX
  8
PLAN_1
 62
     2
  6
CONTINUOUS
 10
-0.315630
 20
2.345161
  0
VERTEX
  8
PLAN_1
 62
     2
  6
CONTINUOUS
 10
-0.317732
 20
2.343059
  0
VERTEX
  8
PLAN_1
 62
     2
  6
CONTINUOUS
 10
-0.319413
 20
2.340539
  0
VERTEX
  8
PLAN_1
 62
     2
  6
CONTINUOUS
 10
-0.320673
 20
2.338016
  0
VERTEX
  8
PLAN_1
 62
     2
  6
CONTINUOUS
 10
-0.321516
 20
2.335075
  0
VERTEX
  8
PLAN_1
 62
     2
  6
CONTINUOUS
 10
-0.321516
 20
2.332134
  0
VERTEX
  8
PLAN_1
 62
     2
  6
CONTINUOUS
 10
-0.321516
 20
2.329610
  0
VERTEX
  8
PLAN_1
 62
     2
  6
CONTINUOUS
 10
-0.321516
 20
2.329189
  0
VERTEX
  8
PLAN_1
 62
     2
  6
CONTINUOUS
 10
-0.321516
 20
2.328772
  0
VERTEX
  8
PLAN_1
 62
     2
  6
CONTINUOUS
 10
-0.321516
 20
2.328350
  0
VERTEX
  8
PLAN_1
 62
     2
  6
CONTINUOUS
 10
-0.321516
 20
2.327508
  0
VERTEX
  8
PLAN_1
 62
     2
  6
CONTINUOUS
 10
-0.321516
 20
2.327091
  0
VERTEX
  8
PLAN_1
 62
     2
  6
CONTINUOUS
 10
-0.321516
 20
2.326669
  0
VERTEX
  8
PLAN_1
 62
     2
  6
CONTINUOUS
 10
-0.321516
 20
2.326248
  0
VERTEX
  8
PLAN_1
 62
     2
  6
CONTINUOUS
 10
-0.321516
 20
2.325409
  0
VERTEX
  8
PLAN_1
 62
     2
  6
CONTINUOUS
 10
-0.329500
 20
2.325409
  0
SEQEND
  8
0
  0
POLYLINE
  8
PLAN_1
 62
     2
  6
CONTINUOUS
 66
     1
 40
0.003000
 41
0.003000
  0
VERTEX
  8
PLAN_1
 62
     2
  6
CONTINUOUS
 10
-0.341689
 20
2.403579
  0
VERTEX
  8
PLAN_1
 62
     2
  6
CONTINUOUS
 10
-0.343791
 20
2.403157
  0
VERTEX
  8
PLAN_1
 62
     2
  6
CONTINUOUS
 10
-0.345890
 20
2.402319
  0
VERTEX
  8
PLAN_1
 62
     2
  6
CONTINUOUS
 10
-0.347992
 20
2.401055
  0
VERTEX
  8
PLAN_1
 62
     2
  6
CONTINUOUS
 10
-0.349673
 20
2.399795
  0
VERTEX
  8
PLAN_1
 62
     2
  6
CONTINUOUS
 10
-0.350933
 20
2.398114
  0
VERTEX
  8
PLAN_1
 62
     2
  6
CONTINUOUS
 10
-0.351776
 20
2.396012
  0
VERTEX
  8
PLAN_1
 62
     2
  6
CONTINUOUS
 10
-0.352614
 20
2.393913
  0
VERTEX
  8
PLAN_1
 62
     2
  6
CONTINUOUS
 10
-0.352614
 20
2.390969
  0
VERTEX
  8
PLAN_1
 62
     2
  6
CONTINUOUS
 10
-0.352614
 20
2.388449
  0
VERTEX
  8
PLAN_1
 62
     2
  6
CONTINUOUS
 10
-0.351776
 20
2.385925
  0
VERTEX
  8
PLAN_1
 62
     2
  6
CONTINUOUS
 10
-0.350933
 20
2.383827
  0
VERTEX
  8
PLAN_1
 62
     2
  6
CONTINUOUS
 10
-0.349673
 20
2.382146
  0
VERTEX
  8
PLAN_1
 62
     2
  6
CONTINUOUS
 10
-0.347992
 20
2.380465
  0
VERTEX
  8
PLAN_1
 62
     2
  6
CONTINUOUS
 10
-0.346311
 20
2.379201
  0
VERTEX
  8
PLAN_1
 62
     2
  6
CONTINUOUS
 10
-0.344209
 20
2.377941
  0
VERTEX
  8
PLAN_1
 62
     2
  6
CONTINUOUS
 10
-0.342110
 20
2.376681
  0
VERTEX
  8
PLAN_1
 62
     2
  6
CONTINUOUS
 10
-0.337906
 20
2.375421
  0
VERTEX
  8
PLAN_1
 62
     2
  6
CONTINUOUS
 10
-0.333283
 20
2.374157
  0
VERTEX
  8
PLAN_1
 62
     2
  6
CONTINUOUS
 10
-0.329079
 20
2.373740
  0
VERTEX
  8
PLAN_1
 62
     2
  6
CONTINUOUS
 10
-0.325717
 20
2.373740
  0
VERTEX
  8
PLAN_1
 62
     2
  6
CONTINUOUS
 10
-0.326980
 20
2.374579
  0
VERTEX
  8
PLAN_1
 62
     2
  6
CONTINUOUS
 10
-0.328661
 20
2.376260
  0
VERTEX
  8
PLAN_1
 62
     2
  6
CONTINUOUS
 10
-0.330343
 20
2.377520
  0
VERTEX
  8
PLAN_1
 62
     2
  6
CONTINUOUS
 10
-0.331602
 20
2.379622
  0
VERTEX
  8
PLAN_1
 62
     2
  6
CONTINUOUS
 10
-0.332862
 20
2.381724
  0
VERTEX
  8
PLAN_1
 62
     2
  6
CONTINUOUS
 10
-0.333705
 20
2.384665
  0
VERTEX
  8
PLAN_1
 62
     2
  6
CONTINUOUS
 10
-0.334122
 20
2.387606
  0
VERTEX
  8
PLAN_1
 62
     2
  6
CONTINUOUS
 10
-0.334543
 20
2.390969
  0
VERTEX
  8
PLAN_1
 62
     2
  6
CONTINUOUS
 10
-0.334122
 20
2.394752
  0
VERTEX
  8
PLAN_1
 62
     2
  6
CONTINUOUS
 10
-0.333283
 20
2.398535
  0
VERTEX
  8
PLAN_1
 62
     2
  6
CONTINUOUS
 10
-0.331602
 20
2.402319
  0
VERTEX
  8
PLAN_1
 62
     2
  6
CONTINUOUS
 10
-0.329500
 20
2.406098
  0
VERTEX
  8
PLAN_1
 62
     2
  6
CONTINUOUS
 10
-0.327819
 20
2.407780
  0
VERTEX
  8
PLAN_1
 62
     2
  6
CONTINUOUS
 10
-0.326138
 20
2.409043
  0
VERTEX
  8
PLAN_1
 62
     2
  6
CONTINUOUS
 10
-0.324457
 20
2.410724
  0
VERTEX
  8
PLAN_1
 62
     2
  6
CONTINUOUS
 10
-0.322354
 20
2.411563
  0
VERTEX
  8
PLAN_1
 62
     2
  6
CONTINUOUS
 10
-0.319835
 20
2.412823
  0
VERTEX
  8
PLAN_1
 62
     2
  6
CONTINUOUS
 10
-0.317311
 20
2.413244
  0
VERTEX
  8
PLAN_1
 62
     2
  6
CONTINUOUS
 10
-0.314370
 20
2.414087
  0
VERTEX
  8
PLAN_1
 62
     2
  6
CONTINUOUS
 10
-0.311429
 20
2.414087
  0
VERTEX
  8
PLAN_1
 62
     2
  6
CONTINUOUS
 10
-0.308488
 20
2.414087
  0
VERTEX
  8
PLAN_1
 62
     2
  6
CONTINUOUS
 10
-0.305965
 20
2.413665
  0
VERTEX
  8
PLAN_1
 62
     2
  6
CONTINUOUS
 10
-0.303862
 20
2.413244
  0
VERTEX
  8
PLAN_1
 62
     2
  6
CONTINUOUS
 10
-0.301343
 20
2.412406
  0
VERTEX
  8
PLAN_1
 62
     2
  6
CONTINUOUS
 10
-0.299240
 20
2.411563
  0
VERTEX
  8
PLAN_1
 62
     2
  6
CONTINUOUS
 10
-0.297138
 20
2.410303
  0
VERTEX
  8
PLAN_1
 62
     2
  6
CONTINUOUS
 10
-0.295039
 20
2.408622
  0
VERTEX
  8
PLAN_1
 62
     2
  6
CONTINUOUS
 10
-0.292937
 20
2.406941
  0
VERTEX
  8
PLAN_1
 62
     2
  6
CONTINUOUS
 10
-0.291677
 20
2.405681
  0
VERTEX
  8
PLAN_1
 62
     2
  6
CONTINUOUS
 10
-0.289996
 20
2.404000
  0
VERTEX
  8
PLAN_1
 62
     2
  6
CONTINUOUS
 10
-0.288732
 20
2.402319
  0
VERTEX
  8
PLAN_1
 62
     2
  6
CONTINUOUS
 10
-0.287894
 20
2.400217
  0
VERTEX
  8
PLAN_1
 62
     2
  6
CONTINUOUS
 10
-0.287051
 20
2.398114
  0
VERTEX
  8
PLAN_1
 62
     2
  6
CONTINUOUS
 10
-0.286634
 20
2.395173
  0
VERTEX
  8
PLAN_1
 62
     2
  6
CONTINUOUS
 10
-0.286213
 20
2.392232
  0
VERTEX
  8
PLAN_1
 62
     2
  6
CONTINUOUS
 10
-0.285791
 20
2.388449
  0
VERTEX
  8
PLAN_1
 62
     2
  6
CONTINUOUS
 10
-0.286213
 20
2.386346
  0
VERTEX
  8
PLAN_1
 62
     2
  6
CONTINUOUS
 10
-0.286634
 20
2.383827
  0
VERTEX
  8
PLAN_1
 62
     2
  6
CONTINUOUS
 10
-0.287051
 20
2.381724
  0
VERTEX
  8
PLAN_1
 62
     2
  6
CONTINUOUS
 10
-0.288315
 20
2.379201
  0
VERTEX
  8
PLAN_1
 62
     2
  6
CONTINUOUS
 10
-0.289575
 20
2.376681
  0
VERTEX
  8
PLAN_1
 62
     2
  6
CONTINUOUS
 10
-0.291256
 20
2.374157
  0
VERTEX
  8
PLAN_1
 62
     2
  6
CONTINUOUS
 10
-0.293776
 20
2.371638
  0
VERTEX
  8
PLAN_1
 62
     2
  6
CONTINUOUS
 10
-0.296720
 20
2.369535
  0
VERTEX
  8
PLAN_1
 62
     2
  6
CONTINUOUS
 10
-0.299240
 20
2.368276
  0
VERTEX
  8
PLAN_1
 62
     2
  6
CONTINUOUS
 10
-0.302181
 20
2.367016
  0
VERTEX
  8
PLAN_1
 62
     2
  6
CONTINUOUS
 10
-0.305126
 20
2.366173
  0
VERTEX
  8
PLAN_1
 62
     2
  6
CONTINUOUS
 10
-0.308067
 20
2.365335
  0
VERTEX
  8
PLAN_1
 62
     2
  6
CONTINUOUS
 10
-0.311429
 20
2.364913
  0
VERTEX
  8
PLAN_1
 62
     2
  6
CONTINUOUS
 10
-0.314791
 20
2.364492
  0
VERTEX
  8
PLAN_1
 62
     2
  6
CONTINUOUS
 10
-0.318154
 20
2.364075
  0
VERTEX
  8
PLAN_1
 62
     2
  6
CONTINUOUS
 10
-0.321937
 20
2.364075
  0
VERTEX
  8
PLAN_1
 62
     2
  6
CONTINUOUS
 10
-0.328240
 20
2.364492
  0
VERTEX
  8
PLAN_1
 62
     2
  6
CONTINUOUS
 10
-0.334965
 20
2.365335
  0
VERTEX
  8
PLAN_1
 62
     2
  6
CONTINUOUS
 10
-0.337906
 20
2.366173
  0
VERTEX
  8
PLAN_1
 62
     2
  6
CONTINUOUS
 10
-0.341268
 20
2.367016
  0
VERTEX
  8
PLAN_1
 62
     2
  6
CONTINUOUS
 10
-0.344630
 20
2.368276
  0
VERTEX
  8
PLAN_1
 62
     2
  6
CONTINUOUS
 10
-0.347571
 20
2.369535
  0
VERTEX
  8
PLAN_1
 62
     2
  6
CONTINUOUS
 10
-0.350516
 20
2.371217
  0
VERTEX
  8
PLAN_1
 62
     2
  6
CONTINUOUS
 10
-0.353035
 20
2.372898
  0
VERTEX
  8
PLAN_1
 62
     2
  6
CONTINUOUS
 10
-0.355138
 20
2.375421
  0
VERTEX
  8
PLAN_1
 62
     2
  6
CONTINUOUS
 10
-0.357236
 20
2.377520
  0
VERTEX
  8
PLAN_1
 62
     2
  6
CONTINUOUS
 10
-0.358917
 20
2.380465
  0
VERTEX
  8
PLAN_1
 62
     2
  6
CONTINUOUS
 10
-0.360181
 20
2.383827
  0
VERTEX
  8
PLAN_1
 62
     2
  6
CONTINUOUS
 10
-0.360598
 20
2.387189
  0
VERTEX
  8
PLAN_1
 62
     2
  6
CONTINUOUS
 10
-0.361020
 20
2.390969
  0
VERTEX
  8
PLAN_1
 62
     2
  6
CONTINUOUS
 10
-0.360598
 20
2.394331
  0
VERTEX
  8
PLAN_1
 62
     2
  6
CONTINUOUS
 10
-0.360181
 20
2.398114
  0
VERTEX
  8
PLAN_1
 62
     2
  6
CONTINUOUS
 10
-0.358917
 20
2.401476
  0
VERTEX
  8
PLAN_1
 62
     2
  6
CONTINUOUS
 10
-0.356819
 20
2.404839
  0
VERTEX
  8
PLAN_1
 62
     2
  6
CONTINUOUS
 10
-0.355555
 20
2.406098
  0
VERTEX
  8
PLAN_1
 62
     2
  6
CONTINUOUS
 10
-0.354295
 20
2.407362
  0
VERTEX
  8
PLAN_1
 62
     2
  6
CONTINUOUS
 10
-0.352614
 20
2.408622
  0
VERTEX
  8
PLAN_1
 62
     2
  6
CONTINUOUS
 10
-0.350933
 20
2.409882
  0
VERTEX
  8
PLAN_1
 62
     2
  6
CONTINUOUS
 10
-0.348835
 20
2.410724
  0
VERTEX
  8
PLAN_1
 62
     2
  6
CONTINUOUS
 10
-0.346732
 20
2.411563
  0
VERTEX
  8
PLAN_1
 62
     2
  6
CONTINUOUS
 10
-0.344209
 20
2.412406
  0
VERTEX
  8
PLAN_1
 62
     2
  6
CONTINUOUS
 10
-0.341689
 20
2.412406
  0
VERTEX
  8
PLAN_1
 62
     2
  6
CONTINUOUS
 10
-0.341689
 20
2.403579
  0
SEQEND
  8
0
  0
POLYLINE
  8
PLAN_1
 62
     2
  6
CONTINUOUS
 66
     1
 40
0.003000
 41
0.003000
  0
VERTEX
  8
PLAN_1
 62
     2
  6
CONTINUOUS
 10
-0.294197
 20
2.390130
  0
VERTEX
  8
PLAN_1
 62
     2
  6
CONTINUOUS
 10
-0.294618
 20
2.393492
  0
VERTEX
  8
PLAN_1
 62
     2
  6
CONTINUOUS
 10
-0.295457
 20
2.396012
  0
VERTEX
  8
PLAN_1
 62
     2
  6
CONTINUOUS
 10
-0.296720
 20
2.398535
  0
VERTEX
  8
PLAN_1
 62
     2
  6
CONTINUOUS
 10
-0.298819
 20
2.400638
  0
VERTEX
  8
PLAN_1
 62
     2
  6
CONTINUOUS
 10
-0.301343
 20
2.402319
  0
VERTEX
  8
PLAN_1
 62
     2
  6
CONTINUOUS
 10
-0.304283
 20
2.403579
  0
VERTEX
  8
PLAN_1
 62
     2
  6
CONTINUOUS
 10
-0.307224
 20
2.404417
  0
VERTEX
  8
PLAN_1
 62
     2
  6
CONTINUOUS
 10
-0.311008
 20
2.404417
  0
VERTEX
  8
PLAN_1
 62
     2
  6
CONTINUOUS
 10
-0.313531
 20
2.404417
  0
VERTEX
  8
PLAN_1
 62
     2
  6
CONTINUOUS
 10
-0.316051
 20
2.404000
  0
VERTEX
  8
PLAN_1
 62
     2
  6
CONTINUOUS
 10
-0.318575
 20
2.402736
  0
VERTEX
  8
PLAN_1
 62
     2
  6
CONTINUOUS
 10
-0.321094
 20
2.401476
  0
VERTEX
  8
PLAN_1
 62
     2
  6
CONTINUOUS
 10
-0.323197
 20
2.399374
  0
VERTEX
  8
PLAN_1
 62
     2
  6
CONTINUOUS
 10
-0.324878
 20
2.396854
  0
VERTEX
  8
PLAN_1
 62
     2
  6
CONTINUOUS
 10
-0.325717
 20
2.393913
  0
VERTEX
  8
PLAN_1
 62
     2
  6
CONTINUOUS
 10
-0.326138
 20
2.389709
  0
VERTEX
  8
PLAN_1
 62
     2
  6
CONTINUOUS
 10
-0.326138
 20
2.386346
  0
VERTEX
  8
PLAN_1
 62
     2
  6
CONTINUOUS
 10
-0.324878
 20
2.383406
  0
VERTEX
  8
PLAN_1
 62
     2
  6
CONTINUOUS
 10
-0.323618
 20
2.380465
  0
VERTEX
  8
PLAN_1
 62
     2
  6
CONTINUOUS
 10
-0.321516
 20
2.378362
  0
VERTEX
  8
PLAN_1
 62
     2
  6
CONTINUOUS
 10
-0.319413
 20
2.377102
  0
VERTEX
  8
PLAN_1
 62
     2
  6
CONTINUOUS
 10
-0.316472
 20
2.375839
  0
VERTEX
  8
PLAN_1
 62
     2
  6
CONTINUOUS
 10
-0.313531
 20
2.375000
  0
VERTEX
  8
PLAN_1
 62
     2
  6
CONTINUOUS
 10
-0.310169
 20
2.375000
  0
VERTEX
  8
PLAN_1
 62
     2
  6
CONTINUOUS
 10
-0.307646
 20
2.375000
  0
VERTEX
  8
PLAN_1
 62
     2
  6
CONTINUOUS
 10
-0.304705
 20
2.375839
  0
VERTEX
  8
PLAN_1
 62
     2
  6
CONTINUOUS
 10
-0.301764
 20
2.376681
  0
VERTEX
  8
PLAN_1
 62
     2
  6
CONTINUOUS
 10
-0.299240
 20
2.378362
  0
VERTEX
  8
PLAN_1
 62
     2
  6
CONTINUOUS
 10
-0.297138
 20
2.380465
  0
VERTEX
  8
PLAN_1
 62
     2
  6
CONTINUOUS
 10
-0.295457
 20
2.383406
  0
VERTEX
  8
PLAN_1
 62
     2
  6
CONTINUOUS
 10
-0.294618
 20
2.386346
  0
VERTEX
  8
PLAN_1
 62
     2
  6
CONTINUOUS
 10
-0.294197
 20
2.390130
  0
SEQEND
  8
0
  0
POLYLINE
  8
PLAN_1
 62
     2
  6
CONTINUOUS
 66
     1
 40
0.003000
 41
0.003000
  0
VERTEX
  8
PLAN_1
 62
     2
  6
CONTINUOUS
 10
-0.298819
 20
2.427114
  0
VERTEX
  8
PLAN_1
 62
     2
  6
CONTINUOUS
 10
-0.298819
 20
2.438039
  0
VERTEX
  8
PLAN_1
 62
     2
  6
CONTINUOUS
 10
-0.288732
 20
2.438039
  0
VERTEX
  8
PLAN_1
 62
     2
  6
CONTINUOUS
 10
-0.284110
 20
2.437622
  0
VERTEX
  8
PLAN_1
 62
     2
  6
CONTINUOUS
 10
-0.280327
 20
2.436358
  0
VERTEX
  8
PLAN_1
 62
     2
  6
CONTINUOUS
 10
-0.277386
 20
2.435098
  0
VERTEX
  8
PLAN_1
 62
     2
  6
CONTINUOUS
 10
-0.275283
 20
2.433417
  0
VERTEX
  8
PLAN_1
 62
     2
  6
CONTINUOUS
 10
-0.274024
 20
2.431315
  0
VERTEX
  8
PLAN_1
 62
     2
  6
CONTINUOUS
 10
-0.273185
 20
2.429634
  0
VERTEX
  8
PLAN_1
 62
     2
  6
CONTINUOUS
 10
-0.272764
 20
2.428374
  0
VERTEX
  8
PLAN_1
 62
     2
  6
CONTINUOUS
 10
-0.272764
 20
2.427114
  0
VERTEX
  8
PLAN_1
 62
     2
  6
CONTINUOUS
 10
-0.277386
 20
2.427114
  0
VERTEX
  8
PLAN_1
 62
     2
  6
CONTINUOUS
 10
-0.277807
 20
2.428795
  0
VERTEX
  8
PLAN_1
 62
     2
  6
CONTINUOUS
 10
-0.278646
 20
2.429634
  0
VERTEX
  8
PLAN_1
 62
     2
  6
CONTINUOUS
 10
-0.279488
 20
2.430898
  0
VERTEX
  8
PLAN_1
 62
     2
  6
CONTINUOUS
 10
-0.281169
 20
2.431315
  0
VERTEX
  8
PLAN_1
 62
     2
  6
CONTINUOUS
 10
-0.282429
 20
2.432157
  0
VERTEX
  8
PLAN_1
 62
     2
  6
CONTINUOUS
 10
-0.284110
 20
2.432579
  0
VERTEX
  8
PLAN_1
 62
     2
  6
CONTINUOUS
 10
-0.286213
 20
2.432579
  0
VERTEX
  8
PLAN_1
 62
     2
  6
CONTINUOUS
 10
-0.287894
 20
2.432579
  0
VERTEX
  8
PLAN_1
 62
     2
  6
CONTINUOUS
 10
-0.287894
 20
2.427114
  0
VERTEX
  8
PLAN_1
 62
     2
  6
CONTINUOUS
 10
-0.298819
 20
2.427114
  0
SEQEND
  8
0
  0
POLYLINE
  8
PLAN_1
 62
     2
  6
CONTINUOUS
 66
     1
 40
0.003000
 41
0.003000
  0
VERTEX
  8
PLAN_1
 62
     2
  6
CONTINUOUS
 10
-0.330343
 20
2.462417
  0
VERTEX
  8
PLAN_1
 62
     2
  6
CONTINUOUS
 10
-0.331181
 20
2.463677
  0
VERTEX
  8
PLAN_1
 62
     2
  6
CONTINUOUS
 10
-0.332024
 20
2.464937
  0
VERTEX
  8
PLAN_1
 62
     2
  6
CONTINUOUS
 10
-0.332862
 20
2.466618
  0
VERTEX
  8
PLAN_1
 62
     2
  6
CONTINUOUS
 10
-0.333705
 20
2.467878
  0
VERTEX
  8
PLAN_1
 62
     2
  6
CONTINUOUS
 10
-0.334122
 20
2.469980
  0
VERTEX
  8
PLAN_1
 62
     2
  6
CONTINUOUS
 10
-0.334543
 20
2.472083
  0
VERTEX
  8
PLAN_1
 62
     2
  6
CONTINUOUS
 10
-0.334965
 20
2.474185
  0
VERTEX
  8
PLAN_1
 62
     2
  6
CONTINUOUS
 10
-0.334965
 20
2.476283
  0
VERTEX
  8
PLAN_1
 62
     2
  6
CONTINUOUS
 10
-0.334543
 20
2.480909
  0
VERTEX
  8
PLAN_1
 62
     2
  6
CONTINUOUS
 10
-0.333283
 20
2.485110
  0
VERTEX
  8
PLAN_1
 62
     2
  6
CONTINUOUS
 10
-0.331602
 20
2.489315
  0
VERTEX
  8
PLAN_1
 62
     2
  6
CONTINUOUS
 10
-0.329079
 20
2.493094
  0
VERTEX
  8
PLAN_1
 62
     2
  6
CONTINUOUS
 10
-0.327398
 20
2.494358
  0
VERTEX
  8
PLAN_1
 62
     2
  6
CONTINUOUS
 10
-0.325717
 20
2.496039
  0
VERTEX
  8
PLAN_1
 62
     2
  6
CONTINUOUS
 10
-0.323618
 20
2.497299
  0
VERTEX
  8
PLAN_1
 62
     2
  6
CONTINUOUS
 10
-0.321516
 20
2.498559
  0
VERTEX
  8
PLAN_1
 62
     2
  6
CONTINUOUS
 10
-0.319413
 20
2.499402
  0
VERTEX
  8
PLAN_1
 62
     2
  6
CONTINUOUS
 10
-0.316894
 20
2.499819
  0
VERTEX
  8
PLAN_1
 62
     2
  6
CONTINUOUS
 10
-0.314370
 20
2.500240
  0
VERTEX
  8
PLAN_1
 62
     2
  6
CONTINUOUS
 10
-0.311429
 20
2.500661
  0
VERTEX
  8
PLAN_1
 62
     2
  6
CONTINUOUS
 10
-0.308067
 20
2.500240
  0
VERTEX
  8
PLAN_1
 62
     2
  6
CONTINUOUS
 10
-0.304283
 20
2.499402
  0
VERTEX
  8
PLAN_1
 62
     2
  6
CONTINUOUS
 10
-0.300083
 20
2.498138
  0
VERTEX
  8
PLAN_1
 62
     2
  6
CONTINUOUS
 10
-0.295878
 20
2.495618
  0
VERTEX
  8
PLAN_1
 62
     2
  6
CONTINUOUS
 10
-0.293776
 20
2.494358
  0
VERTEX
  8
PLAN_1
 62
     2
  6
CONTINUOUS
 10
-0.292094
 20
2.492256
  0
VERTEX
  8
PLAN_1
 62
     2
  6
CONTINUOUS
 10
-0.290413
 20
2.490154
  0
VERTEX
  8
PLAN_1
 62
     2
  6
CONTINUOUS
 10
-0.288732
 20
2.487634
  0
VERTEX
  8
PLAN_1
 62
     2
  6
CONTINUOUS
 10
-0.287472
 20
2.484689
  0
VERTEX
  8
PLAN_1
 62
     2
  6
CONTINUOUS
 10
-0.286634
 20
2.481748
  0
VERTEX
  8
PLAN_1
 62
     2
  6
CONTINUOUS
 10
-0.286213
 20
2.477965
  0
VERTEX
  8
PLAN_1
 62
     2
  6
CONTINUOUS
 10
-0.285791
 20
2.473764
  0
VERTEX
  8
PLAN_1
 62
     2
  6
CONTINUOUS
 10
-0.286213
 20
2.470402
  0
VERTEX
  8
PLAN_1
 62
     2
  6
CONTINUOUS
 10
-0.286634
 20
2.466618
  0
VERTEX
  8
PLAN_1
 62
     2
  6
CONTINUOUS
 10
-0.287894
 20
2.462839
  0
VERTEX
  8
PLAN_1
 62
     2
  6
CONTINUOUS
 10
-0.289996
 20
2.459055
  0
VERTEX
  8
PLAN_1
 62
     2
  6
CONTINUOUS
 10
-0.291256
 20
2.457374
  0
VERTEX
  8
PLAN_1
 62
     2
  6
CONTINUOUS
 10
-0.292516
 20
2.456114
  0
VERTEX
  8
PLAN_1
 62
     2
  6
CONTINUOUS
 10
-0.294197
 20
2.454850
  0
VERTEX
  8
PLAN_1
 62
     2
  6
CONTINUOUS
 10
-0.295878
 20
2.453591
  0
VERTEX
  8
PLAN_1
 62
     2
  6
CONTINUOUS
 10
-0.297980
 20
2.452331
  0
VERTEX
  8
PLAN_1
 62
     2
  6
CONTINUOUS
 10
-0.300500
 20
2.451488
  0
VERTEX
  8
PLAN_1
 62
     2
  6
CONTINUOUS
 10
-0.303024
 20
2.450650
  0
VERTEX
  8
PLAN_1
 62
     2
  6
CONTINUOUS
 10
-0.305965
 20
2.450228
  0
VERTEX
  8
PLAN_1
 62
     2
  6
CONTINUOUS
 10
-0.305965
 20
2.459894
  0
VERTEX
  8
PLAN_1
 62
     2
  6
CONTINUOUS
 10
-0.303024
 20
2.460315
  0
VERTEX
  8
PLAN_1
 62
     2
  6
CONTINUOUS
 10
-0.300500
 20
2.461575
  0
VERTEX
  8
PLAN_1
 62
     2
  6
CONTINUOUS
 10
-0.298402
 20
2.462839
  0
VERTEX
  8
PLAN_1
 62
     2
  6
CONTINUOUS
 10
-0.296720
 20
2.464937
  0
VERTEX
  8
PLAN_1
 62
     2
  6
CONTINUOUS
 10
-0.295457
 20
2.467039
  0
VERTEX
  8
PLAN_1
 62
     2
  6
CONTINUOUS
 10
-0.294618
 20
2.469559
  0
VERTEX
  8
PLAN_1
 62
     2
  6
CONTINUOUS
 10
-0.294197
 20
2.472504
  0
VERTEX
  8
PLAN_1
 62
     2
  6
CONTINUOUS
 10
-0.293776
 20
2.475445
  0
VERTEX
  8
PLAN_1
 62
     2
  6
CONTINUOUS
 10
-0.294197
 20
2.478807
  0
VERTEX
  8
PLAN_1
 62
     2
  6
CONTINUOUS
 10
-0.295039
 20
2.481748
  0
VERTEX
  8
PLAN_1
 62
     2
  6
CONTINUOUS
 10
-0.296720
 20
2.484272
  0
VERTEX
  8
PLAN_1
 62
     2
  6
CONTINUOUS
 10
-0.298819
 20
2.486370
  0
VERTEX
  8
PLAN_1
 62
     2
  6
CONTINUOUS
 10
-0.301343
 20
2.488472
  0
VERTEX
  8
PLAN_1
 62
     2
  6
CONTINUOUS
 10
-0.304283
 20
2.489732
  0
VERTEX
  8
PLAN_1
 62
     2
  6
CONTINUOUS
 10
-0.307224
 20
2.490575
  0
VERTEX
  8
PLAN_1
 62
     2
  6
CONTINUOUS
 10
-0.310587
 20
2.490575
  0
VERTEX
  8
PLAN_1
 62
     2
  6
CONTINUOUS
 10
-0.314370
 20
2.490575
  0
VERTEX
  8
PLAN_1
 62
     2
  6
CONTINUOUS
 10
-0.317732
 20
2.489315
  0
VERTEX
  8
PLAN_1
 62
     2
  6
CONTINUOUS
 10
-0.320256
 20
2.488051
  0
VERTEX
  8
PLAN_1
 62
     2
  6
CONTINUOUS
 10
-0.322776
 20
2.485953
  0
VERTEX
  8
PLAN_1
 62
     2
  6
CONTINUOUS
 10
-0.324457
 20
2.483429
  0
VERTEX
  8
PLAN_1
 62
     2
  6
CONTINUOUS
 10
-0.325717
 20
2.480909
  0
VERTEX
  8
PLAN_1
 62
     2
  6
CONTINUOUS
 10
-0.326559
 20
2.477965
  0
VERTEX
  8
PLAN_1
 62
     2
  6
CONTINUOUS
 10
-0.326980
 20
2.474602
  0
VERTEX
  8
PLAN_1
 62
     2
  6
CONTINUOUS
 10
-0.326559
 20
2.472504
  0
VERTEX
  8
PLAN_1
 62
     2
  6
CONTINUOUS
 10
-0.326138
 20
2.470402
  0
VERTEX
  8
PLAN_1
 62
     2
  6
CONTINUOUS
 10
-0.325717
 20
2.468720
  0
VERTEX
  8
PLAN_1
 62
     2
  6
CONTINUOUS
 10
-0.324878
 20
2.467039
  0
VERTEX
  8
PLAN_1
 62
     2
  6
CONTINUOUS
 10
-0.324035
 20
2.465358
  0
VERTEX
  8
PLAN_1
 62
     2
  6
CONTINUOUS
 10
-0.322776
 20
2.463677
  0
VERTEX
  8
PLAN_1
 62
     2
  6
CONTINUOUS
 10
-0.321516
 20
2.462417
  0
VERTEX
  8
PLAN_1
 62
     2
  6
CONTINUOUS
 10
-0.319835
 20
2.460736
  0
VERTEX
  8
PLAN_1
 62
     2
  6
CONTINUOUS
 10
-0.320256
 20
2.453169
  0
VERTEX
  8
PLAN_1
 62
     2
  6
CONTINUOUS
 10
-0.359339
 20
2.458634
  0
VERTEX
  8
PLAN_1
 62
     2
  6
CONTINUOUS
 10
-0.359339
 20
2.496457
  0
VERTEX
  8
PLAN_1
 62
     2
  6
CONTINUOUS
 10
-0.350516
 20
2.496457
  0
VERTEX
  8
PLAN_1
 62
     2
  6
CONTINUOUS
 10
-0.350516
 20
2.465358
  0
VERTEX
  8
PLAN_1
 62
     2
  6
CONTINUOUS
 10
-0.330343
 20
2.462417
  0
SEQEND
  8
0
  0
POLYLINE
  8
PLAN_1
 62
     2
  6
CONTINUOUS
 66
     1
 40
0.004201
 41
0.004201
  0
VERTEX
  8
PLAN_1
 62
     2
  6
CONTINUOUS
 10
-0.240823
 20
3.108795
  0
VERTEX
  8
PLAN_1
 62
     2
  6
CONTINUOUS
 10
-1.049004
 20
3.108795
  0
SEQEND
  8
0
  0
POLYLINE
  8
PLAN_1
 62
     2
  6
CONTINUOUS
 66
     1
 40
0.004201
 41
0.004201
  0
VERTEX
  8
PLAN_1
 62
     2
  6
CONTINUOUS
 10
-1.096075
 20
3.108795
  0
VERTEX
  8
PLAN_1
 62
     2
  6
CONTINUOUS
 10
-1.171303
 20
3.108795
  0
SEQEND
  8
0
  0
POLYLINE
  8
PLAN_1
 62
     2
  6
CONTINUOUS
 66
     1
 40
0.004201
 41
0.004201
  0
VERTEX
  8
PLAN_1
 62
     2
  6
CONTINUOUS
 10
-0.240823
 20
1.683654
  0
VERTEX
  8
PLAN_1
 62
     2
  6
CONTINUOUS
 10
-0.398004
 20
1.683654
  0
SEQEND
  8
0
  0
POLYLINE
  8
PLAN_1
 62
     2
  6
CONTINUOUS
 66
     1
 40
0.004201
 41
0.004201
  0
VERTEX
  8
PLAN_1
 62
     2
  6
CONTINUOUS
 10
-1.484406
 20
3.265555
  0
VERTEX
  8
PLAN_1
 62
     2
  6
CONTINUOUS
 10
-1.102378
 20
3.265555
  0
SEQEND
  8
0
  0
SOLID
  8
PLAN_1
 62
     2
 10
-1.072961
 20
3.265555
 11
-1.131799
 21
3.281524
 12
-1.072961
 22
3.265555
 13
-1.131799
 23
3.250004
  0
POLYLINE
  8
PLAN_1
 62
     2
  6
CONTINUOUS
 66
     1
 40
0.003000
 41
0.003000
  0
VERTEX
  8
PLAN_1
 62
     2
  6
CONTINUOUS
 10
-1.072961
 20
3.265555
  0
VERTEX
  8
PLAN_1
 62
     2
  6
CONTINUOUS
 10
-1.131799
 20
3.281524
  0
VERTEX
  8
PLAN_1
 62
     2
  6
CONTINUOUS
 10
-1.131799
 20
3.250004
  0
VERTEX
  8
PLAN_1
 62
     2
  6
CONTINUOUS
 10
-1.072961
 20
3.265555
  0
SEQEND
  8
0
  0
SOLID
  8
PLAN_1
 62
     2
 10
-1.513827
 20
3.265555
 11
-1.454988
 21
3.281524
 12
-1.513827
 22
3.265555
 13
-1.454988
 23
3.250004
  0
POLYLINE
  8
PLAN_1
 62
     2
  6
CONTINUOUS
 66
     1
 40
0.003000
 41
0.003000
  0
VERTEX
  8
PLAN_1
 62
     2
  6
CONTINUOUS
 10
-1.513827
 20
3.265555
  0
VERTEX
  8
PLAN_1
 62
     2
  6
CONTINUOUS
 10
-1.454988
 20
3.281524
  0
VERTEX
  8
PLAN_1
 62
     2
  6
CONTINUOUS
 10
-1.454988
 20
3.250004
  0
VERTEX
  8
PLAN_1
 62
     2
  6
CONTINUOUS
 10
-1.513827
 20
3.265555
  0
SEQEND
  8
0
  0
POLYLINE
  8
PLAN_1
 62
     2
  6
CONTINUOUS
 66
     1
 40
0.003000
 41
0.003000
  0
VERTEX
  8
PLAN_1
 62
     2
  6
CONTINUOUS
 10
-1.323441
 20
3.353394
  0
VERTEX
  8
PLAN_1
 62
     2
  6
CONTINUOUS
 10
-1.321343
 20
3.350449
  0
VERTEX
  8
PLAN_1
 62
     2
  6
CONTINUOUS
 10
-1.319661
 20
3.347087
  0
VERTEX
  8
PLAN_1
 62
     2
  6
CONTINUOUS
 10
-1.317980
 20
3.343724
  0
VERTEX
  8
PLAN_1
 62
     2
  6
CONTINUOUS
 10
-1.316717
 20
3.340362
  0
VERTEX
  8
PLAN_1
 62
     2
  6
CONTINUOUS
 10
-1.315878
 20
3.336583
  0
VERTEX
  8
PLAN_1
 62
     2
  6
CONTINUOUS
 10
-1.315457
 20
3.333220
  0
VERTEX
  8
PLAN_1
 62
     2
  6
CONTINUOUS
 10
-1.315035
 20
3.329858
  0
VERTEX
  8
PLAN_1
 62
     2
  6
CONTINUOUS
 10
-1.315035
 20
3.326496
  0
VERTEX
  8
PLAN_1
 62
     2
  6
CONTINUOUS
 10
-1.315035
 20
3.323551
  0
VERTEX
  8
PLAN_1
 62
     2
  6
CONTINUOUS
 10
-1.315457
 20
3.320189
  0
VERTEX
  8
PLAN_1
 62
     2
  6
CONTINUOUS
 10
-1.315878
 20
3.317248
  0
VERTEX
  8
PLAN_1
 62
     2
  6
CONTINUOUS
 10
-1.316717
 20
3.313886
  0
VERTEX
  8
PLAN_1
 62
     2
  6
CONTINUOUS
 10
-1.317559
 20
3.310524
  0
VERTEX
  8
PLAN_1
 62
     2
  6
CONTINUOUS
 10
-1.319240
 20
3.307161
  0
VERTEX
  8
PLAN_1
 62
     2
  6
CONTINUOUS
 10
-1.320921
 20
3.303799
  0
VERTEX
  8
PLAN_1
 62
     2
  6
CONTINUOUS
 10
-1.322602
 20
3.300858
  0
VERTEX
  8
PLAN_1
 62
     2
  6
CONTINUOUS
 10
-1.325122
 20
3.297917
  0
VERTEX
  8
PLAN_1
 62
     2
  6
CONTINUOUS
 10
-1.327646
 20
3.295394
  0
VERTEX
  8
PLAN_1
 62
     2
  6
CONTINUOUS
 10
-1.330587
 20
3.293291
  0
VERTEX
  8
PLAN_1
 62
     2
  6
CONTINUOUS
 10
-1.333949
 20
3.291193
  0
VERTEX
  8
PLAN_1
 62
     2
  6
CONTINUOUS
 10
-1.337732
 20
3.289512
  0
VERTEX
  8
PLAN_1
 62
     2
  6
CONTINUOUS
 10
-1.341933
 20
3.288248
  0
VERTEX
  8
PLAN_1
 62
     2
  6
CONTINUOUS
 10
-1.346138
 20
3.287409
  0
VERTEX
  8
PLAN_1
 62
     2
  6
CONTINUOUS
 10
-1.351181
 20
3.287409
  0
VERTEX
  8
PLAN_1
 62
     2
  6
CONTINUOUS
 10
-1.355382
 20
3.287409
  0
VERTEX
  8
PLAN_1
 62
     2
  6
CONTINUOUS
 10
-1.359165
 20
3.287831
  0
VERTEX
  8
PLAN_1
 62
     2
  6
CONTINUOUS
 10
-1.362528
 20
3.288669
  0
VERTEX
  8
PLAN_1
 62
     2
  6
CONTINUOUS
 10
-1.365469
 20
3.289929
  0
VERTEX
  8
PLAN_1
 62
     2
  6
CONTINUOUS
 10
-1.368409
 20
3.291193
  0
VERTEX
  8
PLAN_1
 62
     2
  6
CONTINUOUS
 10
-1.371354
 20
3.292874
  0
VERTEX
  8
PLAN_1
 62
     2
  6
CONTINUOUS
 10
-1.373453
 20
3.294555
  0
VERTEX
  8
PLAN_1
 62
     2
  6
CONTINUOUS
 10
-1.375976
 20
3.296236
  0
VERTEX
  8
PLAN_1
 62
     2
  6
CONTINUOUS
 10
-1.384382
 20
3.287409
  0
VERTEX
  8
PLAN_1
 62
     2
  6
CONTINUOUS
 10
-1.387323
 20
3.290350
  0
VERTEX
  8
PLAN_1
 62
     2
  6
CONTINUOUS
 10
-1.378917
 20
3.299598
  0
VERTEX
  8
PLAN_1
 62
     2
  6
CONTINUOUS
 10
-1.381020
 20
3.302539
  0
VERTEX
  8
PLAN_1
 62
     2
  6
CONTINUOUS
 10
-1.383122
 20
3.305902
  0
VERTEX
  8
PLAN_1
 62
     2
  6
CONTINUOUS
 10
-1.384382
 20
3.309264
  0
VERTEX
  8
PLAN_1
 62
     2
  6
CONTINUOUS
 10
-1.385642
 20
3.313047
  0
VERTEX
  8
PLAN_1
 62
     2
  6
CONTINUOUS
 10
-1.386484
 20
3.316409
  0
VERTEX
  8
PLAN_1
 62
     2
  6
CONTINUOUS
 10
-1.387323
 20
3.319772
  0
VERTEX
  8
PLAN_1
 62
     2
  6
CONTINUOUS
 10
-1.387744
 20
3.323551
  0
VERTEX
  8
PLAN_1
 62
     2
  6
CONTINUOUS
 10
-1.387744
 20
3.326496
  0
VERTEX
  8
PLAN_1
 62
     2
  6
CONTINUOUS
 10
-1.387744
 20
3.329858
  0
VERTEX
  8
PLAN_1
 62
     2
  6
CONTINUOUS
 10
-1.387323
 20
3.332799
  0
VERTEX
  8
PLAN_1
 62
     2
  6
CONTINUOUS
 10
-1.386902
 20
3.336161
  0
VERTEX
  8
PLAN_1
 62
     2
  6
CONTINUOUS
 10
-1.386063
 20
3.339524
  0
VERTEX
  8
PLAN_1
 62
     2
  6
CONTINUOUS
 10
-1.384803
 20
3.342886
  0
VERTEX
  8
PLAN_1
 62
     2
  6
CONTINUOUS
 10
-1.383539
 20
3.346248
  0
VERTEX
  8
PLAN_1
 62
     2
  6
CONTINUOUS
 10
-1.381858
 20
3.349189
  0
VERTEX
  8
PLAN_1
 62
     2
  6
CONTINUOUS
 10
-1.380177
 20
3.352551
  0
VERTEX
  8
PLAN_1
 62
     2
  6
CONTINUOUS
 10
-1.377657
 20
3.355075
  0
VERTEX
  8
PLAN_1
 62
     2
  6
CONTINUOUS
 10
-1.375134
 20
3.357594
  0
VERTEX
  8
PLAN_1
 62
     2
  6
CONTINUOUS
 10
-1.372193
 20
3.360118
  0
VERTEX
  8
PLAN_1
 62
     2
  6
CONTINUOUS
 10
-1.368831
 20
3.362217
  0
VERTEX
  8
PLAN_1
 62
     2
  6
CONTINUOUS
 10
-1.365047
 20
3.363898
  0
VERTEX
  8
PLAN_1
 62
     2
  6
CONTINUOUS
 10
-1.360846
 20
3.365161
  0
VERTEX
  8
PLAN_1
 62
     2
  6
CONTINUOUS
 10
-1.356224
 20
3.365579
  0
VERTEX
  8
PLAN_1
 62
     2
  6
CONTINUOUS
 10
-1.351181
 20
3.366000
  0
VERTEX
  8
PLAN_1
 62
     2
  6
CONTINUOUS
 10
-1.347398
 20
3.366000
  0
VERTEX
  8
PLAN_1
 62
     2
  6
CONTINUOUS
 10
-1.343614
 20
3.365161
  0
VERTEX
  8
PLAN_1
 62
     2
  6
CONTINUOUS
 10
-1.339835
 20
3.364319
  0
VERTEX
  8
PLAN_1
 62
     2
  6
CONTINUOUS
 10
-1.336890
 20
3.363480
  0
VERTEX
  8
PLAN_1
 62
     2
  6
CONTINUOUS
 10
-1.333949
 20
3.362217
  0
VERTEX
  8
PLAN_1
 62
     2
  6
CONTINUOUS
 10
-1.331008
 20
3.360535
  0
VERTEX
  8
PLAN_1
 62
     2
  6
CONTINUOUS
 10
-1.328484
 20
3.358854
  0
VERTEX
  8
PLAN_1
 62
     2
  6
CONTINUOUS
 10
-1.326386
 20
3.356756
  0
VERTEX
  8
PLAN_1
 62
     2
  6
CONTINUOUS
 10
-1.317980
 20
3.366000
  0
VERTEX
  8
PLAN_1
 62
     2
  6
CONTINUOUS
 10
-1.314618
 20
3.363059
  0
VERTEX
  8
PLAN_1
 62
     2
  6
CONTINUOUS
 10
-1.323441
 20
3.353394
  0
SEQEND
  8
0
  0
POLYLINE
  8
PLAN_1
 62
     2
  6
CONTINUOUS
 66
     1
 40
0.003000
 41
0.003000
  0
VERTEX
  8
PLAN_1
 62
     2
  6
CONTINUOUS
 10
-1.369252
 20
3.303799
  0
VERTEX
  8
PLAN_1
 62
     2
  6
CONTINUOUS
 10
-1.367571
 20
3.302118
  0
VERTEX
  8
PLAN_1
 62
     2
  6
CONTINUOUS
 10
-1.365469
 20
3.300437
  0
VERTEX
  8
PLAN_1
 62
     2
  6
CONTINUOUS
 10
-1.363787
 20
3.299177
  0
VERTEX
  8
PLAN_1
 62
     2
  6
CONTINUOUS
 10
-1.361268
 20
3.298335
  0
VERTEX
  8
PLAN_1
 62
     2
  6
CONTINUOUS
 10
-1.359165
 20
3.297496
  0
VERTEX
  8
PLAN_1
 62
     2
  6
CONTINUOUS
 10
-1.356642
 20
3.296654
  0
VERTEX
  8
PLAN_1
 62
     2
  6
CONTINUOUS
 10
-1.354122
 20
3.296236
  0
VERTEX
  8
PLAN_1
 62
     2
  6
CONTINUOUS
 10
-1.351181
 20
3.296236
  0
VERTEX
  8
PLAN_1
 62
     2
  6
CONTINUOUS
 10
-1.348240
 20
3.296236
  0
VERTEX
  8
PLAN_1
 62
     2
  6
CONTINUOUS
 10
-1.345717
 20
3.297075
  0
VERTEX
  8
PLAN_1
 62
     2
  6
CONTINUOUS
 10
-1.342776
 20
3.297496
  0
VERTEX
  8
PLAN_1
 62
     2
  6
CONTINUOUS
 10
-1.340252
 20
3.298756
  0
VERTEX
  8
PLAN_1
 62
     2
  6
CONTINUOUS
 10
-1.338154
 20
3.299598
  0
VERTEX
  8
PLAN_1
 62
     2
  6
CONTINUOUS
 10
-1.336051
 20
3.301280
  0
VERTEX
  8
PLAN_1
 62
     2
  6
CONTINUOUS
 10
-1.333949
 20
3.302961
  0
VERTEX
  8
PLAN_1
 62
     2
  6
CONTINUOUS
 10
-1.332268
 20
3.305059
  0
VERTEX
  8
PLAN_1
 62
     2
  6
CONTINUOUS
 10
-1.330587
 20
3.307161
  0
VERTEX
  8
PLAN_1
 62
     2
  6
CONTINUOUS
 10
-1.329327
 20
3.309264
  0
VERTEX
  8
PLAN_1
 62
     2
  6
CONTINUOUS
 10
-1.328067
 20
3.311783
  0
VERTEX
  8
PLAN_1
 62
     2
  6
CONTINUOUS
 10
-1.327224
 20
3.314307
  0
VERTEX
  8
PLAN_1
 62
     2
  6
CONTINUOUS
 10
-1.326386
 20
3.317248
  0
VERTEX
  8
PLAN_1
 62
     2
  6
CONTINUOUS
 10
-1.325965
 20
3.320189
  0
VERTEX
  8
PLAN_1
 62
     2
  6
CONTINUOUS
 10
-1.325543
 20
3.323551
  0
VERTEX
  8
PLAN_1
 62
     2
  6
CONTINUOUS
 10
-1.325122
 20
3.326496
  0
VERTEX
  8
PLAN_1
 62
     2
  6
CONTINUOUS
 10
-1.325543
 20
3.329437
  0
VERTEX
  8
PLAN_1
 62
     2
  6
CONTINUOUS
 10
-1.325543
 20
3.331957
  0
VERTEX
  8
PLAN_1
 62
     2
  6
CONTINUOUS
 10
-1.325965
 20
3.334902
  0
VERTEX
  8
PLAN_1
 62
     2
  6
CONTINUOUS
 10
-1.326803
 20
3.337000
  0
VERTEX
  8
PLAN_1
 62
     2
  6
CONTINUOUS
 10
-1.327224
 20
3.339524
  0
VERTEX
  8
PLAN_1
 62
     2
  6
CONTINUOUS
 10
-1.328067
 20
3.341626
  0
VERTEX
  8
PLAN_1
 62
     2
  6
CONTINUOUS
 10
-1.329327
 20
3.343724
  0
VERTEX
  8
PLAN_1
 62
     2
  6
CONTINUOUS
 10
-1.330587
 20
3.345827
  0
VERTEX
  8
PLAN_1
 62
     2
  6
CONTINUOUS
 10
-1.369252
 20
3.303799
  0
SEQEND
  8
0
  0
POLYLINE
  8
PLAN_1
 62
     2
  6
CONTINUOUS
 66
     1
 40
0.003000
 41
0.003000
  0
VERTEX
  8
PLAN_1
 62
     2
  6
CONTINUOUS
 10
-1.333110
 20
3.349610
  0
VERTEX
  8
PLAN_1
 62
     2
  6
CONTINUOUS
 10
-1.334791
 20
3.351291
  0
VERTEX
  8
PLAN_1
 62
     2
  6
CONTINUOUS
 10
-1.336890
 20
3.352551
  0
VERTEX
  8
PLAN_1
 62
     2
  6
CONTINUOUS
 10
-1.338992
 20
3.353811
  0
VERTEX
  8
PLAN_1
 62
     2
  6
CONTINUOUS
 10
-1.341094
 20
3.355075
  0
VERTEX
  8
PLAN_1
 62
     2
  6
CONTINUOUS
 10
-1.343197
 20
3.355913
  0
VERTEX
  8
PLAN_1
 62
     2
  6
CONTINUOUS
 10
-1.345717
 20
3.356335
  0
VERTEX
  8
PLAN_1
 62
     2
  6
CONTINUOUS
 10
-1.348657
 20
3.356756
  0
VERTEX
  8
PLAN_1
 62
     2
  6
CONTINUOUS
 10
-1.351181
 20
3.357173
  0
VERTEX
  8
PLAN_1
 62
     2
  6
CONTINUOUS
 10
-1.354122
 20
3.356756
  0
VERTEX
  8
PLAN_1
 62
     2
  6
CONTINUOUS
 10
-1.357063
 20
3.356335
  0
VERTEX
  8
PLAN_1
 62
     2
  6
CONTINUOUS
 10
-1.359587
 20
3.355913
  0
VERTEX
  8
PLAN_1
 62
     2
  6
CONTINUOUS
 10
-1.362106
 20
3.354654
  0
VERTEX
  8
PLAN_1
 62
     2
  6
CONTINUOUS
 10
-1.364630
 20
3.353394
  0
VERTEX
  8
PLAN_1
 62
     2
  6
CONTINUOUS
 10
-1.366728
 20
3.352130
  0
VERTEX
  8
PLAN_1
 62
     2
  6
CONTINUOUS
 10
-1.368831
 20
3.350449
  0
VERTEX
  8
PLAN_1
 62
     2
  6
CONTINUOUS
 10
-1.370512
 20
3.348350
  0
VERTEX
  8
PLAN_1
 62
     2
  6
CONTINUOUS
 10
-1.372193
 20
3.346248
  0
VERTEX
  8
PLAN_1
 62
     2
  6
CONTINUOUS
 10
-1.373453
 20
3.344146
  0
VERTEX
  8
PLAN_1
 62
     2
  6
CONTINUOUS
 10
-1.374717
 20
3.341626
  0
VERTEX
  8
PLAN_1
 62
     2
  6
CONTINUOUS
 10
-1.375555
 20
3.338681
  0
VERTEX
  8
PLAN_1
 62
     2
  6
CONTINUOUS
 10
-1.376398
 20
3.336161
  0
VERTEX
  8
PLAN_1
 62
     2
  6
CONTINUOUS
 10
-1.376815
 20
3.333220
  0
VERTEX
  8
PLAN_1
 62
     2
  6
CONTINUOUS
 10
-1.377236
 20
3.329858
  0
VERTEX
  8
PLAN_1
 62
     2
  6
CONTINUOUS
 10
-1.377236
 20
3.326496
  0
VERTEX
  8
PLAN_1
 62
     2
  6
CONTINUOUS
 10
-1.377236
 20
3.323972
  0
VERTEX
  8
PLAN_1
 62
     2
  6
CONTINUOUS
 10
-1.376815
 20
3.321031
  0
VERTEX
  8
PLAN_1
 62
     2
  6
CONTINUOUS
 10
-1.376398
 20
3.318508
  0
VERTEX
  8
PLAN_1
 62
     2
  6
CONTINUOUS
 10
-1.375976
 20
3.315988
  0
VERTEX
  8
PLAN_1
 62
     2
  6
CONTINUOUS
 10
-1.375134
 20
3.313465
  0
VERTEX
  8
PLAN_1
 62
     2
  6
CONTINUOUS
 10
-1.374295
 20
3.311366
  0
VERTEX
  8
PLAN_1
 62
     2
  6
CONTINUOUS
 10
-1.373453
 20
3.309264
  0
VERTEX
  8
PLAN_1
 62
     2
  6
CONTINUOUS
 10
-1.372193
 20
3.307161
  0
VERTEX
  8
PLAN_1
 62
     2
  6
CONTINUOUS
 10
-1.333110
 20
3.349610
  0
SEQEND
  8
0
  0
POLYLINE
  8
PLAN_1
 62
     2
  6
CONTINUOUS
 66
     1
 40
0.003000
 41
0.003000
  0
VERTEX
  8
PLAN_1
 62
     2
  6
CONTINUOUS
 10
-1.273429
 20
3.289512
  0
VERTEX
  8
PLAN_1
 62
     2
  6
CONTINUOUS
 10
-1.283094
 20
3.289512
  0
VERTEX
  8
PLAN_1
 62
     2
  6
CONTINUOUS
 10
-1.283094
 20
3.341205
  0
VERTEX
  8
PLAN_1
 62
     2
  6
CONTINUOUS
 10
-1.300327
 20
3.341205
  0
VERTEX
  8
PLAN_1
 62
     2
  6
CONTINUOUS
 10
-1.300327
 20
3.348350
  0
VERTEX
  8
PLAN_1
 62
     2
  6
CONTINUOUS
 10
-1.296126
 20
3.348768
  0
VERTEX
  8
PLAN_1
 62
     2
  6
CONTINUOUS
 10
-1.292764
 20
3.349189
  0
VERTEX
  8
PLAN_1
 62
     2
  6
CONTINUOUS
 10
-1.289819
 20
3.350031
  0
VERTEX
  8
PLAN_1
 62
     2
  6
CONTINUOUS
 10
-1.287299
 20
3.351291
  0
VERTEX
  8
PLAN_1
 62
     2
  6
CONTINUOUS
 10
-1.285197
 20
3.352972
  0
VERTEX
  8
PLAN_1
 62
     2
  6
CONTINUOUS
 10
-1.283094
 20
3.355492
  0
VERTEX
  8
PLAN_1
 62
     2
  6
CONTINUOUS
 10
-1.281835
 20
3.358437
  0
VERTEX
  8
PLAN_1
 62
     2
  6
CONTINUOUS
 10
-1.280575
 20
3.362638
  0
VERTEX
  8
PLAN_1
 62
     2
  6
CONTINUOUS
 10
-1.273429
 20
3.362638
  0
VERTEX
  8
PLAN_1
 62
     2
  6
CONTINUOUS
 10
-1.273429
 20
3.289512
  0
SEQEND
  8
0
  0
POLYLINE
  8
PLAN_1
 62
     2
  6
CONTINUOUS
 66
     1
 40
0.003000
 41
0.003000
  0
VERTEX
  8
PLAN_1
 62
     2
  6
CONTINUOUS
 10
-1.223839
 20
3.287409
  0
VERTEX
  8
PLAN_1
 62
     2
  6
CONTINUOUS
 10
-1.227622
 20
3.287409
  0
VERTEX
  8
PLAN_1
 62
     2
  6
CONTINUOUS
 10
-1.230984
 20
3.288248
  0
VERTEX
  8
PLAN_1
 62
     2
  6
CONTINUOUS
 10
-1.233925
 20
3.289512
  0
VERTEX
  8
PLAN_1
 62
     2
  6
CONTINUOUS
 10
-1.236866
 20
3.291193
  0
VERTEX
  8
PLAN_1
 62
     2
  6
CONTINUOUS
 10
-1.238969
 20
3.292874
  0
VERTEX
  8
PLAN_1
 62
     2
  6
CONTINUOUS
 10
-1.241071
 20
3.295394
  0
VERTEX
  8
PLAN_1
 62
     2
  6
CONTINUOUS
 10
-1.242752
 20
3.297917
  0
VERTEX
  8
PLAN_1
 62
     2
  6
CONTINUOUS
 10
-1.244433
 20
3.300437
  0
VERTEX
  8
PLAN_1
 62
     2
  6
CONTINUOUS
 10
-1.245693
 20
3.303378
  0
VERTEX
  8
PLAN_1
 62
     2
  6
CONTINUOUS
 10
-1.246531
 20
3.306323
  0
VERTEX
  8
PLAN_1
 62
     2
  6
CONTINUOUS
 10
-1.247374
 20
3.309264
  0
VERTEX
  8
PLAN_1
 62
     2
  6
CONTINUOUS
 10
-1.248213
 20
3.312626
  0
VERTEX
  8
PLAN_1
 62
     2
  6
CONTINUOUS
 10
-1.248634
 20
3.318929
  0
VERTEX
  8
PLAN_1
 62
     2
  6
CONTINUOUS
 10
-1.249055
 20
3.324815
  0
VERTEX
  8
PLAN_1
 62
     2
  6
CONTINUOUS
 10
-1.248634
 20
3.330697
  0
VERTEX
  8
PLAN_1
 62
     2
  6
CONTINUOUS
 10
-1.248213
 20
3.337000
  0
VERTEX
  8
PLAN_1
 62
     2
  6
CONTINUOUS
 10
-1.247374
 20
3.340362
  0
VERTEX
  8
PLAN_1
 62
     2
  6
CONTINUOUS
 10
-1.246531
 20
3.343307
  0
VERTEX
  8
PLAN_1
 62
     2
  6
CONTINUOUS
 10
-1.245693
 20
3.346669
  0
VERTEX
  8
PLAN_1
 62
     2
  6
CONTINUOUS
 10
-1.244433
 20
3.349189
  0
VERTEX
  8
PLAN_1
 62
     2
  6
CONTINUOUS
 10
-1.242752
 20
3.352130
  0
VERTEX
  8
PLAN_1
 62
     2
  6
CONTINUOUS
 10
-1.241071
 20
3.354654
  0
VERTEX
  8
PLAN_1
 62
     2
  6
CONTINUOUS
 10
-1.238969
 20
3.356756
  0
VERTEX
  8
PLAN_1
 62
     2
  6
CONTINUOUS
 10
-1.236866
 20
3.358854
  0
VERTEX
  8
PLAN_1
 62
     2
  6
CONTINUOUS
 10
-1.233925
 20
3.360118
  0
VERTEX
  8
PLAN_1
 62
     2
  6
CONTINUOUS
 10
-1.230984
 20
3.361378
  0
VERTEX
  8
PLAN_1
 62
     2
  6
CONTINUOUS
 10
-1.227622
 20
3.362217
  0
VERTEX
  8
PLAN_1
 62
     2
  6
CONTINUOUS
 10
-1.223839
 20
3.362638
  0
VERTEX
  8
PLAN_1
 62
     2
  6
CONTINUOUS
 10
-1.220055
 20
3.362217
  0
VERTEX
  8
PLAN_1
 62
     2
  6
CONTINUOUS
 10
-1.216693
 20
3.361378
  0
VERTEX
  8
PLAN_1
 62
     2
  6
CONTINUOUS
 10
-1.213752
 20
3.360118
  0
VERTEX
  8
PLAN_1
 62
     2
  6
CONTINUOUS
 10
-1.211228
 20
3.358854
  0
VERTEX
  8
PLAN_1
 62
     2
  6
CONTINUOUS
 10
-1.208709
 20
3.356756
  0
VERTEX
  8
PLAN_1
 62
     2
  6
CONTINUOUS
 10
-1.206606
 20
3.354654
  0
VERTEX
  8
PLAN_1
 62
     2
  6
CONTINUOUS
 10
-1.204925
 20
3.352130
  0
VERTEX
  8
PLAN_1
 62
     2
  6
CONTINUOUS
 10
-1.203665
 20
3.349189
  0
VERTEX
  8
PLAN_1
 62
     2
  6
CONTINUOUS
 10
-1.202406
 20
3.346669
  0
VERTEX
  8
PLAN_1
 62
     2
  6
CONTINUOUS
 10
-1.201142
 20
3.343307
  0
VERTEX
  8
PLAN_1
 62
     2
  6
CONTINUOUS
 10
-1.200303
 20
3.340362
  0
VERTEX
  8
PLAN_1
 62
     2
  6
CONTINUOUS
 10
-1.199882
 20
3.337000
  0
VERTEX
  8
PLAN_1
 62
     2
  6
CONTINUOUS
 10
-1.199043
 20
3.330697
  0
VERTEX
  8
PLAN_1
 62
     2
  6
CONTINUOUS
 10
-1.199043
 20
3.324815
  0
VERTEX
  8
PLAN_1
 62
     2
  6
CONTINUOUS
 10
-1.199043
 20
3.318929
  0
VERTEX
  8
PLAN_1
 62
     2
  6
CONTINUOUS
 10
-1.199882
 20
3.312626
  0
VERTEX
  8
PLAN_1
 62
     2
  6
CONTINUOUS
 10
-1.200303
 20
3.309264
  0
VERTEX
  8
PLAN_1
 62
     2
  6
CONTINUOUS
 10
-1.201142
 20
3.306323
  0
VERTEX
  8
PLAN_1
 62
     2
  6
CONTINUOUS
 10
-1.202406
 20
3.303378
  0
VERTEX
  8
PLAN_1
 62
     2
  6
CONTINUOUS
 10
-1.203665
 20
3.300437
  0
VERTEX
  8
PLAN_1
 62
     2
  6
CONTINUOUS
 10
-1.204925
 20
3.297917
  0
VERTEX
  8
PLAN_1
 62
     2
  6
CONTINUOUS
 10
-1.206606
 20
3.295394
  0
VERTEX
  8
PLAN_1
 62
     2
  6
CONTINUOUS
 10
-1.208709
 20
3.292874
  0
VERTEX
  8
PLAN_1
 62
     2
  6
CONTINUOUS
 10
-1.211228
 20
3.291193
  0
VERTEX
  8
PLAN_1
 62
     2
  6
CONTINUOUS
 10
-1.213752
 20
3.289512
  0
VERTEX
  8
PLAN_1
 62
     2
  6
CONTINUOUS
 10
-1.216693
 20
3.288248
  0
VERTEX
  8
PLAN_1
 62
     2
  6
CONTINUOUS
 10
-1.220055
 20
3.287409
  0
VERTEX
  8
PLAN_1
 62
     2
  6
CONTINUOUS
 10
-1.223839
 20
3.287409
  0
SEQEND
  8
0
  0
POLYLINE
  8
PLAN_1
 62
     2
  6
CONTINUOUS
 66
     1
 40
0.003000
 41
0.003000
  0
VERTEX
  8
PLAN_1
 62
     2
  6
CONTINUOUS
 10
-1.223839
 20
3.354232
  0
VERTEX
  8
PLAN_1
 62
     2
  6
CONTINUOUS
 10
-1.225941
 20
3.354232
  0
VERTEX
  8
PLAN_1
 62
     2
  6
CONTINUOUS
 10
-1.227622
 20
3.353811
  0
VERTEX
  8
PLAN_1
 62
     2
  6
CONTINUOUS
 10
-1.229303
 20
3.352972
  0
VERTEX
  8
PLAN_1
 62
     2
  6
CONTINUOUS
 10
-1.230984
 20
3.352130
  0
VERTEX
  8
PLAN_1
 62
     2
  6
CONTINUOUS
 10
-1.232244
 20
3.351291
  0
VERTEX
  8
PLAN_1
 62
     2
  6
CONTINUOUS
 10
-1.233504
 20
3.349610
  0
VERTEX
  8
PLAN_1
 62
     2
  6
CONTINUOUS
 10
-1.234764
 20
3.348350
  0
VERTEX
  8
PLAN_1
 62
     2
  6
CONTINUOUS
 10
-1.235606
 20
3.346248
  0
VERTEX
  8
PLAN_1
 62
     2
  6
CONTINUOUS
 10
-1.237287
 20
3.342043
  0
VERTEX
  8
PLAN_1
 62
     2
  6
CONTINUOUS
 10
-1.238547
 20
3.337000
  0
VERTEX
  8
PLAN_1
 62
     2
  6
CONTINUOUS
 10
-1.238969
 20
3.331539
  0
VERTEX
  8
PLAN_1
 62
     2
  6
CONTINUOUS
 10
-1.239390
 20
3.324815
  0
VERTEX
  8
PLAN_1
 62
     2
  6
CONTINUOUS
 10
-1.238969
 20
3.318508
  0
VERTEX
  8
PLAN_1
 62
     2
  6
CONTINUOUS
 10
-1.238547
 20
3.312626
  0
VERTEX
  8
PLAN_1
 62
     2
  6
CONTINUOUS
 10
-1.237287
 20
3.307583
  0
VERTEX
  8
PLAN_1
 62
     2
  6
CONTINUOUS
 10
-1.235606
 20
3.303378
  0
VERTEX
  8
PLAN_1
 62
     2
  6
CONTINUOUS
 10
-1.234764
 20
3.301697
  0
VERTEX
  8
PLAN_1
 62
     2
  6
CONTINUOUS
 10
-1.233504
 20
3.300016
  0
VERTEX
  8
PLAN_1
 62
     2
  6
CONTINUOUS
 10
-1.232244
 20
3.298756
  0
VERTEX
  8
PLAN_1
 62
     2
  6
CONTINUOUS
 10
-1.230984
 20
3.297496
  0
VERTEX
  8
PLAN_1
 62
     2
  6
CONTINUOUS
 10
-1.229303
 20
3.296654
  0
VERTEX
  8
PLAN_1
 62
     2
  6
CONTINUOUS
 10
-1.227622
 20
3.296236
  0
VERTEX
  8
PLAN_1
 62
     2
  6
CONTINUOUS
 10
-1.225941
 20
3.295815
  0
VERTEX
  8
PLAN_1
 62
     2
  6
CONTINUOUS
 10
-1.223839
 20
3.295394
  0
VERTEX
  8
PLAN_1
 62
     2
  6
CONTINUOUS
 10
-1.222157
 20
3.295815
  0
VERTEX
  8
PLAN_1
 62
     2
  6
CONTINUOUS
 10
-1.220476
 20
3.296236
  0
VERTEX
  8
PLAN_1
 62
     2
  6
CONTINUOUS
 10
-1.218795
 20
3.296654
  0
VERTEX
  8
PLAN_1
 62
     2
  6
CONTINUOUS
 10
-1.217114
 20
3.297496
  0
VERTEX
  8
PLAN_1
 62
     2
  6
CONTINUOUS
 10
-1.215854
 20
3.298756
  0
VERTEX
  8
PLAN_1
 62
     2
  6
CONTINUOUS
 10
-1.214591
 20
3.300016
  0
VERTEX
  8
PLAN_1
 62
     2
  6
CONTINUOUS
 10
-1.213331
 20
3.301697
  0
VERTEX
  8
PLAN_1
 62
     2
  6
CONTINUOUS
 10
-1.212492
 20
3.303378
  0
VERTEX
  8
PLAN_1
 62
     2
  6
CONTINUOUS
 10
-1.210811
 20
3.307583
  0
VERTEX
  8
PLAN_1
 62
     2
  6
CONTINUOUS
 10
-1.209547
 20
3.312626
  0
VERTEX
  8
PLAN_1
 62
     2
  6
CONTINUOUS
 10
-1.208709
 20
3.318508
  0
VERTEX
  8
PLAN_1
 62
     2
  6
CONTINUOUS
 10
-1.208709
 20
3.324815
  0
VERTEX
  8
PLAN_1
 62
     2
  6
CONTINUOUS
 10
-1.208709
 20
3.331539
  0
VERTEX
  8
PLAN_1
 62
     2
  6
CONTINUOUS
 10
-1.209547
 20
3.337000
  0
VERTEX
  8
PLAN_1
 62
     2
  6
CONTINUOUS
 10
-1.210811
 20
3.342043
  0
VERTEX
  8
PLAN_1
 62
     2
  6
CONTINUOUS
 10
-1.212492
 20
3.346248
  0
VERTEX
  8
PLAN_1
 62
     2
  6
CONTINUOUS
 10
-1.213331
 20
3.348350
  0
VERTEX
  8
PLAN_1
 62
     2
  6
CONTINUOUS
 10
-1.214591
 20
3.349610
  0
VERTEX
  8
PLAN_1
 62
     2
  6
CONTINUOUS
 10
-1.215854
 20
3.351291
  0
VERTEX
  8
PLAN_1
 62
     2
  6
CONTINUOUS
 10
-1.217114
 20
3.352130
  0
VERTEX
  8
PLAN_1
 62
     2
  6
CONTINUOUS
 10
-1.218795
 20
3.352972
  0
VERTEX
  8
PLAN_1
 62
     2
  6
CONTINUOUS
 10
-1.220476
 20
3.353811
  0
VERTEX
  8
PLAN_1
 62
     2
  6
CONTINUOUS
 10
-1.222157
 20
3.354232
  0
VERTEX
  8
PLAN_1
 62
     2
  6
CONTINUOUS
 10
-1.223839
 20
3.354232
  0
SEQEND
  8
0
  0
POLYLINE
  8
PLAN_1
 62
     2
  6
CONTINUOUS
 66
     1
 40
0.004201
 41
0.004201
  0
VERTEX
  8
PLAN_1
 62
     2
  6
CONTINUOUS
 10
-1.513827
 20
3.289512
  0
VERTEX
  8
PLAN_1
 62
     2
  6
CONTINUOUS
 10
-1.513827
 20
3.055839
  0
SEQEND
  8
0
  0
ENDSEC
  0
EOF
