  0
SECTION
  2
HEADER
  9
$ACADVER
  1
AC1006
  9
$EXTMIN
 10
-2.120240
 20
-3.880126
  9
$EXTMAX
 10
2.120000
 20
3.881000
  9
$LTSCALE
 40
0.000394
  9
$PDMODE
 70
    35
  9
$PDSIZE
 40
0.000315
  0
ENDSEC
  0
SECTION
  2
TABLES
  0
TABLE
  2
LTYPE
 70
     9
  0
LTYPE
  2
CONTINUOUS
 70
    64
  3
Solid line
 72
    65
 73
     0
 40
0.000000
  0
LTYPE
  2
DASHED
 70
    64
  3
__ __ __ __ __ __ __ __ __ __ __ __ __ __ __
 72
    65
 73
     2
 40
0.000003
 49
0.000002
 49
-0.000001
  0
LTYPE
  2
HIDDEN
 70
    64
  3
 _ _ _ _ _ _ _ _ _ _ _ _ _ _ _ _ _ _ _ _ _ _
 72
    65
 73
     2
 40
0.000001
 49
0.000001
 49
-0.000000
  0
LTYPE
  2
CENTER
 70
    64
  3
____ _ ____ _ ____ _ ____ _ ____ _ ____ _ ____
 72
    65
 73
     4
 40
0.000008
 49
0.000005
 49
-0.000001
 49
0.000001
 49
-0.000001
  0
LTYPE
  2
PHANTOM
 70
    64
  3
_____ _ _ _____ _ _ _____ _ _ _____ _ _ ____
 72
    65
 73
     6
 40
0.000010
 49
0.000005
 49
-0.000001
 49
0.000001
 49
-0.000001
 49
0.000001
 49
-0.000001
  0
LTYPE
  2
DOT
 70
    64
  3
...............................................
 72
    65
 73
     2
 40
0.000001
 49
0.000000
 49
-0.000001
  0
LTYPE
  2
DASHDOT
 70
    64
  3
__ . __ . __ . __ . __ . __ . __ . __ . __ . __
 72
    65
 73
     4
 40
0.000004
 49
0.000002
 49
-0.000001
 49
0.000000
 49
-0.000001
  0
LTYPE
  2
BORDER
 70
    64
  3
__ __ . __ __ . __ __ . __ __ . __ __ . __ __
 72
    65
 73
     6
 40
0.000007
 49
0.000002
 49
-0.000001
 49
0.000002
 49
-0.000001
 49
0.000000
 49
-0.000001
  0
LTYPE
  2
DIVIDE
 70
    64
  3
__ . . __ . . __ . . __ . . __ . . __ . . __
 72
    65
 73
     6
 40
0.000005
 49
0.000002
 49
-0.000001
 49
0.000000
 49
-0.000001
 49
0.000000
 49
-0.000001
  0
LTYPE
  2
DOTDOT
 70
    64
  3
 . .  . .  . .  . .  . .  . . 
 72
    65
 73
     5
 40
0.000002
 49
-0.000001
 49
0.000000
 49
-0.000001
 49
0.000000
 49
-0.000001
  0
ENDTAB
  0
TABLE
  2
STYLE
 70
     0
  0
ENDTAB
  0
TABLE
  2
LAYER
 70
     3
  0
LAYER
  2
FOREGROUND
 70
    64
 62
     7
  6
CONTINUOUS
  0
LAYER
  2
BACKGROUND
 70
    65
 62
    -7
  6
CONTINUOUS
  0
LAYER
  2
PLAN_1
 70
    64
 62
     7
  6
CONTINUOUS
  0
ENDTAB
  0
ENDSEC
  0
SECTION
  2
ENTITIES
  0
POLYLINE
  8
PLAN_1
  6
CONTINUOUS
 66
     1
 40
0.003000
 41
0.003000
  0
VERTEX
  8
PLAN_1
  6
CONTINUOUS
 10
0.316508
 20
-3.845201
  0
VERTEX
  8
PLAN_1
  6
CONTINUOUS
 10
0.159831
 20
-3.845201
  0
VERTEX
  8
PLAN_1
  6
CONTINUOUS
 10
0.159831
 20
-3.822886
  0
VERTEX
  8
PLAN_1
  6
CONTINUOUS
 10
0.282067
 20
-3.670091
  0
VERTEX
  8
PLAN_1
  6
CONTINUOUS
 10
0.169047
 20
-3.670091
  0
VERTEX
  8
PLAN_1
  6
CONTINUOUS
 10
0.169047
 20
-3.646323
  0
VERTEX
  8
PLAN_1
  6
CONTINUOUS
 10
0.316508
 20
-3.646323
  0
VERTEX
  8
PLAN_1
  6
CONTINUOUS
 10
0.316508
 20
-3.669606
  0
VERTEX
  8
PLAN_1
  6
CONTINUOUS
 10
0.193787
 20
-3.821433
  0
VERTEX
  8
PLAN_1
  6
CONTINUOUS
 10
0.316508
 20
-3.821433
  0
VERTEX
  8
PLAN_1
  6
CONTINUOUS
 10
0.316508
 20
-3.845201
  0
SEQEND
  8
0
  0
POLYLINE
  8
PLAN_1
  6
CONTINUOUS
 66
     1
 40
0.003000
 41
0.003000
  0
VERTEX
  8
PLAN_1
  6
CONTINUOUS
 10
0.483858
 20
-3.705984
  0
VERTEX
  8
PLAN_1
  6
CONTINUOUS
 10
0.482402
 20
-3.699681
  0
VERTEX
  8
PLAN_1
  6
CONTINUOUS
 10
0.480461
 20
-3.694343
  0
VERTEX
  8
PLAN_1
  6
CONTINUOUS
 10
0.477551
 20
-3.689492
  0
VERTEX
  8
PLAN_1
  6
CONTINUOUS
 10
0.474642
 20
-3.685126
  0
VERTEX
  8
PLAN_1
  6
CONTINUOUS
 10
0.471732
 20
-3.681248
  0
VERTEX
  8
PLAN_1
  6
CONTINUOUS
 10
0.468335
 20
-3.677850
  0
VERTEX
  8
PLAN_1
  6
CONTINUOUS
 10
0.464457
 20
-3.674941
  0
VERTEX
  8
PLAN_1
  6
CONTINUOUS
 10
0.460575
 20
-3.672516
  0
VERTEX
  8
PLAN_1
  6
CONTINUOUS
 10
0.456693
 20
-3.670091
  0
VERTEX
  8
PLAN_1
  6
CONTINUOUS
 10
0.452327
 20
-3.668634
  0
VERTEX
  8
PLAN_1
  6
CONTINUOUS
 10
0.447961
 20
-3.667181
  0
VERTEX
  8
PLAN_1
  6
CONTINUOUS
 10
0.444083
 20
-3.666209
  0
VERTEX
  8
PLAN_1
  6
CONTINUOUS
 10
0.435835
 20
-3.665240
  0
VERTEX
  8
PLAN_1
  6
CONTINUOUS
 10
0.428075
 20
-3.664756
  0
VERTEX
  8
PLAN_1
  6
CONTINUOUS
 10
0.421768
 20
-3.665240
  0
VERTEX
  8
PLAN_1
  6
CONTINUOUS
 10
0.414976
 20
-3.666209
  0
VERTEX
  8
PLAN_1
  6
CONTINUOUS
 10
0.408673
 20
-3.667665
  0
VERTEX
  8
PLAN_1
  6
CONTINUOUS
 10
0.402850
 20
-3.669606
  0
VERTEX
  8
PLAN_1
  6
CONTINUOUS
 10
0.397031
 20
-3.672516
  0
VERTEX
  8
PLAN_1
  6
CONTINUOUS
 10
0.391693
 20
-3.675909
  0
VERTEX
  8
PLAN_1
  6
CONTINUOUS
 10
0.386843
 20
-3.679791
  0
VERTEX
  8
PLAN_1
  6
CONTINUOUS
 10
0.381992
 20
-3.684642
  0
VERTEX
  8
PLAN_1
  6
CONTINUOUS
 10
0.378114
 20
-3.689976
  0
VERTEX
  8
PLAN_1
  6
CONTINUOUS
 10
0.374232
 20
-3.695799
  0
VERTEX
  8
PLAN_1
  6
CONTINUOUS
 10
0.370835
 20
-3.702106
  0
VERTEX
  8
PLAN_1
  6
CONTINUOUS
 10
0.367925
 20
-3.709382
  0
VERTEX
  8
PLAN_1
  6
CONTINUOUS
 10
0.365984
 20
-3.717142
  0
VERTEX
  8
PLAN_1
  6
CONTINUOUS
 10
0.364531
 20
-3.725390
  0
VERTEX
  8
PLAN_1
  6
CONTINUOUS
 10
0.363559
 20
-3.734118
  0
VERTEX
  8
PLAN_1
  6
CONTINUOUS
 10
0.363075
 20
-3.743823
  0
VERTEX
  8
PLAN_1
  6
CONTINUOUS
 10
0.363075
 20
-3.752551
  0
VERTEX
  8
PLAN_1
  6
CONTINUOUS
 10
0.364047
 20
-3.760799
  0
VERTEX
  8
PLAN_1
  6
CONTINUOUS
 10
0.365016
 20
-3.769043
  0
VERTEX
  8
PLAN_1
  6
CONTINUOUS
 10
0.366472
 20
-3.776807
  0
VERTEX
  8
PLAN_1
  6
CONTINUOUS
 10
0.368409
 20
-3.784083
  0
VERTEX
  8
PLAN_1
  6
CONTINUOUS
 10
0.370835
 20
-3.790874
  0
VERTEX
  8
PLAN_1
  6
CONTINUOUS
 10
0.373748
 20
-3.797177
  0
VERTEX
  8
PLAN_1
  6
CONTINUOUS
 10
0.377626
 20
-3.803000
  0
VERTEX
  8
PLAN_1
  6
CONTINUOUS
 10
0.381508
 20
-3.808335
  0
VERTEX
  8
PLAN_1
  6
CONTINUOUS
 10
0.386358
 20
-3.813185
  0
VERTEX
  8
PLAN_1
  6
CONTINUOUS
 10
0.391693
 20
-3.817067
  0
VERTEX
  8
PLAN_1
  6
CONTINUOUS
 10
0.398000
 20
-3.820461
  0
VERTEX
  8
PLAN_1
  6
CONTINUOUS
 10
0.404791
 20
-3.823374
  0
VERTEX
  8
PLAN_1
  6
CONTINUOUS
 10
0.412067
 20
-3.825311
  0
VERTEX
  8
PLAN_1
  6
CONTINUOUS
 10
0.420315
 20
-3.826283
  0
VERTEX
  8
PLAN_1
  6
CONTINUOUS
 10
0.429043
 20
-3.826768
  0
VERTEX
  8
PLAN_1
  6
CONTINUOUS
 10
0.432441
 20
-3.826768
  0
VERTEX
  8
PLAN_1
  6
CONTINUOUS
 10
0.436319
 20
-3.826283
  0
VERTEX
  8
PLAN_1
  6
CONTINUOUS
 10
0.440201
 20
-3.825799
  0
VERTEX
  8
PLAN_1
  6
CONTINUOUS
 10
0.444083
 20
-3.824827
  0
VERTEX
  8
PLAN_1
  6
CONTINUOUS
 10
0.447961
 20
-3.823374
  0
VERTEX
  8
PLAN_1
  6
CONTINUOUS
 10
0.452327
 20
-3.821917
  0
VERTEX
  8
PLAN_1
  6
CONTINUOUS
 10
0.456693
 20
-3.819492
  0
VERTEX
  8
PLAN_1
  6
CONTINUOUS
 10
0.460575
 20
-3.817067
  0
VERTEX
  8
PLAN_1
  6
CONTINUOUS
 10
0.464457
 20
-3.813669
  0
VERTEX
  8
PLAN_1
  6
CONTINUOUS
 10
0.468335
 20
-3.809791
  0
VERTEX
  8
PLAN_1
  6
CONTINUOUS
 10
0.472217
 20
-3.805425
  0
VERTEX
  8
PLAN_1
  6
CONTINUOUS
 10
0.475610
 20
-3.800091
  0
VERTEX
  8
PLAN_1
  6
CONTINUOUS
 10
0.479008
 20
-3.794268
  0
VERTEX
  8
PLAN_1
  6
CONTINUOUS
 10
0.481433
 20
-3.787961
  0
VERTEX
  8
PLAN_1
  6
CONTINUOUS
 10
0.483858
 20
-3.780201
  0
VERTEX
  8
PLAN_1
  6
CONTINUOUS
 10
0.485799
 20
-3.771957
  0
VERTEX
  8
PLAN_1
  6
CONTINUOUS
 10
0.511992
 20
-3.771957
  0
VERTEX
  8
PLAN_1
  6
CONTINUOUS
 10
0.511020
 20
-3.779232
  0
VERTEX
  8
PLAN_1
  6
CONTINUOUS
 10
0.509567
 20
-3.785535
  0
VERTEX
  8
PLAN_1
  6
CONTINUOUS
 10
0.507626
 20
-3.791358
  0
VERTEX
  8
PLAN_1
  6
CONTINUOUS
 10
0.505685
 20
-3.797177
  0
VERTEX
  8
PLAN_1
  6
CONTINUOUS
 10
0.503744
 20
-3.802516
  0
VERTEX
  8
PLAN_1
  6
CONTINUOUS
 10
0.501319
 20
-3.807366
  0
VERTEX
  8
PLAN_1
  6
CONTINUOUS
 10
0.498409
 20
-3.811732
  0
VERTEX
  8
PLAN_1
  6
CONTINUOUS
 10
0.495984
 20
-3.816094
  0
VERTEX
  8
PLAN_1
  6
CONTINUOUS
 10
0.493075
 20
-3.819976
  0
VERTEX
  8
PLAN_1
  6
CONTINUOUS
 10
0.490165
 20
-3.823858
  0
VERTEX
  8
PLAN_1
  6
CONTINUOUS
 10
0.486768
 20
-3.827252
  0
VERTEX
  8
PLAN_1
  6
CONTINUOUS
 10
0.483374
 20
-3.830165
  0
VERTEX
  8
PLAN_1
  6
CONTINUOUS
 10
0.477067
 20
-3.835500
  0
VERTEX
  8
PLAN_1
  6
CONTINUOUS
 10
0.469791
 20
-3.839866
  0
VERTEX
  8
PLAN_1
  6
CONTINUOUS
 10
0.463000
 20
-3.843260
  0
VERTEX
  8
PLAN_1
  6
CONTINUOUS
 10
0.456209
 20
-3.845685
  0
VERTEX
  8
PLAN_1
  6
CONTINUOUS
 10
0.449417
 20
-3.847626
  0
VERTEX
  8
PLAN_1
  6
CONTINUOUS
 10
0.443110
 20
-3.849083
  0
VERTEX
  8
PLAN_1
  6
CONTINUOUS
 10
0.432441
 20
-3.850535
  0
VERTEX
  8
PLAN_1
  6
CONTINUOUS
 10
0.424677
 20
-3.850535
  0
VERTEX
  8
PLAN_1
  6
CONTINUOUS
 10
0.416433
 20
-3.850535
  0
VERTEX
  8
PLAN_1
  6
CONTINUOUS
 10
0.408185
 20
-3.849083
  0
VERTEX
  8
PLAN_1
  6
CONTINUOUS
 10
0.399941
 20
-3.847626
  0
VERTEX
  8
PLAN_1
  6
CONTINUOUS
 10
0.391693
 20
-3.844717
  0
VERTEX
  8
PLAN_1
  6
CONTINUOUS
 10
0.383933
 20
-3.841319
  0
VERTEX
  8
PLAN_1
  6
CONTINUOUS
 10
0.376657
 20
-3.837441
  0
VERTEX
  8
PLAN_1
  6
CONTINUOUS
 10
0.373260
 20
-3.835016
  0
VERTEX
  8
PLAN_1
  6
CONTINUOUS
 10
0.369866
 20
-3.832102
  0
VERTEX
  8
PLAN_1
  6
CONTINUOUS
 10
0.366472
 20
-3.829677
  0
VERTEX
  8
PLAN_1
  6
CONTINUOUS
 10
0.363075
 20
-3.826283
  0
VERTEX
  8
PLAN_1
  6
CONTINUOUS
 10
0.360165
 20
-3.823374
  0
VERTEX
  8
PLAN_1
  6
CONTINUOUS
 10
0.357256
 20
-3.819492
  0
VERTEX
  8
PLAN_1
  6
CONTINUOUS
 10
0.354343
 20
-3.816094
  0
VERTEX
  8
PLAN_1
  6
CONTINUOUS
 10
0.351917
 20
-3.811732
  0
VERTEX
  8
PLAN_1
  6
CONTINUOUS
 10
0.349008
 20
-3.807850
  0
VERTEX
  8
PLAN_1
  6
CONTINUOUS
 10
0.347067
 20
-3.803000
  0
VERTEX
  8
PLAN_1
  6
CONTINUOUS
 10
0.344642
 20
-3.798634
  0
VERTEX
  8
PLAN_1
  6
CONTINUOUS
 10
0.342701
 20
-3.793783
  0
VERTEX
  8
PLAN_1
  6
CONTINUOUS
 10
0.341248
 20
-3.788449
  0
VERTEX
  8
PLAN_1
  6
CONTINUOUS
 10
0.339791
 20
-3.783110
  0
VERTEX
  8
PLAN_1
  6
CONTINUOUS
 10
0.338335
 20
-3.777291
  0
VERTEX
  8
PLAN_1
  6
CONTINUOUS
 10
0.337366
 20
-3.771469
  0
VERTEX
  8
PLAN_1
  6
CONTINUOUS
 10
0.336398
 20
-3.765165
  0
VERTEX
  8
PLAN_1
  6
CONTINUOUS
 10
0.335909
 20
-3.758374
  0
VERTEX
  8
PLAN_1
  6
CONTINUOUS
 10
0.335425
 20
-3.751583
  0
VERTEX
  8
PLAN_1
  6
CONTINUOUS
 10
0.335425
 20
-3.744791
  0
VERTEX
  8
PLAN_1
  6
CONTINUOUS
 10
0.335425
 20
-3.733634
  0
VERTEX
  8
PLAN_1
  6
CONTINUOUS
 10
0.336882
 20
-3.722476
  0
VERTEX
  8
PLAN_1
  6
CONTINUOUS
 10
0.338823
 20
-3.712291
  0
VERTEX
  8
PLAN_1
  6
CONTINUOUS
 10
0.341732
 20
-3.702591
  0
VERTEX
  8
PLAN_1
  6
CONTINUOUS
 10
0.345126
 20
-3.693374
  0
VERTEX
  8
PLAN_1
  6
CONTINUOUS
 10
0.349492
 20
-3.685126
  0
VERTEX
  8
PLAN_1
  6
CONTINUOUS
 10
0.354343
 20
-3.676882
  0
VERTEX
  8
PLAN_1
  6
CONTINUOUS
 10
0.360165
 20
-3.669606
  0
VERTEX
  8
PLAN_1
  6
CONTINUOUS
 10
0.363075
 20
-3.666209
  0
VERTEX
  8
PLAN_1
  6
CONTINUOUS
 10
0.366472
 20
-3.663299
  0
VERTEX
  8
PLAN_1
  6
CONTINUOUS
 10
0.369866
 20
-3.660390
  0
VERTEX
  8
PLAN_1
  6
CONTINUOUS
 10
0.373260
 20
-3.657480
  0
VERTEX
  8
PLAN_1
  6
CONTINUOUS
 10
0.377142
 20
-3.655051
  0
VERTEX
  8
PLAN_1
  6
CONTINUOUS
 10
0.381024
 20
-3.652626
  0
VERTEX
  8
PLAN_1
  6
CONTINUOUS
 10
0.384902
 20
-3.650201
  0
VERTEX
  8
PLAN_1
  6
CONTINUOUS
 10
0.389268
 20
-3.648264
  0
VERTEX
  8
PLAN_1
  6
CONTINUOUS
 10
0.393634
 20
-3.646807
  0
VERTEX
  8
PLAN_1
  6
CONTINUOUS
 10
0.398000
 20
-3.645350
  0
VERTEX
  8
PLAN_1
  6
CONTINUOUS
 10
0.402850
 20
-3.643898
  0
VERTEX
  8
PLAN_1
  6
CONTINUOUS
 10
0.407701
 20
-3.642925
  0
VERTEX
  8
PLAN_1
  6
CONTINUOUS
 10
0.412551
 20
-3.641957
  0
VERTEX
  8
PLAN_1
  6
CONTINUOUS
 10
0.417402
 20
-3.641472
  0
VERTEX
  8
PLAN_1
  6
CONTINUOUS
 10
0.422740
 20
-3.640984
  0
VERTEX
  8
PLAN_1
  6
CONTINUOUS
 10
0.428075
 20
-3.640984
  0
VERTEX
  8
PLAN_1
  6
CONTINUOUS
 10
0.437776
 20
-3.641472
  0
VERTEX
  8
PLAN_1
  6
CONTINUOUS
 10
0.446508
 20
-3.642441
  0
VERTEX
  8
PLAN_1
  6
CONTINUOUS
 10
0.454752
 20
-3.643898
  0
VERTEX
  8
PLAN_1
  6
CONTINUOUS
 10
0.462028
 20
-3.646323
  0
VERTEX
  8
PLAN_1
  6
CONTINUOUS
 10
0.469307
 20
-3.649232
  0
VERTEX
  8
PLAN_1
  6
CONTINUOUS
 10
0.475610
 20
-3.652626
  0
VERTEX
  8
PLAN_1
  6
CONTINUOUS
 10
0.481433
 20
-3.656508
  0
VERTEX
  8
PLAN_1
  6
CONTINUOUS
 10
0.486768
 20
-3.660874
  0
VERTEX
  8
PLAN_1
  6
CONTINUOUS
 10
0.491618
 20
-3.665724
  0
VERTEX
  8
PLAN_1
  6
CONTINUOUS
 10
0.495984
 20
-3.671059
  0
VERTEX
  8
PLAN_1
  6
CONTINUOUS
 10
0.499866
 20
-3.676398
  0
VERTEX
  8
PLAN_1
  6
CONTINUOUS
 10
0.502776
 20
-3.681732
  0
VERTEX
  8
PLAN_1
  6
CONTINUOUS
 10
0.505685
 20
-3.687551
  0
VERTEX
  8
PLAN_1
  6
CONTINUOUS
 10
0.507626
 20
-3.693858
  0
VERTEX
  8
PLAN_1
  6
CONTINUOUS
 10
0.509083
 20
-3.699681
  0
VERTEX
  8
PLAN_1
  6
CONTINUOUS
 10
0.510051
 20
-3.705984
  0
VERTEX
  8
PLAN_1
  6
CONTINUOUS
 10
0.483858
 20
-3.705984
  0
SEQEND
  8
0
  0
POLYLINE
  8
PLAN_1
  6
CONTINUOUS
 66
     1
 40
0.003000
 41
0.003000
  0
VERTEX
  8
PLAN_1
  6
CONTINUOUS
 10
0.571654
 20
-3.845201
  0
VERTEX
  8
PLAN_1
  6
CONTINUOUS
 10
0.544492
 20
-3.845201
  0
VERTEX
  8
PLAN_1
  6
CONTINUOUS
 10
0.544492
 20
-3.646323
  0
VERTEX
  8
PLAN_1
  6
CONTINUOUS
 10
0.571654
 20
-3.646323
  0
VERTEX
  8
PLAN_1
  6
CONTINUOUS
 10
0.571654
 20
-3.742850
  0
VERTEX
  8
PLAN_1
  6
CONTINUOUS
 10
0.668185
 20
-3.646323
  0
VERTEX
  8
PLAN_1
  6
CONTINUOUS
 10
0.705535
 20
-3.646323
  0
VERTEX
  8
PLAN_1
  6
CONTINUOUS
 10
0.622102
 20
-3.726843
  0
VERTEX
  8
PLAN_1
  6
CONTINUOUS
 10
0.707476
 20
-3.845201
  0
VERTEX
  8
PLAN_1
  6
CONTINUOUS
 10
0.672551
 20
-3.845201
  0
VERTEX
  8
PLAN_1
  6
CONTINUOUS
 10
0.602701
 20
-3.745760
  0
VERTEX
  8
PLAN_1
  6
CONTINUOUS
 10
0.571654
 20
-3.775350
  0
VERTEX
  8
PLAN_1
  6
CONTINUOUS
 10
0.571654
 20
-3.845201
  0
SEQEND
  8
0
  0
POLYLINE
  8
PLAN_1
  6
CONTINUOUS
 66
     1
 40
0.003000
 41
0.003000
  0
VERTEX
  8
PLAN_1
  6
CONTINUOUS
 10
0.731244
 20
-3.646323
  0
VERTEX
  8
PLAN_1
  6
CONTINUOUS
 10
0.811764
 20
-3.646323
  0
VERTEX
  8
PLAN_1
  6
CONTINUOUS
 10
0.821469
 20
-3.646807
  0
VERTEX
  8
PLAN_1
  6
CONTINUOUS
 10
0.830681
 20
-3.647776
  0
VERTEX
  8
PLAN_1
  6
CONTINUOUS
 10
0.838929
 20
-3.650201
  0
VERTEX
  8
PLAN_1
  6
CONTINUOUS
 10
0.847177
 20
-3.653114
  0
VERTEX
  8
PLAN_1
  6
CONTINUOUS
 10
0.854453
 20
-3.656992
  0
VERTEX
  8
PLAN_1
  6
CONTINUOUS
 10
0.861244
 20
-3.661843
  0
VERTEX
  8
PLAN_1
  6
CONTINUOUS
 10
0.867547
 20
-3.667181
  0
VERTEX
  8
PLAN_1
  6
CONTINUOUS
 10
0.873370
 20
-3.673000
  0
VERTEX
  8
PLAN_1
  6
CONTINUOUS
 10
0.878705
 20
-3.679791
  0
VERTEX
  8
PLAN_1
  6
CONTINUOUS
 10
0.883071
 20
-3.687067
  0
VERTEX
  8
PLAN_1
  6
CONTINUOUS
 10
0.886953
 20
-3.695315
  0
VERTEX
  8
PLAN_1
  6
CONTINUOUS
 10
0.889862
 20
-3.703559
  0
VERTEX
  8
PLAN_1
  6
CONTINUOUS
 10
0.892287
 20
-3.712776
  0
VERTEX
  8
PLAN_1
  6
CONTINUOUS
 10
0.894228
 20
-3.722476
  0
VERTEX
  8
PLAN_1
  6
CONTINUOUS
 10
0.895197
 20
-3.732665
  0
VERTEX
  8
PLAN_1
  6
CONTINUOUS
 10
0.895681
 20
-3.742850
  0
VERTEX
  8
PLAN_1
  6
CONTINUOUS
 10
0.895681
 20
-3.751583
  0
VERTEX
  8
PLAN_1
  6
CONTINUOUS
 10
0.894713
 20
-3.760315
  0
VERTEX
  8
PLAN_1
  6
CONTINUOUS
 10
0.893744
 20
-3.769043
  0
VERTEX
  8
PLAN_1
  6
CONTINUOUS
 10
0.891803
 20
-3.777776
  0
VERTEX
  8
PLAN_1
  6
CONTINUOUS
 10
0.889378
 20
-3.786508
  0
VERTEX
  8
PLAN_1
  6
CONTINUOUS
 10
0.885980
 20
-3.795240
  0
VERTEX
  8
PLAN_1
  6
CONTINUOUS
 10
0.882587
 20
-3.803484
  0
VERTEX
  8
PLAN_1
  6
CONTINUOUS
 10
0.877736
 20
-3.810760
  0
VERTEX
  8
PLAN_1
  6
CONTINUOUS
 10
0.875311
 20
-3.814642
  0
VERTEX
  8
PLAN_1
  6
CONTINUOUS
 10
0.872398
 20
-3.818035
  0
VERTEX
  8
PLAN_1
  6
CONTINUOUS
 10
0.869488
 20
-3.821433
  0
VERTEX
  8
PLAN_1
  6
CONTINUOUS
 10
0.866579
 20
-3.824827
  0
VERTEX
  8
PLAN_1
  6
CONTINUOUS
 10
0.863181
 20
-3.827736
  0
VERTEX
  8
PLAN_1
  6
CONTINUOUS
 10
0.859787
 20
-3.830650
  0
VERTEX
  8
PLAN_1
  6
CONTINUOUS
 10
0.855906
 20
-3.833559
  0
VERTEX
  8
PLAN_1
  6
CONTINUOUS
 10
0.851539
 20
-3.835500
  0
VERTEX
  8
PLAN_1
  6
CONTINUOUS
 10
0.847661
 20
-3.837925
  0
VERTEX
  8
PLAN_1
  6
CONTINUOUS
 10
0.842811
 20
-3.839866
  0
VERTEX
  8
PLAN_1
  6
CONTINUOUS
 10
0.838445
 20
-3.841319
  0
VERTEX
  8
PLAN_1
  6
CONTINUOUS
 10
0.833110
 20
-3.842776
  0
VERTEX
  8
PLAN_1
  6
CONTINUOUS
 10
0.828256
 20
-3.843744
  0
VERTEX
  8
PLAN_1
  6
CONTINUOUS
 10
0.822437
 20
-3.844717
  0
VERTEX
  8
PLAN_1
  6
CONTINUOUS
 10
0.817102
 20
-3.845201
  0
VERTEX
  8
PLAN_1
  6
CONTINUOUS
 10
0.810795
 20
-3.845201
  0
VERTEX
  8
PLAN_1
  6
CONTINUOUS
 10
0.731244
 20
-3.845201
  0
VERTEX
  8
PLAN_1
  6
CONTINUOUS
 10
0.731244
 20
-3.646323
  0
SEQEND
  8
0
  0
POLYLINE
  8
PLAN_1
  6
CONTINUOUS
 66
     1
 40
0.003000
 41
0.003000
  0
VERTEX
  8
PLAN_1
  6
CONTINUOUS
 10
0.757921
 20
-3.822402
  0
VERTEX
  8
PLAN_1
  6
CONTINUOUS
 10
0.810311
 20
-3.822402
  0
VERTEX
  8
PLAN_1
  6
CONTINUOUS
 10
0.816614
 20
-3.821917
  0
VERTEX
  8
PLAN_1
  6
CONTINUOUS
 10
0.822921
 20
-3.820949
  0
VERTEX
  8
PLAN_1
  6
CONTINUOUS
 10
0.828744
 20
-3.819492
  0
VERTEX
  8
PLAN_1
  6
CONTINUOUS
 10
0.834079
 20
-3.817551
  0
VERTEX
  8
PLAN_1
  6
CONTINUOUS
 10
0.839413
 20
-3.814642
  0
VERTEX
  8
PLAN_1
  6
CONTINUOUS
 10
0.843780
 20
-3.811244
  0
VERTEX
  8
PLAN_1
  6
CONTINUOUS
 10
0.848146
 20
-3.806882
  0
VERTEX
  8
PLAN_1
  6
CONTINUOUS
 10
0.852512
 20
-3.802516
  0
VERTEX
  8
PLAN_1
  6
CONTINUOUS
 10
0.855906
 20
-3.797177
  0
VERTEX
  8
PLAN_1
  6
CONTINUOUS
 10
0.858819
 20
-3.791358
  0
VERTEX
  8
PLAN_1
  6
CONTINUOUS
 10
0.861728
 20
-3.785051
  0
VERTEX
  8
PLAN_1
  6
CONTINUOUS
 10
0.864154
 20
-3.778260
  0
VERTEX
  8
PLAN_1
  6
CONTINUOUS
 10
0.865606
 20
-3.770500
  0
VERTEX
  8
PLAN_1
  6
CONTINUOUS
 10
0.867063
 20
-3.762252
  0
VERTEX
  8
PLAN_1
  6
CONTINUOUS
 10
0.867547
 20
-3.754008
  0
VERTEX
  8
PLAN_1
  6
CONTINUOUS
 10
0.868031
 20
-3.744791
  0
VERTEX
  8
PLAN_1
  6
CONTINUOUS
 10
0.867547
 20
-3.735575
  0
VERTEX
  8
PLAN_1
  6
CONTINUOUS
 10
0.867063
 20
-3.726843
  0
VERTEX
  8
PLAN_1
  6
CONTINUOUS
 10
0.865606
 20
-3.719083
  0
VERTEX
  8
PLAN_1
  6
CONTINUOUS
 10
0.863669
 20
-3.711807
  0
VERTEX
  8
PLAN_1
  6
CONTINUOUS
 10
0.861728
 20
-3.705016
  0
VERTEX
  8
PLAN_1
  6
CONTINUOUS
 10
0.858819
 20
-3.698709
  0
VERTEX
  8
PLAN_1
  6
CONTINUOUS
 10
0.855421
 20
-3.692890
  0
VERTEX
  8
PLAN_1
  6
CONTINUOUS
 10
0.852028
 20
-3.688039
  0
VERTEX
  8
PLAN_1
  6
CONTINUOUS
 10
0.847661
 20
-3.683673
  0
VERTEX
  8
PLAN_1
  6
CONTINUOUS
 10
0.843295
 20
-3.679791
  0
VERTEX
  8
PLAN_1
  6
CONTINUOUS
 10
0.838445
 20
-3.676398
  0
VERTEX
  8
PLAN_1
  6
CONTINUOUS
 10
0.833110
 20
-3.673972
  0
VERTEX
  8
PLAN_1
  6
CONTINUOUS
 10
0.827287
 20
-3.672031
  0
VERTEX
  8
PLAN_1
  6
CONTINUOUS
 10
0.821469
 20
-3.670575
  0
VERTEX
  8
PLAN_1
  6
CONTINUOUS
 10
0.815161
 20
-3.669606
  0
VERTEX
  8
PLAN_1
  6
CONTINUOUS
 10
0.808370
 20
-3.669122
  0
VERTEX
  8
PLAN_1
  6
CONTINUOUS
 10
0.757921
 20
-3.669122
  0
VERTEX
  8
PLAN_1
  6
CONTINUOUS
 10
0.757921
 20
-3.822402
  0
SEQEND
  8
0
  0
POLYLINE
  8
PLAN_1
  6
CONTINUOUS
 66
     1
 40
0.003000
 41
0.003000
  0
VERTEX
  8
PLAN_1
  6
CONTINUOUS
 10
0.950012
 20
-3.731693
  0
VERTEX
  8
PLAN_1
  6
CONTINUOUS
 10
0.953406
 20
-3.729752
  0
VERTEX
  8
PLAN_1
  6
CONTINUOUS
 10
0.956803
 20
-3.727327
  0
VERTEX
  8
PLAN_1
  6
CONTINUOUS
 10
0.961165
 20
-3.725390
  0
VERTEX
  8
PLAN_1
  6
CONTINUOUS
 10
0.965531
 20
-3.723449
  0
VERTEX
  8
PLAN_1
  6
CONTINUOUS
 10
0.970382
 20
-3.721992
  0
VERTEX
  8
PLAN_1
  6
CONTINUOUS
 10
0.975720
 20
-3.720539
  0
VERTEX
  8
PLAN_1
  6
CONTINUOUS
 10
0.981539
 20
-3.720051
  0
VERTEX
  8
PLAN_1
  6
CONTINUOUS
 10
0.987846
 20
-3.719567
  0
VERTEX
  8
PLAN_1
  6
CONTINUOUS
 10
0.993665
 20
-3.720051
  0
VERTEX
  8
PLAN_1
  6
CONTINUOUS
 10
0.999488
 20
-3.720539
  0
VERTEX
  8
PLAN_1
  6
CONTINUOUS
 10
1.005307
 20
-3.721992
  0
VERTEX
  8
PLAN_1
  6
CONTINUOUS
 10
1.011130
 20
-3.723933
  0
VERTEX
  8
PLAN_1
  6
CONTINUOUS
 10
1.016465
 20
-3.725874
  0
VERTEX
  8
PLAN_1
  6
CONTINUOUS
 10
1.021799
 20
-3.728783
  0
VERTEX
  8
PLAN_1
  6
CONTINUOUS
 10
1.027138
 20
-3.732181
  0
VERTEX
  8
PLAN_1
  6
CONTINUOUS
 10
1.031504
 20
-3.736059
  0
VERTEX
  8
PLAN_1
  6
CONTINUOUS
 10
1.035866
 20
-3.739941
  0
VERTEX
  8
PLAN_1
  6
CONTINUOUS
 10
1.039748
 20
-3.744791
  0
VERTEX
  8
PLAN_1
  6
CONTINUOUS
 10
1.043146
 20
-3.749642
  0
VERTEX
  8
PLAN_1
  6
CONTINUOUS
 10
1.046539
 20
-3.755465
  0
VERTEX
  8
PLAN_1
  6
CONTINUOUS
 10
1.048480
 20
-3.761283
  0
VERTEX
  8
PLAN_1
  6
CONTINUOUS
 10
1.050421
 20
-3.768075
  0
VERTEX
  8
PLAN_1
  6
CONTINUOUS
 10
1.051390
 20
-3.774866
  0
VERTEX
  8
PLAN_1
  6
CONTINUOUS
 10
1.051874
 20
-3.782142
  0
VERTEX
  8
PLAN_1
  6
CONTINUOUS
 10
1.051874
 20
-3.786508
  0
VERTEX
  8
PLAN_1
  6
CONTINUOUS
 10
1.051390
 20
-3.791358
  0
VERTEX
  8
PLAN_1
  6
CONTINUOUS
 10
1.050421
 20
-3.796693
  0
VERTEX
  8
PLAN_1
  6
CONTINUOUS
 10
1.049449
 20
-3.802028
  0
VERTEX
  8
PLAN_1
  6
CONTINUOUS
 10
1.047508
 20
-3.807850
  0
VERTEX
  8
PLAN_1
  6
CONTINUOUS
 10
1.045571
 20
-3.813185
  0
VERTEX
  8
PLAN_1
  6
CONTINUOUS
 10
1.042657
 20
-3.819008
  0
VERTEX
  8
PLAN_1
  6
CONTINUOUS
 10
1.039264
 20
-3.824343
  0
VERTEX
  8
PLAN_1
  6
CONTINUOUS
 10
1.035382
 20
-3.829677
  0
VERTEX
  8
PLAN_1
  6
CONTINUOUS
 10
1.030531
 20
-3.834528
  0
VERTEX
  8
PLAN_1
  6
CONTINUOUS
 10
1.027622
 20
-3.836953
  0
VERTEX
  8
PLAN_1
  6
CONTINUOUS
 10
1.024713
 20
-3.839378
  0
VERTEX
  8
PLAN_1
  6
CONTINUOUS
 10
1.021315
 20
-3.841319
  0
VERTEX
  8
PLAN_1
  6
CONTINUOUS
 10
1.017921
 20
-3.843260
  0
VERTEX
  8
PLAN_1
  6
CONTINUOUS
 10
1.014039
 20
-3.844717
  0
VERTEX
  8
PLAN_1
  6
CONTINUOUS
 10
1.010157
 20
-3.846169
  0
VERTEX
  8
PLAN_1
  6
CONTINUOUS
 10
1.006280
 20
-3.847626
  0
VERTEX
  8
PLAN_1
  6
CONTINUOUS
 10
1.001913
 20
-3.848594
  0
VERTEX
  8
PLAN_1
  6
CONTINUOUS
 10
0.997063
 20
-3.849567
  0
VERTEX
  8
PLAN_1
  6
CONTINUOUS
 10
0.991724
 20
-3.850051
  0
VERTEX
  8
PLAN_1
  6
CONTINUOUS
 10
0.986874
 20
-3.850535
  0
VERTEX
  8
PLAN_1
  6
CONTINUOUS
 10
0.981055
 20
-3.850535
  0
VERTEX
  8
PLAN_1
  6
CONTINUOUS
 10
0.976205
 20
-3.850535
  0
VERTEX
  8
PLAN_1
  6
CONTINUOUS
 10
0.971354
 20
-3.850051
  0
VERTEX
  8
PLAN_1
  6
CONTINUOUS
 10
0.966016
 20
-3.849567
  0
VERTEX
  8
PLAN_1
  6
CONTINUOUS
 10
0.961165
 20
-3.848594
  0
VERTEX
  8
PLAN_1
  6
CONTINUOUS
 10
0.956315
 20
-3.847142
  0
VERTEX
  8
PLAN_1
  6
CONTINUOUS
 10
0.950980
 20
-3.845201
  0
VERTEX
  8
PLAN_1
  6
CONTINUOUS
 10
0.946614
 20
-3.842776
  0
VERTEX
  8
PLAN_1
  6
CONTINUOUS
 10
0.941764
 20
-3.840350
  0
VERTEX
  8
PLAN_1
  6
CONTINUOUS
 10
0.937398
 20
-3.836953
  0
VERTEX
  8
PLAN_1
  6
CONTINUOUS
 10
0.933520
 20
-3.833075
  0
VERTEX
  8
PLAN_1
  6
CONTINUOUS
 10
0.929638
 20
-3.828709
  0
VERTEX
  8
PLAN_1
  6
CONTINUOUS
 10
0.926240
 20
-3.823858
  0
VERTEX
  8
PLAN_1
  6
CONTINUOUS
 10
0.923331
 20
-3.818035
  0
VERTEX
  8
PLAN_1
  6
CONTINUOUS
 10
0.920906
 20
-3.811732
  0
VERTEX
  8
PLAN_1
  6
CONTINUOUS
 10
0.919453
 20
-3.804457
  0
VERTEX
  8
PLAN_1
  6
CONTINUOUS
 10
0.917996
 20
-3.796693
  0
VERTEX
  8
PLAN_1
  6
CONTINUOUS
 10
0.943220
 20
-3.796693
  0
VERTEX
  8
PLAN_1
  6
CONTINUOUS
 10
0.944189
 20
-3.801059
  0
VERTEX
  8
PLAN_1
  6
CONTINUOUS
 10
0.945161
 20
-3.804941
  0
VERTEX
  8
PLAN_1
  6
CONTINUOUS
 10
0.946130
 20
-3.808335
  0
VERTEX
  8
PLAN_1
  6
CONTINUOUS
 10
0.947587
 20
-3.811732
  0
VERTEX
  8
PLAN_1
  6
CONTINUOUS
 10
0.949524
 20
-3.814642
  0
VERTEX
  8
PLAN_1
  6
CONTINUOUS
 10
0.951949
 20
-3.817067
  0
VERTEX
  8
PLAN_1
  6
CONTINUOUS
 10
0.953890
 20
-3.819492
  0
VERTEX
  8
PLAN_1
  6
CONTINUOUS
 10
0.956803
 20
-3.821917
  0
VERTEX
  8
PLAN_1
  6
CONTINUOUS
 10
0.959713
 20
-3.823858
  0
VERTEX
  8
PLAN_1
  6
CONTINUOUS
 10
0.962622
 20
-3.825311
  0
VERTEX
  8
PLAN_1
  6
CONTINUOUS
 10
0.966016
 20
-3.826768
  0
VERTEX
  8
PLAN_1
  6
CONTINUOUS
 10
0.969413
 20
-3.827736
  0
VERTEX
  8
PLAN_1
  6
CONTINUOUS
 10
0.972807
 20
-3.828709
  0
VERTEX
  8
PLAN_1
  6
CONTINUOUS
 10
0.976689
 20
-3.829193
  0
VERTEX
  8
PLAN_1
  6
CONTINUOUS
 10
0.980571
 20
-3.829677
  0
VERTEX
  8
PLAN_1
  6
CONTINUOUS
 10
0.984937
 20
-3.829677
  0
VERTEX
  8
PLAN_1
  6
CONTINUOUS
 10
0.989299
 20
-3.829193
  0
VERTEX
  8
PLAN_1
  6
CONTINUOUS
 10
0.993665
 20
-3.828709
  0
VERTEX
  8
PLAN_1
  6
CONTINUOUS
 10
0.998031
 20
-3.827736
  0
VERTEX
  8
PLAN_1
  6
CONTINUOUS
 10
1.001913
 20
-3.826283
  0
VERTEX
  8
PLAN_1
  6
CONTINUOUS
 10
1.005307
 20
-3.824343
  0
VERTEX
  8
PLAN_1
  6
CONTINUOUS
 10
1.008705
 20
-3.821917
  0
VERTEX
  8
PLAN_1
  6
CONTINUOUS
 10
1.012098
 20
-3.819492
  0
VERTEX
  8
PLAN_1
  6
CONTINUOUS
 10
1.014524
 20
-3.816583
  0
VERTEX
  8
PLAN_1
  6
CONTINUOUS
 10
1.017437
 20
-3.813185
  0
VERTEX
  8
PLAN_1
  6
CONTINUOUS
 10
1.019374
 20
-3.809791
  0
VERTEX
  8
PLAN_1
  6
CONTINUOUS
 10
1.021315
 20
-3.805909
  0
VERTEX
  8
PLAN_1
  6
CONTINUOUS
 10
1.022772
 20
-3.802028
  0
VERTEX
  8
PLAN_1
  6
CONTINUOUS
 10
1.024224
 20
-3.798150
  0
VERTEX
  8
PLAN_1
  6
CONTINUOUS
 10
1.025197
 20
-3.793783
  0
VERTEX
  8
PLAN_1
  6
CONTINUOUS
 10
1.025681
 20
-3.789417
  0
VERTEX
  8
PLAN_1
  6
CONTINUOUS
 10
1.025681
 20
-3.785051
  0
VERTEX
  8
PLAN_1
  6
CONTINUOUS
 10
1.025681
 20
-3.779717
  0
VERTEX
  8
PLAN_1
  6
CONTINUOUS
 10
1.024713
 20
-3.774866
  0
VERTEX
  8
PLAN_1
  6
CONTINUOUS
 10
1.023740
 20
-3.770500
  0
VERTEX
  8
PLAN_1
  6
CONTINUOUS
 10
1.022287
 20
-3.766134
  0
VERTEX
  8
PLAN_1
  6
CONTINUOUS
 10
1.020831
 20
-3.762252
  0
VERTEX
  8
PLAN_1
  6
CONTINUOUS
 10
1.018406
 20
-3.758858
  0
VERTEX
  8
PLAN_1
  6
CONTINUOUS
 10
1.015980
 20
-3.755465
  0
VERTEX
  8
PLAN_1
  6
CONTINUOUS
 10
1.013071
 20
-3.752551
  0
VERTEX
  8
PLAN_1
  6
CONTINUOUS
 10
1.010157
 20
-3.750126
  0
VERTEX
  8
PLAN_1
  6
CONTINUOUS
 10
1.006764
 20
-3.748185
  0
VERTEX
  8
PLAN_1
  6
CONTINUOUS
 10
1.003366
 20
-3.746248
  0
VERTEX
  8
PLAN_1
  6
CONTINUOUS
 10
0.999488
 20
-3.744307
  0
VERTEX
  8
PLAN_1
  6
CONTINUOUS
 10
0.995606
 20
-3.743335
  0
VERTEX
  8
PLAN_1
  6
CONTINUOUS
 10
0.991240
 20
-3.742366
  0
VERTEX
  8
PLAN_1
  6
CONTINUOUS
 10
0.986874
 20
-3.741882
  0
VERTEX
  8
PLAN_1
  6
CONTINUOUS
 10
0.982512
 20
-3.741394
  0
VERTEX
  8
PLAN_1
  6
CONTINUOUS
 10
0.977173
 20
-3.741882
  0
VERTEX
  8
PLAN_1
  6
CONTINUOUS
 10
0.972323
 20
-3.742850
  0
VERTEX
  8
PLAN_1
  6
CONTINUOUS
 10
0.967472
 20
-3.744307
  0
VERTEX
  8
PLAN_1
  6
CONTINUOUS
 10
0.962622
 20
-3.746248
  0
VERTEX
  8
PLAN_1
  6
CONTINUOUS
 10
0.958256
 20
-3.749157
  0
VERTEX
  8
PLAN_1
  6
CONTINUOUS
 10
0.953890
 20
-3.752067
  0
VERTEX
  8
PLAN_1
  6
CONTINUOUS
 10
0.950012
 20
-3.755949
  0
VERTEX
  8
PLAN_1
  6
CONTINUOUS
 10
0.946614
 20
-3.760315
  0
VERTEX
  8
PLAN_1
  6
CONTINUOUS
 10
0.925272
 20
-3.759343
  0
VERTEX
  8
PLAN_1
  6
CONTINUOUS
 10
0.939823
 20
-3.654567
  0
VERTEX
  8
PLAN_1
  6
CONTINUOUS
 10
1.041205
 20
-3.654567
  0
VERTEX
  8
PLAN_1
  6
CONTINUOUS
 10
1.041205
 20
-3.678335
  0
VERTEX
  8
PLAN_1
  6
CONTINUOUS
 10
0.958256
 20
-3.678335
  0
VERTEX
  8
PLAN_1
  6
CONTINUOUS
 10
0.950012
 20
-3.731693
  0
SEQEND
  8
0
  0
POLYLINE
  8
PLAN_1
  6
CONTINUOUS
 66
     1
 40
0.003000
 41
0.003000
  0
VERTEX
  8
PLAN_1
  6
CONTINUOUS
 10
1.179933
 20
-3.798150
  0
VERTEX
  8
PLAN_1
  6
CONTINUOUS
 10
1.179933
 20
-3.845201
  0
VERTEX
  8
PLAN_1
  6
CONTINUOUS
 10
1.155681
 20
-3.845201
  0
VERTEX
  8
PLAN_1
  6
CONTINUOUS
 10
1.155681
 20
-3.798150
  0
VERTEX
  8
PLAN_1
  6
CONTINUOUS
 10
1.070307
 20
-3.798150
  0
VERTEX
  8
PLAN_1
  6
CONTINUOUS
 10
1.070307
 20
-3.773894
  0
VERTEX
  8
PLAN_1
  6
CONTINUOUS
 10
1.160047
 20
-3.650201
  0
VERTEX
  8
PLAN_1
  6
CONTINUOUS
 10
1.179933
 20
-3.650201
  0
VERTEX
  8
PLAN_1
  6
CONTINUOUS
 10
1.179933
 20
-3.776807
  0
VERTEX
  8
PLAN_1
  6
CONTINUOUS
 10
1.208551
 20
-3.776807
  0
VERTEX
  8
PLAN_1
  6
CONTINUOUS
 10
1.208551
 20
-3.798150
  0
VERTEX
  8
PLAN_1
  6
CONTINUOUS
 10
1.179933
 20
-3.798150
  0
SEQEND
  8
0
  0
SOLID
  8
PLAN_1
 10
1.093106
 20
-3.776807
 11
1.155681
 21
-3.776807
 12
1.155197
 22
-3.688524
 13
1.155681
 23
-3.688524
  0
POLYLINE
  8
PLAN_1
  6
CONTINUOUS
 66
     1
 40
0.003000
 41
0.003000
  0
VERTEX
  8
PLAN_1
  6
CONTINUOUS
 10
1.093106
 20
-3.776807
  0
VERTEX
  8
PLAN_1
  6
CONTINUOUS
 10
1.155681
 20
-3.776807
  0
VERTEX
  8
PLAN_1
  6
CONTINUOUS
 10
1.155681
 20
-3.688524
  0
VERTEX
  8
PLAN_1
  6
CONTINUOUS
 10
1.155197
 20
-3.688524
  0
VERTEX
  8
PLAN_1
  6
CONTINUOUS
 10
1.093106
 20
-3.776807
  0
SEQEND
  8
0
  0
SOLID
  8
PLAN_1
 10
1.217768
 20
-3.880126
 11
1.217768
 21
-3.866059
 12
1.372508
 22
-3.880126
 13
1.372508
 23
-3.866059
  0
POLYLINE
  8
PLAN_1
  6
CONTINUOUS
 66
     1
 40
0.003000
 41
0.003000
  0
VERTEX
  8
PLAN_1
  6
CONTINUOUS
 10
1.217768
 20
-3.880126
  0
VERTEX
  8
PLAN_1
  6
CONTINUOUS
 10
1.217768
 20
-3.866059
  0
VERTEX
  8
PLAN_1
  6
CONTINUOUS
 10
1.372508
 20
-3.866059
  0
VERTEX
  8
PLAN_1
  6
CONTINUOUS
 10
1.372508
 20
-3.880126
  0
VERTEX
  8
PLAN_1
  6
CONTINUOUS
 10
1.217768
 20
-3.880126
  0
SEQEND
  8
0
  0
POLYLINE
  8
PLAN_1
  6
CONTINUOUS
 66
     1
 40
0.003000
 41
0.003000
  0
VERTEX
  8
PLAN_1
  6
CONTINUOUS
 10
1.422953
 20
-3.845201
  0
VERTEX
  8
PLAN_1
  6
CONTINUOUS
 10
1.396276
 20
-3.845201
  0
VERTEX
  8
PLAN_1
  6
CONTINUOUS
 10
1.396276
 20
-3.646323
  0
VERTEX
  8
PLAN_1
  6
CONTINUOUS
 10
1.534035
 20
-3.646323
  0
VERTEX
  8
PLAN_1
  6
CONTINUOUS
 10
1.534035
 20
-3.670091
  0
VERTEX
  8
PLAN_1
  6
CONTINUOUS
 10
1.422953
 20
-3.670091
  0
VERTEX
  8
PLAN_1
  6
CONTINUOUS
 10
1.422953
 20
-3.731209
  0
VERTEX
  8
PLAN_1
  6
CONTINUOUS
 10
1.520937
 20
-3.731209
  0
VERTEX
  8
PLAN_1
  6
CONTINUOUS
 10
1.520937
 20
-3.754976
  0
VERTEX
  8
PLAN_1
  6
CONTINUOUS
 10
1.422953
 20
-3.754976
  0
VERTEX
  8
PLAN_1
  6
CONTINUOUS
 10
1.422953
 20
-3.845201
  0
SEQEND
  8
0
  0
SOLID
  8
PLAN_1
 10
1.553437
 20
-3.845201
 11
1.524335
 21
-3.845201
 12
1.553437
 22
-3.816094
 13
1.524335
 23
-3.816094
  0
POLYLINE
  8
PLAN_1
  6
CONTINUOUS
 66
     1
 40
0.003000
 41
0.003000
  0
VERTEX
  8
PLAN_1
  6
CONTINUOUS
 10
1.553437
 20
-3.845201
  0
VERTEX
  8
PLAN_1
  6
CONTINUOUS
 10
1.524335
 20
-3.845201
  0
VERTEX
  8
PLAN_1
  6
CONTINUOUS
 10
1.524335
 20
-3.816094
  0
VERTEX
  8
PLAN_1
  6
CONTINUOUS
 10
1.553437
 20
-3.816094
  0
VERTEX
  8
PLAN_1
  6
CONTINUOUS
 10
1.553437
 20
-3.845201
  0
SEQEND
  8
0
  0
POLYLINE
  8
PLAN_1
  6
CONTINUOUS
 66
     1
 40
0.003000
 41
0.003000
  0
VERTEX
  8
PLAN_1
  6
CONTINUOUS
 10
1.748437
 20
-3.845201
  0
VERTEX
  8
PLAN_1
  6
CONTINUOUS
 10
1.601461
 20
-3.845201
  0
VERTEX
  8
PLAN_1
  6
CONTINUOUS
 10
1.601461
 20
-3.646323
  0
VERTEX
  8
PLAN_1
  6
CONTINUOUS
 10
1.746496
 20
-3.646323
  0
VERTEX
  8
PLAN_1
  6
CONTINUOUS
 10
1.746496
 20
-3.670091
  0
VERTEX
  8
PLAN_1
  6
CONTINUOUS
 10
1.628138
 20
-3.670091
  0
VERTEX
  8
PLAN_1
  6
CONTINUOUS
 10
1.628138
 20
-3.731209
  0
VERTEX
  8
PLAN_1
  6
CONTINUOUS
 10
1.737280
 20
-3.731209
  0
VERTEX
  8
PLAN_1
  6
CONTINUOUS
 10
1.737280
 20
-3.754976
  0
VERTEX
  8
PLAN_1
  6
CONTINUOUS
 10
1.628138
 20
-3.754976
  0
VERTEX
  8
PLAN_1
  6
CONTINUOUS
 10
1.628138
 20
-3.821433
  0
VERTEX
  8
PLAN_1
  6
CONTINUOUS
 10
1.748437
 20
-3.821433
  0
VERTEX
  8
PLAN_1
  6
CONTINUOUS
 10
1.748437
 20
-3.845201
  0
SEQEND
  8
0
  0
POLYLINE
  8
PLAN_1
  6
CONTINUOUS
 66
     1
 40
0.003000
 41
0.003000
  0
VERTEX
  8
PLAN_1
  6
CONTINUOUS
 10
1.813437
 20
-3.845201
  0
VERTEX
  8
PLAN_1
  6
CONTINUOUS
 10
1.786756
 20
-3.845201
  0
VERTEX
  8
PLAN_1
  6
CONTINUOUS
 10
1.786756
 20
-3.646323
  0
VERTEX
  8
PLAN_1
  6
CONTINUOUS
 10
1.876008
 20
-3.646323
  0
VERTEX
  8
PLAN_1
  6
CONTINUOUS
 10
1.882799
 20
-3.646323
  0
VERTEX
  8
PLAN_1
  6
CONTINUOUS
 10
1.889591
 20
-3.647291
  0
VERTEX
  8
PLAN_1
  6
CONTINUOUS
 10
1.895413
 20
-3.648748
  0
VERTEX
  8
PLAN_1
  6
CONTINUOUS
 10
1.901232
 20
-3.650201
  0
VERTEX
  8
PLAN_1
  6
CONTINUOUS
 10
1.906083
 20
-3.652626
  0
VERTEX
  8
PLAN_1
  6
CONTINUOUS
 10
1.910933
 20
-3.655539
  0
VERTEX
  8
PLAN_1
  6
CONTINUOUS
 10
1.915783
 20
-3.658449
  0
VERTEX
  8
PLAN_1
  6
CONTINUOUS
 10
1.919665
 20
-3.662331
  0
VERTEX
  8
PLAN_1
  6
CONTINUOUS
 10
1.923063
 20
-3.666209
  0
VERTEX
  8
PLAN_1
  6
CONTINUOUS
 10
1.926457
 20
-3.670575
  0
VERTEX
  8
PLAN_1
  6
CONTINUOUS
 10
1.928882
 20
-3.674941
  0
VERTEX
  8
PLAN_1
  6
CONTINUOUS
 10
1.931307
 20
-3.679791
  0
VERTEX
  8
PLAN_1
  6
CONTINUOUS
 10
1.933248
 20
-3.685126
  0
VERTEX
  8
PLAN_1
  6
CONTINUOUS
 10
1.934217
 20
-3.690465
  0
VERTEX
  8
PLAN_1
  6
CONTINUOUS
 10
1.935189
 20
-3.696283
  0
VERTEX
  8
PLAN_1
  6
CONTINUOUS
 10
1.935189
 20
-3.702106
  0
VERTEX
  8
PLAN_1
  6
CONTINUOUS
 10
1.935189
 20
-3.707441
  0
VERTEX
  8
PLAN_1
  6
CONTINUOUS
 10
1.934705
 20
-3.712776
  0
VERTEX
  8
PLAN_1
  6
CONTINUOUS
 10
1.933732
 20
-3.718114
  0
VERTEX
  8
PLAN_1
  6
CONTINUOUS
 10
1.932280
 20
-3.722965
  0
VERTEX
  8
PLAN_1
  6
CONTINUOUS
 10
1.930339
 20
-3.728299
  0
VERTEX
  8
PLAN_1
  6
CONTINUOUS
 10
1.927913
 20
-3.733150
  0
VERTEX
  8
PLAN_1
  6
CONTINUOUS
 10
1.925488
 20
-3.738000
  0
VERTEX
  8
PLAN_1
  6
CONTINUOUS
 10
1.922091
 20
-3.742366
  0
VERTEX
  8
PLAN_1
  6
CONTINUOUS
 10
1.918213
 20
-3.746248
  0
VERTEX
  8
PLAN_1
  6
CONTINUOUS
 10
1.913846
 20
-3.750126
  0
VERTEX
  8
PLAN_1
  6
CONTINUOUS
 10
1.908996
 20
-3.753035
  0
VERTEX
  8
PLAN_1
  6
CONTINUOUS
 10
1.903657
 20
-3.755949
  0
VERTEX
  8
PLAN_1
  6
CONTINUOUS
 10
1.897839
 20
-3.758374
  0
VERTEX
  8
PLAN_1
  6
CONTINUOUS
 10
1.891047
 20
-3.759827
  0
VERTEX
  8
PLAN_1
  6
CONTINUOUS
 10
1.883772
 20
-3.760799
  0
VERTEX
  8
PLAN_1
  6
CONTINUOUS
 10
1.876008
 20
-3.761283
  0
VERTEX
  8
PLAN_1
  6
CONTINUOUS
 10
1.813437
 20
-3.761283
  0
VERTEX
  8
PLAN_1
  6
CONTINUOUS
 10
1.813437
 20
-3.845201
  0
SEQEND
  8
0
  0
POLYLINE
  8
PLAN_1
  6
CONTINUOUS
 66
     1
 40
0.003000
 41
0.003000
  0
VERTEX
  8
PLAN_1
  6
CONTINUOUS
 10
1.813437
 20
-3.738484
  0
VERTEX
  8
PLAN_1
  6
CONTINUOUS
 10
1.867280
 20
-3.738484
  0
VERTEX
  8
PLAN_1
  6
CONTINUOUS
 10
1.871646
 20
-3.738000
  0
VERTEX
  8
PLAN_1
  6
CONTINUOUS
 10
1.875524
 20
-3.738000
  0
VERTEX
  8
PLAN_1
  6
CONTINUOUS
 10
1.879890
 20
-3.737516
  0
VERTEX
  8
PLAN_1
  6
CONTINUOUS
 10
1.883772
 20
-3.736543
  0
VERTEX
  8
PLAN_1
  6
CONTINUOUS
 10
1.887165
 20
-3.735575
  0
VERTEX
  8
PLAN_1
  6
CONTINUOUS
 10
1.890563
 20
-3.734118
  0
VERTEX
  8
PLAN_1
  6
CONTINUOUS
 10
1.893472
 20
-3.732665
  0
VERTEX
  8
PLAN_1
  6
CONTINUOUS
 10
1.896382
 20
-3.730724
  0
VERTEX
  8
PLAN_1
  6
CONTINUOUS
 10
1.898807
 20
-3.728299
  0
VERTEX
  8
PLAN_1
  6
CONTINUOUS
 10
1.901232
 20
-3.725874
  0
VERTEX
  8
PLAN_1
  6
CONTINUOUS
 10
1.903173
 20
-3.722965
  0
VERTEX
  8
PLAN_1
  6
CONTINUOUS
 10
1.904630
 20
-3.719567
  0
VERTEX
  8
PLAN_1
  6
CONTINUOUS
 10
1.906083
 20
-3.715685
  0
VERTEX
  8
PLAN_1
  6
CONTINUOUS
 10
1.907055
 20
-3.711807
  0
VERTEX
  8
PLAN_1
  6
CONTINUOUS
 10
1.907539
 20
-3.707441
  0
VERTEX
  8
PLAN_1
  6
CONTINUOUS
 10
1.907539
 20
-3.702591
  0
VERTEX
  8
PLAN_1
  6
CONTINUOUS
 10
1.907539
 20
-3.697740
  0
VERTEX
  8
PLAN_1
  6
CONTINUOUS
 10
1.906571
 20
-3.693858
  0
VERTEX
  8
PLAN_1
  6
CONTINUOUS
 10
1.905598
 20
-3.689976
  0
VERTEX
  8
PLAN_1
  6
CONTINUOUS
 10
1.904630
 20
-3.686583
  0
VERTEX
  8
PLAN_1
  6
CONTINUOUS
 10
1.902689
 20
-3.683673
  0
VERTEX
  8
PLAN_1
  6
CONTINUOUS
 10
1.900748
 20
-3.680764
  0
VERTEX
  8
PLAN_1
  6
CONTINUOUS
 10
1.898807
 20
-3.678335
  0
VERTEX
  8
PLAN_1
  6
CONTINUOUS
 10
1.896382
 20
-3.676398
  0
VERTEX
  8
PLAN_1
  6
CONTINUOUS
 10
1.893472
 20
-3.674457
  0
VERTEX
  8
PLAN_1
  6
CONTINUOUS
 10
1.890563
 20
-3.673000
  0
VERTEX
  8
PLAN_1
  6
CONTINUOUS
 10
1.887165
 20
-3.672031
  0
VERTEX
  8
PLAN_1
  6
CONTINUOUS
 10
1.883772
 20
-3.671059
  0
VERTEX
  8
PLAN_1
  6
CONTINUOUS
 10
1.876008
 20
-3.669606
  0
VERTEX
  8
PLAN_1
  6
CONTINUOUS
 10
1.868248
 20
-3.669122
  0
VERTEX
  8
PLAN_1
  6
CONTINUOUS
 10
1.813437
 20
-3.669122
  0
VERTEX
  8
PLAN_1
  6
CONTINUOUS
 10
1.813437
 20
-3.738484
  0
SEQEND
  8
0
  0
POLYLINE
  8
PLAN_1
  6
CONTINUOUS
 66
     1
 40
0.003000
 41
0.003000
  0
VERTEX
  8
PLAN_1
  6
CONTINUOUS
 10
2.088957
 20
-3.704531
  0
VERTEX
  8
PLAN_1
  6
CONTINUOUS
 10
2.088469
 20
-3.698709
  0
VERTEX
  8
PLAN_1
  6
CONTINUOUS
 10
2.087500
 20
-3.693858
  0
VERTEX
  8
PLAN_1
  6
CONTINUOUS
 10
2.086043
 20
-3.689492
  0
VERTEX
  8
PLAN_1
  6
CONTINUOUS
 10
2.084106
 20
-3.685126
  0
VERTEX
  8
PLAN_1
  6
CONTINUOUS
 10
2.081681
 20
-3.681248
  0
VERTEX
  8
PLAN_1
  6
CONTINUOUS
 10
2.078768
 20
-3.677850
  0
VERTEX
  8
PLAN_1
  6
CONTINUOUS
 10
2.075858
 20
-3.674941
  0
VERTEX
  8
PLAN_1
  6
CONTINUOUS
 10
2.072465
 20
-3.672516
  0
VERTEX
  8
PLAN_1
  6
CONTINUOUS
 10
2.068583
 20
-3.670575
  0
VERTEX
  8
PLAN_1
  6
CONTINUOUS
 10
2.064701
 20
-3.668634
  0
VERTEX
  8
PLAN_1
  6
CONTINUOUS
 10
2.060823
 20
-3.667181
  0
VERTEX
  8
PLAN_1
  6
CONTINUOUS
 10
2.056941
 20
-3.665724
  0
VERTEX
  8
PLAN_1
  6
CONTINUOUS
 10
2.052575
 20
-3.665240
  0
VERTEX
  8
PLAN_1
  6
CONTINUOUS
 10
2.048209
 20
-3.664268
  0
VERTEX
  8
PLAN_1
  6
CONTINUOUS
 10
2.043843
 20
-3.664268
  0
VERTEX
  8
PLAN_1
  6
CONTINUOUS
 10
2.039965
 20
-3.663783
  0
VERTEX
  8
PLAN_1
  6
CONTINUOUS
 10
2.033173
 20
-3.664268
  0
VERTEX
  8
PLAN_1
  6
CONTINUOUS
 10
2.025409
 20
-3.665240
  0
VERTEX
  8
PLAN_1
  6
CONTINUOUS
 10
2.021531
 20
-3.665724
  0
VERTEX
  8
PLAN_1
  6
CONTINUOUS
 10
2.018134
 20
-3.667181
  0
VERTEX
  8
PLAN_1
  6
CONTINUOUS
 10
2.014256
 20
-3.668150
  0
VERTEX
  8
PLAN_1
  6
CONTINUOUS
 10
2.010858
 20
-3.670091
  0
VERTEX
  8
PLAN_1
  6
CONTINUOUS
 10
2.007465
 20
-3.672031
  0
VERTEX
  8
PLAN_1
  6
CONTINUOUS
 10
2.004067
 20
-3.674457
  0
VERTEX
  8
PLAN_1
  6
CONTINUOUS
 10
2.001642
 20
-3.677366
  0
VERTEX
  8
PLAN_1
  6
CONTINUOUS
 10
1.999217
 20
-3.680764
  0
VERTEX
  8
PLAN_1
  6
CONTINUOUS
 10
1.996791
 20
-3.684642
  0
VERTEX
  8
PLAN_1
  6
CONTINUOUS
 10
1.995339
 20
-3.688524
  0
VERTEX
  8
PLAN_1
  6
CONTINUOUS
 10
1.994366
 20
-3.693374
  0
VERTEX
  8
PLAN_1
  6
CONTINUOUS
 10
1.994366
 20
-3.698709
  0
VERTEX
  8
PLAN_1
  6
CONTINUOUS
 10
1.994366
 20
-3.702106
  0
VERTEX
  8
PLAN_1
  6
CONTINUOUS
 10
1.994850
 20
-3.704531
  0
VERTEX
  8
PLAN_1
  6
CONTINUOUS
 10
1.995339
 20
-3.707441
  0
VERTEX
  8
PLAN_1
  6
CONTINUOUS
 10
1.996307
 20
-3.709382
  0
VERTEX
  8
PLAN_1
  6
CONTINUOUS
 10
1.997276
 20
-3.711807
  0
VERTEX
  8
PLAN_1
  6
CONTINUOUS
 10
1.998732
 20
-3.713748
  0
VERTEX
  8
PLAN_1
  6
CONTINUOUS
 10
2.000189
 20
-3.715201
  0
VERTEX
  8
PLAN_1
  6
CONTINUOUS
 10
2.001642
 20
-3.716657
  0
VERTEX
  8
PLAN_1
  6
CONTINUOUS
 10
2.005039
 20
-3.719567
  0
VERTEX
  8
PLAN_1
  6
CONTINUOUS
 10
2.009406
 20
-3.721508
  0
VERTEX
  8
PLAN_1
  6
CONTINUOUS
 10
2.013283
 20
-3.722965
  0
VERTEX
  8
PLAN_1
  6
CONTINUOUS
 10
2.017650
 20
-3.723933
  0
VERTEX
  8
PLAN_1
  6
CONTINUOUS
 10
2.074890
 20
-3.737031
  0
VERTEX
  8
PLAN_1
  6
CONTINUOUS
 10
2.079740
 20
-3.738484
  0
VERTEX
  8
PLAN_1
  6
CONTINUOUS
 10
2.084106
 20
-3.739941
  0
VERTEX
  8
PLAN_1
  6
CONTINUOUS
 10
2.088469
 20
-3.741882
  0
VERTEX
  8
PLAN_1
  6
CONTINUOUS
 10
2.092835
 20
-3.743823
  0
VERTEX
  8
PLAN_1
  6
CONTINUOUS
 10
2.096717
 20
-3.745760
  0
VERTEX
  8
PLAN_1
  6
CONTINUOUS
 10
2.100598
 20
-3.748185
  0
VERTEX
  8
PLAN_1
  6
CONTINUOUS
 10
2.103992
 20
-3.751098
  0
VERTEX
  8
PLAN_1
  6
CONTINUOUS
 10
2.106902
 20
-3.754492
  0
VERTEX
  8
PLAN_1
  6
CONTINUOUS
 10
2.109815
 20
-3.757402
  0
VERTEX
  8
PLAN_1
  6
CONTINUOUS
 10
2.112724
 20
-3.761283
  0
VERTEX
  8
PLAN_1
  6
CONTINUOUS
 10
2.114665
 20
-3.765165
  0
VERTEX
  8
PLAN_1
  6
CONTINUOUS
 10
2.116606
 20
-3.769531
  0
VERTEX
  8
PLAN_1
  6
CONTINUOUS
 10
2.118059
 20
-3.774382
  0
VERTEX
  8
PLAN_1
  6
CONTINUOUS
 10
2.119031
 20
-3.779232
  0
VERTEX
  8
PLAN_1
  6
CONTINUOUS
 10
2.120000
 20
-3.784567
  0
VERTEX
  8
PLAN_1
  6
CONTINUOUS
 10
2.120000
 20
-3.790386
  0
VERTEX
  8
PLAN_1
  6
CONTINUOUS
 10
2.120000
 20
-3.794752
  0
VERTEX
  8
PLAN_1
  6
CONTINUOUS
 10
2.119516
 20
-3.799118
  0
VERTEX
  8
PLAN_1
  6
CONTINUOUS
 10
2.119031
 20
-3.803000
  0
VERTEX
  8
PLAN_1
  6
CONTINUOUS
 10
2.118059
 20
-3.806394
  0
VERTEX
  8
PLAN_1
  6
CONTINUOUS
 10
2.117091
 20
-3.810276
  0
VERTEX
  8
PLAN_1
  6
CONTINUOUS
 10
2.115634
 20
-3.813669
  0
VERTEX
  8
PLAN_1
  6
CONTINUOUS
 10
2.114181
 20
-3.816583
  0
VERTEX
  8
PLAN_1
  6
CONTINUOUS
 10
2.112724
 20
-3.819976
  0
VERTEX
  8
PLAN_1
  6
CONTINUOUS
 10
2.108843
 20
-3.825311
  0
VERTEX
  8
PLAN_1
  6
CONTINUOUS
 10
2.104476
 20
-3.830165
  0
VERTEX
  8
PLAN_1
  6
CONTINUOUS
 10
2.099142
 20
-3.834528
  0
VERTEX
  8
PLAN_1
  6
CONTINUOUS
 10
2.093807
 20
-3.838409
  0
VERTEX
  8
PLAN_1
  6
CONTINUOUS
 10
2.087984
 20
-3.841319
  0
VERTEX
  8
PLAN_1
  6
CONTINUOUS
 10
2.081681
 20
-3.844232
  0
VERTEX
  8
PLAN_1
  6
CONTINUOUS
 10
2.075374
 20
-3.846169
  0
VERTEX
  8
PLAN_1
  6
CONTINUOUS
 10
2.068583
 20
-3.848110
  0
VERTEX
  8
PLAN_1
  6
CONTINUOUS
 10
2.061791
 20
-3.849083
  0
VERTEX
  8
PLAN_1
  6
CONTINUOUS
 10
2.055000
 20
-3.850051
  0
VERTEX
  8
PLAN_1
  6
CONTINUOUS
 10
2.048693
 20
-3.850535
  0
VERTEX
  8
PLAN_1
  6
CONTINUOUS
 10
2.041906
 20
-3.850535
  0
VERTEX
  8
PLAN_1
  6
CONTINUOUS
 10
2.035114
 20
-3.850535
  0
VERTEX
  8
PLAN_1
  6
CONTINUOUS
 10
2.029291
 20
-3.850051
  0
VERTEX
  8
PLAN_1
  6
CONTINUOUS
 10
2.023472
 20
-3.849567
  0
VERTEX
  8
PLAN_1
  6
CONTINUOUS
 10
2.018134
 20
-3.849083
  0
VERTEX
  8
PLAN_1
  6
CONTINUOUS
 10
2.008917
 20
-3.846657
  0
VERTEX
  8
PLAN_1
  6
CONTINUOUS
 10
2.001157
 20
-3.844232
  0
VERTEX
  8
PLAN_1
  6
CONTINUOUS
 10
1.994850
 20
-3.841319
  0
VERTEX
  8
PLAN_1
  6
CONTINUOUS
 10
1.989516
 20
-3.837925
  0
VERTEX
  8
PLAN_1
  6
CONTINUOUS
 10
1.985634
 20
-3.834528
  0
VERTEX
  8
PLAN_1
  6
CONTINUOUS
 10
1.981756
 20
-3.831618
  0
VERTEX
  8
PLAN_1
  6
CONTINUOUS
 10
1.975933
 20
-3.825799
  0
VERTEX
  8
PLAN_1
  6
CONTINUOUS
 10
1.971567
 20
-3.819976
  0
VERTEX
  8
PLAN_1
  6
CONTINUOUS
 10
1.967689
 20
-3.813669
  0
VERTEX
  8
PLAN_1
  6
CONTINUOUS
 10
1.965264
 20
-3.807366
  0
VERTEX
  8
PLAN_1
  6
CONTINUOUS
 10
1.963323
 20
-3.801059
  0
VERTEX
  8
PLAN_1
  6
CONTINUOUS
 10
1.962350
 20
-3.794752
  0
VERTEX
  8
PLAN_1
  6
CONTINUOUS
 10
1.961866
 20
-3.787961
  0
VERTEX
  8
PLAN_1
  6
CONTINUOUS
 10
1.961382
 20
-3.781173
  0
VERTEX
  8
PLAN_1
  6
CONTINUOUS
 10
1.986606
 20
-3.781173
  0
VERTEX
  8
PLAN_1
  6
CONTINUOUS
 10
1.987091
 20
-3.787476
  0
VERTEX
  8
PLAN_1
  6
CONTINUOUS
 10
1.988059
 20
-3.793299
  0
VERTEX
  8
PLAN_1
  6
CONTINUOUS
 10
1.989516
 20
-3.798634
  0
VERTEX
  8
PLAN_1
  6
CONTINUOUS
 10
1.991941
 20
-3.803484
  0
VERTEX
  8
PLAN_1
  6
CONTINUOUS
 10
1.994366
 20
-3.807850
  0
VERTEX
  8
PLAN_1
  6
CONTINUOUS
 10
1.997276
 20
-3.811732
  0
VERTEX
  8
PLAN_1
  6
CONTINUOUS
 10
2.000673
 20
-3.815126
  0
VERTEX
  8
PLAN_1
  6
CONTINUOUS
 10
2.004555
 20
-3.818035
  0
VERTEX
  8
PLAN_1
  6
CONTINUOUS
 10
2.008917
 20
-3.820461
  0
VERTEX
  8
PLAN_1
  6
CONTINUOUS
 10
2.013283
 20
-3.822402
  0
VERTEX
  8
PLAN_1
  6
CONTINUOUS
 10
2.017650
 20
-3.824343
  0
VERTEX
  8
PLAN_1
  6
CONTINUOUS
 10
2.022500
 20
-3.825311
  0
VERTEX
  8
PLAN_1
  6
CONTINUOUS
 10
2.027350
 20
-3.826283
  0
VERTEX
  8
PLAN_1
  6
CONTINUOUS
 10
2.032201
 20
-3.827252
  0
VERTEX
  8
PLAN_1
  6
CONTINUOUS
 10
2.037051
 20
-3.827736
  0
VERTEX
  8
PLAN_1
  6
CONTINUOUS
 10
2.041906
 20
-3.827736
  0
VERTEX
  8
PLAN_1
  6
CONTINUOUS
 10
2.049665
 20
-3.827252
  0
VERTEX
  8
PLAN_1
  6
CONTINUOUS
 10
2.057909
 20
-3.826283
  0
VERTEX
  8
PLAN_1
  6
CONTINUOUS
 10
2.062276
 20
-3.825799
  0
VERTEX
  8
PLAN_1
  6
CONTINUOUS
 10
2.066642
 20
-3.824827
  0
VERTEX
  8
PLAN_1
  6
CONTINUOUS
 10
2.071008
 20
-3.823374
  0
VERTEX
  8
PLAN_1
  6
CONTINUOUS
 10
2.074890
 20
-3.821433
  0
VERTEX
  8
PLAN_1
  6
CONTINUOUS
 10
2.078768
 20
-3.819492
  0
VERTEX
  8
PLAN_1
  6
CONTINUOUS
 10
2.082650
 20
-3.817067
  0
VERTEX
  8
PLAN_1
  6
CONTINUOUS
 10
2.085559
 20
-3.814642
  0
VERTEX
  8
PLAN_1
  6
CONTINUOUS
 10
2.088469
 20
-3.811244
  0
VERTEX
  8
PLAN_1
  6
CONTINUOUS
 10
2.090898
 20
-3.807850
  0
VERTEX
  8
PLAN_1
  6
CONTINUOUS
 10
2.092350
 20
-3.803969
  0
VERTEX
  8
PLAN_1
  6
CONTINUOUS
 10
2.093323
 20
-3.799118
  0
VERTEX
  8
PLAN_1
  6
CONTINUOUS
 10
2.093807
 20
-3.794268
  0
VERTEX
  8
PLAN_1
  6
CONTINUOUS
 10
2.093807
 20
-3.790386
  0
VERTEX
  8
PLAN_1
  6
CONTINUOUS
 10
2.093323
 20
-3.786992
  0
VERTEX
  8
PLAN_1
  6
CONTINUOUS
 10
2.092835
 20
-3.783598
  0
VERTEX
  8
PLAN_1
  6
CONTINUOUS
 10
2.091866
 20
-3.780685
  0
VERTEX
  8
PLAN_1
  6
CONTINUOUS
 10
2.090409
 20
-3.778260
  0
VERTEX
  8
PLAN_1
  6
CONTINUOUS
 10
2.088957
 20
-3.775835
  0
VERTEX
  8
PLAN_1
  6
CONTINUOUS
 10
2.087016
 20
-3.773409
  0
VERTEX
  8
PLAN_1
  6
CONTINUOUS
 10
2.085075
 20
-3.771469
  0
VERTEX
  8
PLAN_1
  6
CONTINUOUS
 10
2.082165
 20
-3.769531
  0
VERTEX
  8
PLAN_1
  6
CONTINUOUS
 10
2.079256
 20
-3.768075
  0
VERTEX
  8
PLAN_1
  6
CONTINUOUS
 10
2.075858
 20
-3.766134
  0
VERTEX
  8
PLAN_1
  6
CONTINUOUS
 10
2.071976
 20
-3.764677
  0
VERTEX
  8
PLAN_1
  6
CONTINUOUS
 10
2.062760
 20
-3.761768
  0
VERTEX
  8
PLAN_1
  6
CONTINUOUS
 10
2.051606
 20
-3.758858
  0
VERTEX
  8
PLAN_1
  6
CONTINUOUS
 10
2.010858
 20
-3.749642
  0
VERTEX
  8
PLAN_1
  6
CONTINUOUS
 10
2.005039
 20
-3.747701
  0
VERTEX
  8
PLAN_1
  6
CONTINUOUS
 10
1.998732
 20
-3.745760
  0
VERTEX
  8
PLAN_1
  6
CONTINUOUS
 10
1.994850
 20
-3.744307
  0
VERTEX
  8
PLAN_1
  6
CONTINUOUS
 10
1.991457
 20
-3.742366
  0
VERTEX
  8
PLAN_1
  6
CONTINUOUS
 10
1.988059
 20
-3.740425
  0
VERTEX
  8
PLAN_1
  6
CONTINUOUS
 10
1.984665
 20
-3.738000
  0
VERTEX
  8
PLAN_1
  6
CONTINUOUS
 10
1.981272
 20
-3.735091
  0
VERTEX
  8
PLAN_1
  6
CONTINUOUS
 10
1.978358
 20
-3.731693
  0
VERTEX
  8
PLAN_1
  6
CONTINUOUS
 10
1.975449
 20
-3.728299
  0
VERTEX
  8
PLAN_1
  6
CONTINUOUS
 10
1.973024
 20
-3.723933
  0
VERTEX
  8
PLAN_1
  6
CONTINUOUS
 10
1.971083
 20
-3.719567
  0
VERTEX
  8
PLAN_1
  6
CONTINUOUS
 10
1.969630
 20
-3.714232
  0
VERTEX
  8
PLAN_1
  6
CONTINUOUS
 10
1.968657
 20
-3.708898
  0
VERTEX
  8
PLAN_1
  6
CONTINUOUS
 10
1.968173
 20
-3.702591
  0
VERTEX
  8
PLAN_1
  6
CONTINUOUS
 10
1.968657
 20
-3.696768
  0
VERTEX
  8
PLAN_1
  6
CONTINUOUS
 10
1.969142
 20
-3.690949
  0
VERTEX
  8
PLAN_1
  6
CONTINUOUS
 10
1.970598
 20
-3.685126
  0
VERTEX
  8
PLAN_1
  6
CONTINUOUS
 10
1.972055
 20
-3.679791
  0
VERTEX
  8
PLAN_1
  6
CONTINUOUS
 10
1.974480
 20
-3.674457
  0
VERTEX
  8
PLAN_1
  6
CONTINUOUS
 10
1.976906
 20
-3.669122
  0
VERTEX
  8
PLAN_1
  6
CONTINUOUS
 10
1.980299
 20
-3.664756
  0
VERTEX
  8
PLAN_1
  6
CONTINUOUS
 10
1.984181
 20
-3.659906
  0
VERTEX
  8
PLAN_1
  6
CONTINUOUS
 10
1.989031
 20
-3.656024
  0
VERTEX
  8
PLAN_1
  6
CONTINUOUS
 10
1.993882
 20
-3.652142
  0
VERTEX
  8
PLAN_1
  6
CONTINUOUS
 10
1.999217
 20
-3.648748
  0
VERTEX
  8
PLAN_1
  6
CONTINUOUS
 10
2.005524
 20
-3.646323
  0
VERTEX
  8
PLAN_1
  6
CONTINUOUS
 10
2.012315
 20
-3.643898
  0
VERTEX
  8
PLAN_1
  6
CONTINUOUS
 10
2.020075
 20
-3.642441
  0
VERTEX
  8
PLAN_1
  6
CONTINUOUS
 10
2.027839
 20
-3.641472
  0
VERTEX
  8
PLAN_1
  6
CONTINUOUS
 10
2.036567
 20
-3.640984
  0
VERTEX
  8
PLAN_1
  6
CONTINUOUS
 10
2.042874
 20
-3.640984
  0
VERTEX
  8
PLAN_1
  6
CONTINUOUS
 10
2.049181
 20
-3.641472
  0
VERTEX
  8
PLAN_1
  6
CONTINUOUS
 10
2.054516
 20
-3.641957
  0
VERTEX
  8
PLAN_1
  6
CONTINUOUS
 10
2.059850
 20
-3.642925
  0
VERTEX
  8
PLAN_1
  6
CONTINUOUS
 10
2.065189
 20
-3.643898
  0
VERTEX
  8
PLAN_1
  6
CONTINUOUS
 10
2.069551
 20
-3.644866
  0
VERTEX
  8
PLAN_1
  6
CONTINUOUS
 10
2.073917
 20
-3.646323
  0
VERTEX
  8
PLAN_1
  6
CONTINUOUS
 10
2.078283
 20
-3.647776
  0
VERTEX
  8
PLAN_1
  6
CONTINUOUS
 10
2.085559
 20
-3.651173
  0
VERTEX
  8
PLAN_1
  6
CONTINUOUS
 10
2.091866
 20
-3.655051
  0
VERTEX
  8
PLAN_1
  6
CONTINUOUS
 10
2.096717
 20
-3.659906
  0
VERTEX
  8
PLAN_1
  6
CONTINUOUS
 10
2.101083
 20
-3.664268
  0
VERTEX
  8
PLAN_1
  6
CONTINUOUS
 10
2.104965
 20
-3.669606
  0
VERTEX
  8
PLAN_1
  6
CONTINUOUS
 10
2.107874
 20
-3.674941
  0
VERTEX
  8
PLAN_1
  6
CONTINUOUS
 10
2.109815
 20
-3.679791
  0
VERTEX
  8
PLAN_1
  6
CONTINUOUS
 10
2.111752
 20
-3.685126
  0
VERTEX
  8
PLAN_1
  6
CONTINUOUS
 10
2.112724
 20
-3.690465
  0
VERTEX
  8
PLAN_1
  6
CONTINUOUS
 10
2.113693
 20
-3.695315
  0
VERTEX
  8
PLAN_1
  6
CONTINUOUS
 10
2.114181
 20
-3.700165
  0
VERTEX
  8
PLAN_1
  6
CONTINUOUS
 10
2.114665
 20
-3.704531
  0
VERTEX
  8
PLAN_1
  6
CONTINUOUS
 10
2.088957
 20
-3.704531
  0
SEQEND
  8
0
  0
POLYLINE
  8
PLAN_1
  6
CONTINUOUS
 66
     1
 40
0.006787
 41
0.006787
  0
VERTEX
  8
PLAN_1
  6
CONTINUOUS
 10
-1.687319
 20
1.285390
  0
VERTEX
  8
PLAN_1
  6
CONTINUOUS
 10
-1.751831
 20
1.285390
  0
VERTEX
  8
PLAN_1
  6
CONTINUOUS
 10
-1.751831
 20
1.316433
  0
VERTEX
  8
PLAN_1
  6
CONTINUOUS
 10
-1.849331
 20
1.316433
  0
VERTEX
  8
PLAN_1
  6
CONTINUOUS
 10
-1.849331
 20
1.256283
  0
VERTEX
  8
PLAN_1
  6
CONTINUOUS
 10
-1.587394
 20
1.256283
  0
VERTEX
  8
PLAN_1
  6
CONTINUOUS
 10
-1.587394
 20
1.316433
  0
VERTEX
  8
PLAN_1
  6
CONTINUOUS
 10
-1.687319
 20
1.316433
  0
VERTEX
  8
PLAN_1
  6
CONTINUOUS
 10
-1.687319
 20
1.285390
  0
SEQEND
  8
0
  0
POLYLINE
  8
PLAN_1
  6
CONTINUOUS
 66
     1
 40
0.006787
 41
0.006787
  0
VERTEX
  8
PLAN_1
  6
CONTINUOUS
 10
-0.763260
 20
1.256283
  0
VERTEX
  8
PLAN_1
  6
CONTINUOUS
 10
-0.763260
 20
1.316433
  0
VERTEX
  8
PLAN_1
  6
CONTINUOUS
 10
-0.847661
 20
1.316433
  0
SEQEND
  8
0
  0
POLYLINE
  8
PLAN_1
  6
CONTINUOUS
 66
     1
 40
0.004362
 41
0.004362
  0
VERTEX
  8
PLAN_1
  6
CONTINUOUS
 10
-2.118059
 20
-0.371126
  0
VERTEX
  8
PLAN_1
  6
CONTINUOUS
 10
-2.118059
 20
0.155173
  0
SEQEND
  8
0
  0
POLYLINE
  8
PLAN_1
  6
CONTINUOUS
 66
     1
 40
0.004362
 41
0.004362
  0
VERTEX
  8
PLAN_1
  6
CONTINUOUS
 10
-2.118059
 20
0.155173
  0
VERTEX
  8
PLAN_1
  6
CONTINUOUS
 10
-2.117575
 20
0.161480
  0
VERTEX
  8
PLAN_1
  6
CONTINUOUS
 10
-2.114665
 20
0.178945
  0
VERTEX
  8
PLAN_1
  6
CONTINUOUS
 10
-2.111752
 20
0.190098
  0
VERTEX
  8
PLAN_1
  6
CONTINUOUS
 10
-2.107390
 20
0.203197
  0
VERTEX
  8
PLAN_1
  6
CONTINUOUS
 10
-2.104965
 20
0.209988
  0
VERTEX
  8
PLAN_1
  6
CONTINUOUS
 10
-2.101567
 20
0.216780
  0
VERTEX
  8
PLAN_1
  6
CONTINUOUS
 10
-2.098173
 20
0.224055
  0
VERTEX
  8
PLAN_1
  6
CONTINUOUS
 10
-2.093807
 20
0.230846
  0
VERTEX
  8
PLAN_1
  6
CONTINUOUS
 10
-2.089441
 20
0.238122
  0
VERTEX
  8
PLAN_1
  6
CONTINUOUS
 10
-2.084591
 20
0.244913
  0
VERTEX
  8
PLAN_1
  6
CONTINUOUS
 10
-2.078768
 20
0.252189
  0
VERTEX
  8
PLAN_1
  6
CONTINUOUS
 10
-2.072465
 20
0.258980
  0
VERTEX
  8
PLAN_1
  6
CONTINUOUS
 10
-2.065189
 20
0.265287
  0
VERTEX
  8
PLAN_1
  6
CONTINUOUS
 10
-2.057909
 20
0.271591
  0
VERTEX
  8
PLAN_1
  6
CONTINUOUS
 10
-2.049665
 20
0.277413
  0
VERTEX
  8
PLAN_1
  6
CONTINUOUS
 10
-2.040449
 20
0.283232
  0
VERTEX
  8
PLAN_1
  6
CONTINUOUS
 10
-2.030748
 20
0.288083
  0
VERTEX
  8
PLAN_1
  6
CONTINUOUS
 10
-2.020075
 20
0.292933
  0
VERTEX
  8
PLAN_1
  6
CONTINUOUS
 10
-2.008433
 20
0.296815
  0
VERTEX
  8
PLAN_1
  6
CONTINUOUS
 10
-1.996307
 20
0.300209
  0
VERTEX
  8
PLAN_1
  6
CONTINUOUS
 10
-1.983209
 20
0.303122
  0
VERTEX
  8
PLAN_1
  6
CONTINUOUS
 10
-1.968657
 20
0.305063
  0
VERTEX
  8
PLAN_1
  6
CONTINUOUS
 10
-1.953622
 20
0.306516
  0
VERTEX
  8
PLAN_1
  6
CONTINUOUS
 10
-1.937614
 20
0.307000
  0
VERTEX
  8
PLAN_1
  6
CONTINUOUS
 10
-1.881831
 20
0.307000
  0
VERTEX
  8
PLAN_1
  6
CONTINUOUS
 10
-1.804705
 20
0.307000
  0
VERTEX
  8
PLAN_1
  6
CONTINUOUS
 10
-1.710114
 20
0.307000
  0
VERTEX
  8
PLAN_1
  6
CONTINUOUS
 10
-1.600976
 20
0.307000
  0
VERTEX
  8
PLAN_1
  6
CONTINUOUS
 10
-1.481161
 20
0.307000
  0
VERTEX
  8
PLAN_1
  6
CONTINUOUS
 10
-1.354075
 20
0.307000
  0
VERTEX
  8
PLAN_1
  6
CONTINUOUS
 10
-1.223591
 20
0.307000
  0
VERTEX
  8
PLAN_1
  6
CONTINUOUS
 10
-1.093106
 20
0.307000
  0
SEQEND
  8
0
  0
POLYLINE
  8
PLAN_1
  6
CONTINUOUS
 66
     1
 40
0.004362
 41
0.004362
  0
VERTEX
  8
PLAN_1
  6
CONTINUOUS
 10
-0.847661
 20
0.307000
  0
VERTEX
  8
PLAN_1
  6
CONTINUOUS
 10
-0.788969
 20
0.307000
  0
VERTEX
  8
PLAN_1
  6
CONTINUOUS
 10
-0.741913
 20
0.307000
  0
VERTEX
  8
PLAN_1
  6
CONTINUOUS
 10
-0.705535
 20
0.307000
  0
VERTEX
  8
PLAN_1
  6
CONTINUOUS
 10
-0.678854
 20
0.307000
  0
VERTEX
  8
PLAN_1
  6
CONTINUOUS
 10
-0.660425
 20
0.307000
  0
VERTEX
  8
PLAN_1
  6
CONTINUOUS
 10
-0.648783
 20
0.307000
  0
VERTEX
  8
PLAN_1
  6
CONTINUOUS
 10
-0.642476
 20
0.307000
  0
VERTEX
  8
PLAN_1
  6
CONTINUOUS
 10
-0.641020
 20
0.307000
  0
VERTEX
  8
PLAN_1
  6
CONTINUOUS
 10
-0.639079
 20
0.307000
  0
VERTEX
  8
PLAN_1
  6
CONTINUOUS
 10
-0.634228
 20
0.307000
  0
VERTEX
  8
PLAN_1
  6
CONTINUOUS
 10
-0.625984
 20
0.306516
  0
VERTEX
  8
PLAN_1
  6
CONTINUOUS
 10
-0.616283
 20
0.305063
  0
VERTEX
  8
PLAN_1
  6
CONTINUOUS
 10
-0.610461
 20
0.304091
  0
VERTEX
  8
PLAN_1
  6
CONTINUOUS
 10
-0.604154
 20
0.303122
  0
VERTEX
  8
PLAN_1
  6
CONTINUOUS
 10
-0.597362
 20
0.301181
  0
VERTEX
  8
PLAN_1
  6
CONTINUOUS
 10
-0.590575
 20
0.299240
  0
VERTEX
  8
PLAN_1
  6
CONTINUOUS
 10
-0.583783
 20
0.296331
  0
VERTEX
  8
PLAN_1
  6
CONTINUOUS
 10
-0.576508
 20
0.293421
  0
VERTEX
  8
PLAN_1
  6
CONTINUOUS
 10
-0.569228
 20
0.290024
  0
VERTEX
  8
PLAN_1
  6
CONTINUOUS
 10
-0.561469
 20
0.285657
  0
VERTEX
  8
PLAN_1
  6
CONTINUOUS
 10
-0.554193
 20
0.281291
  0
VERTEX
  8
PLAN_1
  6
CONTINUOUS
 10
-0.546917
 20
0.275957
  0
VERTEX
  8
PLAN_1
  6
CONTINUOUS
 10
-0.539642
 20
0.269650
  0
VERTEX
  8
PLAN_1
  6
CONTINUOUS
 10
-0.532366
 20
0.262858
  0
VERTEX
  8
PLAN_1
  6
CONTINUOUS
 10
-0.525575
 20
0.255098
  0
VERTEX
  8
PLAN_1
  6
CONTINUOUS
 10
-0.519268
 20
0.246854
  0
VERTEX
  8
PLAN_1
  6
CONTINUOUS
 10
-0.512961
 20
0.237638
  0
VERTEX
  8
PLAN_1
  6
CONTINUOUS
 10
-0.507142
 20
0.227449
  0
VERTEX
  8
PLAN_1
  6
CONTINUOUS
 10
-0.501807
 20
0.216295
  0
VERTEX
  8
PLAN_1
  6
CONTINUOUS
 10
-0.496953
 20
0.204165
  0
VERTEX
  8
PLAN_1
  6
CONTINUOUS
 10
-0.492591
 20
0.191071
  0
VERTEX
  8
PLAN_1
  6
CONTINUOUS
 10
-0.489193
 20
0.176516
  0
VERTEX
  8
PLAN_1
  6
CONTINUOUS
 10
-0.486283
 20
0.161480
  0
VERTEX
  8
PLAN_1
  6
CONTINUOUS
 10
-0.484343
 20
0.144988
  0
VERTEX
  8
PLAN_1
  6
CONTINUOUS
 10
-0.482886
 20
0.127039
  0
VERTEX
  8
PLAN_1
  6
CONTINUOUS
 10
-0.482402
 20
0.108122
  0
VERTEX
  8
PLAN_1
  6
CONTINUOUS
 10
-0.482402
 20
0.027114
  0
VERTEX
  8
PLAN_1
  6
CONTINUOUS
 10
-0.482402
 20
-0.056315
  0
VERTEX
  8
PLAN_1
  6
CONTINUOUS
 10
-0.482402
 20
-0.138780
  0
VERTEX
  8
PLAN_1
  6
CONTINUOUS
 10
-0.482402
 20
-0.214933
  0
VERTEX
  8
PLAN_1
  6
CONTINUOUS
 10
-0.482402
 20
-0.281874
  0
VERTEX
  8
PLAN_1
  6
CONTINUOUS
 10
-0.482402
 20
-0.334748
  0
VERTEX
  8
PLAN_1
  6
CONTINUOUS
 10
-0.482402
 20
-0.369185
  0
VERTEX
  8
PLAN_1
  6
CONTINUOUS
 10
-0.482402
 20
-0.381799
  0
SEQEND
  8
0
  0
POLYLINE
  8
PLAN_1
  6
CONTINUOUS
 66
     1
 40
0.003000
 41
0.003000
  0
VERTEX
  8
PLAN_1
  6
CONTINUOUS
 10
-1.915783
 20
0.047488
  0
VERTEX
  8
PLAN_1
  6
CONTINUOUS
 10
-1.909480
 20
0.047972
  0
VERTEX
  8
PLAN_1
  6
CONTINUOUS
 10
-1.903657
 20
0.048945
  0
VERTEX
  8
PLAN_1
  6
CONTINUOUS
 10
-1.897839
 20
0.050398
  0
VERTEX
  8
PLAN_1
  6
CONTINUOUS
 10
-1.892504
 20
0.052339
  0
VERTEX
  8
PLAN_1
  6
CONTINUOUS
 10
-1.887650
 20
0.054764
  0
VERTEX
  8
PLAN_1
  6
CONTINUOUS
 10
-1.882799
 20
0.057677
  0
VERTEX
  8
PLAN_1
  6
CONTINUOUS
 10
-1.877949
 20
0.061071
  0
VERTEX
  8
PLAN_1
  6
CONTINUOUS
 10
-1.874071
 20
0.064953
  0
VERTEX
  8
PLAN_1
  6
CONTINUOUS
 10
-1.870189
 20
0.068831
  0
VERTEX
  8
PLAN_1
  6
CONTINUOUS
 10
-1.866791
 20
0.073681
  0
VERTEX
  8
PLAN_1
  6
CONTINUOUS
 10
-1.863882
 20
0.078531
  0
VERTEX
  8
PLAN_1
  6
CONTINUOUS
 10
-1.861457
 20
0.083386
  0
VERTEX
  8
PLAN_1
  6
CONTINUOUS
 10
-1.859516
 20
0.089205
  0
VERTEX
  8
PLAN_1
  6
CONTINUOUS
 10
-1.858063
 20
0.094539
  0
VERTEX
  8
PLAN_1
  6
CONTINUOUS
 10
-1.857091
 20
0.100362
  0
VERTEX
  8
PLAN_1
  6
CONTINUOUS
 10
-1.856606
 20
0.106669
  0
VERTEX
  8
PLAN_1
  6
CONTINUOUS
 10
-1.857091
 20
0.112488
  0
VERTEX
  8
PLAN_1
  6
CONTINUOUS
 10
-1.858063
 20
0.118311
  0
VERTEX
  8
PLAN_1
  6
CONTINUOUS
 10
-1.859516
 20
0.124130
  0
VERTEX
  8
PLAN_1
  6
CONTINUOUS
 10
-1.861457
 20
0.129465
  0
VERTEX
  8
PLAN_1
  6
CONTINUOUS
 10
-1.863882
 20
0.134803
  0
VERTEX
  8
PLAN_1
  6
CONTINUOUS
 10
-1.866791
 20
0.139654
  0
VERTEX
  8
PLAN_1
  6
CONTINUOUS
 10
-1.870189
 20
0.144020
  0
VERTEX
  8
PLAN_1
  6
CONTINUOUS
 10
-1.874071
 20
0.148382
  0
VERTEX
  8
PLAN_1
  6
CONTINUOUS
 10
-1.877949
 20
0.151780
  0
VERTEX
  8
PLAN_1
  6
CONTINUOUS
 10
-1.882799
 20
0.155173
  0
VERTEX
  8
PLAN_1
  6
CONTINUOUS
 10
-1.887650
 20
0.158087
  0
VERTEX
  8
PLAN_1
  6
CONTINUOUS
 10
-1.892504
 20
0.160996
  0
VERTEX
  8
PLAN_1
  6
CONTINUOUS
 10
-1.897839
 20
0.162937
  0
VERTEX
  8
PLAN_1
  6
CONTINUOUS
 10
-1.903657
 20
0.164390
  0
VERTEX
  8
PLAN_1
  6
CONTINUOUS
 10
-1.909480
 20
0.164878
  0
VERTEX
  8
PLAN_1
  6
CONTINUOUS
 10
-1.915783
 20
0.165362
  0
VERTEX
  8
PLAN_1
  6
CONTINUOUS
 10
-1.921606
 20
0.164878
  0
VERTEX
  8
PLAN_1
  6
CONTINUOUS
 10
-1.927425
 20
0.164390
  0
VERTEX
  8
PLAN_1
  6
CONTINUOUS
 10
-1.933248
 20
0.162937
  0
VERTEX
  8
PLAN_1
  6
CONTINUOUS
 10
-1.938583
 20
0.160996
  0
VERTEX
  8
PLAN_1
  6
CONTINUOUS
 10
-1.943433
 20
0.158087
  0
VERTEX
  8
PLAN_1
  6
CONTINUOUS
 10
-1.948283
 20
0.155173
  0
VERTEX
  8
PLAN_1
  6
CONTINUOUS
 10
-1.953134
 20
0.151780
  0
VERTEX
  8
PLAN_1
  6
CONTINUOUS
 10
-1.957016
 20
0.148382
  0
VERTEX
  8
PLAN_1
  6
CONTINUOUS
 10
-1.960898
 20
0.144020
  0
VERTEX
  8
PLAN_1
  6
CONTINUOUS
 10
-1.964291
 20
0.139654
  0
VERTEX
  8
PLAN_1
  6
CONTINUOUS
 10
-1.967205
 20
0.134803
  0
VERTEX
  8
PLAN_1
  6
CONTINUOUS
 10
-1.969630
 20
0.129465
  0
VERTEX
  8
PLAN_1
  6
CONTINUOUS
 10
-1.972055
 20
0.124130
  0
VERTEX
  8
PLAN_1
  6
CONTINUOUS
 10
-1.973508
 20
0.118311
  0
VERTEX
  8
PLAN_1
  6
CONTINUOUS
 10
-1.973992
 20
0.112488
  0
VERTEX
  8
PLAN_1
  6
CONTINUOUS
 10
-1.974480
 20
0.106669
  0
VERTEX
  8
PLAN_1
  6
CONTINUOUS
 10
-1.973992
 20
0.100362
  0
VERTEX
  8
PLAN_1
  6
CONTINUOUS
 10
-1.973508
 20
0.094539
  0
VERTEX
  8
PLAN_1
  6
CONTINUOUS
 10
-1.972055
 20
0.089205
  0
VERTEX
  8
PLAN_1
  6
CONTINUOUS
 10
-1.969630
 20
0.083386
  0
VERTEX
  8
PLAN_1
  6
CONTINUOUS
 10
-1.967205
 20
0.078531
  0
VERTEX
  8
PLAN_1
  6
CONTINUOUS
 10
-1.964291
 20
0.073681
  0
VERTEX
  8
PLAN_1
  6
CONTINUOUS
 10
-1.960898
 20
0.068831
  0
VERTEX
  8
PLAN_1
  6
CONTINUOUS
 10
-1.957016
 20
0.064953
  0
VERTEX
  8
PLAN_1
  6
CONTINUOUS
 10
-1.953134
 20
0.061071
  0
VERTEX
  8
PLAN_1
  6
CONTINUOUS
 10
-1.948283
 20
0.057677
  0
VERTEX
  8
PLAN_1
  6
CONTINUOUS
 10
-1.943433
 20
0.054764
  0
VERTEX
  8
PLAN_1
  6
CONTINUOUS
 10
-1.938583
 20
0.052339
  0
VERTEX
  8
PLAN_1
  6
CONTINUOUS
 10
-1.933248
 20
0.050398
  0
VERTEX
  8
PLAN_1
  6
CONTINUOUS
 10
-1.927425
 20
0.048945
  0
VERTEX
  8
PLAN_1
  6
CONTINUOUS
 10
-1.921606
 20
0.047972
  0
VERTEX
  8
PLAN_1
  6
CONTINUOUS
 10
-1.915783
 20
0.047488
  0
SEQEND
  8
0
  0
POLYLINE
  8
PLAN_1
  6
CONTINUOUS
 66
     1
 40
0.004362
 41
0.004362
  0
VERTEX
  8
PLAN_1
  6
CONTINUOUS
 10
-1.916272
 20
0.237150
  0
VERTEX
  8
PLAN_1
  6
CONTINUOUS
 10
-1.916272
 20
-0.039823
  0
SEQEND
  8
0
  0
POLYLINE
  8
PLAN_1
  6
CONTINUOUS
 66
     1
 40
0.004362
 41
0.004362
  0
VERTEX
  8
PLAN_1
  6
CONTINUOUS
 10
-2.054031
 20
0.108122
  0
VERTEX
  8
PLAN_1
  6
CONTINUOUS
 10
-1.777055
 20
0.108122
  0
SEQEND
  8
0
  0
POLYLINE
  8
PLAN_1
  6
CONTINUOUS
 66
     1
 40
0.003000
 41
0.003000
  0
VERTEX
  8
PLAN_1
  6
CONTINUOUS
 10
-0.682736
 20
0.047488
  0
VERTEX
  8
PLAN_1
  6
CONTINUOUS
 10
-0.676917
 20
0.047972
  0
VERTEX
  8
PLAN_1
  6
CONTINUOUS
 10
-0.671094
 20
0.048945
  0
VERTEX
  8
PLAN_1
  6
CONTINUOUS
 10
-0.665276
 20
0.050398
  0
VERTEX
  8
PLAN_1
  6
CONTINUOUS
 10
-0.659937
 20
0.052339
  0
VERTEX
  8
PLAN_1
  6
CONTINUOUS
 10
-0.654602
 20
0.054764
  0
VERTEX
  8
PLAN_1
  6
CONTINUOUS
 10
-0.649752
 20
0.057677
  0
VERTEX
  8
PLAN_1
  6
CONTINUOUS
 10
-0.645386
 20
0.061071
  0
VERTEX
  8
PLAN_1
  6
CONTINUOUS
 10
-0.641020
 20
0.064953
  0
VERTEX
  8
PLAN_1
  6
CONTINUOUS
 10
-0.637626
 20
0.068831
  0
VERTEX
  8
PLAN_1
  6
CONTINUOUS
 10
-0.634228
 20
0.073681
  0
VERTEX
  8
PLAN_1
  6
CONTINUOUS
 10
-0.630835
 20
0.078531
  0
VERTEX
  8
PLAN_1
  6
CONTINUOUS
 10
-0.628409
 20
0.083386
  0
VERTEX
  8
PLAN_1
  6
CONTINUOUS
 10
-0.626469
 20
0.089205
  0
VERTEX
  8
PLAN_1
  6
CONTINUOUS
 10
-0.625012
 20
0.094539
  0
VERTEX
  8
PLAN_1
  6
CONTINUOUS
 10
-0.624043
 20
0.100362
  0
VERTEX
  8
PLAN_1
  6
CONTINUOUS
 10
-0.624043
 20
0.106669
  0
VERTEX
  8
PLAN_1
  6
CONTINUOUS
 10
-0.624043
 20
0.112488
  0
VERTEX
  8
PLAN_1
  6
CONTINUOUS
 10
-0.625012
 20
0.118311
  0
VERTEX
  8
PLAN_1
  6
CONTINUOUS
 10
-0.626469
 20
0.124130
  0
VERTEX
  8
PLAN_1
  6
CONTINUOUS
 10
-0.628409
 20
0.129465
  0
VERTEX
  8
PLAN_1
  6
CONTINUOUS
 10
-0.630835
 20
0.134803
  0
VERTEX
  8
PLAN_1
  6
CONTINUOUS
 10
-0.634228
 20
0.139654
  0
VERTEX
  8
PLAN_1
  6
CONTINUOUS
 10
-0.637626
 20
0.144020
  0
VERTEX
  8
PLAN_1
  6
CONTINUOUS
 10
-0.641020
 20
0.148382
  0
VERTEX
  8
PLAN_1
  6
CONTINUOUS
 10
-0.645386
 20
0.151780
  0
VERTEX
  8
PLAN_1
  6
CONTINUOUS
 10
-0.649752
 20
0.155173
  0
VERTEX
  8
PLAN_1
  6
CONTINUOUS
 10
-0.654602
 20
0.158087
  0
VERTEX
  8
PLAN_1
  6
CONTINUOUS
 10
-0.659937
 20
0.160996
  0
VERTEX
  8
PLAN_1
  6
CONTINUOUS
 10
-0.665276
 20
0.162937
  0
VERTEX
  8
PLAN_1
  6
CONTINUOUS
 10
-0.671094
 20
0.164390
  0
VERTEX
  8
PLAN_1
  6
CONTINUOUS
 10
-0.676917
 20
0.164878
  0
VERTEX
  8
PLAN_1
  6
CONTINUOUS
 10
-0.682736
 20
0.165362
  0
VERTEX
  8
PLAN_1
  6
CONTINUOUS
 10
-0.689043
 20
0.164878
  0
VERTEX
  8
PLAN_1
  6
CONTINUOUS
 10
-0.694862
 20
0.164390
  0
VERTEX
  8
PLAN_1
  6
CONTINUOUS
 10
-0.700201
 20
0.162937
  0
VERTEX
  8
PLAN_1
  6
CONTINUOUS
 10
-0.705535
 20
0.160996
  0
VERTEX
  8
PLAN_1
  6
CONTINUOUS
 10
-0.710870
 20
0.158087
  0
VERTEX
  8
PLAN_1
  6
CONTINUOUS
 10
-0.715720
 20
0.155173
  0
VERTEX
  8
PLAN_1
  6
CONTINUOUS
 10
-0.720087
 20
0.151780
  0
VERTEX
  8
PLAN_1
  6
CONTINUOUS
 10
-0.724453
 20
0.148382
  0
VERTEX
  8
PLAN_1
  6
CONTINUOUS
 10
-0.728335
 20
0.144020
  0
VERTEX
  8
PLAN_1
  6
CONTINUOUS
 10
-0.731728
 20
0.139654
  0
VERTEX
  8
PLAN_1
  6
CONTINUOUS
 10
-0.734638
 20
0.134803
  0
VERTEX
  8
PLAN_1
  6
CONTINUOUS
 10
-0.737063
 20
0.129465
  0
VERTEX
  8
PLAN_1
  6
CONTINUOUS
 10
-0.739004
 20
0.124130
  0
VERTEX
  8
PLAN_1
  6
CONTINUOUS
 10
-0.740461
 20
0.118311
  0
VERTEX
  8
PLAN_1
  6
CONTINUOUS
 10
-0.741429
 20
0.112488
  0
VERTEX
  8
PLAN_1
  6
CONTINUOUS
 10
-0.741913
 20
0.106669
  0
VERTEX
  8
PLAN_1
  6
CONTINUOUS
 10
-0.741429
 20
0.100362
  0
VERTEX
  8
PLAN_1
  6
CONTINUOUS
 10
-0.740461
 20
0.094539
  0
VERTEX
  8
PLAN_1
  6
CONTINUOUS
 10
-0.739004
 20
0.089205
  0
VERTEX
  8
PLAN_1
  6
CONTINUOUS
 10
-0.737063
 20
0.083386
  0
VERTEX
  8
PLAN_1
  6
CONTINUOUS
 10
-0.734638
 20
0.078531
  0
VERTEX
  8
PLAN_1
  6
CONTINUOUS
 10
-0.731728
 20
0.073681
  0
VERTEX
  8
PLAN_1
  6
CONTINUOUS
 10
-0.728335
 20
0.068831
  0
VERTEX
  8
PLAN_1
  6
CONTINUOUS
 10
-0.724453
 20
0.064953
  0
VERTEX
  8
PLAN_1
  6
CONTINUOUS
 10
-0.720087
 20
0.061071
  0
VERTEX
  8
PLAN_1
  6
CONTINUOUS
 10
-0.715720
 20
0.057677
  0
VERTEX
  8
PLAN_1
  6
CONTINUOUS
 10
-0.710870
 20
0.054764
  0
VERTEX
  8
PLAN_1
  6
CONTINUOUS
 10
-0.705535
 20
0.052339
  0
VERTEX
  8
PLAN_1
  6
CONTINUOUS
 10
-0.700201
 20
0.050398
  0
VERTEX
  8
PLAN_1
  6
CONTINUOUS
 10
-0.694862
 20
0.048945
  0
VERTEX
  8
PLAN_1
  6
CONTINUOUS
 10
-0.689043
 20
0.047972
  0
VERTEX
  8
PLAN_1
  6
CONTINUOUS
 10
-0.682736
 20
0.047488
  0
SEQEND
  8
0
  0
POLYLINE
  8
PLAN_1
  6
CONTINUOUS
 66
     1
 40
0.004362
 41
0.004362
  0
VERTEX
  8
PLAN_1
  6
CONTINUOUS
 10
-0.683705
 20
0.237150
  0
VERTEX
  8
PLAN_1
  6
CONTINUOUS
 10
-0.683705
 20
-0.039823
  0
SEQEND
  8
0
  0
POLYLINE
  8
PLAN_1
  6
CONTINUOUS
 66
     1
 40
0.004362
 41
0.004362
  0
VERTEX
  8
PLAN_1
  6
CONTINUOUS
 10
-0.821469
 20
0.108122
  0
VERTEX
  8
PLAN_1
  6
CONTINUOUS
 10
-0.544492
 20
0.108122
  0
SEQEND
  8
0
  0
POLYLINE
  8
PLAN_1
  6
CONTINUOUS
 66
     1
 40
0.005335
 41
0.005335
  0
VERTEX
  8
PLAN_1
  6
CONTINUOUS
 10
-1.430717
 20
-0.079598
  0
VERTEX
  8
PLAN_1
  6
CONTINUOUS
 10
-1.557803
 20
-0.101913
  0
VERTEX
  8
PLAN_1
  6
CONTINUOUS
 10
-1.566051
 20
-0.103366
  0
SEQEND
  8
0
  0
POLYLINE
  8
PLAN_1
  6
CONTINUOUS
 66
     1
 40
0.005335
 41
0.005335
  0
VERTEX
  8
PLAN_1
  6
CONTINUOUS
 10
-1.566051
 20
-0.103366
  0
VERTEX
  8
PLAN_1
  6
CONTINUOUS
 10
-1.569929
 20
-0.104339
  0
VERTEX
  8
PLAN_1
  6
CONTINUOUS
 10
-1.573327
 20
-0.106280
  0
VERTEX
  8
PLAN_1
  6
CONTINUOUS
 10
-1.576720
 20
-0.108705
  0
VERTEX
  8
PLAN_1
  6
CONTINUOUS
 10
-1.579146
 20
-0.111614
  0
VERTEX
  8
PLAN_1
  6
CONTINUOUS
 10
-1.581087
 20
-0.115008
  0
VERTEX
  8
PLAN_1
  6
CONTINUOUS
 10
-1.582543
 20
-0.118890
  0
VERTEX
  8
PLAN_1
  6
CONTINUOUS
 10
-1.583028
 20
-0.122772
  0
VERTEX
  8
PLAN_1
  6
CONTINUOUS
 10
-1.582543
 20
-0.127138
  0
VERTEX
  8
PLAN_1
  6
CONTINUOUS
 10
-1.581571
 20
-0.131016
  0
VERTEX
  8
PLAN_1
  6
CONTINUOUS
 10
-1.579630
 20
-0.134413
  0
VERTEX
  8
PLAN_1
  6
CONTINUOUS
 10
-1.577205
 20
-0.137323
  0
VERTEX
  8
PLAN_1
  6
CONTINUOUS
 10
-1.574295
 20
-0.140232
  0
VERTEX
  8
PLAN_1
  6
CONTINUOUS
 10
-1.570902
 20
-0.142173
  0
VERTEX
  8
PLAN_1
  6
CONTINUOUS
 10
-1.567020
 20
-0.143142
  0
VERTEX
  8
PLAN_1
  6
CONTINUOUS
 10
-1.563138
 20
-0.143630
  0
VERTEX
  8
PLAN_1
  6
CONTINUOUS
 10
-1.558772
 20
-0.143630
  0
SEQEND
  8
0
  0
POLYLINE
  8
PLAN_1
  6
CONTINUOUS
 66
     1
 40
0.005335
 41
0.005335
  0
VERTEX
  8
PLAN_1
  6
CONTINUOUS
 10
-1.558772
 20
-0.143630
  0
VERTEX
  8
PLAN_1
  6
CONTINUOUS
 10
-1.550528
 20
-0.142173
  0
VERTEX
  8
PLAN_1
  6
CONTINUOUS
 10
-1.196909
 20
-0.079598
  0
VERTEX
  8
PLAN_1
  6
CONTINUOUS
 10
-1.430717
 20
-0.079598
  0
SEQEND
  8
0
  0
POLYLINE
  8
PLAN_1
  6
CONTINUOUS
 66
     1
 40
0.005335
 41
0.005335
  0
VERTEX
  8
PLAN_1
  6
CONTINUOUS
 10
-1.057697
 20
-0.232882
  0
VERTEX
  8
PLAN_1
  6
CONTINUOUS
 10
-1.053331
 20
-0.231425
  0
VERTEX
  8
PLAN_1
  6
CONTINUOUS
 10
-1.049933
 20
-0.229972
  0
VERTEX
  8
PLAN_1
  6
CONTINUOUS
 10
-1.047024
 20
-0.227547
  0
VERTEX
  8
PLAN_1
  6
CONTINUOUS
 10
-1.044114
 20
-0.224150
  0
VERTEX
  8
PLAN_1
  6
CONTINUOUS
 10
-1.042173
 20
-0.220756
  0
VERTEX
  8
PLAN_1
  6
CONTINUOUS
 10
-1.041205
 20
-0.217358
  0
VERTEX
  8
PLAN_1
  6
CONTINUOUS
 10
-1.040717
 20
-0.212992
  0
VERTEX
  8
PLAN_1
  6
CONTINUOUS
 10
-1.041205
 20
-0.209114
  0
VERTEX
  8
PLAN_1
  6
CONTINUOUS
 10
-1.042173
 20
-0.205232
  0
VERTEX
  8
PLAN_1
  6
CONTINUOUS
 10
-1.044114
 20
-0.201350
  0
VERTEX
  8
PLAN_1
  6
CONTINUOUS
 10
-1.046539
 20
-0.198441
  0
VERTEX
  8
PLAN_1
  6
CONTINUOUS
 10
-1.049449
 20
-0.196016
  0
VERTEX
  8
PLAN_1
  6
CONTINUOUS
 10
-1.052846
 20
-0.194075
  0
VERTEX
  8
PLAN_1
  6
CONTINUOUS
 10
-1.056724
 20
-0.192622
  0
VERTEX
  8
PLAN_1
  6
CONTINUOUS
 10
-1.060606
 20
-0.192134
  0
VERTEX
  8
PLAN_1
  6
CONTINUOUS
 10
-1.064488
 20
-0.192622
  0
SEQEND
  8
0
  0
POLYLINE
  8
PLAN_1
  6
CONTINUOUS
 66
     1
 40
0.005335
 41
0.005335
  0
VERTEX
  8
PLAN_1
  6
CONTINUOUS
 10
-1.064488
 20
-0.192622
  0
VERTEX
  8
PLAN_1
  6
CONTINUOUS
 10
-1.077098
 20
-0.194563
  0
VERTEX
  8
PLAN_1
  6
CONTINUOUS
 10
-1.557803
 20
-0.279449
  0
VERTEX
  8
PLAN_1
  6
CONTINUOUS
 10
-1.565563
 20
-0.280906
  0
SEQEND
  8
0
  0
POLYLINE
  8
PLAN_1
  6
CONTINUOUS
 66
     1
 40
0.005335
 41
0.005335
  0
VERTEX
  8
PLAN_1
  6
CONTINUOUS
 10
-1.565563
 20
-0.280906
  0
VERTEX
  8
PLAN_1
  6
CONTINUOUS
 10
-1.569929
 20
-0.282358
  0
VERTEX
  8
PLAN_1
  6
CONTINUOUS
 10
-1.573327
 20
-0.283815
  0
VERTEX
  8
PLAN_1
  6
CONTINUOUS
 10
-1.576236
 20
-0.286724
  0
VERTEX
  8
PLAN_1
  6
CONTINUOUS
 10
-1.579146
 20
-0.289634
  0
VERTEX
  8
PLAN_1
  6
CONTINUOUS
 10
-1.581087
 20
-0.293031
  0
VERTEX
  8
PLAN_1
  6
CONTINUOUS
 10
-1.582055
 20
-0.296425
  0
VERTEX
  8
PLAN_1
  6
CONTINUOUS
 10
-1.582543
 20
-0.300791
  0
VERTEX
  8
PLAN_1
  6
CONTINUOUS
 10
-1.582543
 20
-0.304673
  0
VERTEX
  8
PLAN_1
  6
CONTINUOUS
 10
-1.581087
 20
-0.308551
  0
VERTEX
  8
PLAN_1
  6
CONTINUOUS
 10
-1.579146
 20
-0.312433
  0
VERTEX
  8
PLAN_1
  6
CONTINUOUS
 10
-1.576720
 20
-0.315343
  0
VERTEX
  8
PLAN_1
  6
CONTINUOUS
 10
-1.573811
 20
-0.317768
  0
VERTEX
  8
PLAN_1
  6
CONTINUOUS
 10
-1.570413
 20
-0.319709
  0
VERTEX
  8
PLAN_1
  6
CONTINUOUS
 10
-1.567020
 20
-0.321165
  0
VERTEX
  8
PLAN_1
  6
CONTINUOUS
 10
-1.562654
 20
-0.321650
  0
VERTEX
  8
PLAN_1
  6
CONTINUOUS
 10
-1.558772
 20
-0.321165
  0
SEQEND
  8
0
  0
POLYLINE
  8
PLAN_1
  6
CONTINUOUS
 66
     1
 40
0.005335
 41
0.005335
  0
VERTEX
  8
PLAN_1
  6
CONTINUOUS
 10
-1.558772
 20
-0.321165
  0
VERTEX
  8
PLAN_1
  6
CONTINUOUS
 10
-1.550528
 20
-0.319709
  0
VERTEX
  8
PLAN_1
  6
CONTINUOUS
 10
-1.070307
 20
-0.234823
  0
VERTEX
  8
PLAN_1
  6
CONTINUOUS
 10
-1.057697
 20
-0.232882
  0
SEQEND
  8
0
  0
POLYLINE
  8
PLAN_1
  6
CONTINUOUS
 66
     1
 40
0.005335
 41
0.005335
  0
VERTEX
  8
PLAN_1
  6
CONTINUOUS
 10
-1.052846
 20
-0.499185
  0
VERTEX
  8
PLAN_1
  6
CONTINUOUS
 10
-1.048965
 20
-0.498701
  0
VERTEX
  8
PLAN_1
  6
CONTINUOUS
 10
-1.045083
 20
-0.497244
  0
VERTEX
  8
PLAN_1
  6
CONTINUOUS
 10
-1.041689
 20
-0.495791
  0
VERTEX
  8
PLAN_1
  6
CONTINUOUS
 10
-1.038291
 20
-0.492878
  0
VERTEX
  8
PLAN_1
  6
CONTINUOUS
 10
-1.035866
 20
-0.489969
  0
VERTEX
  8
PLAN_1
  6
CONTINUOUS
 10
-1.033929
 20
-0.486575
  0
VERTEX
  8
PLAN_1
  6
CONTINUOUS
 10
-1.032957
 20
-0.482693
  0
VERTEX
  8
PLAN_1
  6
CONTINUOUS
 10
-1.032472
 20
-0.478811
  0
VERTEX
  8
PLAN_1
  6
CONTINUOUS
 10
-1.032957
 20
-0.474445
  0
VERTEX
  8
PLAN_1
  6
CONTINUOUS
 10
-1.033929
 20
-0.470567
  0
VERTEX
  8
PLAN_1
  6
CONTINUOUS
 10
-1.035866
 20
-0.467169
  0
VERTEX
  8
PLAN_1
  6
CONTINUOUS
 10
-1.038291
 20
-0.464260
  0
VERTEX
  8
PLAN_1
  6
CONTINUOUS
 10
-1.041689
 20
-0.461835
  0
VERTEX
  8
PLAN_1
  6
CONTINUOUS
 10
-1.045083
 20
-0.459894
  0
VERTEX
  8
PLAN_1
  6
CONTINUOUS
 10
-1.048965
 20
-0.458441
  0
VERTEX
  8
PLAN_1
  6
CONTINUOUS
 10
-1.052846
 20
-0.458441
  0
SEQEND
  8
0
  0
POLYLINE
  8
PLAN_1
  6
CONTINUOUS
 66
     1
 40
0.005335
 41
0.005335
  0
VERTEX
  8
PLAN_1
  6
CONTINUOUS
 10
-1.052846
 20
-0.458441
  0
VERTEX
  8
PLAN_1
  6
CONTINUOUS
 10
-1.065941
 20
-0.458441
  0
VERTEX
  8
PLAN_1
  6
CONTINUOUS
 10
-1.553437
 20
-0.458441
  0
VERTEX
  8
PLAN_1
  6
CONTINUOUS
 10
-1.561685
 20
-0.458441
  0
SEQEND
  8
0
  0
POLYLINE
  8
PLAN_1
  6
CONTINUOUS
 66
     1
 40
0.005335
 41
0.005335
  0
VERTEX
  8
PLAN_1
  6
CONTINUOUS
 10
-1.561685
 20
-0.458441
  0
VERTEX
  8
PLAN_1
  6
CONTINUOUS
 10
-1.566051
 20
-0.458925
  0
VERTEX
  8
PLAN_1
  6
CONTINUOUS
 10
-1.569929
 20
-0.459894
  0
VERTEX
  8
PLAN_1
  6
CONTINUOUS
 10
-1.573327
 20
-0.461835
  0
VERTEX
  8
PLAN_1
  6
CONTINUOUS
 10
-1.576236
 20
-0.464260
  0
VERTEX
  8
PLAN_1
  6
CONTINUOUS
 10
-1.578661
 20
-0.467657
  0
VERTEX
  8
PLAN_1
  6
CONTINUOUS
 10
-1.580602
 20
-0.471051
  0
VERTEX
  8
PLAN_1
  6
CONTINUOUS
 10
-1.582055
 20
-0.474933
  0
VERTEX
  8
PLAN_1
  6
CONTINUOUS
 10
-1.582543
 20
-0.478811
  0
VERTEX
  8
PLAN_1
  6
CONTINUOUS
 10
-1.582055
 20
-0.483177
  0
VERTEX
  8
PLAN_1
  6
CONTINUOUS
 10
-1.580602
 20
-0.486575
  0
VERTEX
  8
PLAN_1
  6
CONTINUOUS
 10
-1.578661
 20
-0.490453
  0
VERTEX
  8
PLAN_1
  6
CONTINUOUS
 10
-1.576236
 20
-0.493366
  0
VERTEX
  8
PLAN_1
  6
CONTINUOUS
 10
-1.573327
 20
-0.495791
  0
VERTEX
  8
PLAN_1
  6
CONTINUOUS
 10
-1.569929
 20
-0.497728
  0
VERTEX
  8
PLAN_1
  6
CONTINUOUS
 10
-1.566051
 20
-0.498701
  0
VERTEX
  8
PLAN_1
  6
CONTINUOUS
 10
-1.561685
 20
-0.499185
  0
SEQEND
  8
0
  0
POLYLINE
  8
PLAN_1
  6
CONTINUOUS
 66
     1
 40
0.005335
 41
0.005335
  0
VERTEX
  8
PLAN_1
  6
CONTINUOUS
 10
-1.561685
 20
-0.499185
  0
VERTEX
  8
PLAN_1
  6
CONTINUOUS
 10
-1.553437
 20
-0.499185
  0
VERTEX
  8
PLAN_1
  6
CONTINUOUS
 10
-1.065941
 20
-0.499185
  0
VERTEX
  8
PLAN_1
  6
CONTINUOUS
 10
-1.052846
 20
-0.499185
  0
SEQEND
  8
0
  0
POLYLINE
  8
PLAN_1
  6
CONTINUOUS
 66
     1
 40
0.008244
 41
0.008244
  0
VERTEX
  8
PLAN_1
  6
CONTINUOUS
 10
-0.846689
 20
2.858472
  0
VERTEX
  8
PLAN_1
  6
CONTINUOUS
 10
-0.846689
 20
3.626339
  0
VERTEX
  8
PLAN_1
  6
CONTINUOUS
 10
-1.091650
 20
3.626339
  0
VERTEX
  8
PLAN_1
  6
CONTINUOUS
 10
-1.091650
 20
2.718772
  0
SEQEND
  8
0
  0
POLYLINE
  8
PLAN_1
  6
CONTINUOUS
 66
     1
 40
0.008244
 41
0.008244
  0
VERTEX
  8
PLAN_1
  6
CONTINUOUS
 10
-1.091650
 20
2.516012
  0
VERTEX
  8
PLAN_1
  6
CONTINUOUS
 10
-1.091650
 20
1.208748
  0
SEQEND
  8
0
  0
POLYLINE
  8
PLAN_1
  6
CONTINUOUS
 66
     1
 40
0.008244
 41
0.008244
  0
VERTEX
  8
PLAN_1
  6
CONTINUOUS
 10
-1.091650
 20
0.569909
  0
VERTEX
  8
PLAN_1
  6
CONTINUOUS
 10
-1.091650
 20
-0.186799
  0
VERTEX
  8
PLAN_1
  6
CONTINUOUS
 10
-0.846689
 20
-0.186799
  0
VERTEX
  8
PLAN_1
  6
CONTINUOUS
 10
-0.846689
 20
0.641701
  0
SEQEND
  8
0
  0
POLYLINE
  8
PLAN_1
  6
CONTINUOUS
 66
     1
 40
0.008244
 41
0.008244
  0
VERTEX
  8
PLAN_1
  6
CONTINUOUS
 10
-0.846689
 20
1.155390
  0
VERTEX
  8
PLAN_1
  6
CONTINUOUS
 10
-0.846689
 20
2.655713
  0
SEQEND
  8
0
  0
POLYLINE
  8
PLAN_1
 62
     5
  6
CONTINUOUS
 66
     1
 40
0.003000
 41
0.003000
  0
VERTEX
  8
PLAN_1
 62
     5
  6
CONTINUOUS
 10
-1.248815
 20
2.628063
  0
VERTEX
  8
PLAN_1
 62
     5
  6
CONTINUOUS
 10
-1.241539
 20
2.631945
  0
SEQEND
  8
0
  0
POLYLINE
  8
PLAN_1
 62
     5
  6
CONTINUOUS
 66
     1
 40
0.003000
 41
0.003000
  0
VERTEX
  8
PLAN_1
 62
     5
  6
CONTINUOUS
 10
-1.234260
 20
2.636311
  0
VERTEX
  8
PLAN_1
 62
     5
  6
CONTINUOUS
 10
-1.227472
 20
2.640189
  0
SEQEND
  8
0
  0
POLYLINE
  8
PLAN_1
 62
     5
  6
CONTINUOUS
 66
     1
 40
0.003000
 41
0.003000
  0
VERTEX
  8
PLAN_1
 62
     5
  6
CONTINUOUS
 10
-1.220193
 20
2.644555
  0
VERTEX
  8
PLAN_1
 62
     5
  6
CONTINUOUS
 10
-1.212917
 20
2.648437
  0
SEQEND
  8
0
  0
POLYLINE
  8
PLAN_1
 62
     5
  6
CONTINUOUS
 66
     1
 40
0.003000
 41
0.003000
  0
VERTEX
  8
PLAN_1
 62
     5
  6
CONTINUOUS
 10
-1.205642
 20
2.652803
  0
VERTEX
  8
PLAN_1
 62
     5
  6
CONTINUOUS
 10
-1.198366
 20
2.656681
  0
SEQEND
  8
0
  0
POLYLINE
  8
PLAN_1
 62
     5
  6
CONTINUOUS
 66
     1
 40
0.003000
 41
0.003000
  0
VERTEX
  8
PLAN_1
 62
     5
  6
CONTINUOUS
 10
-1.191091
 20
2.661047
  0
VERTEX
  8
PLAN_1
 62
     5
  6
CONTINUOUS
 10
-1.183815
 20
2.664929
  0
SEQEND
  8
0
  0
POLYLINE
  8
PLAN_1
 62
     5
  6
CONTINUOUS
 66
     1
 40
0.003000
 41
0.003000
  0
VERTEX
  8
PLAN_1
 62
     5
  6
CONTINUOUS
 10
-1.176539
 20
2.669295
  0
VERTEX
  8
PLAN_1
 62
     5
  6
CONTINUOUS
 10
-1.169264
 20
2.673173
  0
SEQEND
  8
0
  0
POLYLINE
  8
PLAN_1
 62
     5
  6
CONTINUOUS
 66
     1
 40
0.003000
 41
0.003000
  0
VERTEX
  8
PLAN_1
 62
     5
  6
CONTINUOUS
 10
-1.161984
 20
2.677055
  0
VERTEX
  8
PLAN_1
 62
     5
  6
CONTINUOUS
 10
-1.154709
 20
2.681421
  0
SEQEND
  8
0
  0
POLYLINE
  8
PLAN_1
 62
     5
  6
CONTINUOUS
 66
     1
 40
0.003000
 41
0.003000
  0
VERTEX
  8
PLAN_1
 62
     5
  6
CONTINUOUS
 10
-1.147433
 20
2.685303
  0
VERTEX
  8
PLAN_1
 62
     5
  6
CONTINUOUS
 10
-1.140157
 20
2.689665
  0
SEQEND
  8
0
  0
POLYLINE
  8
PLAN_1
 62
     5
  6
CONTINUOUS
 66
     1
 40
0.003000
 41
0.003000
  0
VERTEX
  8
PLAN_1
 62
     5
  6
CONTINUOUS
 10
-1.132882
 20
2.693547
  0
VERTEX
  8
PLAN_1
 62
     5
  6
CONTINUOUS
 10
-1.125606
 20
2.697913
  0
SEQEND
  8
0
  0
POLYLINE
  8
PLAN_1
 62
     5
  6
CONTINUOUS
 66
     1
 40
0.003000
 41
0.003000
  0
VERTEX
  8
PLAN_1
 62
     5
  6
CONTINUOUS
 10
-1.118331
 20
2.701795
  0
VERTEX
  8
PLAN_1
 62
     5
  6
CONTINUOUS
 10
-1.111055
 20
2.706161
  0
SEQEND
  8
0
  0
POLYLINE
  8
PLAN_1
 62
     5
  6
CONTINUOUS
 66
     1
 40
0.003000
 41
0.003000
  0
VERTEX
  8
PLAN_1
 62
     5
  6
CONTINUOUS
 10
-1.104264
 20
2.710039
  0
VERTEX
  8
PLAN_1
 62
     5
  6
CONTINUOUS
 10
-1.096988
 20
2.714406
  0
SEQEND
  8
0
  0
POLYLINE
  8
PLAN_1
 62
     5
  6
CONTINUOUS
 66
     1
 40
0.003000
 41
0.003000
  0
VERTEX
  8
PLAN_1
 62
     5
  6
CONTINUOUS
 10
-1.089709
 20
2.718287
  0
VERTEX
  8
PLAN_1
 62
     5
  6
CONTINUOUS
 10
-1.082433
 20
2.722165
  0
SEQEND
  8
0
  0
POLYLINE
  8
PLAN_1
 62
     5
  6
CONTINUOUS
 66
     1
 40
0.003000
 41
0.003000
  0
VERTEX
  8
PLAN_1
 62
     5
  6
CONTINUOUS
 10
-1.075157
 20
2.726531
  0
VERTEX
  8
PLAN_1
 62
     5
  6
CONTINUOUS
 10
-1.067882
 20
2.730413
  0
SEQEND
  8
0
  0
POLYLINE
  8
PLAN_1
 62
     5
  6
CONTINUOUS
 66
     1
 40
0.003000
 41
0.003000
  0
VERTEX
  8
PLAN_1
 62
     5
  6
CONTINUOUS
 10
-1.060606
 20
2.734780
  0
VERTEX
  8
PLAN_1
 62
     5
  6
CONTINUOUS
 10
-1.053331
 20
2.738657
  0
SEQEND
  8
0
  0
POLYLINE
  8
PLAN_1
 62
     5
  6
CONTINUOUS
 66
     1
 40
0.003000
 41
0.003000
  0
VERTEX
  8
PLAN_1
 62
     5
  6
CONTINUOUS
 10
-1.046055
 20
2.743024
  0
VERTEX
  8
PLAN_1
 62
     5
  6
CONTINUOUS
 10
-1.038780
 20
2.746906
  0
SEQEND
  8
0
  0
POLYLINE
  8
PLAN_1
 62
     5
  6
CONTINUOUS
 66
     1
 40
0.003000
 41
0.003000
  0
VERTEX
  8
PLAN_1
 62
     5
  6
CONTINUOUS
 10
-1.031504
 20
2.751272
  0
VERTEX
  8
PLAN_1
 62
     5
  6
CONTINUOUS
 10
-1.024224
 20
2.755154
  0
SEQEND
  8
0
  0
POLYLINE
  8
PLAN_1
 62
     5
  6
CONTINUOUS
 66
     1
 40
0.003000
 41
0.003000
  0
VERTEX
  8
PLAN_1
 62
     5
  6
CONTINUOUS
 10
-1.016949
 20
2.759516
  0
VERTEX
  8
PLAN_1
 62
     5
  6
CONTINUOUS
 10
-1.009673
 20
2.763398
  0
SEQEND
  8
0
  0
POLYLINE
  8
PLAN_1
 62
     5
  6
CONTINUOUS
 66
     1
 40
0.003000
 41
0.003000
  0
VERTEX
  8
PLAN_1
 62
     5
  6
CONTINUOUS
 10
-1.002398
 20
2.767280
  0
VERTEX
  8
PLAN_1
 62
     5
  6
CONTINUOUS
 10
-0.995122
 20
2.771646
  0
SEQEND
  8
0
  0
POLYLINE
  8
PLAN_1
 62
     5
  6
CONTINUOUS
 66
     1
 40
0.003000
 41
0.003000
  0
VERTEX
  8
PLAN_1
 62
     5
  6
CONTINUOUS
 10
-0.988331
 20
2.775524
  0
VERTEX
  8
PLAN_1
 62
     5
  6
CONTINUOUS
 10
-0.981055
 20
2.779890
  0
SEQEND
  8
0
  0
POLYLINE
  8
PLAN_1
 62
     5
  6
CONTINUOUS
 66
     1
 40
0.003000
 41
0.003000
  0
VERTEX
  8
PLAN_1
 62
     5
  6
CONTINUOUS
 10
-0.973780
 20
2.783772
  0
VERTEX
  8
PLAN_1
 62
     5
  6
CONTINUOUS
 10
-0.966504
 20
2.788138
  0
SEQEND
  8
0
  0
POLYLINE
  8
PLAN_1
 62
     5
  6
CONTINUOUS
 66
     1
 40
0.003000
 41
0.003000
  0
VERTEX
  8
PLAN_1
 62
     5
  6
CONTINUOUS
 10
-0.959228
 20
2.792016
  0
VERTEX
  8
PLAN_1
 62
     5
  6
CONTINUOUS
 10
-0.951949
 20
2.796382
  0
SEQEND
  8
0
  0
POLYLINE
  8
PLAN_1
 62
     5
  6
CONTINUOUS
 66
     1
 40
0.003000
 41
0.003000
  0
VERTEX
  8
PLAN_1
 62
     5
  6
CONTINUOUS
 10
-0.944673
 20
2.800264
  0
VERTEX
  8
PLAN_1
 62
     5
  6
CONTINUOUS
 10
-0.937398
 20
2.804630
  0
SEQEND
  8
0
  0
POLYLINE
  8
PLAN_1
 62
     5
  6
CONTINUOUS
 66
     1
 40
0.003000
 41
0.003000
  0
VERTEX
  8
PLAN_1
 62
     5
  6
CONTINUOUS
 10
-0.930122
 20
2.808508
  0
VERTEX
  8
PLAN_1
 62
     5
  6
CONTINUOUS
 10
-0.922846
 20
2.812390
  0
SEQEND
  8
0
  0
POLYLINE
  8
PLAN_1
 62
     5
  6
CONTINUOUS
 66
     1
 40
0.003000
 41
0.003000
  0
VERTEX
  8
PLAN_1
 62
     5
  6
CONTINUOUS
 10
-0.915571
 20
2.816756
  0
VERTEX
  8
PLAN_1
 62
     5
  6
CONTINUOUS
 10
-0.908295
 20
2.820638
  0
SEQEND
  8
0
  0
POLYLINE
  8
PLAN_1
 62
     5
  6
CONTINUOUS
 66
     1
 40
0.003000
 41
0.003000
  0
VERTEX
  8
PLAN_1
 62
     5
  6
CONTINUOUS
 10
-0.901020
 20
2.825000
  0
VERTEX
  8
PLAN_1
 62
     5
  6
CONTINUOUS
 10
-0.893744
 20
2.828882
  0
SEQEND
  8
0
  0
POLYLINE
  8
PLAN_1
 62
     5
  6
CONTINUOUS
 66
     1
 40
0.003000
 41
0.003000
  0
VERTEX
  8
PLAN_1
 62
     5
  6
CONTINUOUS
 10
-0.886465
 20
2.833248
  0
VERTEX
  8
PLAN_1
 62
     5
  6
CONTINUOUS
 10
-0.879189
 20
2.837130
  0
SEQEND
  8
0
  0
POLYLINE
  8
PLAN_1
 62
     5
  6
CONTINUOUS
 66
     1
 40
0.003000
 41
0.003000
  0
VERTEX
  8
PLAN_1
 62
     5
  6
CONTINUOUS
 10
-0.871913
 20
2.841496
  0
VERTEX
  8
PLAN_1
 62
     5
  6
CONTINUOUS
 10
-0.864638
 20
2.845374
  0
SEQEND
  8
0
  0
POLYLINE
  8
PLAN_1
 62
     5
  6
CONTINUOUS
 66
     1
 40
0.003000
 41
0.003000
  0
VERTEX
  8
PLAN_1
 62
     5
  6
CONTINUOUS
 10
-0.857362
 20
2.849740
  0
VERTEX
  8
PLAN_1
 62
     5
  6
CONTINUOUS
 10
-0.850571
 20
2.853622
  0
SEQEND
  8
0
  0
POLYLINE
  8
PLAN_1
 62
     5
  6
CONTINUOUS
 66
     1
 40
0.003000
 41
0.003000
  0
VERTEX
  8
PLAN_1
 62
     5
  6
CONTINUOUS
 10
-0.843295
 20
2.857500
  0
VERTEX
  8
PLAN_1
 62
     5
  6
CONTINUOUS
 10
-0.836020
 20
2.861866
  0
SEQEND
  8
0
  0
POLYLINE
  8
PLAN_1
 62
     5
  6
CONTINUOUS
 66
     1
 40
0.003000
 41
0.003000
  0
VERTEX
  8
PLAN_1
 62
     5
  6
CONTINUOUS
 10
-0.828744
 20
2.865748
  0
VERTEX
  8
PLAN_1
 62
     5
  6
CONTINUOUS
 10
-0.821469
 20
2.870114
  0
SEQEND
  8
0
  0
POLYLINE
  8
PLAN_1
 62
     5
  6
CONTINUOUS
 66
     1
 40
0.003000
 41
0.003000
  0
VERTEX
  8
PLAN_1
 62
     5
  6
CONTINUOUS
 10
-0.814189
 20
2.873992
  0
VERTEX
  8
PLAN_1
 62
     5
  6
CONTINUOUS
 10
-0.806913
 20
2.878358
  0
SEQEND
  8
0
  0
POLYLINE
  8
PLAN_1
 62
     5
  6
CONTINUOUS
 66
     1
 40
0.003000
 41
0.003000
  0
VERTEX
  8
PLAN_1
 62
     5
  6
CONTINUOUS
 10
-0.799638
 20
2.882240
  0
VERTEX
  8
PLAN_1
 62
     5
  6
CONTINUOUS
 10
-0.792362
 20
2.886606
  0
SEQEND
  8
0
  0
POLYLINE
  8
PLAN_1
 62
     5
  6
CONTINUOUS
 66
     1
 40
0.003000
 41
0.003000
  0
VERTEX
  8
PLAN_1
 62
     5
  6
CONTINUOUS
 10
-0.785087
 20
2.890488
  0
VERTEX
  8
PLAN_1
 62
     5
  6
CONTINUOUS
 10
-0.777811
 20
2.894850
  0
SEQEND
  8
0
  0
POLYLINE
  8
PLAN_1
 62
     5
  6
CONTINUOUS
 66
     1
 40
0.003000
 41
0.003000
  0
VERTEX
  8
PLAN_1
 62
     5
  6
CONTINUOUS
 10
-0.770535
 20
2.898732
  0
VERTEX
  8
PLAN_1
 62
     5
  6
CONTINUOUS
 10
-0.763260
 20
2.902614
  0
SEQEND
  8
0
  0
POLYLINE
  8
PLAN_1
 62
     5
  6
CONTINUOUS
 66
     1
 40
0.003000
 41
0.003000
  0
VERTEX
  8
PLAN_1
 62
     5
  6
CONTINUOUS
 10
-0.755980
 20
2.906980
  0
VERTEX
  8
PLAN_1
 62
     5
  6
CONTINUOUS
 10
-0.748705
 20
2.910858
  0
SEQEND
  8
0
  0
POLYLINE
  8
PLAN_1
 62
     5
  6
CONTINUOUS
 66
     1
 40
0.003000
 41
0.003000
  0
VERTEX
  8
PLAN_1
 62
     5
  6
CONTINUOUS
 10
-0.741429
 20
2.915224
  0
VERTEX
  8
PLAN_1
 62
     5
  6
CONTINUOUS
 10
-0.734154
 20
2.919106
  0
SEQEND
  8
0
  0
POLYLINE
  8
PLAN_1
 62
     5
  6
CONTINUOUS
 66
     1
 40
0.003000
 41
0.003000
  0
VERTEX
  8
PLAN_1
 62
     5
  6
CONTINUOUS
 10
-1.248815
 20
2.423850
  0
VERTEX
  8
PLAN_1
 62
     5
  6
CONTINUOUS
 10
-1.241539
 20
2.428213
  0
SEQEND
  8
0
  0
POLYLINE
  8
PLAN_1
 62
     5
  6
CONTINUOUS
 66
     1
 40
0.003000
 41
0.003000
  0
VERTEX
  8
PLAN_1
 62
     5
  6
CONTINUOUS
 10
-1.234260
 20
2.432094
  0
VERTEX
  8
PLAN_1
 62
     5
  6
CONTINUOUS
 10
-1.227472
 20
2.435976
  0
SEQEND
  8
0
  0
POLYLINE
  8
PLAN_1
 62
     5
  6
CONTINUOUS
 66
     1
 40
0.003000
 41
0.003000
  0
VERTEX
  8
PLAN_1
 62
     5
  6
CONTINUOUS
 10
-1.220193
 20
2.440343
  0
VERTEX
  8
PLAN_1
 62
     5
  6
CONTINUOUS
 10
-1.212917
 20
2.444220
  0
SEQEND
  8
0
  0
POLYLINE
  8
PLAN_1
 62
     5
  6
CONTINUOUS
 66
     1
 40
0.003000
 41
0.003000
  0
VERTEX
  8
PLAN_1
 62
     5
  6
CONTINUOUS
 10
-1.205642
 20
2.448587
  0
VERTEX
  8
PLAN_1
 62
     5
  6
CONTINUOUS
 10
-1.198366
 20
2.452469
  0
SEQEND
  8
0
  0
POLYLINE
  8
PLAN_1
 62
     5
  6
CONTINUOUS
 66
     1
 40
0.003000
 41
0.003000
  0
VERTEX
  8
PLAN_1
 62
     5
  6
CONTINUOUS
 10
-1.191091
 20
2.456835
  0
VERTEX
  8
PLAN_1
 62
     5
  6
CONTINUOUS
 10
-1.183815
 20
2.460713
  0
SEQEND
  8
0
  0
POLYLINE
  8
PLAN_1
 62
     5
  6
CONTINUOUS
 66
     1
 40
0.003000
 41
0.003000
  0
VERTEX
  8
PLAN_1
 62
     5
  6
CONTINUOUS
 10
-1.176539
 20
2.465079
  0
VERTEX
  8
PLAN_1
 62
     5
  6
CONTINUOUS
 10
-1.169264
 20
2.468961
  0
SEQEND
  8
0
  0
POLYLINE
  8
PLAN_1
 62
     5
  6
CONTINUOUS
 66
     1
 40
0.003000
 41
0.003000
  0
VERTEX
  8
PLAN_1
 62
     5
  6
CONTINUOUS
 10
-1.161984
 20
2.473327
  0
VERTEX
  8
PLAN_1
 62
     5
  6
CONTINUOUS
 10
-1.154709
 20
2.477205
  0
SEQEND
  8
0
  0
POLYLINE
  8
PLAN_1
 62
     5
  6
CONTINUOUS
 66
     1
 40
0.003000
 41
0.003000
  0
VERTEX
  8
PLAN_1
 62
     5
  6
CONTINUOUS
 10
-1.147433
 20
2.481087
  0
VERTEX
  8
PLAN_1
 62
     5
  6
CONTINUOUS
 10
-1.140157
 20
2.485453
  0
SEQEND
  8
0
  0
POLYLINE
  8
PLAN_1
 62
     5
  6
CONTINUOUS
 66
     1
 40
0.003000
 41
0.003000
  0
VERTEX
  8
PLAN_1
 62
     5
  6
CONTINUOUS
 10
-1.132882
 20
2.489335
  0
VERTEX
  8
PLAN_1
 62
     5
  6
CONTINUOUS
 10
-1.125606
 20
2.493697
  0
SEQEND
  8
0
  0
POLYLINE
  8
PLAN_1
 62
     5
  6
CONTINUOUS
 66
     1
 40
0.003000
 41
0.003000
  0
VERTEX
  8
PLAN_1
 62
     5
  6
CONTINUOUS
 10
-1.118331
 20
2.497579
  0
VERTEX
  8
PLAN_1
 62
     5
  6
CONTINUOUS
 10
-1.111055
 20
2.501945
  0
SEQEND
  8
0
  0
POLYLINE
  8
PLAN_1
 62
     5
  6
CONTINUOUS
 66
     1
 40
0.003000
 41
0.003000
  0
VERTEX
  8
PLAN_1
 62
     5
  6
CONTINUOUS
 10
-1.104264
 20
2.505827
  0
VERTEX
  8
PLAN_1
 62
     5
  6
CONTINUOUS
 10
-1.096988
 20
2.510193
  0
SEQEND
  8
0
  0
POLYLINE
  8
PLAN_1
 62
     5
  6
CONTINUOUS
 66
     1
 40
0.003000
 41
0.003000
  0
VERTEX
  8
PLAN_1
 62
     5
  6
CONTINUOUS
 10
-1.089709
 20
2.514071
  0
VERTEX
  8
PLAN_1
 62
     5
  6
CONTINUOUS
 10
-1.082433
 20
2.518437
  0
SEQEND
  8
0
  0
POLYLINE
  8
PLAN_1
 62
     5
  6
CONTINUOUS
 66
     1
 40
0.003000
 41
0.003000
  0
VERTEX
  8
PLAN_1
 62
     5
  6
CONTINUOUS
 10
-1.075157
 20
2.522319
  0
VERTEX
  8
PLAN_1
 62
     5
  6
CONTINUOUS
 10
-1.067882
 20
2.526197
  0
SEQEND
  8
0
  0
POLYLINE
  8
PLAN_1
 62
     5
  6
CONTINUOUS
 66
     1
 40
0.003000
 41
0.003000
  0
VERTEX
  8
PLAN_1
 62
     5
  6
CONTINUOUS
 10
-1.060606
 20
2.530563
  0
VERTEX
  8
PLAN_1
 62
     5
  6
CONTINUOUS
 10
-1.053331
 20
2.534445
  0
SEQEND
  8
0
  0
POLYLINE
  8
PLAN_1
 62
     5
  6
CONTINUOUS
 66
     1
 40
0.003000
 41
0.003000
  0
VERTEX
  8
PLAN_1
 62
     5
  6
CONTINUOUS
 10
-1.046055
 20
2.538811
  0
VERTEX
  8
PLAN_1
 62
     5
  6
CONTINUOUS
 10
-1.038780
 20
2.542689
  0
SEQEND
  8
0
  0
POLYLINE
  8
PLAN_1
 62
     5
  6
CONTINUOUS
 66
     1
 40
0.003000
 41
0.003000
  0
VERTEX
  8
PLAN_1
 62
     5
  6
CONTINUOUS
 10
-1.031504
 20
2.547055
  0
VERTEX
  8
PLAN_1
 62
     5
  6
CONTINUOUS
 10
-1.024224
 20
2.550937
  0
SEQEND
  8
0
  0
POLYLINE
  8
PLAN_1
 62
     5
  6
CONTINUOUS
 66
     1
 40
0.003000
 41
0.003000
  0
VERTEX
  8
PLAN_1
 62
     5
  6
CONTINUOUS
 10
-1.016949
 20
2.555303
  0
VERTEX
  8
PLAN_1
 62
     5
  6
CONTINUOUS
 10
-1.009673
 20
2.559185
  0
SEQEND
  8
0
  0
POLYLINE
  8
PLAN_1
 62
     5
  6
CONTINUOUS
 66
     1
 40
0.003000
 41
0.003000
  0
VERTEX
  8
PLAN_1
 62
     5
  6
CONTINUOUS
 10
-1.002398
 20
2.563547
  0
VERTEX
  8
PLAN_1
 62
     5
  6
CONTINUOUS
 10
-0.995122
 20
2.567429
  0
SEQEND
  8
0
  0
POLYLINE
  8
PLAN_1
 62
     5
  6
CONTINUOUS
 66
     1
 40
0.003000
 41
0.003000
  0
VERTEX
  8
PLAN_1
 62
     5
  6
CONTINUOUS
 10
-0.988331
 20
2.571311
  0
VERTEX
  8
PLAN_1
 62
     5
  6
CONTINUOUS
 10
-0.981055
 20
2.575677
  0
SEQEND
  8
0
  0
POLYLINE
  8
PLAN_1
 62
     5
  6
CONTINUOUS
 66
     1
 40
0.003000
 41
0.003000
  0
VERTEX
  8
PLAN_1
 62
     5
  6
CONTINUOUS
 10
-0.973780
 20
2.579555
  0
VERTEX
  8
PLAN_1
 62
     5
  6
CONTINUOUS
 10
-0.966504
 20
2.583921
  0
SEQEND
  8
0
  0
POLYLINE
  8
PLAN_1
 62
     5
  6
CONTINUOUS
 66
     1
 40
0.003000
 41
0.003000
  0
VERTEX
  8
PLAN_1
 62
     5
  6
CONTINUOUS
 10
-0.959228
 20
2.587803
  0
VERTEX
  8
PLAN_1
 62
     5
  6
CONTINUOUS
 10
-0.951949
 20
2.592169
  0
SEQEND
  8
0
  0
POLYLINE
  8
PLAN_1
 62
     5
  6
CONTINUOUS
 66
     1
 40
0.003000
 41
0.003000
  0
VERTEX
  8
PLAN_1
 62
     5
  6
CONTINUOUS
 10
-0.944673
 20
2.596047
  0
VERTEX
  8
PLAN_1
 62
     5
  6
CONTINUOUS
 10
-0.937398
 20
2.600413
  0
SEQEND
  8
0
  0
POLYLINE
  8
PLAN_1
 62
     5
  6
CONTINUOUS
 66
     1
 40
0.003000
 41
0.003000
  0
VERTEX
  8
PLAN_1
 62
     5
  6
CONTINUOUS
 10
-0.930122
 20
2.604295
  0
VERTEX
  8
PLAN_1
 62
     5
  6
CONTINUOUS
 10
-0.922846
 20
2.608661
  0
SEQEND
  8
0
  0
POLYLINE
  8
PLAN_1
 62
     5
  6
CONTINUOUS
 66
     1
 40
0.003000
 41
0.003000
  0
VERTEX
  8
PLAN_1
 62
     5
  6
CONTINUOUS
 10
-0.915571
 20
2.612539
  0
VERTEX
  8
PLAN_1
 62
     5
  6
CONTINUOUS
 10
-0.908295
 20
2.616421
  0
SEQEND
  8
0
  0
POLYLINE
  8
PLAN_1
 62
     5
  6
CONTINUOUS
 66
     1
 40
0.003000
 41
0.003000
  0
VERTEX
  8
PLAN_1
 62
     5
  6
CONTINUOUS
 10
-0.901020
 20
2.620787
  0
VERTEX
  8
PLAN_1
 62
     5
  6
CONTINUOUS
 10
-0.893744
 20
2.624669
  0
SEQEND
  8
0
  0
POLYLINE
  8
PLAN_1
 62
     5
  6
CONTINUOUS
 66
     1
 40
0.003000
 41
0.003000
  0
VERTEX
  8
PLAN_1
 62
     5
  6
CONTINUOUS
 10
-0.886465
 20
2.629031
  0
VERTEX
  8
PLAN_1
 62
     5
  6
CONTINUOUS
 10
-0.879189
 20
2.632913
  0
SEQEND
  8
0
  0
POLYLINE
  8
PLAN_1
 62
     5
  6
CONTINUOUS
 66
     1
 40
0.003000
 41
0.003000
  0
VERTEX
  8
PLAN_1
 62
     5
  6
CONTINUOUS
 10
-0.871913
 20
2.637280
  0
VERTEX
  8
PLAN_1
 62
     5
  6
CONTINUOUS
 10
-0.864638
 20
2.641161
  0
SEQEND
  8
0
  0
POLYLINE
  8
PLAN_1
 62
     5
  6
CONTINUOUS
 66
     1
 40
0.003000
 41
0.003000
  0
VERTEX
  8
PLAN_1
 62
     5
  6
CONTINUOUS
 10
-0.857846
 20
2.645528
  0
VERTEX
  8
PLAN_1
 62
     5
  6
CONTINUOUS
 10
-0.850571
 20
2.649406
  0
SEQEND
  8
0
  0
POLYLINE
  8
PLAN_1
 62
     5
  6
CONTINUOUS
 66
     1
 40
0.003000
 41
0.003000
  0
VERTEX
  8
PLAN_1
 62
     5
  6
CONTINUOUS
 10
-0.843295
 20
2.653772
  0
VERTEX
  8
PLAN_1
 62
     5
  6
CONTINUOUS
 10
-0.836020
 20
2.657654
  0
SEQEND
  8
0
  0
POLYLINE
  8
PLAN_1
 62
     5
  6
CONTINUOUS
 66
     1
 40
0.003000
 41
0.003000
  0
VERTEX
  8
PLAN_1
 62
     5
  6
CONTINUOUS
 10
-0.828744
 20
2.661531
  0
VERTEX
  8
PLAN_1
 62
     5
  6
CONTINUOUS
 10
-0.821469
 20
2.665898
  0
SEQEND
  8
0
  0
POLYLINE
  8
PLAN_1
 62
     5
  6
CONTINUOUS
 66
     1
 40
0.003000
 41
0.003000
  0
VERTEX
  8
PLAN_1
 62
     5
  6
CONTINUOUS
 10
-0.814189
 20
2.669780
  0
VERTEX
  8
PLAN_1
 62
     5
  6
CONTINUOUS
 10
-0.806913
 20
2.674146
  0
SEQEND
  8
0
  0
POLYLINE
  8
PLAN_1
 62
     5
  6
CONTINUOUS
 66
     1
 40
0.003000
 41
0.003000
  0
VERTEX
  8
PLAN_1
 62
     5
  6
CONTINUOUS
 10
-0.799638
 20
2.678024
  0
VERTEX
  8
PLAN_1
 62
     5
  6
CONTINUOUS
 10
-0.792362
 20
2.682390
  0
SEQEND
  8
0
  0
POLYLINE
  8
PLAN_1
 62
     5
  6
CONTINUOUS
 66
     1
 40
0.003000
 41
0.003000
  0
VERTEX
  8
PLAN_1
 62
     5
  6
CONTINUOUS
 10
-0.785087
 20
2.686272
  0
VERTEX
  8
PLAN_1
 62
     5
  6
CONTINUOUS
 10
-0.777811
 20
2.690638
  0
SEQEND
  8
0
  0
POLYLINE
  8
PLAN_1
 62
     5
  6
CONTINUOUS
 66
     1
 40
0.003000
 41
0.003000
  0
VERTEX
  8
PLAN_1
 62
     5
  6
CONTINUOUS
 10
-0.770535
 20
2.694520
  0
VERTEX
  8
PLAN_1
 62
     5
  6
CONTINUOUS
 10
-0.763260
 20
2.698882
  0
SEQEND
  8
0
  0
POLYLINE
  8
PLAN_1
 62
     5
  6
CONTINUOUS
 66
     1
 40
0.003000
 41
0.003000
  0
VERTEX
  8
PLAN_1
 62
     5
  6
CONTINUOUS
 10
-0.755980
 20
2.702764
  0
VERTEX
  8
PLAN_1
 62
     5
  6
CONTINUOUS
 10
-0.748705
 20
2.707130
  0
SEQEND
  8
0
  0
POLYLINE
  8
PLAN_1
 62
     5
  6
CONTINUOUS
 66
     1
 40
0.003000
 41
0.003000
  0
VERTEX
  8
PLAN_1
 62
     5
  6
CONTINUOUS
 10
-0.741429
 20
2.711012
  0
VERTEX
  8
PLAN_1
 62
     5
  6
CONTINUOUS
 10
-0.734154
 20
2.714890
  0
SEQEND
  8
0
  0
POLYLINE
  8
PLAN_1
  6
CONTINUOUS
 66
     1
 40
0.008244
 41
0.008244
  0
VERTEX
  8
PLAN_1
  6
CONTINUOUS
 10
-1.397244
 20
0.489874
  0
VERTEX
  8
PLAN_1
  6
CONTINUOUS
 10
-1.417134
 20
0.490358
  0
VERTEX
  8
PLAN_1
  6
CONTINUOUS
 10
-1.437020
 20
0.491815
  0
VERTEX
  8
PLAN_1
  6
CONTINUOUS
 10
-1.456425
 20
0.494240
  0
VERTEX
  8
PLAN_1
  6
CONTINUOUS
 10
-1.475343
 20
0.497634
  0
VERTEX
  8
PLAN_1
  6
CONTINUOUS
 10
-1.494260
 20
0.502000
  0
VERTEX
  8
PLAN_1
  6
CONTINUOUS
 10
-1.512693
 20
0.507335
  0
VERTEX
  8
PLAN_1
  6
CONTINUOUS
 10
-1.530638
 20
0.513157
  0
VERTEX
  8
PLAN_1
  6
CONTINUOUS
 10
-1.548102
 20
0.520433
  0
VERTEX
  8
PLAN_1
  6
CONTINUOUS
 10
-1.565563
 20
0.528193
  0
VERTEX
  8
PLAN_1
  6
CONTINUOUS
 10
-1.582055
 20
0.536441
  0
VERTEX
  8
PLAN_1
  6
CONTINUOUS
 10
-1.598551
 20
0.545657
  0
VERTEX
  8
PLAN_1
  6
CONTINUOUS
 10
-1.614071
 20
0.555843
  0
VERTEX
  8
PLAN_1
  6
CONTINUOUS
 10
-1.629110
 20
0.567000
  0
VERTEX
  8
PLAN_1
  6
CONTINUOUS
 10
-1.644146
 20
0.578157
  0
VERTEX
  8
PLAN_1
  6
CONTINUOUS
 10
-1.658213
 20
0.590283
  0
VERTEX
  8
PLAN_1
  6
CONTINUOUS
 10
-1.671311
 20
0.603378
  0
VERTEX
  8
PLAN_1
  6
CONTINUOUS
 10
-1.684406
 20
0.616961
  0
VERTEX
  8
PLAN_1
  6
CONTINUOUS
 10
-1.696535
 20
0.631028
  0
VERTEX
  8
PLAN_1
  6
CONTINUOUS
 10
-1.708177
 20
0.645583
  0
VERTEX
  8
PLAN_1
  6
CONTINUOUS
 10
-1.718846
 20
0.660618
  0
VERTEX
  8
PLAN_1
  6
CONTINUOUS
 10
-1.729031
 20
0.676626
  0
VERTEX
  8
PLAN_1
  6
CONTINUOUS
 10
-1.738248
 20
0.692634
  0
VERTEX
  8
PLAN_1
  6
CONTINUOUS
 10
-1.746980
 20
0.709610
  0
VERTEX
  8
PLAN_1
  6
CONTINUOUS
 10
-1.754740
 20
0.726587
  0
VERTEX
  8
PLAN_1
  6
CONTINUOUS
 10
-1.761531
 20
0.744051
  0
VERTEX
  8
PLAN_1
  6
CONTINUOUS
 10
-1.767839
 20
0.762484
  0
VERTEX
  8
PLAN_1
  6
CONTINUOUS
 10
-1.772689
 20
0.780913
  0
VERTEX
  8
PLAN_1
  6
CONTINUOUS
 10
-1.777055
 20
0.799346
  0
VERTEX
  8
PLAN_1
  6
CONTINUOUS
 10
-1.780449
 20
0.818752
  0
VERTEX
  8
PLAN_1
  6
CONTINUOUS
 10
-1.782878
 20
0.838154
  0
VERTEX
  8
PLAN_1
  6
CONTINUOUS
 10
-1.784815
 20
0.857555
  0
VERTEX
  8
PLAN_1
  6
CONTINUOUS
 10
-1.785303
 20
0.877445
  0
VERTEX
  8
PLAN_1
  6
CONTINUOUS
 10
-1.784815
 20
0.897819
  0
VERTEX
  8
PLAN_1
  6
CONTINUOUS
 10
-1.782878
 20
0.917220
  0
VERTEX
  8
PLAN_1
  6
CONTINUOUS
 10
-1.780449
 20
0.936622
  0
VERTEX
  8
PLAN_1
  6
CONTINUOUS
 10
-1.777055
 20
0.956028
  0
VERTEX
  8
PLAN_1
  6
CONTINUOUS
 10
-1.772689
 20
0.974457
  0
VERTEX
  8
PLAN_1
  6
CONTINUOUS
 10
-1.767839
 20
0.992890
  0
VERTEX
  8
PLAN_1
  6
CONTINUOUS
 10
-1.761531
 20
1.010839
  0
VERTEX
  8
PLAN_1
  6
CONTINUOUS
 10
-1.754740
 20
1.028787
  0
VERTEX
  8
PLAN_1
  6
CONTINUOUS
 10
-1.746980
 20
1.045764
  0
VERTEX
  8
PLAN_1
  6
CONTINUOUS
 10
-1.738248
 20
1.062740
  0
VERTEX
  8
PLAN_1
  6
CONTINUOUS
 10
-1.729031
 20
1.078748
  0
VERTEX
  8
PLAN_1
  6
CONTINUOUS
 10
-1.718846
 20
1.094272
  0
VERTEX
  8
PLAN_1
  6
CONTINUOUS
 10
-1.708177
 20
1.109791
  0
VERTEX
  8
PLAN_1
  6
CONTINUOUS
 10
-1.696535
 20
1.124346
  0
VERTEX
  8
PLAN_1
  6
CONTINUOUS
 10
-1.684406
 20
1.138413
  0
VERTEX
  8
PLAN_1
  6
CONTINUOUS
 10
-1.671311
 20
1.151996
  0
VERTEX
  8
PLAN_1
  6
CONTINUOUS
 10
-1.658213
 20
1.164606
  0
VERTEX
  8
PLAN_1
  6
CONTINUOUS
 10
-1.644146
 20
1.176732
  0
VERTEX
  8
PLAN_1
  6
CONTINUOUS
 10
-1.629110
 20
1.188374
  0
VERTEX
  8
PLAN_1
  6
CONTINUOUS
 10
-1.614071
 20
1.199047
  0
VERTEX
  8
PLAN_1
  6
CONTINUOUS
 10
-1.598551
 20
1.209232
  0
VERTEX
  8
PLAN_1
  6
CONTINUOUS
 10
-1.582055
 20
1.218933
  0
VERTEX
  8
PLAN_1
  6
CONTINUOUS
 10
-1.565563
 20
1.227181
  0
VERTEX
  8
PLAN_1
  6
CONTINUOUS
 10
-1.548102
 20
1.234941
  0
VERTEX
  8
PLAN_1
  6
CONTINUOUS
 10
-1.530638
 20
1.241732
  0
VERTEX
  8
PLAN_1
  6
CONTINUOUS
 10
-1.512693
 20
1.248039
  0
VERTEX
  8
PLAN_1
  6
CONTINUOUS
 10
-1.494260
 20
1.253374
  0
VERTEX
  8
PLAN_1
  6
CONTINUOUS
 10
-1.475343
 20
1.257740
  0
VERTEX
  8
PLAN_1
  6
CONTINUOUS
 10
-1.456425
 20
1.261134
  0
VERTEX
  8
PLAN_1
  6
CONTINUOUS
 10
-1.437020
 20
1.263559
  0
VERTEX
  8
PLAN_1
  6
CONTINUOUS
 10
-1.417134
 20
1.265016
  0
VERTEX
  8
PLAN_1
  6
CONTINUOUS
 10
-1.397244
 20
1.265500
  0
VERTEX
  8
PLAN_1
  6
CONTINUOUS
 10
-1.391425
 20
1.265500
  0
VERTEX
  8
PLAN_1
  6
CONTINUOUS
 10
-1.385118
 20
1.265500
  0
VERTEX
  8
PLAN_1
  6
CONTINUOUS
 10
-1.379299
 20
1.265016
  0
VERTEX
  8
PLAN_1
  6
CONTINUOUS
 10
-1.373476
 20
1.265016
  0
VERTEX
  8
PLAN_1
  6
CONTINUOUS
 10
-1.367169
 20
1.264531
  0
VERTEX
  8
PLAN_1
  6
CONTINUOUS
 10
-1.361350
 20
1.264047
  0
VERTEX
  8
PLAN_1
  6
CONTINUOUS
 10
-1.355528
 20
1.263559
  0
VERTEX
  8
PLAN_1
  6
CONTINUOUS
 10
-1.349709
 20
1.262591
  0
VERTEX
  8
PLAN_1
  6
CONTINUOUS
 10
-1.326425
 20
1.257740
  0
VERTEX
  8
PLAN_1
  6
CONTINUOUS
 10
-1.264823
 20
1.244157
  0
VERTEX
  8
PLAN_1
  6
CONTINUOUS
 10
-1.177508
 20
1.225240
  0
VERTEX
  8
PLAN_1
  6
CONTINUOUS
 10
-1.077098
 20
1.203898
  0
VERTEX
  8
PLAN_1
  6
CONTINUOUS
 10
-0.976205
 20
1.182067
  0
VERTEX
  8
PLAN_1
  6
CONTINUOUS
 10
-0.887921
 20
1.163150
  0
VERTEX
  8
PLAN_1
  6
CONTINUOUS
 10
-0.823894
 20
1.149567
  0
VERTEX
  8
PLAN_1
  6
CONTINUOUS
 10
-0.797697
 20
1.144232
  0
SEQEND
  8
0
  0
POLYLINE
  8
PLAN_1
  6
CONTINUOUS
 66
     1
 40
0.008244
 41
0.008244
  0
VERTEX
  8
PLAN_1
  6
CONTINUOUS
 10
-0.797697
 20
1.144232
  0
VERTEX
  8
PLAN_1
  6
CONTINUOUS
 10
-0.797697
 20
0.656736
  0
SEQEND
  8
0
  0
POLYLINE
  8
PLAN_1
  6
CONTINUOUS
 66
     1
 40
0.008244
 41
0.008244
  0
VERTEX
  8
PLAN_1
  6
CONTINUOUS
 10
-0.797697
 20
0.656736
  0
VERTEX
  8
PLAN_1
  6
CONTINUOUS
 10
-0.823894
 20
0.649461
  0
VERTEX
  8
PLAN_1
  6
CONTINUOUS
 10
-0.888406
 20
0.631028
  0
VERTEX
  8
PLAN_1
  6
CONTINUOUS
 10
-0.977657
 20
0.604350
  0
VERTEX
  8
PLAN_1
  6
CONTINUOUS
 10
-1.080008
 20
0.574276
  0
VERTEX
  8
PLAN_1
  6
CONTINUOUS
 10
-1.181390
 20
0.544201
  0
VERTEX
  8
PLAN_1
  6
CONTINUOUS
 10
-1.269673
 20
0.517524
  0
VERTEX
  8
PLAN_1
  6
CONTINUOUS
 10
-1.332244
 20
0.499091
  0
VERTEX
  8
PLAN_1
  6
CONTINUOUS
 10
-1.355528
 20
0.492299
  0
VERTEX
  8
PLAN_1
  6
CONTINUOUS
 10
-1.356984
 20
0.491815
  0
VERTEX
  8
PLAN_1
  6
CONTINUOUS
 10
-1.360866
 20
0.491815
  0
VERTEX
  8
PLAN_1
  6
CONTINUOUS
 10
-1.365717
 20
0.491327
  0
VERTEX
  8
PLAN_1
  6
CONTINUOUS
 10
-1.372020
 20
0.490843
  0
VERTEX
  8
PLAN_1
  6
CONTINUOUS
 10
-1.379299
 20
0.490358
  0
VERTEX
  8
PLAN_1
  6
CONTINUOUS
 10
-1.386087
 20
0.489874
  0
VERTEX
  8
PLAN_1
  6
CONTINUOUS
 10
-1.392394
 20
0.489874
  0
VERTEX
  8
PLAN_1
  6
CONTINUOUS
 10
-1.397244
 20
0.489874
  0
SEQEND
  8
0
  0
POLYLINE
  8
PLAN_1
  6
CONTINUOUS
 66
     1
 40
0.008244
 41
0.008244
  0
VERTEX
  8
PLAN_1
  6
CONTINUOUS
 10
-1.158591
 20
0.881327
  0
VERTEX
  8
PLAN_1
  6
CONTINUOUS
 10
-1.272098
 20
0.670319
  0
VERTEX
  8
PLAN_1
  6
CONTINUOUS
 10
-1.521421
 20
0.670319
  0
VERTEX
  8
PLAN_1
  6
CONTINUOUS
 10
-1.638327
 20
0.881327
  0
VERTEX
  8
PLAN_1
  6
CONTINUOUS
 10
-1.521421
 20
1.082146
  0
VERTEX
  8
PLAN_1
  6
CONTINUOUS
 10
-1.272098
 20
1.082146
  0
VERTEX
  8
PLAN_1
  6
CONTINUOUS
 10
-1.158591
 20
0.881327
  0
SEQEND
  8
0
  0
POLYLINE
  8
PLAN_1
  6
CONTINUOUS
 66
     1
 40
0.006787
 41
0.006787
  0
VERTEX
  8
PLAN_1
  6
CONTINUOUS
 10
-1.285193
 20
0.868228
  0
VERTEX
  8
PLAN_1
  6
CONTINUOUS
 10
-1.285193
 20
0.888114
  0
VERTEX
  8
PLAN_1
  6
CONTINUOUS
 10
-1.510268
 20
0.888114
  0
VERTEX
  8
PLAN_1
  6
CONTINUOUS
 10
-1.510268
 20
0.868228
  0
VERTEX
  8
PLAN_1
  6
CONTINUOUS
 10
-1.285193
 20
0.868228
  0
SEQEND
  8
0
  0
POLYLINE
  8
PLAN_1
  6
CONTINUOUS
 66
     1
 40
0.005335
 41
0.005335
  0
VERTEX
  8
PLAN_1
  6
CONTINUOUS
 10
-1.396760
 20
0.785280
  0
VERTEX
  8
PLAN_1
  6
CONTINUOUS
 10
-1.387059
 20
0.785768
  0
VERTEX
  8
PLAN_1
  6
CONTINUOUS
 10
-1.378327
 20
0.787220
  0
VERTEX
  8
PLAN_1
  6
CONTINUOUS
 10
-1.369110
 20
0.789646
  0
VERTEX
  8
PLAN_1
  6
CONTINUOUS
 10
-1.360866
 20
0.792555
  0
VERTEX
  8
PLAN_1
  6
CONTINUOUS
 10
-1.352618
 20
0.796437
  0
VERTEX
  8
PLAN_1
  6
CONTINUOUS
 10
-1.345343
 20
0.800803
  0
VERTEX
  8
PLAN_1
  6
CONTINUOUS
 10
-1.338067
 20
0.806138
  0
VERTEX
  8
PLAN_1
  6
CONTINUOUS
 10
-1.331760
 20
0.812445
  0
VERTEX
  8
PLAN_1
  6
CONTINUOUS
 10
-1.325941
 20
0.818752
  0
VERTEX
  8
PLAN_1
  6
CONTINUOUS
 10
-1.320602
 20
0.826028
  0
VERTEX
  8
PLAN_1
  6
CONTINUOUS
 10
-1.315752
 20
0.833303
  0
VERTEX
  8
PLAN_1
  6
CONTINUOUS
 10
-1.311874
 20
0.841547
  0
VERTEX
  8
PLAN_1
  6
CONTINUOUS
 10
-1.308961
 20
0.849795
  0
VERTEX
  8
PLAN_1
  6
CONTINUOUS
 10
-1.306535
 20
0.858528
  0
VERTEX
  8
PLAN_1
  6
CONTINUOUS
 10
-1.305083
 20
0.867744
  0
VERTEX
  8
PLAN_1
  6
CONTINUOUS
 10
-1.304598
 20
0.877445
  0
VERTEX
  8
PLAN_1
  6
CONTINUOUS
 10
-1.305083
 20
0.886661
  0
VERTEX
  8
PLAN_1
  6
CONTINUOUS
 10
-1.306535
 20
0.895878
  0
VERTEX
  8
PLAN_1
  6
CONTINUOUS
 10
-1.308961
 20
0.904610
  0
VERTEX
  8
PLAN_1
  6
CONTINUOUS
 10
-1.311874
 20
0.912854
  0
VERTEX
  8
PLAN_1
  6
CONTINUOUS
 10
-1.315752
 20
0.921102
  0
VERTEX
  8
PLAN_1
  6
CONTINUOUS
 10
-1.320602
 20
0.928378
  0
VERTEX
  8
PLAN_1
  6
CONTINUOUS
 10
-1.325941
 20
0.935654
  0
VERTEX
  8
PLAN_1
  6
CONTINUOUS
 10
-1.331760
 20
0.941961
  0
VERTEX
  8
PLAN_1
  6
CONTINUOUS
 10
-1.338067
 20
0.948264
  0
VERTEX
  8
PLAN_1
  6
CONTINUOUS
 10
-1.345343
 20
0.953598
  0
VERTEX
  8
PLAN_1
  6
CONTINUOUS
 10
-1.352618
 20
0.957965
  0
VERTEX
  8
PLAN_1
  6
CONTINUOUS
 10
-1.360866
 20
0.961846
  0
VERTEX
  8
PLAN_1
  6
CONTINUOUS
 10
-1.369110
 20
0.964756
  0
VERTEX
  8
PLAN_1
  6
CONTINUOUS
 10
-1.378327
 20
0.967181
  0
VERTEX
  8
PLAN_1
  6
CONTINUOUS
 10
-1.387059
 20
0.968638
  0
VERTEX
  8
PLAN_1
  6
CONTINUOUS
 10
-1.396760
 20
0.969122
  0
VERTEX
  8
PLAN_1
  6
CONTINUOUS
 10
-1.405976
 20
0.968638
  0
VERTEX
  8
PLAN_1
  6
CONTINUOUS
 10
-1.415193
 20
0.967181
  0
VERTEX
  8
PLAN_1
  6
CONTINUOUS
 10
-1.423925
 20
0.964756
  0
VERTEX
  8
PLAN_1
  6
CONTINUOUS
 10
-1.432169
 20
0.961846
  0
VERTEX
  8
PLAN_1
  6
CONTINUOUS
 10
-1.440417
 20
0.957965
  0
VERTEX
  8
PLAN_1
  6
CONTINUOUS
 10
-1.448177
 20
0.953598
  0
VERTEX
  8
PLAN_1
  6
CONTINUOUS
 10
-1.454969
 20
0.948264
  0
VERTEX
  8
PLAN_1
  6
CONTINUOUS
 10
-1.461760
 20
0.941961
  0
VERTEX
  8
PLAN_1
  6
CONTINUOUS
 10
-1.467579
 20
0.935654
  0
VERTEX
  8
PLAN_1
  6
CONTINUOUS
 10
-1.472917
 20
0.928378
  0
VERTEX
  8
PLAN_1
  6
CONTINUOUS
 10
-1.477283
 20
0.921102
  0
VERTEX
  8
PLAN_1
  6
CONTINUOUS
 10
-1.481161
 20
0.912854
  0
VERTEX
  8
PLAN_1
  6
CONTINUOUS
 10
-1.484559
 20
0.904610
  0
VERTEX
  8
PLAN_1
  6
CONTINUOUS
 10
-1.486500
 20
0.895878
  0
VERTEX
  8
PLAN_1
  6
CONTINUOUS
 10
-1.487953
 20
0.886661
  0
VERTEX
  8
PLAN_1
  6
CONTINUOUS
 10
-1.488437
 20
0.877445
  0
VERTEX
  8
PLAN_1
  6
CONTINUOUS
 10
-1.487953
 20
0.867744
  0
VERTEX
  8
PLAN_1
  6
CONTINUOUS
 10
-1.486500
 20
0.858528
  0
VERTEX
  8
PLAN_1
  6
CONTINUOUS
 10
-1.484559
 20
0.849795
  0
VERTEX
  8
PLAN_1
  6
CONTINUOUS
 10
-1.481161
 20
0.841547
  0
VERTEX
  8
PLAN_1
  6
CONTINUOUS
 10
-1.477283
 20
0.833303
  0
VERTEX
  8
PLAN_1
  6
CONTINUOUS
 10
-1.472917
 20
0.826028
  0
VERTEX
  8
PLAN_1
  6
CONTINUOUS
 10
-1.467579
 20
0.818752
  0
VERTEX
  8
PLAN_1
  6
CONTINUOUS
 10
-1.461760
 20
0.812445
  0
VERTEX
  8
PLAN_1
  6
CONTINUOUS
 10
-1.454969
 20
0.806138
  0
VERTEX
  8
PLAN_1
  6
CONTINUOUS
 10
-1.448177
 20
0.800803
  0
VERTEX
  8
PLAN_1
  6
CONTINUOUS
 10
-1.440417
 20
0.796437
  0
VERTEX
  8
PLAN_1
  6
CONTINUOUS
 10
-1.432169
 20
0.792555
  0
VERTEX
  8
PLAN_1
  6
CONTINUOUS
 10
-1.423925
 20
0.789646
  0
VERTEX
  8
PLAN_1
  6
CONTINUOUS
 10
-1.415193
 20
0.787220
  0
VERTEX
  8
PLAN_1
  6
CONTINUOUS
 10
-1.405976
 20
0.785768
  0
VERTEX
  8
PLAN_1
  6
CONTINUOUS
 10
-1.396760
 20
0.785280
  0
SEQEND
  8
0
  0
POLYLINE
  8
PLAN_1
  6
CONTINUOUS
 66
     1
 40
0.006787
 41
0.006787
  0
VERTEX
  8
PLAN_1
  6
CONTINUOUS
 10
-1.148406
 20
1.070504
  0
VERTEX
  8
PLAN_1
  6
CONTINUOUS
 10
-1.206614
 20
1.129197
  0
VERTEX
  8
PLAN_1
  6
CONTINUOUS
 10
-1.296835
 20
1.124831
  0
VERTEX
  8
PLAN_1
  6
CONTINUOUS
 10
-1.358441
 20
1.188858
  0
VERTEX
  8
PLAN_1
  6
CONTINUOUS
 10
-1.441386
 20
1.188858
  0
VERTEX
  8
PLAN_1
  6
CONTINUOUS
 10
-1.501535
 20
1.122406
  0
VERTEX
  8
PLAN_1
  6
CONTINUOUS
 10
-1.591272
 20
1.124346
  0
VERTEX
  8
PLAN_1
  6
CONTINUOUS
 10
-1.649969
 20
1.066138
  0
VERTEX
  8
PLAN_1
  6
CONTINUOUS
 10
-1.645602
 20
0.975913
  0
VERTEX
  8
PLAN_1
  6
CONTINUOUS
 10
-1.709630
 20
0.914795
  0
VERTEX
  8
PLAN_1
  6
CONTINUOUS
 10
-1.709630
 20
0.831846
  0
VERTEX
  8
PLAN_1
  6
CONTINUOUS
 10
-1.643177
 20
0.771701
  0
VERTEX
  8
PLAN_1
  6
CONTINUOUS
 10
-1.644630
 20
0.683417
  0
VERTEX
  8
PLAN_1
  6
CONTINUOUS
 10
-1.585937
 20
0.625209
  0
VERTEX
  8
PLAN_1
  6
CONTINUOUS
 10
-1.496201
 20
0.629575
  0
VERTEX
  8
PLAN_1
  6
CONTINUOUS
 10
-1.438476
 20
0.565543
  0
VERTEX
  8
PLAN_1
  6
CONTINUOUS
 10
-1.355528
 20
0.565543
  0
VERTEX
  8
PLAN_1
  6
CONTINUOUS
 10
-1.294409
 20
0.635878
  0
VERTEX
  8
PLAN_1
  6
CONTINUOUS
 10
-1.204189
 20
0.630543
  0
VERTEX
  8
PLAN_1
  6
CONTINUOUS
 10
-1.145492
 20
0.689236
  0
VERTEX
  8
PLAN_1
  6
CONTINUOUS
 10
-1.152283
 20
0.777520
  0
VERTEX
  8
PLAN_1
  6
CONTINUOUS
 10
-1.084858
 20
0.838154
  0
VERTEX
  8
PLAN_1
  6
CONTINUOUS
 10
-1.084858
 20
0.920614
  0
VERTEX
  8
PLAN_1
  6
CONTINUOUS
 10
-1.151315
 20
0.981248
  0
VERTEX
  8
PLAN_1
  6
CONTINUOUS
 10
-1.148406
 20
1.070504
  0
SEQEND
  8
0
  0
POLYLINE
  8
PLAN_1
 62
     5
  6
CONTINUOUS
 66
     1
 40
0.003000
 41
0.003000
  0
VERTEX
  8
PLAN_1
 62
     5
  6
CONTINUOUS
 10
-0.963591
 20
3.703465
  0
VERTEX
  8
PLAN_1
 62
     5
  6
CONTINUOUS
 10
-0.963591
 20
3.695217
  0
SEQEND
  8
0
  0
POLYLINE
  8
PLAN_1
 62
     5
  6
CONTINUOUS
 66
     1
 40
0.003000
 41
0.003000
  0
VERTEX
  8
PLAN_1
 62
     5
  6
CONTINUOUS
 10
-0.963591
 20
3.686972
  0
VERTEX
  8
PLAN_1
 62
     5
  6
CONTINUOUS
 10
-0.963591
 20
3.678724
  0
SEQEND
  8
0
  0
POLYLINE
  8
PLAN_1
 62
     5
  6
CONTINUOUS
 66
     1
 40
0.003000
 41
0.003000
  0
VERTEX
  8
PLAN_1
 62
     5
  6
CONTINUOUS
 10
-0.963591
 20
3.670480
  0
VERTEX
  8
PLAN_1
 62
     5
  6
CONTINUOUS
 10
-0.963591
 20
3.661748
  0
SEQEND
  8
0
  0
POLYLINE
  8
PLAN_1
 62
     5
  6
CONTINUOUS
 66
     1
 40
0.003000
 41
0.003000
  0
VERTEX
  8
PLAN_1
 62
     5
  6
CONTINUOUS
 10
-0.963591
 20
3.653504
  0
VERTEX
  8
PLAN_1
 62
     5
  6
CONTINUOUS
 10
-0.963591
 20
3.645256
  0
SEQEND
  8
0
  0
POLYLINE
  8
PLAN_1
 62
     5
  6
CONTINUOUS
 66
     1
 40
0.003000
 41
0.003000
  0
VERTEX
  8
PLAN_1
 62
     5
  6
CONTINUOUS
 10
-0.963591
 20
3.637008
  0
VERTEX
  8
PLAN_1
 62
     5
  6
CONTINUOUS
 10
-0.963591
 20
3.628764
  0
SEQEND
  8
0
  0
POLYLINE
  8
PLAN_1
 62
     5
  6
CONTINUOUS
 66
     1
 40
0.003000
 41
0.003000
  0
VERTEX
  8
PLAN_1
 62
     5
  6
CONTINUOUS
 10
-0.963591
 20
3.620516
  0
VERTEX
  8
PLAN_1
 62
     5
  6
CONTINUOUS
 10
-0.963591
 20
3.611787
  0
SEQEND
  8
0
  0
POLYLINE
  8
PLAN_1
 62
     5
  6
CONTINUOUS
 66
     1
 40
0.003000
 41
0.003000
  0
VERTEX
  8
PLAN_1
 62
     5
  6
CONTINUOUS
 10
-0.963591
 20
3.603539
  0
VERTEX
  8
PLAN_1
 62
     5
  6
CONTINUOUS
 10
-0.963591
 20
3.595295
  0
SEQEND
  8
0
  0
POLYLINE
  8
PLAN_1
 62
     5
  6
CONTINUOUS
 66
     1
 40
0.003000
 41
0.003000
  0
VERTEX
  8
PLAN_1
 62
     5
  6
CONTINUOUS
 10
-0.963591
 20
3.587047
  0
VERTEX
  8
PLAN_1
 62
     5
  6
CONTINUOUS
 10
-0.963591
 20
3.578799
  0
SEQEND
  8
0
  0
POLYLINE
  8
PLAN_1
 62
     5
  6
CONTINUOUS
 66
     1
 40
0.003000
 41
0.003000
  0
VERTEX
  8
PLAN_1
 62
     5
  6
CONTINUOUS
 10
-0.963591
 20
3.570555
  0
VERTEX
  8
PLAN_1
 62
     5
  6
CONTINUOUS
 10
-0.963591
 20
3.561823
  0
SEQEND
  8
0
  0
POLYLINE
  8
PLAN_1
 62
     5
  6
CONTINUOUS
 66
     1
 40
0.003000
 41
0.003000
  0
VERTEX
  8
PLAN_1
 62
     5
  6
CONTINUOUS
 10
-0.963591
 20
3.553579
  0
VERTEX
  8
PLAN_1
 62
     5
  6
CONTINUOUS
 10
-0.963591
 20
3.545331
  0
SEQEND
  8
0
  0
POLYLINE
  8
PLAN_1
 62
     5
  6
CONTINUOUS
 66
     1
 40
0.003000
 41
0.003000
  0
VERTEX
  8
PLAN_1
 62
     5
  6
CONTINUOUS
 10
-0.963591
 20
3.537087
  0
VERTEX
  8
PLAN_1
 62
     5
  6
CONTINUOUS
 10
-0.963591
 20
3.528839
  0
SEQEND
  8
0
  0
POLYLINE
  8
PLAN_1
 62
     5
  6
CONTINUOUS
 66
     1
 40
0.003000
 41
0.003000
  0
VERTEX
  8
PLAN_1
 62
     5
  6
CONTINUOUS
 10
-0.963591
 20
3.520106
  0
VERTEX
  8
PLAN_1
 62
     5
  6
CONTINUOUS
 10
-0.963591
 20
3.511862
  0
SEQEND
  8
0
  0
POLYLINE
  8
PLAN_1
 62
     5
  6
CONTINUOUS
 66
     1
 40
0.003000
 41
0.003000
  0
VERTEX
  8
PLAN_1
 62
     5
  6
CONTINUOUS
 10
-0.963591
 20
3.503614
  0
VERTEX
  8
PLAN_1
 62
     5
  6
CONTINUOUS
 10
-0.963591
 20
3.495370
  0
SEQEND
  8
0
  0
POLYLINE
  8
PLAN_1
 62
     5
  6
CONTINUOUS
 66
     1
 40
0.003000
 41
0.003000
  0
VERTEX
  8
PLAN_1
 62
     5
  6
CONTINUOUS
 10
-0.963591
 20
3.487122
  0
VERTEX
  8
PLAN_1
 62
     5
  6
CONTINUOUS
 10
-0.963591
 20
3.478878
  0
SEQEND
  8
0
  0
POLYLINE
  8
PLAN_1
 62
     5
  6
CONTINUOUS
 66
     1
 40
0.003000
 41
0.003000
  0
VERTEX
  8
PLAN_1
 62
     5
  6
CONTINUOUS
 10
-0.963591
 20
3.470146
  0
VERTEX
  8
PLAN_1
 62
     5
  6
CONTINUOUS
 10
-0.963591
 20
3.461898
  0
SEQEND
  8
0
  0
POLYLINE
  8
PLAN_1
 62
     5
  6
CONTINUOUS
 66
     1
 40
0.003000
 41
0.003000
  0
VERTEX
  8
PLAN_1
 62
     5
  6
CONTINUOUS
 10
-0.963591
 20
3.453654
  0
VERTEX
  8
PLAN_1
 62
     5
  6
CONTINUOUS
 10
-0.963591
 20
3.445406
  0
SEQEND
  8
0
  0
POLYLINE
  8
PLAN_1
 62
     5
  6
CONTINUOUS
 66
     1
 40
0.003000
 41
0.003000
  0
VERTEX
  8
PLAN_1
 62
     5
  6
CONTINUOUS
 10
-0.963591
 20
3.437161
  0
VERTEX
  8
PLAN_1
 62
     5
  6
CONTINUOUS
 10
-0.963591
 20
3.428913
  0
SEQEND
  8
0
  0
POLYLINE
  8
PLAN_1
 62
     5
  6
CONTINUOUS
 66
     1
 40
0.003000
 41
0.003000
  0
VERTEX
  8
PLAN_1
 62
     5
  6
CONTINUOUS
 10
-0.963591
 20
3.420185
  0
VERTEX
  8
PLAN_1
 62
     5
  6
CONTINUOUS
 10
-0.963591
 20
3.411937
  0
SEQEND
  8
0
  0
POLYLINE
  8
PLAN_1
 62
     5
  6
CONTINUOUS
 66
     1
 40
0.003000
 41
0.003000
  0
VERTEX
  8
PLAN_1
 62
     5
  6
CONTINUOUS
 10
-0.963591
 20
3.403689
  0
VERTEX
  8
PLAN_1
 62
     5
  6
CONTINUOUS
 10
-0.963591
 20
3.395445
  0
SEQEND
  8
0
  0
POLYLINE
  8
PLAN_1
 62
     5
  6
CONTINUOUS
 66
     1
 40
0.003000
 41
0.003000
  0
VERTEX
  8
PLAN_1
 62
     5
  6
CONTINUOUS
 10
-0.963591
 20
3.387197
  0
VERTEX
  8
PLAN_1
 62
     5
  6
CONTINUOUS
 10
-0.963591
 20
3.378953
  0
SEQEND
  8
0
  0
POLYLINE
  8
PLAN_1
 62
     5
  6
CONTINUOUS
 66
     1
 40
0.003000
 41
0.003000
  0
VERTEX
  8
PLAN_1
 62
     5
  6
CONTINUOUS
 10
-0.963591
 20
3.370220
  0
VERTEX
  8
PLAN_1
 62
     5
  6
CONTINUOUS
 10
-0.963591
 20
3.361976
  0
SEQEND
  8
0
  0
POLYLINE
  8
PLAN_1
 62
     5
  6
CONTINUOUS
 66
     1
 40
0.003000
 41
0.003000
  0
VERTEX
  8
PLAN_1
 62
     5
  6
CONTINUOUS
 10
-0.963591
 20
3.353728
  0
VERTEX
  8
PLAN_1
 62
     5
  6
CONTINUOUS
 10
-0.963591
 20
3.345484
  0
SEQEND
  8
0
  0
POLYLINE
  8
PLAN_1
 62
     5
  6
CONTINUOUS
 66
     1
 40
0.003000
 41
0.003000
  0
VERTEX
  8
PLAN_1
 62
     5
  6
CONTINUOUS
 10
-0.963591
 20
3.337236
  0
VERTEX
  8
PLAN_1
 62
     5
  6
CONTINUOUS
 10
-0.963591
 20
3.328988
  0
SEQEND
  8
0
  0
POLYLINE
  8
PLAN_1
 62
     5
  6
CONTINUOUS
 66
     1
 40
0.003000
 41
0.003000
  0
VERTEX
  8
PLAN_1
 62
     5
  6
CONTINUOUS
 10
-0.963591
 20
3.320260
  0
VERTEX
  8
PLAN_1
 62
     5
  6
CONTINUOUS
 10
-0.963591
 20
3.312012
  0
SEQEND
  8
0
  0
POLYLINE
  8
PLAN_1
 62
     5
  6
CONTINUOUS
 66
     1
 40
0.003000
 41
0.003000
  0
VERTEX
  8
PLAN_1
 62
     5
  6
CONTINUOUS
 10
-0.963591
 20
3.303768
  0
VERTEX
  8
PLAN_1
 62
     5
  6
CONTINUOUS
 10
-0.963591
 20
3.295520
  0
SEQEND
  8
0
  0
POLYLINE
  8
PLAN_1
 62
     5
  6
CONTINUOUS
 66
     1
 40
0.003000
 41
0.003000
  0
VERTEX
  8
PLAN_1
 62
     5
  6
CONTINUOUS
 10
-0.963591
 20
3.287276
  0
VERTEX
  8
PLAN_1
 62
     5
  6
CONTINUOUS
 10
-0.963591
 20
3.279028
  0
SEQEND
  8
0
  0
POLYLINE
  8
PLAN_1
 62
     5
  6
CONTINUOUS
 66
     1
 40
0.003000
 41
0.003000
  0
VERTEX
  8
PLAN_1
 62
     5
  6
CONTINUOUS
 10
-0.963591
 20
3.270295
  0
VERTEX
  8
PLAN_1
 62
     5
  6
CONTINUOUS
 10
-0.963591
 20
3.262051
  0
SEQEND
  8
0
  0
POLYLINE
  8
PLAN_1
 62
     5
  6
CONTINUOUS
 66
     1
 40
0.003000
 41
0.003000
  0
VERTEX
  8
PLAN_1
 62
     5
  6
CONTINUOUS
 10
-0.963591
 20
3.253803
  0
VERTEX
  8
PLAN_1
 62
     5
  6
CONTINUOUS
 10
-0.963591
 20
3.245559
  0
SEQEND
  8
0
  0
POLYLINE
  8
PLAN_1
 62
     5
  6
CONTINUOUS
 66
     1
 40
0.003000
 41
0.003000
  0
VERTEX
  8
PLAN_1
 62
     5
  6
CONTINUOUS
 10
-0.963591
 20
3.237311
  0
VERTEX
  8
PLAN_1
 62
     5
  6
CONTINUOUS
 10
-0.963591
 20
3.229067
  0
SEQEND
  8
0
  0
POLYLINE
  8
PLAN_1
 62
     5
  6
CONTINUOUS
 66
     1
 40
0.003000
 41
0.003000
  0
VERTEX
  8
PLAN_1
 62
     5
  6
CONTINUOUS
 10
-0.963591
 20
3.220335
  0
VERTEX
  8
PLAN_1
 62
     5
  6
CONTINUOUS
 10
-0.963591
 20
3.212087
  0
SEQEND
  8
0
  0
POLYLINE
  8
PLAN_1
 62
     5
  6
CONTINUOUS
 66
     1
 40
0.003000
 41
0.003000
  0
VERTEX
  8
PLAN_1
 62
     5
  6
CONTINUOUS
 10
-0.963591
 20
3.203843
  0
VERTEX
  8
PLAN_1
 62
     5
  6
CONTINUOUS
 10
-0.963591
 20
3.195594
  0
SEQEND
  8
0
  0
POLYLINE
  8
PLAN_1
 62
     5
  6
CONTINUOUS
 66
     1
 40
0.003000
 41
0.003000
  0
VERTEX
  8
PLAN_1
 62
     5
  6
CONTINUOUS
 10
-0.963591
 20
3.187350
  0
VERTEX
  8
PLAN_1
 62
     5
  6
CONTINUOUS
 10
-0.963591
 20
3.179102
  0
SEQEND
  8
0
  0
POLYLINE
  8
PLAN_1
 62
     5
  6
CONTINUOUS
 66
     1
 40
0.003000
 41
0.003000
  0
VERTEX
  8
PLAN_1
 62
     5
  6
CONTINUOUS
 10
-0.963591
 20
3.170370
  0
VERTEX
  8
PLAN_1
 62
     5
  6
CONTINUOUS
 10
-0.963591
 20
3.162126
  0
SEQEND
  8
0
  0
POLYLINE
  8
PLAN_1
 62
     5
  6
CONTINUOUS
 66
     1
 40
0.003000
 41
0.003000
  0
VERTEX
  8
PLAN_1
 62
     5
  6
CONTINUOUS
 10
-0.963591
 20
3.153878
  0
VERTEX
  8
PLAN_1
 62
     5
  6
CONTINUOUS
 10
-0.963591
 20
3.145634
  0
SEQEND
  8
0
  0
POLYLINE
  8
PLAN_1
 62
     5
  6
CONTINUOUS
 66
     1
 40
0.003000
 41
0.003000
  0
VERTEX
  8
PLAN_1
 62
     5
  6
CONTINUOUS
 10
-0.963591
 20
3.137386
  0
VERTEX
  8
PLAN_1
 62
     5
  6
CONTINUOUS
 10
-0.963591
 20
3.129142
  0
SEQEND
  8
0
  0
POLYLINE
  8
PLAN_1
 62
     5
  6
CONTINUOUS
 66
     1
 40
0.003000
 41
0.003000
  0
VERTEX
  8
PLAN_1
 62
     5
  6
CONTINUOUS
 10
-0.963591
 20
3.120409
  0
VERTEX
  8
PLAN_1
 62
     5
  6
CONTINUOUS
 10
-0.963591
 20
3.112165
  0
SEQEND
  8
0
  0
POLYLINE
  8
PLAN_1
 62
     5
  6
CONTINUOUS
 66
     1
 40
0.003000
 41
0.003000
  0
VERTEX
  8
PLAN_1
 62
     5
  6
CONTINUOUS
 10
-0.963591
 20
3.103917
  0
VERTEX
  8
PLAN_1
 62
     5
  6
CONTINUOUS
 10
-0.963591
 20
3.095669
  0
SEQEND
  8
0
  0
POLYLINE
  8
PLAN_1
 62
     5
  6
CONTINUOUS
 66
     1
 40
0.003000
 41
0.003000
  0
VERTEX
  8
PLAN_1
 62
     5
  6
CONTINUOUS
 10
-0.963591
 20
3.087425
  0
VERTEX
  8
PLAN_1
 62
     5
  6
CONTINUOUS
 10
-0.963591
 20
3.079177
  0
SEQEND
  8
0
  0
POLYLINE
  8
PLAN_1
 62
     5
  6
CONTINUOUS
 66
     1
 40
0.003000
 41
0.003000
  0
VERTEX
  8
PLAN_1
 62
     5
  6
CONTINUOUS
 10
-0.963591
 20
3.070449
  0
VERTEX
  8
PLAN_1
 62
     5
  6
CONTINUOUS
 10
-0.963591
 20
3.062201
  0
SEQEND
  8
0
  0
POLYLINE
  8
PLAN_1
 62
     5
  6
CONTINUOUS
 66
     1
 40
0.003000
 41
0.003000
  0
VERTEX
  8
PLAN_1
 62
     5
  6
CONTINUOUS
 10
-0.963591
 20
3.053957
  0
VERTEX
  8
PLAN_1
 62
     5
  6
CONTINUOUS
 10
-0.963591
 20
3.045709
  0
SEQEND
  8
0
  0
POLYLINE
  8
PLAN_1
 62
     5
  6
CONTINUOUS
 66
     1
 40
0.003000
 41
0.003000
  0
VERTEX
  8
PLAN_1
 62
     5
  6
CONTINUOUS
 10
-0.963591
 20
3.037465
  0
VERTEX
  8
PLAN_1
 62
     5
  6
CONTINUOUS
 10
-0.963591
 20
3.029217
  0
SEQEND
  8
0
  0
POLYLINE
  8
PLAN_1
 62
     5
  6
CONTINUOUS
 66
     1
 40
0.003000
 41
0.003000
  0
VERTEX
  8
PLAN_1
 62
     5
  6
CONTINUOUS
 10
-0.963591
 20
3.020484
  0
VERTEX
  8
PLAN_1
 62
     5
  6
CONTINUOUS
 10
-0.963591
 20
3.012240
  0
SEQEND
  8
0
  0
POLYLINE
  8
PLAN_1
 62
     5
  6
CONTINUOUS
 66
     1
 40
0.003000
 41
0.003000
  0
VERTEX
  8
PLAN_1
 62
     5
  6
CONTINUOUS
 10
-0.963591
 20
3.003992
  0
VERTEX
  8
PLAN_1
 62
     5
  6
CONTINUOUS
 10
-0.963591
 20
2.995748
  0
SEQEND
  8
0
  0
POLYLINE
  8
PLAN_1
 62
     5
  6
CONTINUOUS
 66
     1
 40
0.003000
 41
0.003000
  0
VERTEX
  8
PLAN_1
 62
     5
  6
CONTINUOUS
 10
-0.963591
 20
2.987500
  0
VERTEX
  8
PLAN_1
 62
     5
  6
CONTINUOUS
 10
-0.963591
 20
2.978768
  0
SEQEND
  8
0
  0
POLYLINE
  8
PLAN_1
 62
     5
  6
CONTINUOUS
 66
     1
 40
0.003000
 41
0.003000
  0
VERTEX
  8
PLAN_1
 62
     5
  6
CONTINUOUS
 10
-0.963591
 20
2.970524
  0
VERTEX
  8
PLAN_1
 62
     5
  6
CONTINUOUS
 10
-0.963591
 20
2.962276
  0
SEQEND
  8
0
  0
POLYLINE
  8
PLAN_1
 62
     5
  6
CONTINUOUS
 66
     1
 40
0.003000
 41
0.003000
  0
VERTEX
  8
PLAN_1
 62
     5
  6
CONTINUOUS
 10
-0.963591
 20
2.954031
  0
VERTEX
  8
PLAN_1
 62
     5
  6
CONTINUOUS
 10
-0.963591
 20
2.945783
  0
SEQEND
  8
0
  0
POLYLINE
  8
PLAN_1
 62
     5
  6
CONTINUOUS
 66
     1
 40
0.003000
 41
0.003000
  0
VERTEX
  8
PLAN_1
 62
     5
  6
CONTINUOUS
 10
-0.963591
 20
2.937539
  0
VERTEX
  8
PLAN_1
 62
     5
  6
CONTINUOUS
 10
-0.963591
 20
2.928807
  0
SEQEND
  8
0
  0
POLYLINE
  8
PLAN_1
 62
     5
  6
CONTINUOUS
 66
     1
 40
0.003000
 41
0.003000
  0
VERTEX
  8
PLAN_1
 62
     5
  6
CONTINUOUS
 10
-0.963591
 20
2.920559
  0
VERTEX
  8
PLAN_1
 62
     5
  6
CONTINUOUS
 10
-0.963591
 20
2.912315
  0
SEQEND
  8
0
  0
POLYLINE
  8
PLAN_1
 62
     5
  6
CONTINUOUS
 66
     1
 40
0.003000
 41
0.003000
  0
VERTEX
  8
PLAN_1
 62
     5
  6
CONTINUOUS
 10
-0.963591
 20
2.904067
  0
VERTEX
  8
PLAN_1
 62
     5
  6
CONTINUOUS
 10
-0.963591
 20
2.895823
  0
SEQEND
  8
0
  0
POLYLINE
  8
PLAN_1
 62
     5
  6
CONTINUOUS
 66
     1
 40
0.003000
 41
0.003000
  0
VERTEX
  8
PLAN_1
 62
     5
  6
CONTINUOUS
 10
-0.963591
 20
2.887575
  0
VERTEX
  8
PLAN_1
 62
     5
  6
CONTINUOUS
 10
-0.963591
 20
2.878846
  0
SEQEND
  8
0
  0
POLYLINE
  8
PLAN_1
 62
     5
  6
CONTINUOUS
 66
     1
 40
0.003000
 41
0.003000
  0
VERTEX
  8
PLAN_1
 62
     5
  6
CONTINUOUS
 10
-0.963591
 20
2.870598
  0
VERTEX
  8
PLAN_1
 62
     5
  6
CONTINUOUS
 10
-0.963591
 20
2.862350
  0
SEQEND
  8
0
  0
POLYLINE
  8
PLAN_1
 62
     5
  6
CONTINUOUS
 66
     1
 40
0.003000
 41
0.003000
  0
VERTEX
  8
PLAN_1
 62
     5
  6
CONTINUOUS
 10
-0.963591
 20
2.854106
  0
VERTEX
  8
PLAN_1
 62
     5
  6
CONTINUOUS
 10
-0.963591
 20
2.845858
  0
SEQEND
  8
0
  0
POLYLINE
  8
PLAN_1
 62
     5
  6
CONTINUOUS
 66
     1
 40
0.003000
 41
0.003000
  0
VERTEX
  8
PLAN_1
 62
     5
  6
CONTINUOUS
 10
-0.963591
 20
2.837614
  0
VERTEX
  8
PLAN_1
 62
     5
  6
CONTINUOUS
 10
-0.963591
 20
2.830339
  0
SEQEND
  8
0
  0
POLYLINE
  8
PLAN_1
 62
     5
  6
CONTINUOUS
 66
     1
 40
0.003000
 41
0.003000
  0
VERTEX
  8
PLAN_1
 62
     5
  6
CONTINUOUS
 10
-0.963591
 20
2.837614
  0
VERTEX
  8
PLAN_1
 62
     5
  6
CONTINUOUS
 10
-0.963591
 20
2.830339
  0
SEQEND
  8
0
  0
POLYLINE
  8
PLAN_1
  6
CONTINUOUS
 66
     1
 40
0.006787
 41
0.006787
  0
VERTEX
  8
PLAN_1
  6
CONTINUOUS
 10
-1.530154
 20
0.877445
  0
VERTEX
  8
PLAN_1
  6
CONTINUOUS
 10
-1.530154
 20
0.870654
  0
VERTEX
  8
PLAN_1
  6
CONTINUOUS
 10
-1.529185
 20
0.863862
  0
VERTEX
  8
PLAN_1
  6
CONTINUOUS
 10
-1.528701
 20
0.857071
  0
VERTEX
  8
PLAN_1
  6
CONTINUOUS
 10
-1.527244
 20
0.850764
  0
VERTEX
  8
PLAN_1
  6
CONTINUOUS
 10
-1.525787
 20
0.844461
  0
VERTEX
  8
PLAN_1
  6
CONTINUOUS
 10
-1.524335
 20
0.838154
  0
VERTEX
  8
PLAN_1
  6
CONTINUOUS
 10
-1.521909
 20
0.831846
  0
VERTEX
  8
PLAN_1
  6
CONTINUOUS
 10
-1.519484
 20
0.825543
  0
VERTEX
  8
PLAN_1
  6
CONTINUOUS
 10
-1.517059
 20
0.819720
  0
VERTEX
  8
PLAN_1
  6
CONTINUOUS
 10
-1.514146
 20
0.814386
  0
VERTEX
  8
PLAN_1
  6
CONTINUOUS
 10
-1.510752
 20
0.808563
  0
VERTEX
  8
PLAN_1
  6
CONTINUOUS
 10
-1.507354
 20
0.803228
  0
VERTEX
  8
PLAN_1
  6
CONTINUOUS
 10
-1.503961
 20
0.797894
  0
VERTEX
  8
PLAN_1
  6
CONTINUOUS
 10
-1.499594
 20
0.793043
  0
VERTEX
  8
PLAN_1
  6
CONTINUOUS
 10
-1.495713
 20
0.788193
  0
VERTEX
  8
PLAN_1
  6
CONTINUOUS
 10
-1.491350
 20
0.783827
  0
VERTEX
  8
PLAN_1
  6
CONTINUOUS
 10
-1.486500
 20
0.778976
  0
VERTEX
  8
PLAN_1
  6
CONTINUOUS
 10
-1.481646
 20
0.775094
  0
VERTEX
  8
PLAN_1
  6
CONTINUOUS
 10
-1.476795
 20
0.771213
  0
VERTEX
  8
PLAN_1
  6
CONTINUOUS
 10
-1.471461
 20
0.767335
  0
VERTEX
  8
PLAN_1
  6
CONTINUOUS
 10
-1.466126
 20
0.763937
  0
VERTEX
  8
PLAN_1
  6
CONTINUOUS
 10
-1.460791
 20
0.760543
  0
VERTEX
  8
PLAN_1
  6
CONTINUOUS
 10
-1.454969
 20
0.757634
  0
VERTEX
  8
PLAN_1
  6
CONTINUOUS
 10
-1.449150
 20
0.755205
  0
VERTEX
  8
PLAN_1
  6
CONTINUOUS
 10
-1.442843
 20
0.752780
  0
VERTEX
  8
PLAN_1
  6
CONTINUOUS
 10
-1.437020
 20
0.750843
  0
VERTEX
  8
PLAN_1
  6
CONTINUOUS
 10
-1.430717
 20
0.748902
  0
VERTEX
  8
PLAN_1
  6
CONTINUOUS
 10
-1.423925
 20
0.747445
  0
VERTEX
  8
PLAN_1
  6
CONTINUOUS
 10
-1.417618
 20
0.746476
  0
VERTEX
  8
PLAN_1
  6
CONTINUOUS
 10
-1.410827
 20
0.745504
  0
VERTEX
  8
PLAN_1
  6
CONTINUOUS
 10
-1.404035
 20
0.745020
  0
VERTEX
  8
PLAN_1
  6
CONTINUOUS
 10
-1.397244
 20
0.744535
  0
VERTEX
  8
PLAN_1
  6
CONTINUOUS
 10
-1.390453
 20
0.745020
  0
VERTEX
  8
PLAN_1
  6
CONTINUOUS
 10
-1.383661
 20
0.745504
  0
VERTEX
  8
PLAN_1
  6
CONTINUOUS
 10
-1.377358
 20
0.746476
  0
VERTEX
  8
PLAN_1
  6
CONTINUOUS
 10
-1.370567
 20
0.747445
  0
VERTEX
  8
PLAN_1
  6
CONTINUOUS
 10
-1.364260
 20
0.748902
  0
VERTEX
  8
PLAN_1
  6
CONTINUOUS
 10
-1.357953
 20
0.750843
  0
VERTEX
  8
PLAN_1
  6
CONTINUOUS
 10
-1.351650
 20
0.752780
  0
VERTEX
  8
PLAN_1
  6
CONTINUOUS
 10
-1.345827
 20
0.755205
  0
VERTEX
  8
PLAN_1
  6
CONTINUOUS
 10
-1.340008
 20
0.757634
  0
VERTEX
  8
PLAN_1
  6
CONTINUOUS
 10
-1.334185
 20
0.760543
  0
VERTEX
  8
PLAN_1
  6
CONTINUOUS
 10
-1.328366
 20
0.763937
  0
VERTEX
  8
PLAN_1
  6
CONTINUOUS
 10
-1.323028
 20
0.767335
  0
VERTEX
  8
PLAN_1
  6
CONTINUOUS
 10
-1.318177
 20
0.771213
  0
VERTEX
  8
PLAN_1
  6
CONTINUOUS
 10
-1.312843
 20
0.775094
  0
VERTEX
  8
PLAN_1
  6
CONTINUOUS
 10
-1.307992
 20
0.778976
  0
VERTEX
  8
PLAN_1
  6
CONTINUOUS
 10
-1.303626
 20
0.783827
  0
VERTEX
  8
PLAN_1
  6
CONTINUOUS
 10
-1.299260
 20
0.788193
  0
VERTEX
  8
PLAN_1
  6
CONTINUOUS
 10
-1.294894
 20
0.793043
  0
VERTEX
  8
PLAN_1
  6
CONTINUOUS
 10
-1.291016
 20
0.797894
  0
VERTEX
  8
PLAN_1
  6
CONTINUOUS
 10
-1.287134
 20
0.803228
  0
VERTEX
  8
PLAN_1
  6
CONTINUOUS
 10
-1.283740
 20
0.808563
  0
VERTEX
  8
PLAN_1
  6
CONTINUOUS
 10
-1.280827
 20
0.814386
  0
VERTEX
  8
PLAN_1
  6
CONTINUOUS
 10
-1.277917
 20
0.819720
  0
VERTEX
  8
PLAN_1
  6
CONTINUOUS
 10
-1.275008
 20
0.825543
  0
VERTEX
  8
PLAN_1
  6
CONTINUOUS
 10
-1.272583
 20
0.831846
  0
VERTEX
  8
PLAN_1
  6
CONTINUOUS
 10
-1.270642
 20
0.838154
  0
VERTEX
  8
PLAN_1
  6
CONTINUOUS
 10
-1.268701
 20
0.844461
  0
VERTEX
  8
PLAN_1
  6
CONTINUOUS
 10
-1.267248
 20
0.850764
  0
VERTEX
  8
PLAN_1
  6
CONTINUOUS
 10
-1.266276
 20
0.857071
  0
VERTEX
  8
PLAN_1
  6
CONTINUOUS
 10
-1.265307
 20
0.863862
  0
VERTEX
  8
PLAN_1
  6
CONTINUOUS
 10
-1.264823
 20
0.870654
  0
VERTEX
  8
PLAN_1
  6
CONTINUOUS
 10
-1.264823
 20
0.877445
  0
VERTEX
  8
PLAN_1
  6
CONTINUOUS
 10
-1.264823
 20
0.884236
  0
VERTEX
  8
PLAN_1
  6
CONTINUOUS
 10
-1.265307
 20
0.891028
  0
VERTEX
  8
PLAN_1
  6
CONTINUOUS
 10
-1.266276
 20
0.897819
  0
VERTEX
  8
PLAN_1
  6
CONTINUOUS
 10
-1.267248
 20
0.904122
  0
VERTEX
  8
PLAN_1
  6
CONTINUOUS
 10
-1.268701
 20
0.910429
  0
VERTEX
  8
PLAN_1
  6
CONTINUOUS
 10
-1.270642
 20
0.916736
  0
VERTEX
  8
PLAN_1
  6
CONTINUOUS
 10
-1.272583
 20
0.923039
  0
VERTEX
  8
PLAN_1
  6
CONTINUOUS
 10
-1.275008
 20
0.928862
  0
VERTEX
  8
PLAN_1
  6
CONTINUOUS
 10
-1.277917
 20
0.935169
  0
VERTEX
  8
PLAN_1
  6
CONTINUOUS
 10
-1.280827
 20
0.940504
  0
VERTEX
  8
PLAN_1
  6
CONTINUOUS
 10
-1.283740
 20
0.946323
  0
VERTEX
  8
PLAN_1
  6
CONTINUOUS
 10
-1.287134
 20
0.951661
  0
VERTEX
  8
PLAN_1
  6
CONTINUOUS
 10
-1.291016
 20
0.956996
  0
VERTEX
  8
PLAN_1
  6
CONTINUOUS
 10
-1.294894
 20
0.961846
  0
VERTEX
  8
PLAN_1
  6
CONTINUOUS
 10
-1.299260
 20
0.966697
  0
VERTEX
  8
PLAN_1
  6
CONTINUOUS
 10
-1.303626
 20
0.971063
  0
VERTEX
  8
PLAN_1
  6
CONTINUOUS
 10
-1.307992
 20
0.975429
  0
VERTEX
  8
PLAN_1
  6
CONTINUOUS
 10
-1.312843
 20
0.979795
  0
VERTEX
  8
PLAN_1
  6
CONTINUOUS
 10
-1.318177
 20
0.983673
  0
VERTEX
  8
PLAN_1
  6
CONTINUOUS
 10
-1.323028
 20
0.987555
  0
VERTEX
  8
PLAN_1
  6
CONTINUOUS
 10
-1.328366
 20
0.990953
  0
VERTEX
  8
PLAN_1
  6
CONTINUOUS
 10
-1.334185
 20
0.993862
  0
VERTEX
  8
PLAN_1
  6
CONTINUOUS
 10
-1.340008
 20
0.997256
  0
VERTEX
  8
PLAN_1
  6
CONTINUOUS
 10
-1.345827
 20
0.999681
  0
VERTEX
  8
PLAN_1
  6
CONTINUOUS
 10
-1.351650
 20
1.002106
  0
VERTEX
  8
PLAN_1
  6
CONTINUOUS
 10
-1.357953
 20
1.004047
  0
VERTEX
  8
PLAN_1
  6
CONTINUOUS
 10
-1.364260
 20
1.005988
  0
VERTEX
  8
PLAN_1
  6
CONTINUOUS
 10
-1.370567
 20
1.007445
  0
VERTEX
  8
PLAN_1
  6
CONTINUOUS
 10
-1.377358
 20
1.008413
  0
VERTEX
  8
PLAN_1
  6
CONTINUOUS
 10
-1.383661
 20
1.009382
  0
VERTEX
  8
PLAN_1
  6
CONTINUOUS
 10
-1.390453
 20
1.009870
  0
VERTEX
  8
PLAN_1
  6
CONTINUOUS
 10
-1.397244
 20
1.010354
  0
VERTEX
  8
PLAN_1
  6
CONTINUOUS
 10
-1.404035
 20
1.009870
  0
VERTEX
  8
PLAN_1
  6
CONTINUOUS
 10
-1.410827
 20
1.009382
  0
VERTEX
  8
PLAN_1
  6
CONTINUOUS
 10
-1.417618
 20
1.008413
  0
VERTEX
  8
PLAN_1
  6
CONTINUOUS
 10
-1.423925
 20
1.007445
  0
VERTEX
  8
PLAN_1
  6
CONTINUOUS
 10
-1.430717
 20
1.005988
  0
VERTEX
  8
PLAN_1
  6
CONTINUOUS
 10
-1.437020
 20
1.004047
  0
VERTEX
  8
PLAN_1
  6
CONTINUOUS
 10
-1.442843
 20
1.002106
  0
VERTEX
  8
PLAN_1
  6
CONTINUOUS
 10
-1.449150
 20
0.999681
  0
VERTEX
  8
PLAN_1
  6
CONTINUOUS
 10
-1.454969
 20
0.997256
  0
VERTEX
  8
PLAN_1
  6
CONTINUOUS
 10
-1.460791
 20
0.993862
  0
VERTEX
  8
PLAN_1
  6
CONTINUOUS
 10
-1.466126
 20
0.990953
  0
VERTEX
  8
PLAN_1
  6
CONTINUOUS
 10
-1.471461
 20
0.987555
  0
VERTEX
  8
PLAN_1
  6
CONTINUOUS
 10
-1.476795
 20
0.983673
  0
VERTEX
  8
PLAN_1
  6
CONTINUOUS
 10
-1.481646
 20
0.979795
  0
VERTEX
  8
PLAN_1
  6
CONTINUOUS
 10
-1.486500
 20
0.975429
  0
VERTEX
  8
PLAN_1
  6
CONTINUOUS
 10
-1.491350
 20
0.971063
  0
VERTEX
  8
PLAN_1
  6
CONTINUOUS
 10
-1.495713
 20
0.966697
  0
VERTEX
  8
PLAN_1
  6
CONTINUOUS
 10
-1.499594
 20
0.961846
  0
VERTEX
  8
PLAN_1
  6
CONTINUOUS
 10
-1.503961
 20
0.956996
  0
VERTEX
  8
PLAN_1
  6
CONTINUOUS
 10
-1.507354
 20
0.951661
  0
VERTEX
  8
PLAN_1
  6
CONTINUOUS
 10
-1.510752
 20
0.946323
  0
VERTEX
  8
PLAN_1
  6
CONTINUOUS
 10
-1.514146
 20
0.940504
  0
VERTEX
  8
PLAN_1
  6
CONTINUOUS
 10
-1.517059
 20
0.935169
  0
VERTEX
  8
PLAN_1
  6
CONTINUOUS
 10
-1.519484
 20
0.928862
  0
VERTEX
  8
PLAN_1
  6
CONTINUOUS
 10
-1.521909
 20
0.923039
  0
VERTEX
  8
PLAN_1
  6
CONTINUOUS
 10
-1.524335
 20
0.916736
  0
VERTEX
  8
PLAN_1
  6
CONTINUOUS
 10
-1.525787
 20
0.910429
  0
VERTEX
  8
PLAN_1
  6
CONTINUOUS
 10
-1.527244
 20
0.904122
  0
VERTEX
  8
PLAN_1
  6
CONTINUOUS
 10
-1.528701
 20
0.897819
  0
VERTEX
  8
PLAN_1
  6
CONTINUOUS
 10
-1.529185
 20
0.891028
  0
VERTEX
  8
PLAN_1
  6
CONTINUOUS
 10
-1.530154
 20
0.884236
  0
VERTEX
  8
PLAN_1
  6
CONTINUOUS
 10
-1.530154
 20
0.877445
  0
SEQEND
  8
0
  0
POLYLINE
  8
PLAN_1
  6
CONTINUOUS
 66
     1
 40
0.006787
 41
0.006787
  0
VERTEX
  8
PLAN_1
  6
CONTINUOUS
 10
-0.755496
 20
1.256283
  0
VERTEX
  8
PLAN_1
  6
CONTINUOUS
 10
-0.848630
 20
1.256283
  0
SEQEND
  8
0
  0
POLYLINE
  8
PLAN_1
  6
CONTINUOUS
 66
     1
 40
0.006787
 41
0.006787
  0
VERTEX
  8
PLAN_1
  6
CONTINUOUS
 10
-1.548587
 20
1.380461
  0
VERTEX
  8
PLAN_1
  6
CONTINUOUS
 10
-1.548587
 20
1.256283
  0
VERTEX
  8
PLAN_1
  6
CONTINUOUS
 10
-1.856606
 20
1.256283
  0
SEQEND
  8
0
  0
POLYLINE
  8
PLAN_1
  6
CONTINUOUS
 66
     1
 40
0.008244
 41
0.008244
  0
VERTEX
  8
PLAN_1
  6
CONTINUOUS
 10
-0.850571
 20
0.245882
  0
VERTEX
  8
PLAN_1
  6
CONTINUOUS
 10
-0.850087
 20
0.245882
  0
VERTEX
  8
PLAN_1
  6
CONTINUOUS
 10
-0.849602
 20
0.245882
  0
VERTEX
  8
PLAN_1
  6
CONTINUOUS
 10
-0.849114
 20
0.245882
  0
VERTEX
  8
PLAN_1
  6
CONTINUOUS
 10
-0.848630
 20
0.245882
  0
VERTEX
  8
PLAN_1
  6
CONTINUOUS
 10
-0.848146
 20
0.245882
  0
VERTEX
  8
PLAN_1
  6
CONTINUOUS
 10
-0.847661
 20
0.245882
  0
SEQEND
  8
0
  0
POLYLINE
  8
PLAN_1
  6
CONTINUOUS
 66
     1
 40
0.008244
 41
0.008244
  0
VERTEX
  8
PLAN_1
  6
CONTINUOUS
 10
-1.791122
 20
0.307000
  0
VERTEX
  8
PLAN_1
  6
CONTINUOUS
 10
-1.792091
 20
0.304091
  0
VERTEX
  8
PLAN_1
  6
CONTINUOUS
 10
-1.793547
 20
0.297299
  0
VERTEX
  8
PLAN_1
  6
CONTINUOUS
 10
-1.794520
 20
0.292933
  0
VERTEX
  8
PLAN_1
  6
CONTINUOUS
 10
-1.795488
 20
0.287598
  0
VERTEX
  8
PLAN_1
  6
CONTINUOUS
 10
-1.795972
 20
0.282264
  0
VERTEX
  8
PLAN_1
  6
CONTINUOUS
 10
-1.795972
 20
0.276441
  0
VERTEX
  8
PLAN_1
  6
CONTINUOUS
 10
-1.795004
 20
0.270622
  0
VERTEX
  8
PLAN_1
  6
CONTINUOUS
 10
-1.793547
 20
0.265287
  0
VERTEX
  8
PLAN_1
  6
CONTINUOUS
 10
-1.792579
 20
0.262374
  0
VERTEX
  8
PLAN_1
  6
CONTINUOUS
 10
-1.791122
 20
0.259949
  0
VERTEX
  8
PLAN_1
  6
CONTINUOUS
 10
-1.789665
 20
0.257524
  0
VERTEX
  8
PLAN_1
  6
CONTINUOUS
 10
-1.787728
 20
0.255583
  0
VERTEX
  8
PLAN_1
  6
CONTINUOUS
 10
-1.785787
 20
0.253157
  0
VERTEX
  8
PLAN_1
  6
CONTINUOUS
 10
-1.782878
 20
0.251705
  0
VERTEX
  8
PLAN_1
  6
CONTINUOUS
 10
-1.780449
 20
0.249764
  0
VERTEX
  8
PLAN_1
  6
CONTINUOUS
 10
-1.777055
 20
0.248791
  0
VERTEX
  8
PLAN_1
  6
CONTINUOUS
 10
-1.773661
 20
0.247339
  0
VERTEX
  8
PLAN_1
  6
CONTINUOUS
 10
-1.769780
 20
0.246854
  0
VERTEX
  8
PLAN_1
  6
CONTINUOUS
 10
-1.765413
 20
0.245882
  0
VERTEX
  8
PLAN_1
  6
CONTINUOUS
 10
-1.760563
 20
0.245882
  0
SEQEND
  8
0
  0
POLYLINE
  8
PLAN_1
  6
CONTINUOUS
 66
     1
 40
0.008244
 41
0.008244
  0
VERTEX
  8
PLAN_1
  6
CONTINUOUS
 10
-0.847661
 20
0.245882
  0
VERTEX
  8
PLAN_1
  6
CONTINUOUS
 10
-0.843295
 20
0.246366
  0
VERTEX
  8
PLAN_1
  6
CONTINUOUS
 10
-0.839413
 20
0.247339
  0
VERTEX
  8
PLAN_1
  6
CONTINUOUS
 10
-0.836020
 20
0.248307
  0
VERTEX
  8
PLAN_1
  6
CONTINUOUS
 10
-0.832622
 20
0.249280
  0
VERTEX
  8
PLAN_1
  6
CONTINUOUS
 10
-0.829713
 20
0.250732
  0
VERTEX
  8
PLAN_1
  6
CONTINUOUS
 10
-0.827287
 20
0.252673
  0
VERTEX
  8
PLAN_1
  6
CONTINUOUS
 10
-0.824862
 20
0.254614
  0
VERTEX
  8
PLAN_1
  6
CONTINUOUS
 10
-0.822437
 20
0.256555
  0
VERTEX
  8
PLAN_1
  6
CONTINUOUS
 10
-0.818555
 20
0.261406
  0
VERTEX
  8
PLAN_1
  6
CONTINUOUS
 10
-0.816130
 20
0.266256
  0
VERTEX
  8
PLAN_1
  6
CONTINUOUS
 10
-0.813705
 20
0.272075
  0
VERTEX
  8
PLAN_1
  6
CONTINUOUS
 10
-0.812252
 20
0.277413
  0
VERTEX
  8
PLAN_1
  6
CONTINUOUS
 10
-0.811280
 20
0.282748
  0
VERTEX
  8
PLAN_1
  6
CONTINUOUS
 10
-0.810311
 20
0.288571
  0
VERTEX
  8
PLAN_1
  6
CONTINUOUS
 10
-0.810311
 20
0.293421
  0
VERTEX
  8
PLAN_1
  6
CONTINUOUS
 10
-0.810311
 20
0.297783
  0
VERTEX
  8
PLAN_1
  6
CONTINUOUS
 10
-0.810795
 20
0.304575
  0
VERTEX
  8
PLAN_1
  6
CONTINUOUS
 10
-0.811280
 20
0.307000
  0
SEQEND
  8
0
  0
POLYLINE
  8
PLAN_1
  6
CONTINUOUS
 66
     1
 40
0.008244
 41
0.008244
  0
VERTEX
  8
PLAN_1
  6
CONTINUOUS
 10
-1.092138
 20
0.245882
  0
VERTEX
  8
PLAN_1
  6
CONTINUOUS
 10
-1.712539
 20
0.245882
  0
VERTEX
  8
PLAN_1
  6
CONTINUOUS
 10
-1.712539
 20
-0.081055
  0
VERTEX
  8
PLAN_1
  6
CONTINUOUS
 10
-1.669370
 20
-0.081055
  0
VERTEX
  8
PLAN_1
  6
CONTINUOUS
 10
-1.669370
 20
-0.125681
  0
VERTEX
  8
PLAN_1
  6
CONTINUOUS
 10
-1.621835
 20
-0.125681
  0
VERTEX
  8
PLAN_1
  6
CONTINUOUS
 10
-1.621835
 20
-0.081055
  0
VERTEX
  8
PLAN_1
  6
CONTINUOUS
 10
-1.093106
 20
-0.081055
  0
SEQEND
  8
0
  0
POLYLINE
  8
PLAN_1
  6
CONTINUOUS
 66
     1
 40
0.008244
 41
0.008244
  0
VERTEX
  8
PLAN_1
  6
CONTINUOUS
 10
-0.846205
 20
1.380461
  0
VERTEX
  8
PLAN_1
  6
CONTINUOUS
 10
-0.755496
 20
1.380461
  0
VERTEX
  8
PLAN_1
  6
CONTINUOUS
 10
-0.755496
 20
0.307000
  0
VERTEX
  8
PLAN_1
  6
CONTINUOUS
 10
-0.847661
 20
0.307000
  0
SEQEND
  8
0
  0
POLYLINE
  8
PLAN_1
  6
CONTINUOUS
 66
     1
 40
0.008244
 41
0.008244
  0
VERTEX
  8
PLAN_1
  6
CONTINUOUS
 10
-1.093106
 20
0.307000
  0
VERTEX
  8
PLAN_1
  6
CONTINUOUS
 10
-1.856606
 20
0.307000
  0
VERTEX
  8
PLAN_1
  6
CONTINUOUS
 10
-1.856606
 20
1.380461
  0
VERTEX
  8
PLAN_1
  6
CONTINUOUS
 10
-1.091650
 20
1.380461
  0
SEQEND
  8
0
  0
POLYLINE
  8
PLAN_1
  6
CONTINUOUS
 66
     1
 40
0.005335
 41
0.005335
  0
VERTEX
  8
PLAN_1
  6
CONTINUOUS
 10
-1.324969
 20
-0.457469
  0
VERTEX
  8
PLAN_1
  6
CONTINUOUS
 10
-1.069823
 20
-0.412843
  0
VERTEX
  8
PLAN_1
  6
CONTINUOUS
 10
-1.057213
 20
-0.410417
  0
SEQEND
  8
0
  0
POLYLINE
  8
PLAN_1
  6
CONTINUOUS
 66
     1
 40
0.005335
 41
0.005335
  0
VERTEX
  8
PLAN_1
  6
CONTINUOUS
 10
-1.057213
 20
-0.410417
  0
VERTEX
  8
PLAN_1
  6
CONTINUOUS
 10
-1.053331
 20
-0.409449
  0
VERTEX
  8
PLAN_1
  6
CONTINUOUS
 10
-1.049933
 20
-0.407508
  0
VERTEX
  8
PLAN_1
  6
CONTINUOUS
 10
-1.047024
 20
-0.405083
  0
VERTEX
  8
PLAN_1
  6
CONTINUOUS
 10
-1.044114
 20
-0.402173
  0
VERTEX
  8
PLAN_1
  6
CONTINUOUS
 10
-1.042173
 20
-0.398776
  0
VERTEX
  8
PLAN_1
  6
CONTINUOUS
 10
-1.041205
 20
-0.394894
  0
VERTEX
  8
PLAN_1
  6
CONTINUOUS
 10
-1.040717
 20
-0.391016
  0
VERTEX
  8
PLAN_1
  6
CONTINUOUS
 10
-1.040717
 20
-0.386650
  0
VERTEX
  8
PLAN_1
  6
CONTINUOUS
 10
-1.042173
 20
-0.382768
  0
VERTEX
  8
PLAN_1
  6
CONTINUOUS
 10
-1.043630
 20
-0.379374
  0
VERTEX
  8
PLAN_1
  6
CONTINUOUS
 10
-1.046055
 20
-0.375976
  0
VERTEX
  8
PLAN_1
  6
CONTINUOUS
 10
-1.049449
 20
-0.373551
  0
VERTEX
  8
PLAN_1
  6
CONTINUOUS
 10
-1.052846
 20
-0.371610
  0
VERTEX
  8
PLAN_1
  6
CONTINUOUS
 10
-1.056240
 20
-0.370642
  0
VERTEX
  8
PLAN_1
  6
CONTINUOUS
 10
-1.060606
 20
-0.369673
  0
VERTEX
  8
PLAN_1
  6
CONTINUOUS
 10
-1.064488
 20
-0.370157
  0
SEQEND
  8
0
  0
POLYLINE
  8
PLAN_1
  6
CONTINUOUS
 66
     1
 40
0.005335
 41
0.005335
  0
VERTEX
  8
PLAN_1
  6
CONTINUOUS
 10
-1.064488
 20
-0.370157
  0
VERTEX
  8
PLAN_1
  6
CONTINUOUS
 10
-1.077098
 20
-0.372583
  0
VERTEX
  8
PLAN_1
  6
CONTINUOUS
 10
-1.557319
 20
-0.457469
  0
VERTEX
  8
PLAN_1
  6
CONTINUOUS
 10
-1.565563
 20
-0.458925
  0
SEQEND
  8
0
  0
POLYLINE
  8
PLAN_1
  6
CONTINUOUS
 66
     1
 40
0.005335
 41
0.005335
  0
VERTEX
  8
PLAN_1
  6
CONTINUOUS
 10
-1.565563
 20
-0.458925
  0
VERTEX
  8
PLAN_1
  6
CONTINUOUS
 10
-1.569445
 20
-0.459894
  0
VERTEX
  8
PLAN_1
  6
CONTINUOUS
 10
-1.573327
 20
-0.461835
  0
VERTEX
  8
PLAN_1
  6
CONTINUOUS
 10
-1.576236
 20
-0.464260
  0
VERTEX
  8
PLAN_1
  6
CONTINUOUS
 10
-1.578661
 20
-0.467169
  0
VERTEX
  8
PLAN_1
  6
CONTINUOUS
 10
-1.580602
 20
-0.470567
  0
VERTEX
  8
PLAN_1
  6
CONTINUOUS
 10
-1.582055
 20
-0.474445
  0
VERTEX
  8
PLAN_1
  6
CONTINUOUS
 10
-1.582543
 20
-0.478327
  0
VERTEX
  8
PLAN_1
  6
CONTINUOUS
 10
-1.582055
 20
-0.482209
  0
VERTEX
  8
PLAN_1
  6
CONTINUOUS
 10
-1.581087
 20
-0.486575
  0
VERTEX
  8
PLAN_1
  6
CONTINUOUS
 10
-1.579146
 20
-0.489969
  0
VERTEX
  8
PLAN_1
  6
CONTINUOUS
 10
-1.576720
 20
-0.492878
  0
VERTEX
  8
PLAN_1
  6
CONTINUOUS
 10
-1.573811
 20
-0.495791
  0
VERTEX
  8
PLAN_1
  6
CONTINUOUS
 10
-1.570413
 20
-0.497728
  0
VERTEX
  8
PLAN_1
  6
CONTINUOUS
 10
-1.566535
 20
-0.498701
  0
VERTEX
  8
PLAN_1
  6
CONTINUOUS
 10
-1.562654
 20
-0.499185
  0
VERTEX
  8
PLAN_1
  6
CONTINUOUS
 10
-1.558772
 20
-0.499185
  0
SEQEND
  8
0
  0
POLYLINE
  8
PLAN_1
  6
CONTINUOUS
 66
     1
 40
0.005335
 41
0.005335
  0
VERTEX
  8
PLAN_1
  6
CONTINUOUS
 10
-1.181390
 20
-0.389559
  0
VERTEX
  8
PLAN_1
  6
CONTINUOUS
 10
-1.557319
 20
-0.323106
  0
VERTEX
  8
PLAN_1
  6
CONTINUOUS
 10
-1.565563
 20
-0.321650
  0
SEQEND
  8
0
  0
POLYLINE
  8
PLAN_1
  6
CONTINUOUS
 66
     1
 40
0.005335
 41
0.005335
  0
VERTEX
  8
PLAN_1
  6
CONTINUOUS
 10
-1.565563
 20
-0.321650
  0
VERTEX
  8
PLAN_1
  6
CONTINUOUS
 10
-1.569445
 20
-0.320681
  0
VERTEX
  8
PLAN_1
  6
CONTINUOUS
 10
-1.573327
 20
-0.318740
  0
VERTEX
  8
PLAN_1
  6
CONTINUOUS
 10
-1.576236
 20
-0.316315
  0
VERTEX
  8
PLAN_1
  6
CONTINUOUS
 10
-1.578661
 20
-0.313402
  0
VERTEX
  8
PLAN_1
  6
CONTINUOUS
 10
-1.580602
 20
-0.310008
  0
VERTEX
  8
PLAN_1
  6
CONTINUOUS
 10
-1.582055
 20
-0.306126
  0
VERTEX
  8
PLAN_1
  6
CONTINUOUS
 10
-1.582543
 20
-0.302248
  0
VERTEX
  8
PLAN_1
  6
CONTINUOUS
 10
-1.582055
 20
-0.298366
  0
VERTEX
  8
PLAN_1
  6
CONTINUOUS
 10
-1.581087
 20
-0.294000
  0
VERTEX
  8
PLAN_1
  6
CONTINUOUS
 10
-1.579146
 20
-0.290606
  0
VERTEX
  8
PLAN_1
  6
CONTINUOUS
 10
-1.576720
 20
-0.287693
  0
VERTEX
  8
PLAN_1
  6
CONTINUOUS
 10
-1.573811
 20
-0.284783
  0
VERTEX
  8
PLAN_1
  6
CONTINUOUS
 10
-1.570413
 20
-0.282843
  0
VERTEX
  8
PLAN_1
  6
CONTINUOUS
 10
-1.566535
 20
-0.281874
  0
VERTEX
  8
PLAN_1
  6
CONTINUOUS
 10
-1.562654
 20
-0.281390
  0
VERTEX
  8
PLAN_1
  6
CONTINUOUS
 10
-1.558287
 20
-0.281390
  0
SEQEND
  8
0
  0
POLYLINE
  8
PLAN_1
  6
CONTINUOUS
 66
     1
 40
0.005335
 41
0.005335
  0
VERTEX
  8
PLAN_1
  6
CONTINUOUS
 10
-1.448177
 20
-0.301276
  0
VERTEX
  8
PLAN_1
  6
CONTINUOUS
 10
-1.069823
 20
-0.367732
  0
VERTEX
  8
PLAN_1
  6
CONTINUOUS
 10
-1.057213
 20
-0.370157
  0
SEQEND
  8
0
  0
POLYLINE
  8
PLAN_1
  6
CONTINUOUS
 66
     1
 40
0.005335
 41
0.005335
  0
VERTEX
  8
PLAN_1
  6
CONTINUOUS
 10
-1.057213
 20
-0.370157
  0
VERTEX
  8
PLAN_1
  6
CONTINUOUS
 10
-1.053331
 20
-0.371126
  0
VERTEX
  8
PLAN_1
  6
CONTINUOUS
 10
-1.049933
 20
-0.373067
  0
VERTEX
  8
PLAN_1
  6
CONTINUOUS
 10
-1.046539
 20
-0.375492
  0
VERTEX
  8
PLAN_1
  6
CONTINUOUS
 10
-1.044114
 20
-0.378402
  0
VERTEX
  8
PLAN_1
  6
CONTINUOUS
 10
-1.042173
 20
-0.381799
  0
VERTEX
  8
PLAN_1
  6
CONTINUOUS
 10
-1.040717
 20
-0.385677
  0
VERTEX
  8
PLAN_1
  6
CONTINUOUS
 10
-1.040232
 20
-0.389559
  0
VERTEX
  8
PLAN_1
  6
CONTINUOUS
 10
-1.040717
 20
-0.393925
  0
VERTEX
  8
PLAN_1
  6
CONTINUOUS
 10
-1.041689
 20
-0.397807
  0
VERTEX
  8
PLAN_1
  6
CONTINUOUS
 10
-1.043630
 20
-0.401201
  0
VERTEX
  8
PLAN_1
  6
CONTINUOUS
 10
-1.046055
 20
-0.404598
  0
VERTEX
  8
PLAN_1
  6
CONTINUOUS
 10
-1.048965
 20
-0.407024
  0
VERTEX
  8
PLAN_1
  6
CONTINUOUS
 10
-1.052358
 20
-0.408961
  0
VERTEX
  8
PLAN_1
  6
CONTINUOUS
 10
-1.056240
 20
-0.410417
  0
VERTEX
  8
PLAN_1
  6
CONTINUOUS
 10
-1.060122
 20
-0.410902
  0
VERTEX
  8
PLAN_1
  6
CONTINUOUS
 10
-1.064488
 20
-0.410417
  0
SEQEND
  8
0
  0
POLYLINE
  8
PLAN_1
  6
CONTINUOUS
 66
     1
 40
0.005335
 41
0.005335
  0
VERTEX
  8
PLAN_1
  6
CONTINUOUS
 10
-1.177992
 20
-0.212024
  0
VERTEX
  8
PLAN_1
  6
CONTINUOUS
 10
-1.557319
 20
-0.145083
  0
VERTEX
  8
PLAN_1
  6
CONTINUOUS
 10
-1.565563
 20
-0.143630
  0
SEQEND
  8
0
  0
POLYLINE
  8
PLAN_1
  6
CONTINUOUS
 66
     1
 40
0.005335
 41
0.005335
  0
VERTEX
  8
PLAN_1
  6
CONTINUOUS
 10
-1.565563
 20
-0.143630
  0
VERTEX
  8
PLAN_1
  6
CONTINUOUS
 10
-1.569445
 20
-0.142657
  0
VERTEX
  8
PLAN_1
  6
CONTINUOUS
 10
-1.572843
 20
-0.140717
  0
VERTEX
  8
PLAN_1
  6
CONTINUOUS
 10
-1.576236
 20
-0.138291
  0
VERTEX
  8
PLAN_1
  6
CONTINUOUS
 10
-1.578661
 20
-0.135382
  0
VERTEX
  8
PLAN_1
  6
CONTINUOUS
 10
-1.580602
 20
-0.131988
  0
VERTEX
  8
PLAN_1
  6
CONTINUOUS
 10
-1.582055
 20
-0.128106
  0
VERTEX
  8
PLAN_1
  6
CONTINUOUS
 10
-1.582543
 20
-0.124224
  0
VERTEX
  8
PLAN_1
  6
CONTINUOUS
 10
-1.582055
 20
-0.119862
  0
VERTEX
  8
PLAN_1
  6
CONTINUOUS
 10
-1.581087
 20
-0.115980
  0
VERTEX
  8
PLAN_1
  6
CONTINUOUS
 10
-1.579146
 20
-0.112583
  0
VERTEX
  8
PLAN_1
  6
CONTINUOUS
 10
-1.576720
 20
-0.109673
  0
VERTEX
  8
PLAN_1
  6
CONTINUOUS
 10
-1.573811
 20
-0.106764
  0
VERTEX
  8
PLAN_1
  6
CONTINUOUS
 10
-1.570413
 20
-0.104823
  0
VERTEX
  8
PLAN_1
  6
CONTINUOUS
 10
-1.566535
 20
-0.103854
  0
VERTEX
  8
PLAN_1
  6
CONTINUOUS
 10
-1.562654
 20
-0.103366
  0
VERTEX
  8
PLAN_1
  6
CONTINUOUS
 10
-1.558287
 20
-0.103366
  0
SEQEND
  8
0
  0
POLYLINE
  8
PLAN_1
  6
CONTINUOUS
 66
     1
 40
0.005335
 41
0.005335
  0
VERTEX
  8
PLAN_1
  6
CONTINUOUS
 10
-1.445268
 20
-0.123740
  0
VERTEX
  8
PLAN_1
  6
CONTINUOUS
 10
-1.069823
 20
-0.189709
  0
VERTEX
  8
PLAN_1
  6
CONTINUOUS
 10
-1.057213
 20
-0.192134
  0
SEQEND
  8
0
  0
POLYLINE
  8
PLAN_1
  6
CONTINUOUS
 66
     1
 40
0.005335
 41
0.005335
  0
VERTEX
  8
PLAN_1
  6
CONTINUOUS
 10
-1.057213
 20
-0.192134
  0
VERTEX
  8
PLAN_1
  6
CONTINUOUS
 10
-1.053331
 20
-0.193106
  0
VERTEX
  8
PLAN_1
  6
CONTINUOUS
 10
-1.049933
 20
-0.195047
  0
VERTEX
  8
PLAN_1
  6
CONTINUOUS
 10
-1.046539
 20
-0.197472
  0
VERTEX
  8
PLAN_1
  6
CONTINUOUS
 10
-1.044114
 20
-0.200382
  0
VERTEX
  8
PLAN_1
  6
CONTINUOUS
 10
-1.042173
 20
-0.203776
  0
VERTEX
  8
PLAN_1
  6
CONTINUOUS
 10
-1.040717
 20
-0.207657
  0
VERTEX
  8
PLAN_1
  6
CONTINUOUS
 10
-1.040232
 20
-0.211539
  0
VERTEX
  8
PLAN_1
  6
CONTINUOUS
 10
-1.040717
 20
-0.215906
  0
VERTEX
  8
PLAN_1
  6
CONTINUOUS
 10
-1.041689
 20
-0.219783
  0
VERTEX
  8
PLAN_1
  6
CONTINUOUS
 10
-1.043630
 20
-0.223181
  0
VERTEX
  8
PLAN_1
  6
CONTINUOUS
 10
-1.046055
 20
-0.226575
  0
VERTEX
  8
PLAN_1
  6
CONTINUOUS
 10
-1.048965
 20
-0.229000
  0
VERTEX
  8
PLAN_1
  6
CONTINUOUS
 10
-1.052358
 20
-0.230941
  0
VERTEX
  8
PLAN_1
  6
CONTINUOUS
 10
-1.056240
 20
-0.231913
  0
VERTEX
  8
PLAN_1
  6
CONTINUOUS
 10
-1.060122
 20
-0.232882
  0
VERTEX
  8
PLAN_1
  6
CONTINUOUS
 10
-1.064488
 20
-0.232398
  0
SEQEND
  8
0
  0
POLYLINE
  8
PLAN_1
 62
     2
  6
CONTINUOUS
 66
     1
 40
0.004362
 41
0.004362
  0
VERTEX
  8
PLAN_1
 62
     2
  6
CONTINUOUS
 10
-1.880862
 20
3.784472
  0
VERTEX
  8
PLAN_1
 62
     2
  6
CONTINUOUS
 10
-0.996579
 20
3.784472
  0
SEQEND
  8
0
  0
SOLID
  8
PLAN_1
 62
     2
 10
-0.966988
 20
3.784472
 11
-1.026165
 21
3.799992
 12
-0.966988
 22
3.784472
 13
-1.026165
 23
3.768465
  0
POLYLINE
  8
PLAN_1
 62
     2
  6
CONTINUOUS
 66
     1
 40
0.003000
 41
0.003000
  0
VERTEX
  8
PLAN_1
 62
     2
  6
CONTINUOUS
 10
-0.966988
 20
3.784472
  0
VERTEX
  8
PLAN_1
 62
     2
  6
CONTINUOUS
 10
-1.026165
 20
3.799992
  0
VERTEX
  8
PLAN_1
 62
     2
  6
CONTINUOUS
 10
-1.026165
 20
3.768465
  0
VERTEX
  8
PLAN_1
 62
     2
  6
CONTINUOUS
 10
-0.966988
 20
3.784472
  0
SEQEND
  8
0
  0
SOLID
  8
PLAN_1
 62
     2
 10
-1.910449
 20
3.784472
 11
-1.851272
 21
3.799992
 12
-1.910449
 22
3.784472
 13
-1.851272
 23
3.768465
  0
POLYLINE
  8
PLAN_1
 62
     2
  6
CONTINUOUS
 66
     1
 40
0.003000
 41
0.003000
  0
VERTEX
  8
PLAN_1
 62
     2
  6
CONTINUOUS
 10
-1.910449
 20
3.784472
  0
VERTEX
  8
PLAN_1
 62
     2
  6
CONTINUOUS
 10
-1.851272
 20
3.799992
  0
VERTEX
  8
PLAN_1
 62
     2
  6
CONTINUOUS
 10
-1.851272
 20
3.768465
  0
VERTEX
  8
PLAN_1
 62
     2
  6
CONTINUOUS
 10
-1.910449
 20
3.784472
  0
SEQEND
  8
0
  0
POLYLINE
  8
PLAN_1
 62
     2
  6
CONTINUOUS
 66
     1
 40
0.003000
 41
0.003000
  0
VERTEX
  8
PLAN_1
 62
     2
  6
CONTINUOUS
 10
-1.491835
 20
3.854807
  0
VERTEX
  8
PLAN_1
 62
     2
  6
CONTINUOUS
 10
-1.491835
 20
3.859173
  0
VERTEX
  8
PLAN_1
 62
     2
  6
CONTINUOUS
 10
-1.491350
 20
3.862567
  0
VERTEX
  8
PLAN_1
 62
     2
  6
CONTINUOUS
 10
-1.490378
 20
3.865965
  0
VERTEX
  8
PLAN_1
 62
     2
  6
CONTINUOUS
 10
-1.488925
 20
3.868874
  0
VERTEX
  8
PLAN_1
 62
     2
  6
CONTINUOUS
 10
-1.487953
 20
3.871299
  0
VERTEX
  8
PLAN_1
 62
     2
  6
CONTINUOUS
 10
-1.486012
 20
3.873724
  0
VERTEX
  8
PLAN_1
 62
     2
  6
CONTINUOUS
 10
-1.484071
 20
3.875181
  0
VERTEX
  8
PLAN_1
 62
     2
  6
CONTINUOUS
 10
-1.482134
 20
3.876634
  0
VERTEX
  8
PLAN_1
 62
     2
  6
CONTINUOUS
 10
-1.478252
 20
3.879059
  0
VERTEX
  8
PLAN_1
 62
     2
  6
CONTINUOUS
 10
-1.473886
 20
3.880031
  0
VERTEX
  8
PLAN_1
 62
     2
  6
CONTINUOUS
 10
-1.470004
 20
3.881000
  0
VERTEX
  8
PLAN_1
 62
     2
  6
CONTINUOUS
 10
-1.466610
 20
3.881000
  0
VERTEX
  8
PLAN_1
 62
     2
  6
CONTINUOUS
 10
-1.462244
 20
3.880516
  0
VERTEX
  8
PLAN_1
 62
     2
  6
CONTINUOUS
 10
-1.457878
 20
3.879543
  0
VERTEX
  8
PLAN_1
 62
     2
  6
CONTINUOUS
 10
-1.454000
 20
3.877606
  0
VERTEX
  8
PLAN_1
 62
     2
  6
CONTINUOUS
 10
-1.450602
 20
3.875181
  0
VERTEX
  8
PLAN_1
 62
     2
  6
CONTINUOUS
 10
-1.447693
 20
3.872268
  0
VERTEX
  8
PLAN_1
 62
     2
  6
CONTINUOUS
 10
-1.445752
 20
3.868390
  0
VERTEX
  8
PLAN_1
 62
     2
  6
CONTINUOUS
 10
-1.444295
 20
3.864024
  0
VERTEX
  8
PLAN_1
 62
     2
  6
CONTINUOUS
 10
-1.443811
 20
3.859173
  0
VERTEX
  8
PLAN_1
 62
     2
  6
CONTINUOUS
 10
-1.444295
 20
3.854807
  0
VERTEX
  8
PLAN_1
 62
     2
  6
CONTINUOUS
 10
-1.445268
 20
3.850441
  0
VERTEX
  8
PLAN_1
 62
     2
  6
CONTINUOUS
 10
-1.447209
 20
3.847043
  0
VERTEX
  8
PLAN_1
 62
     2
  6
CONTINUOUS
 10
-1.449634
 20
3.844134
  0
VERTEX
  8
PLAN_1
 62
     2
  6
CONTINUOUS
 10
-1.452543
 20
3.841709
  0
VERTEX
  8
PLAN_1
 62
     2
  6
CONTINUOUS
 10
-1.455937
 20
3.839283
  0
VERTEX
  8
PLAN_1
 62
     2
  6
CONTINUOUS
 10
-1.459335
 20
3.836858
  0
VERTEX
  8
PLAN_1
 62
     2
  6
CONTINUOUS
 10
-1.463217
 20
3.834917
  0
VERTEX
  8
PLAN_1
 62
     2
  6
CONTINUOUS
 10
-1.470976
 20
3.830551
  0
VERTEX
  8
PLAN_1
 62
     2
  6
CONTINUOUS
 10
-1.474370
 20
3.828614
  0
VERTEX
  8
PLAN_1
 62
     2
  6
CONTINUOUS
 10
-1.477283
 20
3.826189
  0
VERTEX
  8
PLAN_1
 62
     2
  6
CONTINUOUS
 10
-1.479220
 20
3.824248
  0
VERTEX
  8
PLAN_1
 62
     2
  6
CONTINUOUS
 10
-1.480677
 20
3.822307
  0
VERTEX
  8
PLAN_1
 62
     2
  6
CONTINUOUS
 10
-1.482134
 20
3.820850
  0
VERTEX
  8
PLAN_1
 62
     2
  6
CONTINUOUS
 10
-1.482618
 20
3.818909
  0
VERTEX
  8
PLAN_1
 62
     2
  6
CONTINUOUS
 10
-1.483102
 20
3.817457
  0
VERTEX
  8
PLAN_1
 62
     2
  6
CONTINUOUS
 10
-1.483587
 20
3.816484
  0
VERTEX
  8
PLAN_1
 62
     2
  6
CONTINUOUS
 10
-1.443811
 20
3.816484
  0
VERTEX
  8
PLAN_1
 62
     2
  6
CONTINUOUS
 10
-1.443811
 20
3.807756
  0
VERTEX
  8
PLAN_1
 62
     2
  6
CONTINUOUS
 10
-1.493776
 20
3.807756
  0
VERTEX
  8
PLAN_1
 62
     2
  6
CONTINUOUS
 10
-1.493287
 20
3.813091
  0
VERTEX
  8
PLAN_1
 62
     2
  6
CONTINUOUS
 10
-1.492319
 20
3.817941
  0
VERTEX
  8
PLAN_1
 62
     2
  6
CONTINUOUS
 10
-1.490862
 20
3.822307
  0
VERTEX
  8
PLAN_1
 62
     2
  6
CONTINUOUS
 10
-1.488925
 20
3.825701
  0
VERTEX
  8
PLAN_1
 62
     2
  6
CONTINUOUS
 10
-1.486500
 20
3.829098
  0
VERTEX
  8
PLAN_1
 62
     2
  6
CONTINUOUS
 10
-1.483587
 20
3.832008
  0
VERTEX
  8
PLAN_1
 62
     2
  6
CONTINUOUS
 10
-1.480193
 20
3.834433
  0
VERTEX
  8
PLAN_1
 62
     2
  6
CONTINUOUS
 10
-1.476795
 20
3.836858
  0
VERTEX
  8
PLAN_1
 62
     2
  6
CONTINUOUS
 10
-1.467094
 20
3.842681
  0
VERTEX
  8
PLAN_1
 62
     2
  6
CONTINUOUS
 10
-1.464185
 20
3.844134
  0
VERTEX
  8
PLAN_1
 62
     2
  6
CONTINUOUS
 10
-1.461760
 20
3.845591
  0
VERTEX
  8
PLAN_1
 62
     2
  6
CONTINUOUS
 10
-1.459335
 20
3.847531
  0
VERTEX
  8
PLAN_1
 62
     2
  6
CONTINUOUS
 10
-1.457394
 20
3.848984
  0
VERTEX
  8
PLAN_1
 62
     2
  6
CONTINUOUS
 10
-1.455937
 20
3.850925
  0
VERTEX
  8
PLAN_1
 62
     2
  6
CONTINUOUS
 10
-1.454484
 20
3.853350
  0
VERTEX
  8
PLAN_1
 62
     2
  6
CONTINUOUS
 10
-1.454000
 20
3.856260
  0
VERTEX
  8
PLAN_1
 62
     2
  6
CONTINUOUS
 10
-1.453512
 20
3.859657
  0
VERTEX
  8
PLAN_1
 62
     2
  6
CONTINUOUS
 10
-1.454000
 20
3.861598
  0
VERTEX
  8
PLAN_1
 62
     2
  6
CONTINUOUS
 10
-1.454484
 20
3.864024
  0
VERTEX
  8
PLAN_1
 62
     2
  6
CONTINUOUS
 10
-1.455453
 20
3.866449
  0
VERTEX
  8
PLAN_1
 62
     2
  6
CONTINUOUS
 10
-1.456909
 20
3.868390
  0
VERTEX
  8
PLAN_1
 62
     2
  6
CONTINUOUS
 10
-1.458850
 20
3.870327
  0
VERTEX
  8
PLAN_1
 62
     2
  6
CONTINUOUS
 10
-1.461276
 20
3.871299
  0
VERTEX
  8
PLAN_1
 62
     2
  6
CONTINUOUS
 10
-1.464185
 20
3.872268
  0
VERTEX
  8
PLAN_1
 62
     2
  6
CONTINUOUS
 10
-1.468067
 20
3.872752
  0
VERTEX
  8
PLAN_1
 62
     2
  6
CONTINUOUS
 10
-1.470492
 20
3.872752
  0
VERTEX
  8
PLAN_1
 62
     2
  6
CONTINUOUS
 10
-1.472429
 20
3.872268
  0
VERTEX
  8
PLAN_1
 62
     2
  6
CONTINUOUS
 10
-1.474370
 20
3.871783
  0
VERTEX
  8
PLAN_1
 62
     2
  6
CONTINUOUS
 10
-1.476311
 20
3.870815
  0
VERTEX
  8
PLAN_1
 62
     2
  6
CONTINUOUS
 10
-1.478736
 20
3.868390
  0
VERTEX
  8
PLAN_1
 62
     2
  6
CONTINUOUS
 10
-1.480677
 20
3.865476
  0
VERTEX
  8
PLAN_1
 62
     2
  6
CONTINUOUS
 10
-1.481646
 20
3.862567
  0
VERTEX
  8
PLAN_1
 62
     2
  6
CONTINUOUS
 10
-1.482134
 20
3.859657
  0
VERTEX
  8
PLAN_1
 62
     2
  6
CONTINUOUS
 10
-1.482618
 20
3.857232
  0
VERTEX
  8
PLAN_1
 62
     2
  6
CONTINUOUS
 10
-1.482618
 20
3.854807
  0
VERTEX
  8
PLAN_1
 62
     2
  6
CONTINUOUS
 10
-1.491835
 20
3.854807
  0
SEQEND
  8
0
  0
POLYLINE
  8
PLAN_1
 62
     2
  6
CONTINUOUS
 66
     1
 40
0.003000
 41
0.003000
  0
VERTEX
  8
PLAN_1
 62
     2
  6
CONTINUOUS
 10
-1.394819
 20
3.825701
  0
VERTEX
  8
PLAN_1
 62
     2
  6
CONTINUOUS
 10
-1.394819
 20
3.807756
  0
VERTEX
  8
PLAN_1
 62
     2
  6
CONTINUOUS
 10
-1.404035
 20
3.807756
  0
VERTEX
  8
PLAN_1
 62
     2
  6
CONTINUOUS
 10
-1.404035
 20
3.825701
  0
VERTEX
  8
PLAN_1
 62
     2
  6
CONTINUOUS
 10
-1.436051
 20
3.825701
  0
VERTEX
  8
PLAN_1
 62
     2
  6
CONTINUOUS
 10
-1.436051
 20
3.834433
  0
VERTEX
  8
PLAN_1
 62
     2
  6
CONTINUOUS
 10
-1.402583
 20
3.881000
  0
VERTEX
  8
PLAN_1
 62
     2
  6
CONTINUOUS
 10
-1.394819
 20
3.881000
  0
VERTEX
  8
PLAN_1
 62
     2
  6
CONTINUOUS
 10
-1.394819
 20
3.833465
  0
VERTEX
  8
PLAN_1
 62
     2
  6
CONTINUOUS
 10
-1.384150
 20
3.833465
  0
VERTEX
  8
PLAN_1
 62
     2
  6
CONTINUOUS
 10
-1.384150
 20
3.825701
  0
VERTEX
  8
PLAN_1
 62
     2
  6
CONTINUOUS
 10
-1.394819
 20
3.825701
  0
SEQEND
  8
0
  0
SOLID
  8
PLAN_1
 62
     2
 10
-1.427803
 20
3.833465
 11
-1.404035
 21
3.833465
 12
-1.404520
 22
3.866933
 13
-1.404035
 23
3.866933
  0
POLYLINE
  8
PLAN_1
 62
     2
  6
CONTINUOUS
 66
     1
 40
0.003000
 41
0.003000
  0
VERTEX
  8
PLAN_1
 62
     2
  6
CONTINUOUS
 10
-1.427803
 20
3.833465
  0
VERTEX
  8
PLAN_1
 62
     2
  6
CONTINUOUS
 10
-1.404035
 20
3.833465
  0
VERTEX
  8
PLAN_1
 62
     2
  6
CONTINUOUS
 10
-1.404035
 20
3.866933
  0
VERTEX
  8
PLAN_1
 62
     2
  6
CONTINUOUS
 10
-1.404520
 20
3.866933
  0
VERTEX
  8
PLAN_1
 62
     2
  6
CONTINUOUS
 10
-1.427803
 20
3.833465
  0
SEQEND
  8
0
  0
SOLID
  8
PLAN_1
 62
     2
 10
-1.087772
 20
1.841280
 11
-1.146949
 21
1.857287
 12
-1.087772
 22
1.841280
 13
-1.146949
 23
1.825756
  0
POLYLINE
  8
PLAN_1
 62
     2
  6
CONTINUOUS
 66
     1
 40
0.003000
 41
0.003000
  0
VERTEX
  8
PLAN_1
 62
     2
  6
CONTINUOUS
 10
-1.087772
 20
1.841280
  0
VERTEX
  8
PLAN_1
 62
     2
  6
CONTINUOUS
 10
-1.146949
 20
1.857287
  0
VERTEX
  8
PLAN_1
 62
     2
  6
CONTINUOUS
 10
-1.146949
 20
1.825756
  0
VERTEX
  8
PLAN_1
 62
     2
  6
CONTINUOUS
 10
-1.087772
 20
1.841280
  0
SEQEND
  8
0
  0
SOLID
  8
PLAN_1
 62
     2
 10
-0.848146
 20
1.841280
 11
-0.789453
 21
1.857287
 12
-0.848146
 22
1.841280
 13
-0.789453
 23
1.825756
  0
POLYLINE
  8
PLAN_1
 62
     2
  6
CONTINUOUS
 66
     1
 40
0.003000
 41
0.003000
  0
VERTEX
  8
PLAN_1
 62
     2
  6
CONTINUOUS
 10
-0.848146
 20
1.841280
  0
VERTEX
  8
PLAN_1
 62
     2
  6
CONTINUOUS
 10
-0.789453
 20
1.857287
  0
VERTEX
  8
PLAN_1
 62
     2
  6
CONTINUOUS
 10
-0.789453
 20
1.825756
  0
VERTEX
  8
PLAN_1
 62
     2
  6
CONTINUOUS
 10
-0.848146
 20
1.841280
  0
SEQEND
  8
0
  0
POLYLINE
  8
PLAN_1
 62
     2
  6
CONTINUOUS
 66
     1
 40
0.004362
 41
0.004362
  0
VERTEX
  8
PLAN_1
 62
     2
  6
CONTINUOUS
 10
-1.295382
 20
1.841280
  0
VERTEX
  8
PLAN_1
 62
     2
  6
CONTINUOUS
 10
-0.818555
 20
1.841280
  0
SEQEND
  8
0
  0
POLYLINE
  8
PLAN_1
 62
     2
  6
CONTINUOUS
 66
     1
 40
0.004362
 41
0.004362
  0
VERTEX
  8
PLAN_1
 62
     2
  6
CONTINUOUS
 10
-0.168563
 20
0.140138
  0
VERTEX
  8
PLAN_1
 62
     2
  6
CONTINUOUS
 10
-0.168563
 20
3.599173
  0
SEQEND
  8
0
  0
SOLID
  8
PLAN_1
 62
     2
 10
-0.168563
 20
3.628764
 11
-0.184083
 21
3.569587
 12
-0.168563
 22
3.628764
 13
-0.152555
 23
3.569587
  0
POLYLINE
  8
PLAN_1
 62
     2
  6
CONTINUOUS
 66
     1
 40
0.003000
 41
0.003000
  0
VERTEX
  8
PLAN_1
 62
     2
  6
CONTINUOUS
 10
-0.168563
 20
3.628764
  0
VERTEX
  8
PLAN_1
 62
     2
  6
CONTINUOUS
 10
-0.184083
 20
3.569587
  0
VERTEX
  8
PLAN_1
 62
     2
  6
CONTINUOUS
 10
-0.152555
 20
3.569587
  0
VERTEX
  8
PLAN_1
 62
     2
  6
CONTINUOUS
 10
-0.168563
 20
3.628764
  0
SEQEND
  8
0
  0
SOLID
  8
PLAN_1
 62
     2
 10
-0.168563
 20
0.110547
 11
-0.184083
 21
0.169240
 12
-0.168563
 22
0.110547
 13
-0.152555
 23
0.169240
  0
POLYLINE
  8
PLAN_1
 62
     2
  6
CONTINUOUS
 66
     1
 40
0.003000
 41
0.003000
  0
VERTEX
  8
PLAN_1
 62
     2
  6
CONTINUOUS
 10
-0.168563
 20
0.110547
  0
VERTEX
  8
PLAN_1
 62
     2
  6
CONTINUOUS
 10
-0.184083
 20
0.169240
  0
VERTEX
  8
PLAN_1
 62
     2
  6
CONTINUOUS
 10
-0.152555
 20
0.169240
  0
VERTEX
  8
PLAN_1
 62
     2
  6
CONTINUOUS
 10
-0.168563
 20
0.110547
  0
SEQEND
  8
0
  0
POLYLINE
  8
PLAN_1
 62
     2
  6
CONTINUOUS
 66
     1
 40
0.003000
 41
0.003000
  0
VERTEX
  8
PLAN_1
 62
     2
  6
CONTINUOUS
 10
-0.191846
 20
1.819937
  0
VERTEX
  8
PLAN_1
 62
     2
  6
CONTINUOUS
 10
-0.191846
 20
1.810236
  0
VERTEX
  8
PLAN_1
 62
     2
  6
CONTINUOUS
 10
-0.243748
 20
1.810236
  0
VERTEX
  8
PLAN_1
 62
     2
  6
CONTINUOUS
 10
-0.243748
 20
1.793256
  0
VERTEX
  8
PLAN_1
 62
     2
  6
CONTINUOUS
 10
-0.251024
 20
1.793256
  0
VERTEX
  8
PLAN_1
 62
     2
  6
CONTINUOUS
 10
-0.251508
 20
1.797622
  0
VERTEX
  8
PLAN_1
 62
     2
  6
CONTINUOUS
 10
-0.251992
 20
1.801020
  0
VERTEX
  8
PLAN_1
 62
     2
  6
CONTINUOUS
 10
-0.252965
 20
1.803929
  0
VERTEX
  8
PLAN_1
 62
     2
  6
CONTINUOUS
 10
-0.253933
 20
1.806354
  0
VERTEX
  8
PLAN_1
 62
     2
  6
CONTINUOUS
 10
-0.255390
 20
1.808780
  0
VERTEX
  8
PLAN_1
 62
     2
  6
CONTINUOUS
 10
-0.257815
 20
1.810236
  0
VERTEX
  8
PLAN_1
 62
     2
  6
CONTINUOUS
 10
-0.261209
 20
1.811689
  0
VERTEX
  8
PLAN_1
 62
     2
  6
CONTINUOUS
 10
-0.265091
 20
1.813146
  0
VERTEX
  8
PLAN_1
 62
     2
  6
CONTINUOUS
 10
-0.265091
 20
1.819937
  0
VERTEX
  8
PLAN_1
 62
     2
  6
CONTINUOUS
 10
-0.191846
 20
1.819937
  0
SEQEND
  8
0
  0
POLYLINE
  8
PLAN_1
 62
     2
  6
CONTINUOUS
 66
     1
 40
0.003000
 41
0.003000
  0
VERTEX
  8
PLAN_1
 62
     2
  6
CONTINUOUS
 10
-0.233563
 20
1.864079
  0
VERTEX
  8
PLAN_1
 62
     2
  6
CONTINUOUS
 10
-0.233563
 20
1.864563
  0
VERTEX
  8
PLAN_1
 62
     2
  6
CONTINUOUS
 10
-0.233563
 20
1.865047
  0
VERTEX
  8
PLAN_1
 62
     2
  6
CONTINUOUS
 10
-0.233563
 20
1.866020
  0
VERTEX
  8
PLAN_1
 62
     2
  6
CONTINUOUS
 10
-0.233563
 20
1.866504
  0
VERTEX
  8
PLAN_1
 62
     2
  6
CONTINUOUS
 10
-0.233563
 20
1.866988
  0
VERTEX
  8
PLAN_1
 62
     2
  6
CONTINUOUS
 10
-0.233563
 20
1.867472
  0
VERTEX
  8
PLAN_1
 62
     2
  6
CONTINUOUS
 10
-0.233563
 20
1.867957
  0
VERTEX
  8
PLAN_1
 62
     2
  6
CONTINUOUS
 10
-0.233563
 20
1.868929
  0
VERTEX
  8
PLAN_1
 62
     2
  6
CONTINUOUS
 10
-0.233563
 20
1.871354
  0
VERTEX
  8
PLAN_1
 62
     2
  6
CONTINUOUS
 10
-0.234047
 20
1.873780
  0
VERTEX
  8
PLAN_1
 62
     2
  6
CONTINUOUS
 10
-0.234531
 20
1.876205
  0
VERTEX
  8
PLAN_1
 62
     2
  6
CONTINUOUS
 10
-0.235988
 20
1.878630
  0
VERTEX
  8
PLAN_1
 62
     2
  6
CONTINUOUS
 10
-0.237441
 20
1.880087
  0
VERTEX
  8
PLAN_1
 62
     2
  6
CONTINUOUS
 10
-0.239382
 20
1.881539
  0
VERTEX
  8
PLAN_1
 62
     2
  6
CONTINUOUS
 10
-0.242291
 20
1.882512
  0
VERTEX
  8
PLAN_1
 62
     2
  6
CONTINUOUS
 10
-0.245205
 20
1.882512
  0
VERTEX
  8
PLAN_1
 62
     2
  6
CONTINUOUS
 10
-0.247142
 20
1.882512
  0
VERTEX
  8
PLAN_1
 62
     2
  6
CONTINUOUS
 10
-0.249083
 20
1.882024
  0
VERTEX
  8
PLAN_1
 62
     2
  6
CONTINUOUS
 10
-0.251024
 20
1.881539
  0
VERTEX
  8
PLAN_1
 62
     2
  6
CONTINUOUS
 10
-0.252480
 20
1.880087
  0
VERTEX
  8
PLAN_1
 62
     2
  6
CONTINUOUS
 10
-0.254421
 20
1.878146
  0
VERTEX
  8
PLAN_1
 62
     2
  6
CONTINUOUS
 10
-0.255874
 20
1.875720
  0
VERTEX
  8
PLAN_1
 62
     2
  6
CONTINUOUS
 10
-0.256358
 20
1.872807
  0
VERTEX
  8
PLAN_1
 62
     2
  6
CONTINUOUS
 10
-0.256846
 20
1.869413
  0
VERTEX
  8
PLAN_1
 62
     2
  6
CONTINUOUS
 10
-0.256846
 20
1.866988
  0
VERTEX
  8
PLAN_1
 62
     2
  6
CONTINUOUS
 10
-0.256358
 20
1.865047
  0
VERTEX
  8
PLAN_1
 62
     2
  6
CONTINUOUS
 10
-0.255874
 20
1.863106
  0
VERTEX
  8
PLAN_1
 62
     2
  6
CONTINUOUS
 10
-0.254906
 20
1.861654
  0
VERTEX
  8
PLAN_1
 62
     2
  6
CONTINUOUS
 10
-0.253449
 20
1.859228
  0
VERTEX
  8
PLAN_1
 62
     2
  6
CONTINUOUS
 10
-0.251024
 20
1.857287
  0
VERTEX
  8
PLAN_1
 62
     2
  6
CONTINUOUS
 10
-0.248598
 20
1.856315
  0
VERTEX
  8
PLAN_1
 62
     2
  6
CONTINUOUS
 10
-0.245689
 20
1.855346
  0
VERTEX
  8
PLAN_1
 62
     2
  6
CONTINUOUS
 10
-0.243264
 20
1.855346
  0
VERTEX
  8
PLAN_1
 62
     2
  6
CONTINUOUS
 10
-0.241323
 20
1.854862
  0
VERTEX
  8
PLAN_1
 62
     2
  6
CONTINUOUS
 10
-0.241323
 20
1.846130
  0
VERTEX
  8
PLAN_1
 62
     2
  6
CONTINUOUS
 10
-0.245205
 20
1.846130
  0
VERTEX
  8
PLAN_1
 62
     2
  6
CONTINUOUS
 10
-0.249567
 20
1.847098
  0
VERTEX
  8
PLAN_1
 62
     2
  6
CONTINUOUS
 10
-0.253449
 20
1.848555
  0
VERTEX
  8
PLAN_1
 62
     2
  6
CONTINUOUS
 10
-0.257331
 20
1.850496
  0
VERTEX
  8
PLAN_1
 62
     2
  6
CONTINUOUS
 10
-0.258783
 20
1.851949
  0
VERTEX
  8
PLAN_1
 62
     2
  6
CONTINUOUS
 10
-0.260240
 20
1.853890
  0
VERTEX
  8
PLAN_1
 62
     2
  6
CONTINUOUS
 10
-0.261697
 20
1.855831
  0
VERTEX
  8
PLAN_1
 62
     2
  6
CONTINUOUS
 10
-0.262665
 20
1.857772
  0
VERTEX
  8
PLAN_1
 62
     2
  6
CONTINUOUS
 10
-0.263634
 20
1.860197
  0
VERTEX
  8
PLAN_1
 62
     2
  6
CONTINUOUS
 10
-0.264606
 20
1.863106
  0
VERTEX
  8
PLAN_1
 62
     2
  6
CONTINUOUS
 10
-0.265091
 20
1.866020
  0
VERTEX
  8
PLAN_1
 62
     2
  6
CONTINUOUS
 10
-0.265091
 20
1.869413
  0
VERTEX
  8
PLAN_1
 62
     2
  6
CONTINUOUS
 10
-0.264606
 20
1.874748
  0
VERTEX
  8
PLAN_1
 62
     2
  6
CONTINUOUS
 10
-0.263634
 20
1.879114
  0
VERTEX
  8
PLAN_1
 62
     2
  6
CONTINUOUS
 10
-0.261697
 20
1.882996
  0
VERTEX
  8
PLAN_1
 62
     2
  6
CONTINUOUS
 10
-0.259756
 20
1.886390
  0
VERTEX
  8
PLAN_1
 62
     2
  6
CONTINUOUS
 10
-0.256846
 20
1.888815
  0
VERTEX
  8
PLAN_1
 62
     2
  6
CONTINUOUS
 10
-0.253449
 20
1.890756
  0
VERTEX
  8
PLAN_1
 62
     2
  6
CONTINUOUS
 10
-0.250055
 20
1.891728
  0
VERTEX
  8
PLAN_1
 62
     2
  6
CONTINUOUS
 10
-0.245689
 20
1.892213
  0
VERTEX
  8
PLAN_1
 62
     2
  6
CONTINUOUS
 10
-0.242780
 20
1.891728
  0
VERTEX
  8
PLAN_1
 62
     2
  6
CONTINUOUS
 10
-0.239866
 20
1.891240
  0
VERTEX
  8
PLAN_1
 62
     2
  6
CONTINUOUS
 10
-0.237441
 20
1.890272
  0
VERTEX
  8
PLAN_1
 62
     2
  6
CONTINUOUS
 10
-0.235016
 20
1.888815
  0
VERTEX
  8
PLAN_1
 62
     2
  6
CONTINUOUS
 10
-0.233563
 20
1.887362
  0
VERTEX
  8
PLAN_1
 62
     2
  6
CONTINUOUS
 10
-0.232106
 20
1.885906
  0
VERTEX
  8
PLAN_1
 62
     2
  6
CONTINUOUS
 10
-0.231138
 20
1.884449
  0
VERTEX
  8
PLAN_1
 62
     2
  6
CONTINUOUS
 10
-0.230650
 20
1.882996
  0
VERTEX
  8
PLAN_1
 62
     2
  6
CONTINUOUS
 10
-0.229681
 20
1.885421
  0
VERTEX
  8
PLAN_1
 62
     2
  6
CONTINUOUS
 10
-0.228224
 20
1.887846
  0
VERTEX
  8
PLAN_1
 62
     2
  6
CONTINUOUS
 10
-0.226772
 20
1.889787
  0
VERTEX
  8
PLAN_1
 62
     2
  6
CONTINUOUS
 10
-0.224831
 20
1.891728
  0
VERTEX
  8
PLAN_1
 62
     2
  6
CONTINUOUS
 10
-0.222406
 20
1.893181
  0
VERTEX
  8
PLAN_1
 62
     2
  6
CONTINUOUS
 10
-0.219980
 20
1.894154
  0
VERTEX
  8
PLAN_1
 62
     2
  6
CONTINUOUS
 10
-0.217071
 20
1.894638
  0
VERTEX
  8
PLAN_1
 62
     2
  6
CONTINUOUS
 10
-0.213673
 20
1.895122
  0
VERTEX
  8
PLAN_1
 62
     2
  6
CONTINUOUS
 10
-0.208823
 20
1.894638
  0
VERTEX
  8
PLAN_1
 62
     2
  6
CONTINUOUS
 10
-0.204941
 20
1.893665
  0
VERTEX
  8
PLAN_1
 62
     2
  6
CONTINUOUS
 10
-0.200575
 20
1.891728
  0
VERTEX
  8
PLAN_1
 62
     2
  6
CONTINUOUS
 10
-0.197181
 20
1.888815
  0
VERTEX
  8
PLAN_1
 62
     2
  6
CONTINUOUS
 10
-0.195724
 20
1.886874
  0
VERTEX
  8
PLAN_1
 62
     2
  6
CONTINUOUS
 10
-0.194272
 20
1.885421
  0
VERTEX
  8
PLAN_1
 62
     2
  6
CONTINUOUS
 10
-0.192815
 20
1.882996
  0
VERTEX
  8
PLAN_1
 62
     2
  6
CONTINUOUS
 10
-0.191846
 20
1.880571
  0
VERTEX
  8
PLAN_1
 62
     2
  6
CONTINUOUS
 10
-0.190874
 20
1.878146
  0
VERTEX
  8
PLAN_1
 62
     2
  6
CONTINUOUS
 10
-0.190390
 20
1.875232
  0
VERTEX
  8
PLAN_1
 62
     2
  6
CONTINUOUS
 10
-0.189906
 20
1.871839
  0
VERTEX
  8
PLAN_1
 62
     2
  6
CONTINUOUS
 10
-0.189906
 20
1.868929
  0
VERTEX
  8
PLAN_1
 62
     2
  6
CONTINUOUS
 10
-0.189906
 20
1.866504
  0
VERTEX
  8
PLAN_1
 62
     2
  6
CONTINUOUS
 10
-0.190390
 20
1.864563
  0
VERTEX
  8
PLAN_1
 62
     2
  6
CONTINUOUS
 10
-0.190390
 20
1.863106
  0
VERTEX
  8
PLAN_1
 62
     2
  6
CONTINUOUS
 10
-0.190874
 20
1.861165
  0
VERTEX
  8
PLAN_1
 62
     2
  6
CONTINUOUS
 10
-0.191362
 20
1.859713
  0
VERTEX
  8
PLAN_1
 62
     2
  6
CONTINUOUS
 10
-0.191846
 20
1.857772
  0
VERTEX
  8
PLAN_1
 62
     2
  6
CONTINUOUS
 10
-0.192331
 20
1.856315
  0
VERTEX
  8
PLAN_1
 62
     2
  6
CONTINUOUS
 10
-0.193299
 20
1.855346
  0
VERTEX
  8
PLAN_1
 62
     2
  6
CONTINUOUS
 10
-0.194756
 20
1.852437
  0
VERTEX
  8
PLAN_1
 62
     2
  6
CONTINUOUS
 10
-0.197181
 20
1.850012
  0
VERTEX
  8
PLAN_1
 62
     2
  6
CONTINUOUS
 10
-0.199606
 20
1.848071
  0
VERTEX
  8
PLAN_1
 62
     2
  6
CONTINUOUS
 10
-0.202031
 20
1.847098
  0
VERTEX
  8
PLAN_1
 62
     2
  6
CONTINUOUS
 10
-0.204941
 20
1.845646
  0
VERTEX
  8
PLAN_1
 62
     2
  6
CONTINUOUS
 10
-0.207854
 20
1.845161
  0
VERTEX
  8
PLAN_1
 62
     2
  6
CONTINUOUS
 10
-0.211248
 20
1.844673
  0
VERTEX
  8
PLAN_1
 62
     2
  6
CONTINUOUS
 10
-0.214157
 20
1.844189
  0
VERTEX
  8
PLAN_1
 62
     2
  6
CONTINUOUS
 10
-0.214157
 20
1.853890
  0
VERTEX
  8
PLAN_1
 62
     2
  6
CONTINUOUS
 10
-0.211732
 20
1.853890
  0
VERTEX
  8
PLAN_1
 62
     2
  6
CONTINUOUS
 10
-0.208823
 20
1.854378
  0
VERTEX
  8
PLAN_1
 62
     2
  6
CONTINUOUS
 10
-0.206398
 20
1.855346
  0
VERTEX
  8
PLAN_1
 62
     2
  6
CONTINUOUS
 10
-0.203488
 20
1.856315
  0
VERTEX
  8
PLAN_1
 62
     2
  6
CONTINUOUS
 10
-0.201547
 20
1.858256
  0
VERTEX
  8
PLAN_1
 62
     2
  6
CONTINUOUS
 10
-0.199606
 20
1.861165
  0
VERTEX
  8
PLAN_1
 62
     2
  6
CONTINUOUS
 10
-0.198638
 20
1.864563
  0
VERTEX
  8
PLAN_1
 62
     2
  6
CONTINUOUS
 10
-0.198150
 20
1.869413
  0
VERTEX
  8
PLAN_1
 62
     2
  6
CONTINUOUS
 10
-0.198638
 20
1.872807
  0
VERTEX
  8
PLAN_1
 62
     2
  6
CONTINUOUS
 10
-0.199122
 20
1.875720
  0
VERTEX
  8
PLAN_1
 62
     2
  6
CONTINUOUS
 10
-0.200575
 20
1.878630
  0
VERTEX
  8
PLAN_1
 62
     2
  6
CONTINUOUS
 10
-0.202031
 20
1.880571
  0
VERTEX
  8
PLAN_1
 62
     2
  6
CONTINUOUS
 10
-0.203972
 20
1.882512
  0
VERTEX
  8
PLAN_1
 62
     2
  6
CONTINUOUS
 10
-0.206398
 20
1.883965
  0
VERTEX
  8
PLAN_1
 62
     2
  6
CONTINUOUS
 10
-0.209307
 20
1.884937
  0
VERTEX
  8
PLAN_1
 62
     2
  6
CONTINUOUS
 10
-0.212217
 20
1.885421
  0
VERTEX
  8
PLAN_1
 62
     2
  6
CONTINUOUS
 10
-0.214642
 20
1.884937
  0
VERTEX
  8
PLAN_1
 62
     2
  6
CONTINUOUS
 10
-0.216583
 20
1.884937
  0
VERTEX
  8
PLAN_1
 62
     2
  6
CONTINUOUS
 10
-0.218039
 20
1.883965
  0
VERTEX
  8
PLAN_1
 62
     2
  6
CONTINUOUS
 10
-0.219496
 20
1.883480
  0
VERTEX
  8
PLAN_1
 62
     2
  6
CONTINUOUS
 10
-0.221921
 20
1.881539
  0
VERTEX
  8
PLAN_1
 62
     2
  6
CONTINUOUS
 10
-0.223858
 20
1.879114
  0
VERTEX
  8
PLAN_1
 62
     2
  6
CONTINUOUS
 10
-0.224831
 20
1.876205
  0
VERTEX
  8
PLAN_1
 62
     2
  6
CONTINUOUS
 10
-0.225315
 20
1.873295
  0
VERTEX
  8
PLAN_1
 62
     2
  6
CONTINUOUS
 10
-0.225799
 20
1.870870
  0
VERTEX
  8
PLAN_1
 62
     2
  6
CONTINUOUS
 10
-0.225799
 20
1.867957
  0
VERTEX
  8
PLAN_1
 62
     2
  6
CONTINUOUS
 10
-0.225799
 20
1.867472
  0
VERTEX
  8
PLAN_1
 62
     2
  6
CONTINUOUS
 10
-0.225799
 20
1.866988
  0
VERTEX
  8
PLAN_1
 62
     2
  6
CONTINUOUS
 10
-0.225799
 20
1.866504
  0
VERTEX
  8
PLAN_1
 62
     2
  6
CONTINUOUS
 10
-0.225799
 20
1.866020
  0
VERTEX
  8
PLAN_1
 62
     2
  6
CONTINUOUS
 10
-0.225799
 20
1.865531
  0
VERTEX
  8
PLAN_1
 62
     2
  6
CONTINUOUS
 10
-0.225799
 20
1.865047
  0
VERTEX
  8
PLAN_1
 62
     2
  6
CONTINUOUS
 10
-0.225799
 20
1.864563
  0
VERTEX
  8
PLAN_1
 62
     2
  6
CONTINUOUS
 10
-0.225799
 20
1.864079
  0
VERTEX
  8
PLAN_1
 62
     2
  6
CONTINUOUS
 10
-0.233563
 20
1.864079
  0
SEQEND
  8
0
  0
POLYLINE
  8
PLAN_1
 62
     2
  6
CONTINUOUS
 66
     1
 40
0.003000
 41
0.003000
  0
VERTEX
  8
PLAN_1
 62
     2
  6
CONTINUOUS
 10
-0.263634
 20
1.902398
  0
VERTEX
  8
PLAN_1
 62
     2
  6
CONTINUOUS
 10
-0.263634
 20
1.952846
  0
VERTEX
  8
PLAN_1
 62
     2
  6
CONTINUOUS
 10
-0.255390
 20
1.952846
  0
VERTEX
  8
PLAN_1
 62
     2
  6
CONTINUOUS
 10
-0.251992
 20
1.949933
  0
VERTEX
  8
PLAN_1
 62
     2
  6
CONTINUOUS
 10
-0.247142
 20
1.946055
  0
VERTEX
  8
PLAN_1
 62
     2
  6
CONTINUOUS
 10
-0.240839
 20
1.941689
  0
VERTEX
  8
PLAN_1
 62
     2
  6
CONTINUOUS
 10
-0.233075
 20
1.937323
  0
VERTEX
  8
PLAN_1
 62
     2
  6
CONTINUOUS
 10
-0.224346
 20
1.932957
  0
VERTEX
  8
PLAN_1
 62
     2
  6
CONTINUOUS
 10
-0.214642
 20
1.929079
  0
VERTEX
  8
PLAN_1
 62
     2
  6
CONTINUOUS
 10
-0.209307
 20
1.927138
  0
VERTEX
  8
PLAN_1
 62
     2
  6
CONTINUOUS
 10
-0.203972
 20
1.925681
  0
VERTEX
  8
PLAN_1
 62
     2
  6
CONTINUOUS
 10
-0.198150
 20
1.924224
  0
VERTEX
  8
PLAN_1
 62
     2
  6
CONTINUOUS
 10
-0.191846
 20
1.922772
  0
VERTEX
  8
PLAN_1
 62
     2
  6
CONTINUOUS
 10
-0.191846
 20
1.913071
  0
VERTEX
  8
PLAN_1
 62
     2
  6
CONTINUOUS
 10
-0.199606
 20
1.914039
  0
VERTEX
  8
PLAN_1
 62
     2
  6
CONTINUOUS
 10
-0.207854
 20
1.916465
  0
VERTEX
  8
PLAN_1
 62
     2
  6
CONTINUOUS
 10
-0.216098
 20
1.919862
  0
VERTEX
  8
PLAN_1
 62
     2
  6
CONTINUOUS
 10
-0.224831
 20
1.923256
  0
VERTEX
  8
PLAN_1
 62
     2
  6
CONTINUOUS
 10
-0.233075
 20
1.927622
  0
VERTEX
  8
PLAN_1
 62
     2
  6
CONTINUOUS
 10
-0.240839
 20
1.932472
  0
VERTEX
  8
PLAN_1
 62
     2
  6
CONTINUOUS
 10
-0.248114
 20
1.937323
  0
VERTEX
  8
PLAN_1
 62
     2
  6
CONTINUOUS
 10
-0.254421
 20
1.942657
  0
VERTEX
  8
PLAN_1
 62
     2
  6
CONTINUOUS
 10
-0.254421
 20
1.902398
  0
VERTEX
  8
PLAN_1
 62
     2
  6
CONTINUOUS
 10
-0.263634
 20
1.902398
  0
SEQEND
  8
0
  0
POLYLINE
  8
PLAN_1
 62
     2
  6
CONTINUOUS
 66
     1
 40
0.004362
 41
0.004362
  0
VERTEX
  8
PLAN_1
 62
     2
  6
CONTINUOUS
 10
-0.325724
 20
0.912370
  0
VERTEX
  8
PLAN_1
 62
     2
  6
CONTINUOUS
 10
-0.325724
 20
3.599173
  0
SEQEND
  8
0
  0
SOLID
  8
PLAN_1
 62
     2
 10
-0.325724
 20
3.628764
 11
-0.341732
 21
3.569587
 12
-0.325724
 22
3.628764
 13
-0.310201
 23
3.569587
  0
POLYLINE
  8
PLAN_1
 62
     2
  6
CONTINUOUS
 66
     1
 40
0.003000
 41
0.003000
  0
VERTEX
  8
PLAN_1
 62
     2
  6
CONTINUOUS
 10
-0.325724
 20
3.628764
  0
VERTEX
  8
PLAN_1
 62
     2
  6
CONTINUOUS
 10
-0.341732
 20
3.569587
  0
VERTEX
  8
PLAN_1
 62
     2
  6
CONTINUOUS
 10
-0.310201
 20
3.569587
  0
VERTEX
  8
PLAN_1
 62
     2
  6
CONTINUOUS
 10
-0.325724
 20
3.628764
  0
SEQEND
  8
0
  0
SOLID
  8
PLAN_1
 62
     2
 10
-0.325724
 20
0.882780
 11
-0.341732
 21
0.941961
 12
-0.325724
 22
0.882780
 13
-0.310201
 23
0.941961
  0
POLYLINE
  8
PLAN_1
 62
     2
  6
CONTINUOUS
 66
     1
 40
0.003000
 41
0.003000
  0
VERTEX
  8
PLAN_1
 62
     2
  6
CONTINUOUS
 10
-0.325724
 20
0.882780
  0
VERTEX
  8
PLAN_1
 62
     2
  6
CONTINUOUS
 10
-0.341732
 20
0.941961
  0
VERTEX
  8
PLAN_1
 62
     2
  6
CONTINUOUS
 10
-0.310201
 20
0.941961
  0
VERTEX
  8
PLAN_1
 62
     2
  6
CONTINUOUS
 10
-0.325724
 20
0.882780
  0
SEQEND
  8
0
  0
POLYLINE
  8
PLAN_1
 62
     2
  6
CONTINUOUS
 66
     1
 40
0.003000
 41
0.003000
  0
VERTEX
  8
PLAN_1
 62
     2
  6
CONTINUOUS
 10
-0.349492
 20
2.206535
  0
VERTEX
  8
PLAN_1
 62
     2
  6
CONTINUOUS
 10
-0.349492
 20
2.196350
  0
VERTEX
  8
PLAN_1
 62
     2
  6
CONTINUOUS
 10
-0.401398
 20
2.196350
  0
VERTEX
  8
PLAN_1
 62
     2
  6
CONTINUOUS
 10
-0.401398
 20
2.179374
  0
VERTEX
  8
PLAN_1
 62
     2
  6
CONTINUOUS
 10
-0.408673
 20
2.179374
  0
VERTEX
  8
PLAN_1
 62
     2
  6
CONTINUOUS
 10
-0.409157
 20
2.183740
  0
VERTEX
  8
PLAN_1
 62
     2
  6
CONTINUOUS
 10
-0.409642
 20
2.187134
  0
VERTEX
  8
PLAN_1
 62
     2
  6
CONTINUOUS
 10
-0.410126
 20
2.190043
  0
VERTEX
  8
PLAN_1
 62
     2
  6
CONTINUOUS
 10
-0.411583
 20
2.192469
  0
VERTEX
  8
PLAN_1
 62
     2
  6
CONTINUOUS
 10
-0.413039
 20
2.194894
  0
VERTEX
  8
PLAN_1
 62
     2
  6
CONTINUOUS
 10
-0.415465
 20
2.196350
  0
VERTEX
  8
PLAN_1
 62
     2
  6
CONTINUOUS
 10
-0.418374
 20
2.197807
  0
VERTEX
  8
PLAN_1
 62
     2
  6
CONTINUOUS
 10
-0.422740
 20
2.199260
  0
VERTEX
  8
PLAN_1
 62
     2
  6
CONTINUOUS
 10
-0.422740
 20
2.206535
  0
VERTEX
  8
PLAN_1
 62
     2
  6
CONTINUOUS
 10
-0.349492
 20
2.206535
  0
SEQEND
  8
0
  0
POLYLINE
  8
PLAN_1
 62
     2
  6
CONTINUOUS
 66
     1
 40
0.003000
 41
0.003000
  0
VERTEX
  8
PLAN_1
 62
     2
  6
CONTINUOUS
 10
-0.349492
 20
2.264260
  0
VERTEX
  8
PLAN_1
 62
     2
  6
CONTINUOUS
 10
-0.349492
 20
2.254559
  0
VERTEX
  8
PLAN_1
 62
     2
  6
CONTINUOUS
 10
-0.401398
 20
2.254559
  0
VERTEX
  8
PLAN_1
 62
     2
  6
CONTINUOUS
 10
-0.401398
 20
2.237583
  0
VERTEX
  8
PLAN_1
 62
     2
  6
CONTINUOUS
 10
-0.408673
 20
2.237583
  0
VERTEX
  8
PLAN_1
 62
     2
  6
CONTINUOUS
 10
-0.409157
 20
2.241461
  0
VERTEX
  8
PLAN_1
 62
     2
  6
CONTINUOUS
 10
-0.409642
 20
2.244858
  0
VERTEX
  8
PLAN_1
 62
     2
  6
CONTINUOUS
 10
-0.410126
 20
2.248252
  0
VERTEX
  8
PLAN_1
 62
     2
  6
CONTINUOUS
 10
-0.411583
 20
2.250677
  0
VERTEX
  8
PLAN_1
 62
     2
  6
CONTINUOUS
 10
-0.413039
 20
2.252618
  0
VERTEX
  8
PLAN_1
 62
     2
  6
CONTINUOUS
 10
-0.415465
 20
2.254559
  0
VERTEX
  8
PLAN_1
 62
     2
  6
CONTINUOUS
 10
-0.418374
 20
2.256016
  0
VERTEX
  8
PLAN_1
 62
     2
  6
CONTINUOUS
 10
-0.422740
 20
2.256984
  0
VERTEX
  8
PLAN_1
 62
     2
  6
CONTINUOUS
 10
-0.422740
 20
2.264260
  0
VERTEX
  8
PLAN_1
 62
     2
  6
CONTINUOUS
 10
-0.349492
 20
2.264260
  0
SEQEND
  8
0
  0
POLYLINE
  8
PLAN_1
 62
     2
  6
CONTINUOUS
 66
     1
 40
0.003000
 41
0.003000
  0
VERTEX
  8
PLAN_1
 62
     2
  6
CONTINUOUS
 10
-0.391693
 20
2.300157
  0
VERTEX
  8
PLAN_1
 62
     2
  6
CONTINUOUS
 10
-0.392665
 20
2.301126
  0
VERTEX
  8
PLAN_1
 62
     2
  6
CONTINUOUS
 10
-0.393634
 20
2.302583
  0
VERTEX
  8
PLAN_1
 62
     2
  6
CONTINUOUS
 10
-0.394606
 20
2.304035
  0
VERTEX
  8
PLAN_1
 62
     2
  6
CONTINUOUS
 10
-0.395091
 20
2.305976
  0
VERTEX
  8
PLAN_1
 62
     2
  6
CONTINUOUS
 10
-0.395575
 20
2.307433
  0
VERTEX
  8
PLAN_1
 62
     2
  6
CONTINUOUS
 10
-0.396059
 20
2.309858
  0
VERTEX
  8
PLAN_1
 62
     2
  6
CONTINUOUS
 10
-0.396543
 20
2.311799
  0
VERTEX
  8
PLAN_1
 62
     2
  6
CONTINUOUS
 10
-0.396543
 20
2.314224
  0
VERTEX
  8
PLAN_1
 62
     2
  6
CONTINUOUS
 10
-0.396059
 20
2.318587
  0
VERTEX
  8
PLAN_1
 62
     2
  6
CONTINUOUS
 10
-0.395091
 20
2.322953
  0
VERTEX
  8
PLAN_1
 62
     2
  6
CONTINUOUS
 10
-0.393150
 20
2.326835
  0
VERTEX
  8
PLAN_1
 62
     2
  6
CONTINUOUS
 10
-0.390240
 20
2.330717
  0
VERTEX
  8
PLAN_1
 62
     2
  6
CONTINUOUS
 10
-0.388783
 20
2.332169
  0
VERTEX
  8
PLAN_1
 62
     2
  6
CONTINUOUS
 10
-0.387327
 20
2.333626
  0
VERTEX
  8
PLAN_1
 62
     2
  6
CONTINUOUS
 10
-0.385390
 20
2.335083
  0
VERTEX
  8
PLAN_1
 62
     2
  6
CONTINUOUS
 10
-0.382965
 20
2.336051
  0
VERTEX
  8
PLAN_1
 62
     2
  6
CONTINUOUS
 10
-0.381024
 20
2.337020
  0
VERTEX
  8
PLAN_1
 62
     2
  6
CONTINUOUS
 10
-0.378598
 20
2.337508
  0
VERTEX
  8
PLAN_1
 62
     2
  6
CONTINUOUS
 10
-0.375685
 20
2.337992
  0
VERTEX
  8
PLAN_1
 62
     2
  6
CONTINUOUS
 10
-0.373260
 20
2.338476
  0
VERTEX
  8
PLAN_1
 62
     2
  6
CONTINUOUS
 10
-0.369866
 20
2.337992
  0
VERTEX
  8
PLAN_1
 62
     2
  6
CONTINUOUS
 10
-0.365500
 20
2.337508
  0
VERTEX
  8
PLAN_1
 62
     2
  6
CONTINUOUS
 10
-0.361618
 20
2.336051
  0
VERTEX
  8
PLAN_1
 62
     2
  6
CONTINUOUS
 10
-0.357256
 20
2.333626
  0
VERTEX
  8
PLAN_1
 62
     2
  6
CONTINUOUS
 10
-0.355315
 20
2.332169
  0
VERTEX
  8
PLAN_1
 62
     2
  6
CONTINUOUS
 10
-0.353374
 20
2.330228
  0
VERTEX
  8
PLAN_1
 62
     2
  6
CONTINUOUS
 10
-0.351917
 20
2.327803
  0
VERTEX
  8
PLAN_1
 62
     2
  6
CONTINUOUS
 10
-0.350465
 20
2.325378
  0
VERTEX
  8
PLAN_1
 62
     2
  6
CONTINUOUS
 10
-0.349008
 20
2.322469
  0
VERTEX
  8
PLAN_1
 62
     2
  6
CONTINUOUS
 10
-0.348039
 20
2.319559
  0
VERTEX
  8
PLAN_1
 62
     2
  6
CONTINUOUS
 10
-0.347551
 20
2.315677
  0
VERTEX
  8
PLAN_1
 62
     2
  6
CONTINUOUS
 10
-0.347551
 20
2.311799
  0
VERTEX
  8
PLAN_1
 62
     2
  6
CONTINUOUS
 10
-0.347551
 20
2.307917
  0
VERTEX
  8
PLAN_1
 62
     2
  6
CONTINUOUS
 10
-0.348039
 20
2.304035
  0
VERTEX
  8
PLAN_1
 62
     2
  6
CONTINUOUS
 10
-0.349492
 20
2.300642
  0
VERTEX
  8
PLAN_1
 62
     2
  6
CONTINUOUS
 10
-0.351433
 20
2.296760
  0
VERTEX
  8
PLAN_1
 62
     2
  6
CONTINUOUS
 10
-0.352406
 20
2.295303
  0
VERTEX
  8
PLAN_1
 62
     2
  6
CONTINUOUS
 10
-0.353858
 20
2.293850
  0
VERTEX
  8
PLAN_1
 62
     2
  6
CONTINUOUS
 10
-0.355799
 20
2.292394
  0
VERTEX
  8
PLAN_1
 62
     2
  6
CONTINUOUS
 10
-0.357740
 20
2.291425
  0
VERTEX
  8
PLAN_1
 62
     2
  6
CONTINUOUS
 10
-0.359681
 20
2.289969
  0
VERTEX
  8
PLAN_1
 62
     2
  6
CONTINUOUS
 10
-0.362106
 20
2.289000
  0
VERTEX
  8
PLAN_1
 62
     2
  6
CONTINUOUS
 10
-0.364531
 20
2.288516
  0
VERTEX
  8
PLAN_1
 62
     2
  6
CONTINUOUS
 10
-0.367441
 20
2.288028
  0
VERTEX
  8
PLAN_1
 62
     2
  6
CONTINUOUS
 10
-0.367441
 20
2.297732
  0
VERTEX
  8
PLAN_1
 62
     2
  6
CONTINUOUS
 10
-0.364531
 20
2.298217
  0
VERTEX
  8
PLAN_1
 62
     2
  6
CONTINUOUS
 10
-0.362106
 20
2.299185
  0
VERTEX
  8
PLAN_1
 62
     2
  6
CONTINUOUS
 10
-0.360165
 20
2.300642
  0
VERTEX
  8
PLAN_1
 62
     2
  6
CONTINUOUS
 10
-0.358224
 20
2.302583
  0
VERTEX
  8
PLAN_1
 62
     2
  6
CONTINUOUS
 10
-0.356768
 20
2.305008
  0
VERTEX
  8
PLAN_1
 62
     2
  6
CONTINUOUS
 10
-0.355799
 20
2.307433
  0
VERTEX
  8
PLAN_1
 62
     2
  6
CONTINUOUS
 10
-0.355315
 20
2.309858
  0
VERTEX
  8
PLAN_1
 62
     2
  6
CONTINUOUS
 10
-0.355315
 20
2.313252
  0
VERTEX
  8
PLAN_1
 62
     2
  6
CONTINUOUS
 10
-0.355799
 20
2.316650
  0
VERTEX
  8
PLAN_1
 62
     2
  6
CONTINUOUS
 10
-0.356768
 20
2.319559
  0
VERTEX
  8
PLAN_1
 62
     2
  6
CONTINUOUS
 10
-0.358224
 20
2.321984
  0
VERTEX
  8
PLAN_1
 62
     2
  6
CONTINUOUS
 10
-0.360165
 20
2.324409
  0
VERTEX
  8
PLAN_1
 62
     2
  6
CONTINUOUS
 10
-0.362591
 20
2.325866
  0
VERTEX
  8
PLAN_1
 62
     2
  6
CONTINUOUS
 10
-0.365500
 20
2.327319
  0
VERTEX
  8
PLAN_1
 62
     2
  6
CONTINUOUS
 10
-0.368898
 20
2.328291
  0
VERTEX
  8
PLAN_1
 62
     2
  6
CONTINUOUS
 10
-0.371807
 20
2.328291
  0
VERTEX
  8
PLAN_1
 62
     2
  6
CONTINUOUS
 10
-0.375685
 20
2.328291
  0
VERTEX
  8
PLAN_1
 62
     2
  6
CONTINUOUS
 10
-0.379083
 20
2.327319
  0
VERTEX
  8
PLAN_1
 62
     2
  6
CONTINUOUS
 10
-0.381992
 20
2.325866
  0
VERTEX
  8
PLAN_1
 62
     2
  6
CONTINUOUS
 10
-0.383933
 20
2.323925
  0
VERTEX
  8
PLAN_1
 62
     2
  6
CONTINUOUS
 10
-0.385874
 20
2.321500
  0
VERTEX
  8
PLAN_1
 62
     2
  6
CONTINUOUS
 10
-0.387327
 20
2.318587
  0
VERTEX
  8
PLAN_1
 62
     2
  6
CONTINUOUS
 10
-0.387815
 20
2.315677
  0
VERTEX
  8
PLAN_1
 62
     2
  6
CONTINUOUS
 10
-0.388299
 20
2.312283
  0
VERTEX
  8
PLAN_1
 62
     2
  6
CONTINUOUS
 10
-0.388299
 20
2.310343
  0
VERTEX
  8
PLAN_1
 62
     2
  6
CONTINUOUS
 10
-0.387815
 20
2.308402
  0
VERTEX
  8
PLAN_1
 62
     2
  6
CONTINUOUS
 10
-0.387327
 20
2.306461
  0
VERTEX
  8
PLAN_1
 62
     2
  6
CONTINUOUS
 10
-0.386358
 20
2.305008
  0
VERTEX
  8
PLAN_1
 62
     2
  6
CONTINUOUS
 10
-0.385390
 20
2.303067
  0
VERTEX
  8
PLAN_1
 62
     2
  6
CONTINUOUS
 10
-0.384417
 20
2.301610
  0
VERTEX
  8
PLAN_1
 62
     2
  6
CONTINUOUS
 10
-0.382965
 20
2.300157
  0
VERTEX
  8
PLAN_1
 62
     2
  6
CONTINUOUS
 10
-0.381508
 20
2.298701
  0
VERTEX
  8
PLAN_1
 62
     2
  6
CONTINUOUS
 10
-0.381508
 20
2.290941
  0
VERTEX
  8
PLAN_1
 62
     2
  6
CONTINUOUS
 10
-0.420799
 20
2.296276
  0
VERTEX
  8
PLAN_1
 62
     2
  6
CONTINUOUS
 10
-0.420799
 20
2.334110
  0
VERTEX
  8
PLAN_1
 62
     2
  6
CONTINUOUS
 10
-0.412067
 20
2.334110
  0
VERTEX
  8
PLAN_1
 62
     2
  6
CONTINUOUS
 10
-0.412067
 20
2.303067
  0
VERTEX
  8
PLAN_1
 62
     2
  6
CONTINUOUS
 10
-0.391693
 20
2.300157
  0
SEQEND
  8
0
  0
POLYLINE
  8
PLAN_1
 62
     2
  6
CONTINUOUS
 66
     1
 40
0.004362
 41
0.004362
  0
VERTEX
  8
PLAN_1
 62
     2
  6
CONTINUOUS
 10
-0.822921
 20
3.628764
  0
VERTEX
  8
PLAN_1
 62
     2
  6
CONTINUOUS
 10
-0.144795
 20
3.628764
  0
SEQEND
  8
0
  0
POLYLINE
  8
PLAN_1
 62
     2
  6
CONTINUOUS
 66
     1
 40
0.004362
 41
0.004362
  0
VERTEX
  8
PLAN_1
 62
     2
  6
CONTINUOUS
 10
-0.982512
 20
0.880354
  0
VERTEX
  8
PLAN_1
 62
     2
  6
CONTINUOUS
 10
-0.301957
 20
0.880354
  0
SEQEND
  8
0
  0
POLYLINE
  8
PLAN_1
 62
     2
  6
CONTINUOUS
 66
     1
 40
0.004362
 41
0.004362
  0
VERTEX
  8
PLAN_1
 62
     2
  6
CONTINUOUS
 10
-0.458634
 20
0.110547
  0
VERTEX
  8
PLAN_1
 62
     2
  6
CONTINUOUS
 10
-0.144795
 20
0.110547
  0
SEQEND
  8
0
  0
POLYLINE
  8
PLAN_1
 62
     2
  6
CONTINUOUS
 66
     1
 40
0.004362
 41
0.004362
  0
VERTEX
  8
PLAN_1
 62
     2
  6
CONTINUOUS
 10
-0.966988
 20
3.727232
  0
VERTEX
  8
PLAN_1
 62
     2
  6
CONTINUOUS
 10
-0.966988
 20
3.807756
  0
SEQEND
  8
0
  0
POLYLINE
  8
PLAN_1
 62
     2
  6
CONTINUOUS
 66
     1
 40
0.004362
 41
0.004362
  0
VERTEX
  8
PLAN_1
 62
     2
  6
CONTINUOUS
 10
-1.910449
 20
0.331256
  0
VERTEX
  8
PLAN_1
 62
     2
  6
CONTINUOUS
 10
-1.910449
 20
3.807756
  0
SEQEND
  8
0
  0
POLYLINE
  8
PLAN_1
 62
     2
  6
CONTINUOUS
 66
     1
 40
0.003000
 41
0.003000
  0
VERTEX
  8
PLAN_1
 62
     2
  6
CONTINUOUS
 10
-1.221650
 20
1.870382
  0
VERTEX
  8
PLAN_1
 62
     2
  6
CONTINUOUS
 10
-1.282768
 20
1.870382
  0
VERTEX
  8
PLAN_1
 62
     2
  6
CONTINUOUS
 10
-1.288106
 20
1.865047
  0
VERTEX
  8
PLAN_1
 62
     2
  6
CONTINUOUS
 10
-1.293441
 20
1.869898
  0
VERTEX
  8
PLAN_1
 62
     2
  6
CONTINUOUS
 10
-1.288591
 20
1.874264
  0
VERTEX
  8
PLAN_1
 62
     2
  6
CONTINUOUS
 10
-1.288591
 20
1.937323
  0
VERTEX
  8
PLAN_1
 62
     2
  6
CONTINUOUS
 10
-1.226016
 20
1.937323
  0
VERTEX
  8
PLAN_1
 62
     2
  6
CONTINUOUS
 10
-1.221165
 20
1.942173
  0
VERTEX
  8
PLAN_1
 62
     2
  6
CONTINUOUS
 10
-1.215831
 20
1.937323
  0
VERTEX
  8
PLAN_1
 62
     2
  6
CONTINUOUS
 10
-1.221650
 20
1.931504
  0
VERTEX
  8
PLAN_1
 62
     2
  6
CONTINUOUS
 10
-1.221650
 20
1.870382
  0
SEQEND
  8
0
  0
SOLID
  8
PLAN_1
 62
     2
 10
-1.276465
 20
1.876689
 11
-1.228441
 21
1.877173
 12
-1.276465
 22
1.876689
 13
-1.228441
 23
1.924713
  0
POLYLINE
  8
PLAN_1
 62
     2
  6
CONTINUOUS
 66
     1
 40
0.003000
 41
0.003000
  0
VERTEX
  8
PLAN_1
 62
     2
  6
CONTINUOUS
 10
-1.276465
 20
1.876689
  0
VERTEX
  8
PLAN_1
 62
     2
  6
CONTINUOUS
 10
-1.228441
 20
1.877173
  0
VERTEX
  8
PLAN_1
 62
     2
  6
CONTINUOUS
 10
-1.228441
 20
1.924713
  0
VERTEX
  8
PLAN_1
 62
     2
  6
CONTINUOUS
 10
-1.276465
 20
1.876689
  0
SEQEND
  8
0
  0
SOLID
  8
PLAN_1
 62
     2
 10
-1.281799
 20
1.930531
 11
-1.281799
 21
1.881539
 12
-1.281799
 22
1.930531
 13
-1.232807
 23
1.930531
  0
POLYLINE
  8
PLAN_1
 62
     2
  6
CONTINUOUS
 66
     1
 40
0.003000
 41
0.003000
  0
VERTEX
  8
PLAN_1
 62
     2
  6
CONTINUOUS
 10
-1.281799
 20
1.930531
  0
VERTEX
  8
PLAN_1
 62
     2
  6
CONTINUOUS
 10
-1.281799
 20
1.881539
  0
VERTEX
  8
PLAN_1
 62
     2
  6
CONTINUOUS
 10
-1.232807
 20
1.930531
  0
VERTEX
  8
PLAN_1
 62
     2
  6
CONTINUOUS
 10
-1.281799
 20
1.930531
  0
SEQEND
  8
0
  0
POLYLINE
  8
PLAN_1
 62
     2
  6
CONTINUOUS
 66
     1
 40
0.003000
 41
0.003000
  0
VERTEX
  8
PLAN_1
 62
     2
  6
CONTINUOUS
 10
-1.191575
 20
1.906764
  0
VERTEX
  8
PLAN_1
 62
     2
  6
CONTINUOUS
 10
-1.191091
 20
1.906764
  0
VERTEX
  8
PLAN_1
 62
     2
  6
CONTINUOUS
 10
-1.190606
 20
1.906764
  0
VERTEX
  8
PLAN_1
 62
     2
  6
CONTINUOUS
 10
-1.190122
 20
1.906764
  0
VERTEX
  8
PLAN_1
 62
     2
  6
CONTINUOUS
 10
-1.189150
 20
1.906764
  0
VERTEX
  8
PLAN_1
 62
     2
  6
CONTINUOUS
 10
-1.188665
 20
1.906764
  0
VERTEX
  8
PLAN_1
 62
     2
  6
CONTINUOUS
 10
-1.188181
 20
1.906764
  0
VERTEX
  8
PLAN_1
 62
     2
  6
CONTINUOUS
 10
-1.187693
 20
1.906764
  0
VERTEX
  8
PLAN_1
 62
     2
  6
CONTINUOUS
 10
-1.187209
 20
1.906764
  0
VERTEX
  8
PLAN_1
 62
     2
  6
CONTINUOUS
 10
-1.184299
 20
1.906764
  0
VERTEX
  8
PLAN_1
 62
     2
  6
CONTINUOUS
 10
-1.181874
 20
1.907248
  0
VERTEX
  8
PLAN_1
 62
     2
  6
CONTINUOUS
 10
-1.179449
 20
1.907732
  0
VERTEX
  8
PLAN_1
 62
     2
  6
CONTINUOUS
 10
-1.177508
 20
1.909189
  0
VERTEX
  8
PLAN_1
 62
     2
  6
CONTINUOUS
 10
-1.175567
 20
1.910646
  0
VERTEX
  8
PLAN_1
 62
     2
  6
CONTINUOUS
 10
-1.174114
 20
1.912583
  0
VERTEX
  8
PLAN_1
 62
     2
  6
CONTINUOUS
 10
-1.173142
 20
1.915496
  0
VERTEX
  8
PLAN_1
 62
     2
  6
CONTINUOUS
 10
-1.173142
 20
1.918406
  0
VERTEX
  8
PLAN_1
 62
     2
  6
CONTINUOUS
 10
-1.173142
 20
1.920346
  0
VERTEX
  8
PLAN_1
 62
     2
  6
CONTINUOUS
 10
-1.173626
 20
1.922287
  0
VERTEX
  8
PLAN_1
 62
     2
  6
CONTINUOUS
 10
-1.174598
 20
1.924224
  0
VERTEX
  8
PLAN_1
 62
     2
  6
CONTINUOUS
 10
-1.175567
 20
1.925681
  0
VERTEX
  8
PLAN_1
 62
     2
  6
CONTINUOUS
 10
-1.177508
 20
1.927622
  0
VERTEX
  8
PLAN_1
 62
     2
  6
CONTINUOUS
 10
-1.179933
 20
1.929079
  0
VERTEX
  8
PLAN_1
 62
     2
  6
CONTINUOUS
 10
-1.182843
 20
1.929563
  0
VERTEX
  8
PLAN_1
 62
     2
  6
CONTINUOUS
 10
-1.186724
 20
1.930047
  0
VERTEX
  8
PLAN_1
 62
     2
  6
CONTINUOUS
 10
-1.188665
 20
1.930047
  0
VERTEX
  8
PLAN_1
 62
     2
  6
CONTINUOUS
 10
-1.191091
 20
1.929563
  0
VERTEX
  8
PLAN_1
 62
     2
  6
CONTINUOUS
 10
-1.192547
 20
1.929079
  0
VERTEX
  8
PLAN_1
 62
     2
  6
CONTINUOUS
 10
-1.194000
 20
1.928106
  0
VERTEX
  8
PLAN_1
 62
     2
  6
CONTINUOUS
 10
-1.196909
 20
1.926165
  0
VERTEX
  8
PLAN_1
 62
     2
  6
CONTINUOUS
 10
-1.198366
 20
1.924224
  0
VERTEX
  8
PLAN_1
 62
     2
  6
CONTINUOUS
 10
-1.199335
 20
1.921315
  0
VERTEX
  8
PLAN_1
 62
     2
  6
CONTINUOUS
 10
-1.200307
 20
1.918890
  0
VERTEX
  8
PLAN_1
 62
     2
  6
CONTINUOUS
 10
-1.200791
 20
1.916465
  0
VERTEX
  8
PLAN_1
 62
     2
  6
CONTINUOUS
 10
-1.200791
 20
1.914524
  0
VERTEX
  8
PLAN_1
 62
     2
  6
CONTINUOUS
 10
-1.210008
 20
1.914524
  0
VERTEX
  8
PLAN_1
 62
     2
  6
CONTINUOUS
 10
-1.209524
 20
1.918406
  0
VERTEX
  8
PLAN_1
 62
     2
  6
CONTINUOUS
 10
-1.208551
 20
1.922772
  0
VERTEX
  8
PLAN_1
 62
     2
  6
CONTINUOUS
 10
-1.207583
 20
1.926650
  0
VERTEX
  8
PLAN_1
 62
     2
  6
CONTINUOUS
 10
-1.205157
 20
1.930531
  0
VERTEX
  8
PLAN_1
 62
     2
  6
CONTINUOUS
 10
-1.203701
 20
1.931988
  0
VERTEX
  8
PLAN_1
 62
     2
  6
CONTINUOUS
 10
-1.202248
 20
1.933441
  0
VERTEX
  8
PLAN_1
 62
     2
  6
CONTINUOUS
 10
-1.200307
 20
1.934898
  0
VERTEX
  8
PLAN_1
 62
     2
  6
CONTINUOUS
 10
-1.197882
 20
1.935866
  0
VERTEX
  8
PLAN_1
 62
     2
  6
CONTINUOUS
 10
-1.195457
 20
1.936839
  0
VERTEX
  8
PLAN_1
 62
     2
  6
CONTINUOUS
 10
-1.192547
 20
1.937807
  0
VERTEX
  8
PLAN_1
 62
     2
  6
CONTINUOUS
 10
-1.189634
 20
1.938291
  0
VERTEX
  8
PLAN_1
 62
     2
  6
CONTINUOUS
 10
-1.186240
 20
1.938291
  0
VERTEX
  8
PLAN_1
 62
     2
  6
CONTINUOUS
 10
-1.180906
 20
1.937807
  0
VERTEX
  8
PLAN_1
 62
     2
  6
CONTINUOUS
 10
-1.176539
 20
1.936839
  0
VERTEX
  8
PLAN_1
 62
     2
  6
CONTINUOUS
 10
-1.172657
 20
1.934898
  0
VERTEX
  8
PLAN_1
 62
     2
  6
CONTINUOUS
 10
-1.169748
 20
1.932957
  0
VERTEX
  8
PLAN_1
 62
     2
  6
CONTINUOUS
 10
-1.166839
 20
1.930047
  0
VERTEX
  8
PLAN_1
 62
     2
  6
CONTINUOUS
 10
-1.164898
 20
1.926650
  0
VERTEX
  8
PLAN_1
 62
     2
  6
CONTINUOUS
 10
-1.163925
 20
1.923256
  0
VERTEX
  8
PLAN_1
 62
     2
  6
CONTINUOUS
 10
-1.163441
 20
1.918890
  0
VERTEX
  8
PLAN_1
 62
     2
  6
CONTINUOUS
 10
-1.163925
 20
1.915496
  0
VERTEX
  8
PLAN_1
 62
     2
  6
CONTINUOUS
 10
-1.164409
 20
1.913071
  0
VERTEX
  8
PLAN_1
 62
     2
  6
CONTINUOUS
 10
-1.165382
 20
1.910646
  0
VERTEX
  8
PLAN_1
 62
     2
  6
CONTINUOUS
 10
-1.166839
 20
1.908220
  0
VERTEX
  8
PLAN_1
 62
     2
  6
CONTINUOUS
 10
-1.168291
 20
1.906764
  0
VERTEX
  8
PLAN_1
 62
     2
  6
CONTINUOUS
 10
-1.169748
 20
1.905307
  0
VERTEX
  8
PLAN_1
 62
     2
  6
CONTINUOUS
 10
-1.171201
 20
1.904339
  0
VERTEX
  8
PLAN_1
 62
     2
  6
CONTINUOUS
 10
-1.173142
 20
1.903854
  0
VERTEX
  8
PLAN_1
 62
     2
  6
CONTINUOUS
 10
-1.170232
 20
1.902882
  0
VERTEX
  8
PLAN_1
 62
     2
  6
CONTINUOUS
 10
-1.168291
 20
1.901429
  0
VERTEX
  8
PLAN_1
 62
     2
  6
CONTINUOUS
 10
-1.165866
 20
1.899972
  0
VERTEX
  8
PLAN_1
 62
     2
  6
CONTINUOUS
 10
-1.164409
 20
1.898031
  0
VERTEX
  8
PLAN_1
 62
     2
  6
CONTINUOUS
 10
-1.162957
 20
1.895606
  0
VERTEX
  8
PLAN_1
 62
     2
  6
CONTINUOUS
 10
-1.161500
 20
1.893181
  0
VERTEX
  8
PLAN_1
 62
     2
  6
CONTINUOUS
 10
-1.161016
 20
1.890272
  0
VERTEX
  8
PLAN_1
 62
     2
  6
CONTINUOUS
 10
-1.161016
 20
1.886874
  0
VERTEX
  8
PLAN_1
 62
     2
  6
CONTINUOUS
 10
-1.161016
 20
1.882024
  0
VERTEX
  8
PLAN_1
 62
     2
  6
CONTINUOUS
 10
-1.162472
 20
1.878146
  0
VERTEX
  8
PLAN_1
 62
     2
  6
CONTINUOUS
 10
-1.164409
 20
1.873780
  0
VERTEX
  8
PLAN_1
 62
     2
  6
CONTINUOUS
 10
-1.166839
 20
1.870382
  0
VERTEX
  8
PLAN_1
 62
     2
  6
CONTINUOUS
 10
-1.168776
 20
1.868929
  0
VERTEX
  8
PLAN_1
 62
     2
  6
CONTINUOUS
 10
-1.170717
 20
1.867472
  0
VERTEX
  8
PLAN_1
 62
     2
  6
CONTINUOUS
 10
-1.172657
 20
1.866020
  0
VERTEX
  8
PLAN_1
 62
     2
  6
CONTINUOUS
 10
-1.175083
 20
1.865047
  0
VERTEX
  8
PLAN_1
 62
     2
  6
CONTINUOUS
 10
-1.177992
 20
1.864079
  0
VERTEX
  8
PLAN_1
 62
     2
  6
CONTINUOUS
 10
-1.180417
 20
1.863591
  0
VERTEX
  8
PLAN_1
 62
     2
  6
CONTINUOUS
 10
-1.183815
 20
1.863106
  0
VERTEX
  8
PLAN_1
 62
     2
  6
CONTINUOUS
 10
-1.187209
 20
1.863106
  0
VERTEX
  8
PLAN_1
 62
     2
  6
CONTINUOUS
 10
-1.189150
 20
1.863106
  0
VERTEX
  8
PLAN_1
 62
     2
  6
CONTINUOUS
 10
-1.191091
 20
1.863591
  0
VERTEX
  8
PLAN_1
 62
     2
  6
CONTINUOUS
 10
-1.193031
 20
1.863591
  0
VERTEX
  8
PLAN_1
 62
     2
  6
CONTINUOUS
 10
-1.194484
 20
1.864079
  0
VERTEX
  8
PLAN_1
 62
     2
  6
CONTINUOUS
 10
-1.196425
 20
1.864563
  0
VERTEX
  8
PLAN_1
 62
     2
  6
CONTINUOUS
 10
-1.197882
 20
1.865047
  0
VERTEX
  8
PLAN_1
 62
     2
  6
CONTINUOUS
 10
-1.199335
 20
1.865531
  0
VERTEX
  8
PLAN_1
 62
     2
  6
CONTINUOUS
 10
-1.200791
 20
1.866504
  0
VERTEX
  8
PLAN_1
 62
     2
  6
CONTINUOUS
 10
-1.203217
 20
1.867957
  0
VERTEX
  8
PLAN_1
 62
     2
  6
CONTINUOUS
 10
-1.205642
 20
1.870382
  0
VERTEX
  8
PLAN_1
 62
     2
  6
CONTINUOUS
 10
-1.207583
 20
1.872807
  0
VERTEX
  8
PLAN_1
 62
     2
  6
CONTINUOUS
 10
-1.209039
 20
1.875232
  0
VERTEX
  8
PLAN_1
 62
     2
  6
CONTINUOUS
 10
-1.210008
 20
1.878146
  0
VERTEX
  8
PLAN_1
 62
     2
  6
CONTINUOUS
 10
-1.210492
 20
1.881055
  0
VERTEX
  8
PLAN_1
 62
     2
  6
CONTINUOUS
 10
-1.211465
 20
1.884449
  0
VERTEX
  8
PLAN_1
 62
     2
  6
CONTINUOUS
 10
-1.211465
 20
1.887362
  0
VERTEX
  8
PLAN_1
 62
     2
  6
CONTINUOUS
 10
-1.202248
 20
1.887362
  0
VERTEX
  8
PLAN_1
 62
     2
  6
CONTINUOUS
 10
-1.201764
 20
1.884937
  0
VERTEX
  8
PLAN_1
 62
     2
  6
CONTINUOUS
 10
-1.201276
 20
1.882024
  0
VERTEX
  8
PLAN_1
 62
     2
  6
CONTINUOUS
 10
-1.200791
 20
1.879598
  0
VERTEX
  8
PLAN_1
 62
     2
  6
CONTINUOUS
 10
-1.199335
 20
1.876689
  0
VERTEX
  8
PLAN_1
 62
     2
  6
CONTINUOUS
 10
-1.197398
 20
1.874748
  0
VERTEX
  8
PLAN_1
 62
     2
  6
CONTINUOUS
 10
-1.194484
 20
1.872807
  0
VERTEX
  8
PLAN_1
 62
     2
  6
CONTINUOUS
 10
-1.191091
 20
1.871839
  0
VERTEX
  8
PLAN_1
 62
     2
  6
CONTINUOUS
 10
-1.186240
 20
1.871354
  0
VERTEX
  8
PLAN_1
 62
     2
  6
CONTINUOUS
 10
-1.183331
 20
1.871839
  0
VERTEX
  8
PLAN_1
 62
     2
  6
CONTINUOUS
 10
-1.179933
 20
1.872323
  0
VERTEX
  8
PLAN_1
 62
     2
  6
CONTINUOUS
 10
-1.177508
 20
1.873780
  0
VERTEX
  8
PLAN_1
 62
     2
  6
CONTINUOUS
 10
-1.175083
 20
1.875232
  0
VERTEX
  8
PLAN_1
 62
     2
  6
CONTINUOUS
 10
-1.173142
 20
1.877173
  0
VERTEX
  8
PLAN_1
 62
     2
  6
CONTINUOUS
 10
-1.171689
 20
1.879598
  0
VERTEX
  8
PLAN_1
 62
     2
  6
CONTINUOUS
 10
-1.170717
 20
1.882512
  0
VERTEX
  8
PLAN_1
 62
     2
  6
CONTINUOUS
 10
-1.170717
 20
1.885421
  0
VERTEX
  8
PLAN_1
 62
     2
  6
CONTINUOUS
 10
-1.170717
 20
1.887846
  0
VERTEX
  8
PLAN_1
 62
     2
  6
CONTINUOUS
 10
-1.171201
 20
1.889787
  0
VERTEX
  8
PLAN_1
 62
     2
  6
CONTINUOUS
 10
-1.171689
 20
1.891240
  0
VERTEX
  8
PLAN_1
 62
     2
  6
CONTINUOUS
 10
-1.172173
 20
1.892697
  0
VERTEX
  8
PLAN_1
 62
     2
  6
CONTINUOUS
 10
-1.174114
 20
1.895122
  0
VERTEX
  8
PLAN_1
 62
     2
  6
CONTINUOUS
 10
-1.176539
 20
1.897063
  0
VERTEX
  8
PLAN_1
 62
     2
  6
CONTINUOUS
 10
-1.179449
 20
1.898031
  0
VERTEX
  8
PLAN_1
 62
     2
  6
CONTINUOUS
 10
-1.182358
 20
1.898516
  0
VERTEX
  8
PLAN_1
 62
     2
  6
CONTINUOUS
 10
-1.185268
 20
1.899004
  0
VERTEX
  8
PLAN_1
 62
     2
  6
CONTINUOUS
 10
-1.187693
 20
1.899004
  0
VERTEX
  8
PLAN_1
 62
     2
  6
CONTINUOUS
 10
-1.188181
 20
1.899004
  0
VERTEX
  8
PLAN_1
 62
     2
  6
CONTINUOUS
 10
-1.188665
 20
1.899004
  0
VERTEX
  8
PLAN_1
 62
     2
  6
CONTINUOUS
 10
-1.189150
 20
1.899004
  0
VERTEX
  8
PLAN_1
 62
     2
  6
CONTINUOUS
 10
-1.189634
 20
1.899004
  0
VERTEX
  8
PLAN_1
 62
     2
  6
CONTINUOUS
 10
-1.190122
 20
1.899004
  0
VERTEX
  8
PLAN_1
 62
     2
  6
CONTINUOUS
 10
-1.190606
 20
1.899004
  0
VERTEX
  8
PLAN_1
 62
     2
  6
CONTINUOUS
 10
-1.191091
 20
1.899004
  0
VERTEX
  8
PLAN_1
 62
     2
  6
CONTINUOUS
 10
-1.191575
 20
1.899004
  0
VERTEX
  8
PLAN_1
 62
     2
  6
CONTINUOUS
 10
-1.191575
 20
1.906764
  0
SEQEND
  8
0
  0
ENDSEC
  0
EOF
