  0
SECTION
  2
HEADER
  9
$ACADVER
  1
AC1006
  9
$EXTMIN
 10
-2.047819
 20
-3.333000
  9
$EXTMAX
 10
2.042772
 20
3.339000
  9
$LTSCALE
 40
0.000394
  9
$PDMODE
 70
    35
  9
$PDSIZE
 40
0.000315
  0
ENDSEC
  0
SECTION
  2
TABLES
  0
TABLE
  2
LTYPE
 70
     9
  0
LTYPE
  2
CONTINUOUS
 70
    64
  3
Solid line
 72
    65
 73
     0
 40
0.000000
  0
LTYPE
  2
DASHED
 70
    64
  3
__ __ __ __ __ __ __ __ __ __ __ __ __ __ __
 72
    65
 73
     2
 40
0.000003
 49
0.000002
 49
-0.000001
  0
LTYPE
  2
HIDDEN
 70
    64
  3
 _ _ _ _ _ _ _ _ _ _ _ _ _ _ _ _ _ _ _ _ _ _
 72
    65
 73
     2
 40
0.000001
 49
0.000001
 49
-0.000000
  0
LTYPE
  2
CENTER
 70
    64
  3
____ _ ____ _ ____ _ ____ _ ____ _ ____ _ ____
 72
    65
 73
     4
 40
0.000008
 49
0.000005
 49
-0.000001
 49
0.000001
 49
-0.000001
  0
LTYPE
  2
PHANTOM
 70
    64
  3
_____ _ _ _____ _ _ _____ _ _ _____ _ _ ____
 72
    65
 73
     6
 40
0.000010
 49
0.000005
 49
-0.000001
 49
0.000001
 49
-0.000001
 49
0.000001
 49
-0.000001
  0
LTYPE
  2
DOT
 70
    64
  3
...............................................
 72
    65
 73
     2
 40
0.000001
 49
0.000000
 49
-0.000001
  0
LTYPE
  2
DASHDOT
 70
    64
  3
__ . __ . __ . __ . __ . __ . __ . __ . __ . __
 72
    65
 73
     4
 40
0.000004
 49
0.000002
 49
-0.000001
 49
0.000000
 49
-0.000001
  0
LTYPE
  2
BORDER
 70
    64
  3
__ __ . __ __ . __ __ . __ __ . __ __ . __ __
 72
    65
 73
     6
 40
0.000007
 49
0.000002
 49
-0.000001
 49
0.000002
 49
-0.000001
 49
0.000000
 49
-0.000001
  0
LTYPE
  2
DIVIDE
 70
    64
  3
__ . . __ . . __ . . __ . . __ . . __ . . __
 72
    65
 73
     6
 40
0.000005
 49
0.000002
 49
-0.000001
 49
0.000000
 49
-0.000001
 49
0.000000
 49
-0.000001
  0
LTYPE
  2
DOTDOT
 70
    64
  3
 . .  . .  . .  . .  . .  . . 
 72
    65
 73
     5
 40
0.000002
 49
-0.000001
 49
0.000000
 49
-0.000001
 49
0.000000
 49
-0.000001
  0
ENDTAB
  0
TABLE
  2
STYLE
 70
     0
  0
ENDTAB
  0
TABLE
  2
LAYER
 70
     3
  0
LAYER
  2
FOREGROUND
 70
    64
 62
     7
  6
CONTINUOUS
  0
LAYER
  2
BACKGROUND
 70
    65
 62
    -7
  6
CONTINUOUS
  0
LAYER
  2
PLAN_1
 70
    64
 62
     7
  6
CONTINUOUS
  0
ENDTAB
  0
ENDSEC
  0
SECTION
  2
ENTITIES
  0
POLYLINE
  8
PLAN_1
  6
CONTINUOUS
 66
     1
 40
0.003000
 41
0.003000
  0
VERTEX
  8
PLAN_1
  6
CONTINUOUS
 10
0.254256
 20
-3.298390
  0
VERTEX
  8
PLAN_1
  6
CONTINUOUS
 10
0.097465
 20
-3.298390
  0
VERTEX
  8
PLAN_1
  6
CONTINUOUS
 10
0.097465
 20
-3.275870
  0
VERTEX
  8
PLAN_1
  6
CONTINUOUS
 10
0.219646
 20
-3.122831
  0
VERTEX
  8
PLAN_1
  6
CONTINUOUS
 10
0.106638
 20
-3.122831
  0
VERTEX
  8
PLAN_1
  6
CONTINUOUS
 10
0.106638
 20
-3.099063
  0
VERTEX
  8
PLAN_1
  6
CONTINUOUS
 10
0.254256
 20
-3.099063
  0
VERTEX
  8
PLAN_1
  6
CONTINUOUS
 10
0.254256
 20
-3.122413
  0
VERTEX
  8
PLAN_1
  6
CONTINUOUS
 10
0.131657
 20
-3.274618
  0
VERTEX
  8
PLAN_1
  6
CONTINUOUS
 10
0.254256
 20
-3.274618
  0
VERTEX
  8
PLAN_1
  6
CONTINUOUS
 10
0.254256
 20
-3.298390
  0
SEQEND
  8
0
  0
POLYLINE
  8
PLAN_1
  6
CONTINUOUS
 66
     1
 40
0.003000
 41
0.003000
  0
VERTEX
  8
PLAN_1
  6
CONTINUOUS
 10
0.421890
 20
-3.159110
  0
VERTEX
  8
PLAN_1
  6
CONTINUOUS
 10
0.420224
 20
-3.152854
  0
VERTEX
  8
PLAN_1
  6
CONTINUOUS
 10
0.418138
 20
-3.147020
  0
VERTEX
  8
PLAN_1
  6
CONTINUOUS
 10
0.415220
 20
-3.142016
  0
VERTEX
  8
PLAN_1
  6
CONTINUOUS
 10
0.412717
 20
-3.137843
  0
VERTEX
  8
PLAN_1
  6
CONTINUOUS
 10
0.409382
 20
-3.133673
  0
VERTEX
  8
PLAN_1
  6
CONTINUOUS
 10
0.405630
 20
-3.130339
  0
VERTEX
  8
PLAN_1
  6
CONTINUOUS
 10
0.402291
 20
-3.127417
  0
VERTEX
  8
PLAN_1
  6
CONTINUOUS
 10
0.398122
 20
-3.125335
  0
VERTEX
  8
PLAN_1
  6
CONTINUOUS
 10
0.393953
 20
-3.123248
  0
VERTEX
  8
PLAN_1
  6
CONTINUOUS
 10
0.390201
 20
-3.121583
  0
VERTEX
  8
PLAN_1
  6
CONTINUOUS
 10
0.386028
 20
-3.120331
  0
VERTEX
  8
PLAN_1
  6
CONTINUOUS
 10
0.381858
 20
-3.119079
  0
VERTEX
  8
PLAN_1
  6
CONTINUOUS
 10
0.373520
 20
-3.117827
  0
VERTEX
  8
PLAN_1
  6
CONTINUOUS
 10
0.366012
 20
-3.117409
  0
VERTEX
  8
PLAN_1
  6
CONTINUOUS
 10
0.359343
 20
-3.117827
  0
VERTEX
  8
PLAN_1
  6
CONTINUOUS
 10
0.352669
 20
-3.118661
  0
VERTEX
  8
PLAN_1
  6
CONTINUOUS
 10
0.346413
 20
-3.120331
  0
VERTEX
  8
PLAN_1
  6
CONTINUOUS
 10
0.340575
 20
-3.122413
  0
VERTEX
  8
PLAN_1
  6
CONTINUOUS
 10
0.334736
 20
-3.125335
  0
VERTEX
  8
PLAN_1
  6
CONTINUOUS
 10
0.329319
 20
-3.128669
  0
VERTEX
  8
PLAN_1
  6
CONTINUOUS
 10
0.324311
 20
-3.132839
  0
VERTEX
  8
PLAN_1
  6
CONTINUOUS
 10
0.319724
 20
-3.137425
  0
VERTEX
  8
PLAN_1
  6
CONTINUOUS
 10
0.315555
 20
-3.142846
  0
VERTEX
  8
PLAN_1
  6
CONTINUOUS
 10
0.311803
 20
-3.148685
  0
VERTEX
  8
PLAN_1
  6
CONTINUOUS
 10
0.308469
 20
-3.154941
  0
VERTEX
  8
PLAN_1
  6
CONTINUOUS
 10
0.305965
 20
-3.162031
  0
VERTEX
  8
PLAN_1
  6
CONTINUOUS
 10
0.303465
 20
-3.169953
  0
VERTEX
  8
PLAN_1
  6
CONTINUOUS
 10
0.301795
 20
-3.178291
  0
VERTEX
  8
PLAN_1
  6
CONTINUOUS
 10
0.300961
 20
-3.187051
  0
VERTEX
  8
PLAN_1
  6
CONTINUOUS
 10
0.300543
 20
-3.196642
  0
VERTEX
  8
PLAN_1
  6
CONTINUOUS
 10
0.300961
 20
-3.205398
  0
VERTEX
  8
PLAN_1
  6
CONTINUOUS
 10
0.301378
 20
-3.213736
  0
VERTEX
  8
PLAN_1
  6
CONTINUOUS
 10
0.302630
 20
-3.221661
  0
VERTEX
  8
PLAN_1
  6
CONTINUOUS
 10
0.303882
 20
-3.229583
  0
VERTEX
  8
PLAN_1
  6
CONTINUOUS
 10
0.305965
 20
-3.236673
  0
VERTEX
  8
PLAN_1
  6
CONTINUOUS
 10
0.308469
 20
-3.243764
  0
VERTEX
  8
PLAN_1
  6
CONTINUOUS
 10
0.311386
 20
-3.250016
  0
VERTEX
  8
PLAN_1
  6
CONTINUOUS
 10
0.315138
 20
-3.255854
  0
VERTEX
  8
PLAN_1
  6
CONTINUOUS
 10
0.317224
 20
-3.258358
  0
VERTEX
  8
PLAN_1
  6
CONTINUOUS
 10
0.319307
 20
-3.261276
  0
VERTEX
  8
PLAN_1
  6
CONTINUOUS
 10
0.321811
 20
-3.263362
  0
VERTEX
  8
PLAN_1
  6
CONTINUOUS
 10
0.324311
 20
-3.265862
  0
VERTEX
  8
PLAN_1
  6
CONTINUOUS
 10
0.326815
 20
-3.267949
  0
VERTEX
  8
PLAN_1
  6
CONTINUOUS
 10
0.329732
 20
-3.270031
  0
VERTEX
  8
PLAN_1
  6
CONTINUOUS
 10
0.332654
 20
-3.271701
  0
VERTEX
  8
PLAN_1
  6
CONTINUOUS
 10
0.335571
 20
-3.273370
  0
VERTEX
  8
PLAN_1
  6
CONTINUOUS
 10
0.338909
 20
-3.274618
  0
VERTEX
  8
PLAN_1
  6
CONTINUOUS
 10
0.342244
 20
-3.275870
  0
VERTEX
  8
PLAN_1
  6
CONTINUOUS
 10
0.345996
 20
-3.277122
  0
VERTEX
  8
PLAN_1
  6
CONTINUOUS
 10
0.349748
 20
-3.277957
  0
VERTEX
  8
PLAN_1
  6
CONTINUOUS
 10
0.353504
 20
-3.278791
  0
VERTEX
  8
PLAN_1
  6
CONTINUOUS
 10
0.357673
 20
-3.279209
  0
VERTEX
  8
PLAN_1
  6
CONTINUOUS
 10
0.362260
 20
-3.279622
  0
VERTEX
  8
PLAN_1
  6
CONTINUOUS
 10
0.366846
 20
-3.279622
  0
VERTEX
  8
PLAN_1
  6
CONTINUOUS
 10
0.370181
 20
-3.279622
  0
VERTEX
  8
PLAN_1
  6
CONTINUOUS
 10
0.373937
 20
-3.279209
  0
VERTEX
  8
PLAN_1
  6
CONTINUOUS
 10
0.377689
 20
-3.278791
  0
VERTEX
  8
PLAN_1
  6
CONTINUOUS
 10
0.381858
 20
-3.277539
  0
VERTEX
  8
PLAN_1
  6
CONTINUOUS
 10
0.386028
 20
-3.276287
  0
VERTEX
  8
PLAN_1
  6
CONTINUOUS
 10
0.390201
 20
-3.274618
  0
VERTEX
  8
PLAN_1
  6
CONTINUOUS
 10
0.394370
 20
-3.272535
  0
VERTEX
  8
PLAN_1
  6
CONTINUOUS
 10
0.398122
 20
-3.269614
  0
VERTEX
  8
PLAN_1
  6
CONTINUOUS
 10
0.402291
 20
-3.266697
  0
VERTEX
  8
PLAN_1
  6
CONTINUOUS
 10
0.406043
 20
-3.262528
  0
VERTEX
  8
PLAN_1
  6
CONTINUOUS
 10
0.409799
 20
-3.258358
  0
VERTEX
  8
PLAN_1
  6
CONTINUOUS
 10
0.413551
 20
-3.252937
  0
VERTEX
  8
PLAN_1
  6
CONTINUOUS
 10
0.416469
 20
-3.247098
  0
VERTEX
  8
PLAN_1
  6
CONTINUOUS
 10
0.419390
 20
-3.240843
  0
VERTEX
  8
PLAN_1
  6
CONTINUOUS
 10
0.421890
 20
-3.233339
  0
VERTEX
  8
PLAN_1
  6
CONTINUOUS
 10
0.423559
 20
-3.224996
  0
VERTEX
  8
PLAN_1
  6
CONTINUOUS
 10
0.449831
 20
-3.224996
  0
VERTEX
  8
PLAN_1
  6
CONTINUOUS
 10
0.448579
 20
-3.231669
  0
VERTEX
  8
PLAN_1
  6
CONTINUOUS
 10
0.446909
 20
-3.238343
  0
VERTEX
  8
PLAN_1
  6
CONTINUOUS
 10
0.445244
 20
-3.244177
  0
VERTEX
  8
PLAN_1
  6
CONTINUOUS
 10
0.443575
 20
-3.250016
  0
VERTEX
  8
PLAN_1
  6
CONTINUOUS
 10
0.441075
 20
-3.255437
  0
VERTEX
  8
PLAN_1
  6
CONTINUOUS
 10
0.438988
 20
-3.260024
  0
VERTEX
  8
PLAN_1
  6
CONTINUOUS
 10
0.436484
 20
-3.264610
  0
VERTEX
  8
PLAN_1
  6
CONTINUOUS
 10
0.433567
 20
-3.269201
  0
VERTEX
  8
PLAN_1
  6
CONTINUOUS
 10
0.430650
 20
-3.272953
  0
VERTEX
  8
PLAN_1
  6
CONTINUOUS
 10
0.427728
 20
-3.276705
  0
VERTEX
  8
PLAN_1
  6
CONTINUOUS
 10
0.424394
 20
-3.280039
  0
VERTEX
  8
PLAN_1
  6
CONTINUOUS
 10
0.421055
 20
-3.282961
  0
VERTEX
  8
PLAN_1
  6
CONTINUOUS
 10
0.417720
 20
-3.285878
  0
VERTEX
  8
PLAN_1
  6
CONTINUOUS
 10
0.414386
 20
-3.288382
  0
VERTEX
  8
PLAN_1
  6
CONTINUOUS
 10
0.411047
 20
-3.290465
  0
VERTEX
  8
PLAN_1
  6
CONTINUOUS
 10
0.407713
 20
-3.292551
  0
VERTEX
  8
PLAN_1
  6
CONTINUOUS
 10
0.400622
 20
-3.295886
  0
VERTEX
  8
PLAN_1
  6
CONTINUOUS
 10
0.393953
 20
-3.298390
  0
VERTEX
  8
PLAN_1
  6
CONTINUOUS
 10
0.387280
 20
-3.300472
  0
VERTEX
  8
PLAN_1
  6
CONTINUOUS
 10
0.381024
 20
-3.301724
  0
VERTEX
  8
PLAN_1
  6
CONTINUOUS
 10
0.370181
 20
-3.303394
  0
VERTEX
  8
PLAN_1
  6
CONTINUOUS
 10
0.362677
 20
-3.303394
  0
VERTEX
  8
PLAN_1
  6
CONTINUOUS
 10
0.353921
 20
-3.303394
  0
VERTEX
  8
PLAN_1
  6
CONTINUOUS
 10
0.345579
 20
-3.302142
  0
VERTEX
  8
PLAN_1
  6
CONTINUOUS
 10
0.337657
 20
-3.300472
  0
VERTEX
  8
PLAN_1
  6
CONTINUOUS
 10
0.329319
 20
-3.297972
  0
VERTEX
  8
PLAN_1
  6
CONTINUOUS
 10
0.325563
 20
-3.296303
  0
VERTEX
  8
PLAN_1
  6
CONTINUOUS
 10
0.321811
 20
-3.294220
  0
VERTEX
  8
PLAN_1
  6
CONTINUOUS
 10
0.318059
 20
-3.292551
  0
VERTEX
  8
PLAN_1
  6
CONTINUOUS
 10
0.314303
 20
-3.290047
  0
VERTEX
  8
PLAN_1
  6
CONTINUOUS
 10
0.310969
 20
-3.287965
  0
VERTEX
  8
PLAN_1
  6
CONTINUOUS
 10
0.307217
 20
-3.285043
  0
VERTEX
  8
PLAN_1
  6
CONTINUOUS
 10
0.303882
 20
-3.282543
  0
VERTEX
  8
PLAN_1
  6
CONTINUOUS
 10
0.300961
 20
-3.279209
  0
VERTEX
  8
PLAN_1
  6
CONTINUOUS
 10
0.297626
 20
-3.275870
  0
VERTEX
  8
PLAN_1
  6
CONTINUOUS
 10
0.294705
 20
-3.272535
  0
VERTEX
  8
PLAN_1
  6
CONTINUOUS
 10
0.291787
 20
-3.268783
  0
VERTEX
  8
PLAN_1
  6
CONTINUOUS
 10
0.289283
 20
-3.264610
  0
VERTEX
  8
PLAN_1
  6
CONTINUOUS
 10
0.286783
 20
-3.260441
  0
VERTEX
  8
PLAN_1
  6
CONTINUOUS
 10
0.284697
 20
-3.256272
  0
VERTEX
  8
PLAN_1
  6
CONTINUOUS
 10
0.282614
 20
-3.251268
  0
VERTEX
  8
PLAN_1
  6
CONTINUOUS
 10
0.280528
 20
-3.246264
  0
VERTEX
  8
PLAN_1
  6
CONTINUOUS
 10
0.278858
 20
-3.241260
  0
VERTEX
  8
PLAN_1
  6
CONTINUOUS
 10
0.277193
 20
-3.235839
  0
VERTEX
  8
PLAN_1
  6
CONTINUOUS
 10
0.275941
 20
-3.230000
  0
VERTEX
  8
PLAN_1
  6
CONTINUOUS
 10
0.275106
 20
-3.224161
  0
VERTEX
  8
PLAN_1
  6
CONTINUOUS
 10
0.273854
 20
-3.217909
  0
VERTEX
  8
PLAN_1
  6
CONTINUOUS
 10
0.273441
 20
-3.211236
  0
VERTEX
  8
PLAN_1
  6
CONTINUOUS
 10
0.273024
 20
-3.204563
  0
VERTEX
  8
PLAN_1
  6
CONTINUOUS
 10
0.273024
 20
-3.197476
  0
VERTEX
  8
PLAN_1
  6
CONTINUOUS
 10
0.273024
 20
-3.191638
  0
VERTEX
  8
PLAN_1
  6
CONTINUOUS
 10
0.273441
 20
-3.186217
  0
VERTEX
  8
PLAN_1
  6
CONTINUOUS
 10
0.273854
 20
-3.180795
  0
VERTEX
  8
PLAN_1
  6
CONTINUOUS
 10
0.274689
 20
-3.175374
  0
VERTEX
  8
PLAN_1
  6
CONTINUOUS
 10
0.275524
 20
-3.170370
  0
VERTEX
  8
PLAN_1
  6
CONTINUOUS
 10
0.276358
 20
-3.165366
  0
VERTEX
  8
PLAN_1
  6
CONTINUOUS
 10
0.277610
 20
-3.160362
  0
VERTEX
  8
PLAN_1
  6
CONTINUOUS
 10
0.279276
 20
-3.155358
  0
VERTEX
  8
PLAN_1
  6
CONTINUOUS
 10
0.280945
 20
-3.150772
  0
VERTEX
  8
PLAN_1
  6
CONTINUOUS
 10
0.282614
 20
-3.146185
  0
VERTEX
  8
PLAN_1
  6
CONTINUOUS
 10
0.284697
 20
-3.142016
  0
VERTEX
  8
PLAN_1
  6
CONTINUOUS
 10
0.287201
 20
-3.137843
  0
VERTEX
  8
PLAN_1
  6
CONTINUOUS
 10
0.289283
 20
-3.133673
  0
VERTEX
  8
PLAN_1
  6
CONTINUOUS
 10
0.292205
 20
-3.129921
  0
VERTEX
  8
PLAN_1
  6
CONTINUOUS
 10
0.294705
 20
-3.126169
  0
VERTEX
  8
PLAN_1
  6
CONTINUOUS
 10
0.297626
 20
-3.122413
  0
VERTEX
  8
PLAN_1
  6
CONTINUOUS
 10
0.300543
 20
-3.119079
  0
VERTEX
  8
PLAN_1
  6
CONTINUOUS
 10
0.303882
 20
-3.116161
  0
VERTEX
  8
PLAN_1
  6
CONTINUOUS
 10
0.307217
 20
-3.113240
  0
VERTEX
  8
PLAN_1
  6
CONTINUOUS
 10
0.310969
 20
-3.110323
  0
VERTEX
  8
PLAN_1
  6
CONTINUOUS
 10
0.314720
 20
-3.107819
  0
VERTEX
  8
PLAN_1
  6
CONTINUOUS
 10
0.318476
 20
-3.105319
  0
VERTEX
  8
PLAN_1
  6
CONTINUOUS
 10
0.322646
 20
-3.103232
  0
VERTEX
  8
PLAN_1
  6
CONTINUOUS
 10
0.326815
 20
-3.101150
  0
VERTEX
  8
PLAN_1
  6
CONTINUOUS
 10
0.331402
 20
-3.099480
  0
VERTEX
  8
PLAN_1
  6
CONTINUOUS
 10
0.335988
 20
-3.098228
  0
VERTEX
  8
PLAN_1
  6
CONTINUOUS
 10
0.340575
 20
-3.096559
  0
VERTEX
  8
PLAN_1
  6
CONTINUOUS
 10
0.345161
 20
-3.095728
  0
VERTEX
  8
PLAN_1
  6
CONTINUOUS
 10
0.350165
 20
-3.094894
  0
VERTEX
  8
PLAN_1
  6
CONTINUOUS
 10
0.355169
 20
-3.094059
  0
VERTEX
  8
PLAN_1
  6
CONTINUOUS
 10
0.360591
 20
-3.093642
  0
VERTEX
  8
PLAN_1
  6
CONTINUOUS
 10
0.366012
 20
-3.093642
  0
VERTEX
  8
PLAN_1
  6
CONTINUOUS
 10
0.375185
 20
-3.094059
  0
VERTEX
  8
PLAN_1
  6
CONTINUOUS
 10
0.383945
 20
-3.095311
  0
VERTEX
  8
PLAN_1
  6
CONTINUOUS
 10
0.392283
 20
-3.096976
  0
VERTEX
  8
PLAN_1
  6
CONTINUOUS
 10
0.399791
 20
-3.099063
  0
VERTEX
  8
PLAN_1
  6
CONTINUOUS
 10
0.406878
 20
-3.101980
  0
VERTEX
  8
PLAN_1
  6
CONTINUOUS
 10
0.413551
 20
-3.105736
  0
VERTEX
  8
PLAN_1
  6
CONTINUOUS
 10
0.419390
 20
-3.109488
  0
VERTEX
  8
PLAN_1
  6
CONTINUOUS
 10
0.424811
 20
-3.113657
  0
VERTEX
  8
PLAN_1
  6
CONTINUOUS
 10
0.429398
 20
-3.118661
  0
VERTEX
  8
PLAN_1
  6
CONTINUOUS
 10
0.433567
 20
-3.123665
  0
VERTEX
  8
PLAN_1
  6
CONTINUOUS
 10
0.437319
 20
-3.129087
  0
VERTEX
  8
PLAN_1
  6
CONTINUOUS
 10
0.440657
 20
-3.134508
  0
VERTEX
  8
PLAN_1
  6
CONTINUOUS
 10
0.443157
 20
-3.140764
  0
VERTEX
  8
PLAN_1
  6
CONTINUOUS
 10
0.445244
 20
-3.146602
  0
VERTEX
  8
PLAN_1
  6
CONTINUOUS
 10
0.446909
 20
-3.152854
  0
VERTEX
  8
PLAN_1
  6
CONTINUOUS
 10
0.447744
 20
-3.159110
  0
VERTEX
  8
PLAN_1
  6
CONTINUOUS
 10
0.421890
 20
-3.159110
  0
SEQEND
  8
0
  0
POLYLINE
  8
PLAN_1
  6
CONTINUOUS
 66
     1
 40
0.003000
 41
0.003000
  0
VERTEX
  8
PLAN_1
  6
CONTINUOUS
 10
0.509043
 20
-3.298390
  0
VERTEX
  8
PLAN_1
  6
CONTINUOUS
 10
0.482354
 20
-3.298390
  0
VERTEX
  8
PLAN_1
  6
CONTINUOUS
 10
0.482354
 20
-3.099063
  0
VERTEX
  8
PLAN_1
  6
CONTINUOUS
 10
0.509043
 20
-3.099063
  0
VERTEX
  8
PLAN_1
  6
CONTINUOUS
 10
0.509043
 20
-3.195390
  0
VERTEX
  8
PLAN_1
  6
CONTINUOUS
 10
0.605787
 20
-3.099063
  0
VERTEX
  8
PLAN_1
  6
CONTINUOUS
 10
0.642902
 20
-3.099063
  0
VERTEX
  8
PLAN_1
  6
CONTINUOUS
 10
0.559917
 20
-3.179543
  0
VERTEX
  8
PLAN_1
  6
CONTINUOUS
 10
0.645402
 20
-3.298390
  0
VERTEX
  8
PLAN_1
  6
CONTINUOUS
 10
0.610374
 20
-3.298390
  0
VERTEX
  8
PLAN_1
  6
CONTINUOUS
 10
0.540736
 20
-3.198307
  0
VERTEX
  8
PLAN_1
  6
CONTINUOUS
 10
0.509043
 20
-3.228335
  0
VERTEX
  8
PLAN_1
  6
CONTINUOUS
 10
0.509043
 20
-3.298390
  0
SEQEND
  8
0
  0
POLYLINE
  8
PLAN_1
  6
CONTINUOUS
 66
     1
 40
0.003000
 41
0.003000
  0
VERTEX
  8
PLAN_1
  6
CONTINUOUS
 10
0.817622
 20
-3.298390
  0
VERTEX
  8
PLAN_1
  6
CONTINUOUS
 10
0.670421
 20
-3.298390
  0
VERTEX
  8
PLAN_1
  6
CONTINUOUS
 10
0.670421
 20
-3.099063
  0
VERTEX
  8
PLAN_1
  6
CONTINUOUS
 10
0.815539
 20
-3.099063
  0
VERTEX
  8
PLAN_1
  6
CONTINUOUS
 10
0.815539
 20
-3.122831
  0
VERTEX
  8
PLAN_1
  6
CONTINUOUS
 10
0.697110
 20
-3.122831
  0
VERTEX
  8
PLAN_1
  6
CONTINUOUS
 10
0.697110
 20
-3.184130
  0
VERTEX
  8
PLAN_1
  6
CONTINUOUS
 10
0.806366
 20
-3.184130
  0
VERTEX
  8
PLAN_1
  6
CONTINUOUS
 10
0.806366
 20
-3.207902
  0
VERTEX
  8
PLAN_1
  6
CONTINUOUS
 10
0.697110
 20
-3.207902
  0
VERTEX
  8
PLAN_1
  6
CONTINUOUS
 10
0.697110
 20
-3.274618
  0
VERTEX
  8
PLAN_1
  6
CONTINUOUS
 10
0.817622
 20
-3.274618
  0
VERTEX
  8
PLAN_1
  6
CONTINUOUS
 10
0.817622
 20
-3.298390
  0
SEQEND
  8
0
  0
POLYLINE
  8
PLAN_1
  6
CONTINUOUS
 66
     1
 40
0.003000
 41
0.003000
  0
VERTEX
  8
PLAN_1
  6
CONTINUOUS
 10
0.947311
 20
-3.154941
  0
VERTEX
  8
PLAN_1
  6
CONTINUOUS
 10
0.946059
 20
-3.148685
  0
VERTEX
  8
PLAN_1
  6
CONTINUOUS
 10
0.943976
 20
-3.143264
  0
VERTEX
  8
PLAN_1
  6
CONTINUOUS
 10
0.942724
 20
-3.140346
  0
VERTEX
  8
PLAN_1
  6
CONTINUOUS
 10
0.941055
 20
-3.137843
  0
VERTEX
  8
PLAN_1
  6
CONTINUOUS
 10
0.939390
 20
-3.135760
  0
VERTEX
  8
PLAN_1
  6
CONTINUOUS
 10
0.937303
 20
-3.133673
  0
VERTEX
  8
PLAN_1
  6
CONTINUOUS
 10
0.935217
 20
-3.131591
  0
VERTEX
  8
PLAN_1
  6
CONTINUOUS
 10
0.933134
 20
-3.129921
  0
VERTEX
  8
PLAN_1
  6
CONTINUOUS
 10
0.930213
 20
-3.128669
  0
VERTEX
  8
PLAN_1
  6
CONTINUOUS
 10
0.927713
 20
-3.127417
  0
VERTEX
  8
PLAN_1
  6
CONTINUOUS
 10
0.924374
 20
-3.126587
  0
VERTEX
  8
PLAN_1
  6
CONTINUOUS
 10
0.921457
 20
-3.125752
  0
VERTEX
  8
PLAN_1
  6
CONTINUOUS
 10
0.917705
 20
-3.125335
  0
VERTEX
  8
PLAN_1
  6
CONTINUOUS
 10
0.913953
 20
-3.124917
  0
VERTEX
  8
PLAN_1
  6
CONTINUOUS
 10
0.910197
 20
-3.125335
  0
VERTEX
  8
PLAN_1
  6
CONTINUOUS
 10
0.906862
 20
-3.125752
  0
VERTEX
  8
PLAN_1
  6
CONTINUOUS
 10
0.903945
 20
-3.126587
  0
VERTEX
  8
PLAN_1
  6
CONTINUOUS
 10
0.901024
 20
-3.127417
  0
VERTEX
  8
PLAN_1
  6
CONTINUOUS
 10
0.898106
 20
-3.128669
  0
VERTEX
  8
PLAN_1
  6
CONTINUOUS
 10
0.895602
 20
-3.129921
  0
VERTEX
  8
PLAN_1
  6
CONTINUOUS
 10
0.892685
 20
-3.131591
  0
VERTEX
  8
PLAN_1
  6
CONTINUOUS
 10
0.890598
 20
-3.133673
  0
VERTEX
  8
PLAN_1
  6
CONTINUOUS
 10
0.886012
 20
-3.137843
  0
VERTEX
  8
PLAN_1
  6
CONTINUOUS
 10
0.882260
 20
-3.142429
  0
VERTEX
  8
PLAN_1
  6
CONTINUOUS
 10
0.879339
 20
-3.147850
  0
VERTEX
  8
PLAN_1
  6
CONTINUOUS
 10
0.876421
 20
-3.153272
  0
VERTEX
  8
PLAN_1
  6
CONTINUOUS
 10
0.873917
 20
-3.159528
  0
VERTEX
  8
PLAN_1
  6
CONTINUOUS
 10
0.872252
 20
-3.165366
  0
VERTEX
  8
PLAN_1
  6
CONTINUOUS
 10
0.870583
 20
-3.171622
  0
VERTEX
  8
PLAN_1
  6
CONTINUOUS
 10
0.869331
 20
-3.177461
  0
VERTEX
  8
PLAN_1
  6
CONTINUOUS
 10
0.868496
 20
-3.182882
  0
VERTEX
  8
PLAN_1
  6
CONTINUOUS
 10
0.868083
 20
-3.188299
  0
VERTEX
  8
PLAN_1
  6
CONTINUOUS
 10
0.867665
 20
-3.192890
  0
VERTEX
  8
PLAN_1
  6
CONTINUOUS
 10
0.867665
 20
-3.197059
  0
VERTEX
  8
PLAN_1
  6
CONTINUOUS
 10
0.868083
 20
-3.197894
  0
VERTEX
  8
PLAN_1
  6
CONTINUOUS
 10
0.870583
 20
-3.193720
  0
VERTEX
  8
PLAN_1
  6
CONTINUOUS
 10
0.874335
 20
-3.189551
  0
VERTEX
  8
PLAN_1
  6
CONTINUOUS
 10
0.878508
 20
-3.185799
  0
VERTEX
  8
PLAN_1
  6
CONTINUOUS
 10
0.883512
 20
-3.182047
  0
VERTEX
  8
PLAN_1
  6
CONTINUOUS
 10
0.886429
 20
-3.180378
  0
VERTEX
  8
PLAN_1
  6
CONTINUOUS
 10
0.889764
 20
-3.178709
  0
VERTEX
  8
PLAN_1
  6
CONTINUOUS
 10
0.893102
 20
-3.177461
  0
VERTEX
  8
PLAN_1
  6
CONTINUOUS
 10
0.896854
 20
-3.176209
  0
VERTEX
  8
PLAN_1
  6
CONTINUOUS
 10
0.900606
 20
-3.175374
  0
VERTEX
  8
PLAN_1
  6
CONTINUOUS
 10
0.905193
 20
-3.174539
  0
VERTEX
  8
PLAN_1
  6
CONTINUOUS
 10
0.909780
 20
-3.174122
  0
VERTEX
  8
PLAN_1
  6
CONTINUOUS
 10
0.914366
 20
-3.174122
  0
VERTEX
  8
PLAN_1
  6
CONTINUOUS
 10
0.918957
 20
-3.174122
  0
VERTEX
  8
PLAN_1
  6
CONTINUOUS
 10
0.923961
 20
-3.174539
  0
VERTEX
  8
PLAN_1
  6
CONTINUOUS
 10
0.928965
 20
-3.175791
  0
VERTEX
  8
PLAN_1
  6
CONTINUOUS
 10
0.933969
 20
-3.177043
  0
VERTEX
  8
PLAN_1
  6
CONTINUOUS
 10
0.939390
 20
-3.178709
  0
VERTEX
  8
PLAN_1
  6
CONTINUOUS
 10
0.944394
 20
-3.181213
  0
VERTEX
  8
PLAN_1
  6
CONTINUOUS
 10
0.949398
 20
-3.184130
  0
VERTEX
  8
PLAN_1
  6
CONTINUOUS
 10
0.953984
 20
-3.187469
  0
VERTEX
  8
PLAN_1
  6
CONTINUOUS
 10
0.958571
 20
-3.191220
  0
VERTEX
  8
PLAN_1
  6
CONTINUOUS
 10
0.962323
 20
-3.195807
  0
VERTEX
  8
PLAN_1
  6
CONTINUOUS
 10
0.966075
 20
-3.200811
  0
VERTEX
  8
PLAN_1
  6
CONTINUOUS
 10
0.969413
 20
-3.206650
  0
VERTEX
  8
PLAN_1
  6
CONTINUOUS
 10
0.971913
 20
-3.212906
  0
VERTEX
  8
PLAN_1
  6
CONTINUOUS
 10
0.974000
 20
-3.219992
  0
VERTEX
  8
PLAN_1
  6
CONTINUOUS
 10
0.974417
 20
-3.223744
  0
VERTEX
  8
PLAN_1
  6
CONTINUOUS
 10
0.975248
 20
-3.227500
  0
VERTEX
  8
PLAN_1
  6
CONTINUOUS
 10
0.975248
 20
-3.231669
  0
VERTEX
  8
PLAN_1
  6
CONTINUOUS
 10
0.975665
 20
-3.235839
  0
VERTEX
  8
PLAN_1
  6
CONTINUOUS
 10
0.975248
 20
-3.242929
  0
VERTEX
  8
PLAN_1
  6
CONTINUOUS
 10
0.974417
 20
-3.250016
  0
VERTEX
  8
PLAN_1
  6
CONTINUOUS
 10
0.973165
 20
-3.256272
  0
VERTEX
  8
PLAN_1
  6
CONTINUOUS
 10
0.971079
 20
-3.262528
  0
VERTEX
  8
PLAN_1
  6
CONTINUOUS
 10
0.968579
 20
-3.268366
  0
VERTEX
  8
PLAN_1
  6
CONTINUOUS
 10
0.965657
 20
-3.273787
  0
VERTEX
  8
PLAN_1
  6
CONTINUOUS
 10
0.961488
 20
-3.279209
  0
VERTEX
  8
PLAN_1
  6
CONTINUOUS
 10
0.956902
 20
-3.284630
  0
VERTEX
  8
PLAN_1
  6
CONTINUOUS
 10
0.953150
 20
-3.288799
  0
VERTEX
  8
PLAN_1
  6
CONTINUOUS
 10
0.948563
 20
-3.292551
  0
VERTEX
  8
PLAN_1
  6
CONTINUOUS
 10
0.943976
 20
-3.295886
  0
VERTEX
  8
PLAN_1
  6
CONTINUOUS
 10
0.938555
 20
-3.298390
  0
VERTEX
  8
PLAN_1
  6
CONTINUOUS
 10
0.932717
 20
-3.300472
  0
VERTEX
  8
PLAN_1
  6
CONTINUOUS
 10
0.925209
 20
-3.302142
  0
VERTEX
  8
PLAN_1
  6
CONTINUOUS
 10
0.917287
 20
-3.303394
  0
VERTEX
  8
PLAN_1
  6
CONTINUOUS
 10
0.907697
 20
-3.303394
  0
VERTEX
  8
PLAN_1
  6
CONTINUOUS
 10
0.901441
 20
-3.303394
  0
VERTEX
  8
PLAN_1
  6
CONTINUOUS
 10
0.895185
 20
-3.302142
  0
VERTEX
  8
PLAN_1
  6
CONTINUOUS
 10
0.888516
 20
-3.300472
  0
VERTEX
  8
PLAN_1
  6
CONTINUOUS
 10
0.881843
 20
-3.297555
  0
VERTEX
  8
PLAN_1
  6
CONTINUOUS
 10
0.878508
 20
-3.295886
  0
VERTEX
  8
PLAN_1
  6
CONTINUOUS
 10
0.875169
 20
-3.293803
  0
VERTEX
  8
PLAN_1
  6
CONTINUOUS
 10
0.872252
 20
-3.291299
  0
VERTEX
  8
PLAN_1
  6
CONTINUOUS
 10
0.868913
 20
-3.288799
  0
VERTEX
  8
PLAN_1
  6
CONTINUOUS
 10
0.865579
 20
-3.285878
  0
VERTEX
  8
PLAN_1
  6
CONTINUOUS
 10
0.862661
 20
-3.282543
  0
VERTEX
  8
PLAN_1
  6
CONTINUOUS
 10
0.860157
 20
-3.279209
  0
VERTEX
  8
PLAN_1
  6
CONTINUOUS
 10
0.857240
 20
-3.275453
  0
VERTEX
  8
PLAN_1
  6
CONTINUOUS
 10
0.855154
 20
-3.271701
  0
VERTEX
  8
PLAN_1
  6
CONTINUOUS
 10
0.853484
 20
-3.267949
  0
VERTEX
  8
PLAN_1
  6
CONTINUOUS
 10
0.851402
 20
-3.264197
  0
VERTEX
  8
PLAN_1
  6
CONTINUOUS
 10
0.850150
 20
-3.260441
  0
VERTEX
  8
PLAN_1
  6
CONTINUOUS
 10
0.847232
 20
-3.252520
  0
VERTEX
  8
PLAN_1
  6
CONTINUOUS
 10
0.845563
 20
-3.244177
  0
VERTEX
  8
PLAN_1
  6
CONTINUOUS
 10
0.843894
 20
-3.235421
  0
VERTEX
  8
PLAN_1
  6
CONTINUOUS
 10
0.843059
 20
-3.226248
  0
VERTEX
  8
PLAN_1
  6
CONTINUOUS
 10
0.842646
 20
-3.217075
  0
VERTEX
  8
PLAN_1
  6
CONTINUOUS
 10
0.842228
 20
-3.207484
  0
VERTEX
  8
PLAN_1
  6
CONTINUOUS
 10
0.842646
 20
-3.199142
  0
VERTEX
  8
PLAN_1
  6
CONTINUOUS
 10
0.843059
 20
-3.190803
  0
VERTEX
  8
PLAN_1
  6
CONTINUOUS
 10
0.843894
 20
-3.182047
  0
VERTEX
  8
PLAN_1
  6
CONTINUOUS
 10
0.845563
 20
-3.173287
  0
VERTEX
  8
PLAN_1
  6
CONTINUOUS
 10
0.847232
 20
-3.164531
  0
VERTEX
  8
PLAN_1
  6
CONTINUOUS
 10
0.849732
 20
-3.155776
  0
VERTEX
  8
PLAN_1
  6
CONTINUOUS
 10
0.852654
 20
-3.147433
  0
VERTEX
  8
PLAN_1
  6
CONTINUOUS
 10
0.856406
 20
-3.139512
  0
VERTEX
  8
PLAN_1
  6
CONTINUOUS
 10
0.858488
 20
-3.135343
  0
VERTEX
  8
PLAN_1
  6
CONTINUOUS
 10
0.860992
 20
-3.132008
  0
VERTEX
  8
PLAN_1
  6
CONTINUOUS
 10
0.863492
 20
-3.128252
  0
VERTEX
  8
PLAN_1
  6
CONTINUOUS
 10
0.865996
 20
-3.124917
  0
VERTEX
  8
PLAN_1
  6
CONTINUOUS
 10
0.868913
 20
-3.121583
  0
VERTEX
  8
PLAN_1
  6
CONTINUOUS
 10
0.871835
 20
-3.118661
  0
VERTEX
  8
PLAN_1
  6
CONTINUOUS
 10
0.875169
 20
-3.116161
  0
VERTEX
  8
PLAN_1
  6
CONTINUOUS
 10
0.878508
 20
-3.113657
  0
VERTEX
  8
PLAN_1
  6
CONTINUOUS
 10
0.882260
 20
-3.111157
  0
VERTEX
  8
PLAN_1
  6
CONTINUOUS
 10
0.886012
 20
-3.109071
  0
VERTEX
  8
PLAN_1
  6
CONTINUOUS
 10
0.890181
 20
-3.107402
  0
VERTEX
  8
PLAN_1
  6
CONTINUOUS
 10
0.894768
 20
-3.105736
  0
VERTEX
  8
PLAN_1
  6
CONTINUOUS
 10
0.899354
 20
-3.104902
  0
VERTEX
  8
PLAN_1
  6
CONTINUOUS
 10
0.903945
 20
-3.104067
  0
VERTEX
  8
PLAN_1
  6
CONTINUOUS
 10
0.908949
 20
-3.103232
  0
VERTEX
  8
PLAN_1
  6
CONTINUOUS
 10
0.914366
 20
-3.103232
  0
VERTEX
  8
PLAN_1
  6
CONTINUOUS
 10
0.918957
 20
-3.103232
  0
VERTEX
  8
PLAN_1
  6
CONTINUOUS
 10
0.923126
 20
-3.103650
  0
VERTEX
  8
PLAN_1
  6
CONTINUOUS
 10
0.927713
 20
-3.104484
  0
VERTEX
  8
PLAN_1
  6
CONTINUOUS
 10
0.932299
 20
-3.105736
  0
VERTEX
  8
PLAN_1
  6
CONTINUOUS
 10
0.937303
 20
-3.107402
  0
VERTEX
  8
PLAN_1
  6
CONTINUOUS
 10
0.941890
 20
-3.109071
  0
VERTEX
  8
PLAN_1
  6
CONTINUOUS
 10
0.946059
 20
-3.111575
  0
VERTEX
  8
PLAN_1
  6
CONTINUOUS
 10
0.950228
 20
-3.114075
  0
VERTEX
  8
PLAN_1
  6
CONTINUOUS
 10
0.954402
 20
-3.117409
  0
VERTEX
  8
PLAN_1
  6
CONTINUOUS
 10
0.958154
 20
-3.121165
  0
VERTEX
  8
PLAN_1
  6
CONTINUOUS
 10
0.961488
 20
-3.125335
  0
VERTEX
  8
PLAN_1
  6
CONTINUOUS
 10
0.964409
 20
-3.130339
  0
VERTEX
  8
PLAN_1
  6
CONTINUOUS
 10
0.966909
 20
-3.135343
  0
VERTEX
  8
PLAN_1
  6
CONTINUOUS
 10
0.968996
 20
-3.141598
  0
VERTEX
  8
PLAN_1
  6
CONTINUOUS
 10
0.970661
 20
-3.147850
  0
VERTEX
  8
PLAN_1
  6
CONTINUOUS
 10
0.971496
 20
-3.154941
  0
VERTEX
  8
PLAN_1
  6
CONTINUOUS
 10
0.947311
 20
-3.154941
  0
SEQEND
  8
0
  0
POLYLINE
  8
PLAN_1
  6
CONTINUOUS
 66
     1
 40
0.003000
 41
0.003000
  0
VERTEX
  8
PLAN_1
  6
CONTINUOUS
 10
0.911866
 20
-3.281709
  0
VERTEX
  8
PLAN_1
  6
CONTINUOUS
 10
0.916035
 20
-3.281291
  0
VERTEX
  8
PLAN_1
  6
CONTINUOUS
 10
0.920205
 20
-3.280874
  0
VERTEX
  8
PLAN_1
  6
CONTINUOUS
 10
0.923961
 20
-3.279622
  0
VERTEX
  8
PLAN_1
  6
CONTINUOUS
 10
0.927713
 20
-3.278374
  0
VERTEX
  8
PLAN_1
  6
CONTINUOUS
 10
0.931047
 20
-3.276705
  0
VERTEX
  8
PLAN_1
  6
CONTINUOUS
 10
0.934386
 20
-3.274618
  0
VERTEX
  8
PLAN_1
  6
CONTINUOUS
 10
0.937303
 20
-3.272118
  0
VERTEX
  8
PLAN_1
  6
CONTINUOUS
 10
0.939803
 20
-3.269201
  0
VERTEX
  8
PLAN_1
  6
CONTINUOUS
 10
0.942307
 20
-3.266280
  0
VERTEX
  8
PLAN_1
  6
CONTINUOUS
 10
0.944394
 20
-3.262528
  0
VERTEX
  8
PLAN_1
  6
CONTINUOUS
 10
0.946059
 20
-3.259193
  0
VERTEX
  8
PLAN_1
  6
CONTINUOUS
 10
0.947728
 20
-3.255020
  0
VERTEX
  8
PLAN_1
  6
CONTINUOUS
 10
0.948563
 20
-3.250850
  0
VERTEX
  8
PLAN_1
  6
CONTINUOUS
 10
0.949398
 20
-3.246264
  0
VERTEX
  8
PLAN_1
  6
CONTINUOUS
 10
0.950228
 20
-3.241677
  0
VERTEX
  8
PLAN_1
  6
CONTINUOUS
 10
0.950228
 20
-3.237091
  0
VERTEX
  8
PLAN_1
  6
CONTINUOUS
 10
0.950228
 20
-3.233756
  0
VERTEX
  8
PLAN_1
  6
CONTINUOUS
 10
0.949811
 20
-3.230417
  0
VERTEX
  8
PLAN_1
  6
CONTINUOUS
 10
0.949398
 20
-3.226665
  0
VERTEX
  8
PLAN_1
  6
CONTINUOUS
 10
0.948563
 20
-3.223331
  0
VERTEX
  8
PLAN_1
  6
CONTINUOUS
 10
0.947311
 20
-3.219992
  0
VERTEX
  8
PLAN_1
  6
CONTINUOUS
 10
0.945642
 20
-3.216240
  0
VERTEX
  8
PLAN_1
  6
CONTINUOUS
 10
0.943976
 20
-3.212906
  0
VERTEX
  8
PLAN_1
  6
CONTINUOUS
 10
0.941890
 20
-3.209984
  0
VERTEX
  8
PLAN_1
  6
CONTINUOUS
 10
0.939390
 20
-3.207067
  0
VERTEX
  8
PLAN_1
  6
CONTINUOUS
 10
0.936469
 20
-3.204146
  0
VERTEX
  8
PLAN_1
  6
CONTINUOUS
 10
0.933551
 20
-3.202063
  0
VERTEX
  8
PLAN_1
  6
CONTINUOUS
 10
0.929795
 20
-3.199976
  0
VERTEX
  8
PLAN_1
  6
CONTINUOUS
 10
0.925626
 20
-3.198307
  0
VERTEX
  8
PLAN_1
  6
CONTINUOUS
 10
0.921039
 20
-3.197059
  0
VERTEX
  8
PLAN_1
  6
CONTINUOUS
 10
0.916453
 20
-3.196224
  0
VERTEX
  8
PLAN_1
  6
CONTINUOUS
 10
0.911031
 20
-3.195807
  0
VERTEX
  8
PLAN_1
  6
CONTINUOUS
 10
0.906028
 20
-3.196224
  0
VERTEX
  8
PLAN_1
  6
CONTINUOUS
 10
0.901441
 20
-3.196642
  0
VERTEX
  8
PLAN_1
  6
CONTINUOUS
 10
0.897272
 20
-3.197894
  0
VERTEX
  8
PLAN_1
  6
CONTINUOUS
 10
0.893102
 20
-3.199142
  0
VERTEX
  8
PLAN_1
  6
CONTINUOUS
 10
0.889764
 20
-3.201228
  0
VERTEX
  8
PLAN_1
  6
CONTINUOUS
 10
0.886429
 20
-3.203311
  0
VERTEX
  8
PLAN_1
  6
CONTINUOUS
 10
0.883512
 20
-3.205815
  0
VERTEX
  8
PLAN_1
  6
CONTINUOUS
 10
0.880591
 20
-3.208319
  0
VERTEX
  8
PLAN_1
  6
CONTINUOUS
 10
0.878508
 20
-3.211654
  0
VERTEX
  8
PLAN_1
  6
CONTINUOUS
 10
0.876421
 20
-3.214988
  0
VERTEX
  8
PLAN_1
  6
CONTINUOUS
 10
0.874752
 20
-3.218327
  0
VERTEX
  8
PLAN_1
  6
CONTINUOUS
 10
0.873504
 20
-3.222079
  0
VERTEX
  8
PLAN_1
  6
CONTINUOUS
 10
0.872252
 20
-3.225831
  0
VERTEX
  8
PLAN_1
  6
CONTINUOUS
 10
0.871417
 20
-3.230000
  0
VERTEX
  8
PLAN_1
  6
CONTINUOUS
 10
0.871000
 20
-3.234169
  0
VERTEX
  8
PLAN_1
  6
CONTINUOUS
 10
0.871000
 20
-3.238343
  0
VERTEX
  8
PLAN_1
  6
CONTINUOUS
 10
0.871000
 20
-3.242094
  0
VERTEX
  8
PLAN_1
  6
CONTINUOUS
 10
0.871417
 20
-3.246264
  0
VERTEX
  8
PLAN_1
  6
CONTINUOUS
 10
0.872252
 20
-3.250016
  0
VERTEX
  8
PLAN_1
  6
CONTINUOUS
 10
0.873087
 20
-3.253772
  0
VERTEX
  8
PLAN_1
  6
CONTINUOUS
 10
0.874752
 20
-3.257524
  0
VERTEX
  8
PLAN_1
  6
CONTINUOUS
 10
0.876421
 20
-3.261276
  0
VERTEX
  8
PLAN_1
  6
CONTINUOUS
 10
0.878508
 20
-3.264610
  0
VERTEX
  8
PLAN_1
  6
CONTINUOUS
 10
0.880591
 20
-3.267949
  0
VERTEX
  8
PLAN_1
  6
CONTINUOUS
 10
0.883512
 20
-3.270866
  0
VERTEX
  8
PLAN_1
  6
CONTINUOUS
 10
0.886429
 20
-3.273370
  0
VERTEX
  8
PLAN_1
  6
CONTINUOUS
 10
0.889764
 20
-3.275870
  0
VERTEX
  8
PLAN_1
  6
CONTINUOUS
 10
0.893520
 20
-3.277957
  0
VERTEX
  8
PLAN_1
  6
CONTINUOUS
 10
0.897689
 20
-3.279622
  0
VERTEX
  8
PLAN_1
  6
CONTINUOUS
 10
0.901858
 20
-3.280457
  0
VERTEX
  8
PLAN_1
  6
CONTINUOUS
 10
0.906862
 20
-3.281291
  0
VERTEX
  8
PLAN_1
  6
CONTINUOUS
 10
0.911866
 20
-3.281709
  0
SEQEND
  8
0
  0
POLYLINE
  8
PLAN_1
  6
CONTINUOUS
 66
     1
 40
0.003000
 41
0.003000
  0
VERTEX
  8
PLAN_1
  6
CONTINUOUS
 10
1.026957
 20
-3.184965
  0
VERTEX
  8
PLAN_1
  6
CONTINUOUS
 10
1.030295
 20
-3.182465
  0
VERTEX
  8
PLAN_1
  6
CONTINUOUS
 10
1.034047
 20
-3.179961
  0
VERTEX
  8
PLAN_1
  6
CONTINUOUS
 10
1.037799
 20
-3.178291
  0
VERTEX
  8
PLAN_1
  6
CONTINUOUS
 10
1.042386
 20
-3.176209
  0
VERTEX
  8
PLAN_1
  6
CONTINUOUS
 10
1.047390
 20
-3.174539
  0
VERTEX
  8
PLAN_1
  6
CONTINUOUS
 10
1.052394
 20
-3.173705
  0
VERTEX
  8
PLAN_1
  6
CONTINUOUS
 10
1.058232
 20
-3.172870
  0
VERTEX
  8
PLAN_1
  6
CONTINUOUS
 10
1.064906
 20
-3.172457
  0
VERTEX
  8
PLAN_1
  6
CONTINUOUS
 10
1.070744
 20
-3.172870
  0
VERTEX
  8
PLAN_1
  6
CONTINUOUS
 10
1.076583
 20
-3.173705
  0
VERTEX
  8
PLAN_1
  6
CONTINUOUS
 10
1.082417
 20
-3.174957
  0
VERTEX
  8
PLAN_1
  6
CONTINUOUS
 10
1.088256
 20
-3.176626
  0
VERTEX
  8
PLAN_1
  6
CONTINUOUS
 10
1.093677
 20
-3.179126
  0
VERTEX
  8
PLAN_1
  6
CONTINUOUS
 10
1.099098
 20
-3.181630
  0
VERTEX
  8
PLAN_1
  6
CONTINUOUS
 10
1.104102
 20
-3.184965
  0
VERTEX
  8
PLAN_1
  6
CONTINUOUS
 10
1.108689
 20
-3.188717
  0
VERTEX
  8
PLAN_1
  6
CONTINUOUS
 10
1.112858
 20
-3.192890
  0
VERTEX
  8
PLAN_1
  6
CONTINUOUS
 10
1.117031
 20
-3.197476
  0
VERTEX
  8
PLAN_1
  6
CONTINUOUS
 10
1.120366
 20
-3.202898
  0
VERTEX
  8
PLAN_1
  6
CONTINUOUS
 10
1.123283
 20
-3.208319
  0
VERTEX
  8
PLAN_1
  6
CONTINUOUS
 10
1.125787
 20
-3.214154
  0
VERTEX
  8
PLAN_1
  6
CONTINUOUS
 10
1.127457
 20
-3.220827
  0
VERTEX
  8
PLAN_1
  6
CONTINUOUS
 10
1.128287
 20
-3.227500
  0
VERTEX
  8
PLAN_1
  6
CONTINUOUS
 10
1.128705
 20
-3.235004
  0
VERTEX
  8
PLAN_1
  6
CONTINUOUS
 10
1.128705
 20
-3.239173
  0
VERTEX
  8
PLAN_1
  6
CONTINUOUS
 10
1.128287
 20
-3.244177
  0
VERTEX
  8
PLAN_1
  6
CONTINUOUS
 10
1.127457
 20
-3.249181
  0
VERTEX
  8
PLAN_1
  6
CONTINUOUS
 10
1.126205
 20
-3.255020
  0
VERTEX
  8
PLAN_1
  6
CONTINUOUS
 10
1.124535
 20
-3.260441
  0
VERTEX
  8
PLAN_1
  6
CONTINUOUS
 10
1.122453
 20
-3.266280
  0
VERTEX
  8
PLAN_1
  6
CONTINUOUS
 10
1.119949
 20
-3.271701
  0
VERTEX
  8
PLAN_1
  6
CONTINUOUS
 10
1.116197
 20
-3.277539
  0
VERTEX
  8
PLAN_1
  6
CONTINUOUS
 10
1.112028
 20
-3.282543
  0
VERTEX
  8
PLAN_1
  6
CONTINUOUS
 10
1.107441
 20
-3.287547
  0
VERTEX
  8
PLAN_1
  6
CONTINUOUS
 10
1.104520
 20
-3.290047
  0
VERTEX
  8
PLAN_1
  6
CONTINUOUS
 10
1.101602
 20
-3.292134
  0
VERTEX
  8
PLAN_1
  6
CONTINUOUS
 10
1.098264
 20
-3.294220
  0
VERTEX
  8
PLAN_1
  6
CONTINUOUS
 10
1.094929
 20
-3.295886
  0
VERTEX
  8
PLAN_1
  6
CONTINUOUS
 10
1.091177
 20
-3.297555
  0
VERTEX
  8
PLAN_1
  6
CONTINUOUS
 10
1.087421
 20
-3.299224
  0
VERTEX
  8
PLAN_1
  6
CONTINUOUS
 10
1.083252
 20
-3.300472
  0
VERTEX
  8
PLAN_1
  6
CONTINUOUS
 10
1.078665
 20
-3.301724
  0
VERTEX
  8
PLAN_1
  6
CONTINUOUS
 10
1.074079
 20
-3.302559
  0
VERTEX
  8
PLAN_1
  6
CONTINUOUS
 10
1.069075
 20
-3.302976
  0
VERTEX
  8
PLAN_1
  6
CONTINUOUS
 10
1.063654
 20
-3.303394
  0
VERTEX
  8
PLAN_1
  6
CONTINUOUS
 10
1.058232
 20
-3.303394
  0
VERTEX
  8
PLAN_1
  6
CONTINUOUS
 10
1.053228
 20
-3.303394
  0
VERTEX
  8
PLAN_1
  6
CONTINUOUS
 10
1.048224
 20
-3.302976
  0
VERTEX
  8
PLAN_1
  6
CONTINUOUS
 10
1.043220
 20
-3.302142
  0
VERTEX
  8
PLAN_1
  6
CONTINUOUS
 10
1.038217
 20
-3.301307
  0
VERTEX
  8
PLAN_1
  6
CONTINUOUS
 10
1.033213
 20
-3.300055
  0
VERTEX
  8
PLAN_1
  6
CONTINUOUS
 10
1.028209
 20
-3.297972
  0
VERTEX
  8
PLAN_1
  6
CONTINUOUS
 10
1.023205
 20
-3.295886
  0
VERTEX
  8
PLAN_1
  6
CONTINUOUS
 10
1.018618
 20
-3.292969
  0
VERTEX
  8
PLAN_1
  6
CONTINUOUS
 10
1.014449
 20
-3.289634
  0
VERTEX
  8
PLAN_1
  6
CONTINUOUS
 10
1.010280
 20
-3.285878
  0
VERTEX
  8
PLAN_1
  6
CONTINUOUS
 10
1.006524
 20
-3.281709
  0
VERTEX
  8
PLAN_1
  6
CONTINUOUS
 10
1.003189
 20
-3.276705
  0
VERTEX
  8
PLAN_1
  6
CONTINUOUS
 10
1.000272
 20
-3.270866
  0
VERTEX
  8
PLAN_1
  6
CONTINUOUS
 10
0.998185
 20
-3.264610
  0
VERTEX
  8
PLAN_1
  6
CONTINUOUS
 10
0.996098
 20
-3.257524
  0
VERTEX
  8
PLAN_1
  6
CONTINUOUS
 10
0.994850
 20
-3.249598
  0
VERTEX
  8
PLAN_1
  6
CONTINUOUS
 10
1.020287
 20
-3.249598
  0
VERTEX
  8
PLAN_1
  6
CONTINUOUS
 10
1.021118
 20
-3.253772
  0
VERTEX
  8
PLAN_1
  6
CONTINUOUS
 10
1.021953
 20
-3.257524
  0
VERTEX
  8
PLAN_1
  6
CONTINUOUS
 10
1.023205
 20
-3.261276
  0
VERTEX
  8
PLAN_1
  6
CONTINUOUS
 10
1.024874
 20
-3.264610
  0
VERTEX
  8
PLAN_1
  6
CONTINUOUS
 10
1.026539
 20
-3.267531
  0
VERTEX
  8
PLAN_1
  6
CONTINUOUS
 10
1.028626
 20
-3.270031
  0
VERTEX
  8
PLAN_1
  6
CONTINUOUS
 10
1.031130
 20
-3.272535
  0
VERTEX
  8
PLAN_1
  6
CONTINUOUS
 10
1.033630
 20
-3.274618
  0
VERTEX
  8
PLAN_1
  6
CONTINUOUS
 10
1.036547
 20
-3.276705
  0
VERTEX
  8
PLAN_1
  6
CONTINUOUS
 10
1.039469
 20
-3.277957
  0
VERTEX
  8
PLAN_1
  6
CONTINUOUS
 10
1.042803
 20
-3.279622
  0
VERTEX
  8
PLAN_1
  6
CONTINUOUS
 10
1.046142
 20
-3.280457
  0
VERTEX
  8
PLAN_1
  6
CONTINUOUS
 10
1.049894
 20
-3.281291
  0
VERTEX
  8
PLAN_1
  6
CONTINUOUS
 10
1.053646
 20
-3.282126
  0
VERTEX
  8
PLAN_1
  6
CONTINUOUS
 10
1.057398
 20
-3.282543
  0
VERTEX
  8
PLAN_1
  6
CONTINUOUS
 10
1.061571
 20
-3.282543
  0
VERTEX
  8
PLAN_1
  6
CONTINUOUS
 10
1.066157
 20
-3.282126
  0
VERTEX
  8
PLAN_1
  6
CONTINUOUS
 10
1.070744
 20
-3.281709
  0
VERTEX
  8
PLAN_1
  6
CONTINUOUS
 10
1.074913
 20
-3.280457
  0
VERTEX
  8
PLAN_1
  6
CONTINUOUS
 10
1.078665
 20
-3.278791
  0
VERTEX
  8
PLAN_1
  6
CONTINUOUS
 10
1.082417
 20
-3.277122
  0
VERTEX
  8
PLAN_1
  6
CONTINUOUS
 10
1.085756
 20
-3.274618
  0
VERTEX
  8
PLAN_1
  6
CONTINUOUS
 10
1.088673
 20
-3.272118
  0
VERTEX
  8
PLAN_1
  6
CONTINUOUS
 10
1.091594
 20
-3.269201
  0
VERTEX
  8
PLAN_1
  6
CONTINUOUS
 10
1.094094
 20
-3.266280
  0
VERTEX
  8
PLAN_1
  6
CONTINUOUS
 10
1.096598
 20
-3.262528
  0
VERTEX
  8
PLAN_1
  6
CONTINUOUS
 10
1.098264
 20
-3.259193
  0
VERTEX
  8
PLAN_1
  6
CONTINUOUS
 10
1.099933
 20
-3.255020
  0
VERTEX
  8
PLAN_1
  6
CONTINUOUS
 10
1.101185
 20
-3.250850
  0
VERTEX
  8
PLAN_1
  6
CONTINUOUS
 10
1.102020
 20
-3.246681
  0
VERTEX
  8
PLAN_1
  6
CONTINUOUS
 10
1.102433
 20
-3.242512
  0
VERTEX
  8
PLAN_1
  6
CONTINUOUS
 10
1.102850
 20
-3.237925
  0
VERTEX
  8
PLAN_1
  6
CONTINUOUS
 10
1.102433
 20
-3.232504
  0
VERTEX
  8
PLAN_1
  6
CONTINUOUS
 10
1.102020
 20
-3.227917
  0
VERTEX
  8
PLAN_1
  6
CONTINUOUS
 10
1.100768
 20
-3.223331
  0
VERTEX
  8
PLAN_1
  6
CONTINUOUS
 10
1.099516
 20
-3.219157
  0
VERTEX
  8
PLAN_1
  6
CONTINUOUS
 10
1.097429
 20
-3.215406
  0
VERTEX
  8
PLAN_1
  6
CONTINUOUS
 10
1.095346
 20
-3.211654
  0
VERTEX
  8
PLAN_1
  6
CONTINUOUS
 10
1.092843
 20
-3.208732
  0
VERTEX
  8
PLAN_1
  6
CONTINUOUS
 10
1.090343
 20
-3.205815
  0
VERTEX
  8
PLAN_1
  6
CONTINUOUS
 10
1.087008
 20
-3.202898
  0
VERTEX
  8
PLAN_1
  6
CONTINUOUS
 10
1.083669
 20
-3.200811
  0
VERTEX
  8
PLAN_1
  6
CONTINUOUS
 10
1.080335
 20
-3.198724
  0
VERTEX
  8
PLAN_1
  6
CONTINUOUS
 10
1.076583
 20
-3.197476
  0
VERTEX
  8
PLAN_1
  6
CONTINUOUS
 10
1.072409
 20
-3.196224
  0
VERTEX
  8
PLAN_1
  6
CONTINUOUS
 10
1.068240
 20
-3.195390
  0
VERTEX
  8
PLAN_1
  6
CONTINUOUS
 10
1.064071
 20
-3.194555
  0
VERTEX
  8
PLAN_1
  6
CONTINUOUS
 10
1.059484
 20
-3.194555
  0
VERTEX
  8
PLAN_1
  6
CONTINUOUS
 10
1.054063
 20
-3.194972
  0
VERTEX
  8
PLAN_1
  6
CONTINUOUS
 10
1.049059
 20
-3.195807
  0
VERTEX
  8
PLAN_1
  6
CONTINUOUS
 10
1.044055
 20
-3.197059
  0
VERTEX
  8
PLAN_1
  6
CONTINUOUS
 10
1.039469
 20
-3.199142
  0
VERTEX
  8
PLAN_1
  6
CONTINUOUS
 10
1.034882
 20
-3.202063
  0
VERTEX
  8
PLAN_1
  6
CONTINUOUS
 10
1.030713
 20
-3.204980
  0
VERTEX
  8
PLAN_1
  6
CONTINUOUS
 10
1.026957
 20
-3.208732
  0
VERTEX
  8
PLAN_1
  6
CONTINUOUS
 10
1.023205
 20
-3.212906
  0
VERTEX
  8
PLAN_1
  6
CONTINUOUS
 10
1.002354
 20
-3.212071
  0
VERTEX
  8
PLAN_1
  6
CONTINUOUS
 10
1.016949
 20
-3.107402
  0
VERTEX
  8
PLAN_1
  6
CONTINUOUS
 10
1.117862
 20
-3.107402
  0
VERTEX
  8
PLAN_1
  6
CONTINUOUS
 10
1.117862
 20
-3.131173
  0
VERTEX
  8
PLAN_1
  6
CONTINUOUS
 10
1.035299
 20
-3.131173
  0
VERTEX
  8
PLAN_1
  6
CONTINUOUS
 10
1.026957
 20
-3.184965
  0
SEQEND
  8
0
  0
SOLID
  8
PLAN_1
 10
1.140382
 20
-3.333000
 11
1.140382
 21
-3.319240
 12
1.295091
 22
-3.333000
 13
1.295091
 23
-3.319240
  0
POLYLINE
  8
PLAN_1
  6
CONTINUOUS
 66
     1
 40
0.003000
 41
0.003000
  0
VERTEX
  8
PLAN_1
  6
CONTINUOUS
 10
1.140382
 20
-3.333000
  0
VERTEX
  8
PLAN_1
  6
CONTINUOUS
 10
1.140382
 20
-3.319240
  0
VERTEX
  8
PLAN_1
  6
CONTINUOUS
 10
1.295091
 20
-3.319240
  0
VERTEX
  8
PLAN_1
  6
CONTINUOUS
 10
1.295091
 20
-3.333000
  0
VERTEX
  8
PLAN_1
  6
CONTINUOUS
 10
1.140382
 20
-3.333000
  0
SEQEND
  8
0
  0
POLYLINE
  8
PLAN_1
  6
CONTINUOUS
 66
     1
 40
0.003000
 41
0.003000
  0
VERTEX
  8
PLAN_1
  6
CONTINUOUS
 10
1.345965
 20
-3.298390
  0
VERTEX
  8
PLAN_1
  6
CONTINUOUS
 10
1.318858
 20
-3.298390
  0
VERTEX
  8
PLAN_1
  6
CONTINUOUS
 10
1.318858
 20
-3.099063
  0
VERTEX
  8
PLAN_1
  6
CONTINUOUS
 10
1.456886
 20
-3.099063
  0
VERTEX
  8
PLAN_1
  6
CONTINUOUS
 10
1.456886
 20
-3.122831
  0
VERTEX
  8
PLAN_1
  6
CONTINUOUS
 10
1.345965
 20
-3.122831
  0
VERTEX
  8
PLAN_1
  6
CONTINUOUS
 10
1.345965
 20
-3.184130
  0
VERTEX
  8
PLAN_1
  6
CONTINUOUS
 10
1.443539
 20
-3.184130
  0
VERTEX
  8
PLAN_1
  6
CONTINUOUS
 10
1.443539
 20
-3.207902
  0
VERTEX
  8
PLAN_1
  6
CONTINUOUS
 10
1.345965
 20
-3.207902
  0
VERTEX
  8
PLAN_1
  6
CONTINUOUS
 10
1.345965
 20
-3.298390
  0
SEQEND
  8
0
  0
SOLID
  8
PLAN_1
 10
1.476067
 20
-3.298390
 11
1.447295
 21
-3.298390
 12
1.476067
 22
-3.268783
 13
1.447295
 23
-3.268783
  0
POLYLINE
  8
PLAN_1
  6
CONTINUOUS
 66
     1
 40
0.003000
 41
0.003000
  0
VERTEX
  8
PLAN_1
  6
CONTINUOUS
 10
1.476067
 20
-3.298390
  0
VERTEX
  8
PLAN_1
  6
CONTINUOUS
 10
1.447295
 20
-3.298390
  0
VERTEX
  8
PLAN_1
  6
CONTINUOUS
 10
1.447295
 20
-3.268783
  0
VERTEX
  8
PLAN_1
  6
CONTINUOUS
 10
1.476067
 20
-3.268783
  0
VERTEX
  8
PLAN_1
  6
CONTINUOUS
 10
1.476067
 20
-3.298390
  0
SEQEND
  8
0
  0
POLYLINE
  8
PLAN_1
  6
CONTINUOUS
 66
     1
 40
0.003000
 41
0.003000
  0
VERTEX
  8
PLAN_1
  6
CONTINUOUS
 10
1.671224
 20
-3.298390
  0
VERTEX
  8
PLAN_1
  6
CONTINUOUS
 10
1.524024
 20
-3.298390
  0
VERTEX
  8
PLAN_1
  6
CONTINUOUS
 10
1.524024
 20
-3.099063
  0
VERTEX
  8
PLAN_1
  6
CONTINUOUS
 10
1.669138
 20
-3.099063
  0
VERTEX
  8
PLAN_1
  6
CONTINUOUS
 10
1.669138
 20
-3.122831
  0
VERTEX
  8
PLAN_1
  6
CONTINUOUS
 10
1.551126
 20
-3.122831
  0
VERTEX
  8
PLAN_1
  6
CONTINUOUS
 10
1.551126
 20
-3.184130
  0
VERTEX
  8
PLAN_1
  6
CONTINUOUS
 10
1.659965
 20
-3.184130
  0
VERTEX
  8
PLAN_1
  6
CONTINUOUS
 10
1.659965
 20
-3.207902
  0
VERTEX
  8
PLAN_1
  6
CONTINUOUS
 10
1.551126
 20
-3.207902
  0
VERTEX
  8
PLAN_1
  6
CONTINUOUS
 10
1.551126
 20
-3.274618
  0
VERTEX
  8
PLAN_1
  6
CONTINUOUS
 10
1.671224
 20
-3.274618
  0
VERTEX
  8
PLAN_1
  6
CONTINUOUS
 10
1.671224
 20
-3.298390
  0
SEQEND
  8
0
  0
POLYLINE
  8
PLAN_1
  6
CONTINUOUS
 66
     1
 40
0.003000
 41
0.003000
  0
VERTEX
  8
PLAN_1
  6
CONTINUOUS
 10
1.736276
 20
-3.298390
  0
VERTEX
  8
PLAN_1
  6
CONTINUOUS
 10
1.709169
 20
-3.298390
  0
VERTEX
  8
PLAN_1
  6
CONTINUOUS
 10
1.709169
 20
-3.099063
  0
VERTEX
  8
PLAN_1
  6
CONTINUOUS
 10
1.798827
 20
-3.099063
  0
VERTEX
  8
PLAN_1
  6
CONTINUOUS
 10
1.805496
 20
-3.099063
  0
VERTEX
  8
PLAN_1
  6
CONTINUOUS
 10
1.812169
 20
-3.099898
  0
VERTEX
  8
PLAN_1
  6
CONTINUOUS
 10
1.818008
 20
-3.101563
  0
VERTEX
  8
PLAN_1
  6
CONTINUOUS
 10
1.823846
 20
-3.103232
  0
VERTEX
  8
PLAN_1
  6
CONTINUOUS
 10
1.828850
 20
-3.105319
  0
VERTEX
  8
PLAN_1
  6
CONTINUOUS
 10
1.833854
 20
-3.108236
  0
VERTEX
  8
PLAN_1
  6
CONTINUOUS
 10
1.838441
 20
-3.111575
  0
VERTEX
  8
PLAN_1
  6
CONTINUOUS
 10
1.842193
 20
-3.114909
  0
VERTEX
  8
PLAN_1
  6
CONTINUOUS
 10
1.845945
 20
-3.119079
  0
VERTEX
  8
PLAN_1
  6
CONTINUOUS
 10
1.849283
 20
-3.123248
  0
VERTEX
  8
PLAN_1
  6
CONTINUOUS
 10
1.851783
 20
-3.127835
  0
VERTEX
  8
PLAN_1
  6
CONTINUOUS
 10
1.853870
 20
-3.132839
  0
VERTEX
  8
PLAN_1
  6
CONTINUOUS
 10
1.855953
 20
-3.137843
  0
VERTEX
  8
PLAN_1
  6
CONTINUOUS
 10
1.857205
 20
-3.143264
  0
VERTEX
  8
PLAN_1
  6
CONTINUOUS
 10
1.857622
 20
-3.149102
  0
VERTEX
  8
PLAN_1
  6
CONTINUOUS
 10
1.858039
 20
-3.154941
  0
VERTEX
  8
PLAN_1
  6
CONTINUOUS
 10
1.858039
 20
-3.160362
  0
VERTEX
  8
PLAN_1
  6
CONTINUOUS
 10
1.857205
 20
-3.165783
  0
VERTEX
  8
PLAN_1
  6
CONTINUOUS
 10
1.856370
 20
-3.170787
  0
VERTEX
  8
PLAN_1
  6
CONTINUOUS
 10
1.855118
 20
-3.176209
  0
VERTEX
  8
PLAN_1
  6
CONTINUOUS
 10
1.853035
 20
-3.181213
  0
VERTEX
  8
PLAN_1
  6
CONTINUOUS
 10
1.850949
 20
-3.185799
  0
VERTEX
  8
PLAN_1
  6
CONTINUOUS
 10
1.848031
 20
-3.190803
  0
VERTEX
  8
PLAN_1
  6
CONTINUOUS
 10
1.844697
 20
-3.194972
  0
VERTEX
  8
PLAN_1
  6
CONTINUOUS
 10
1.840941
 20
-3.199142
  0
VERTEX
  8
PLAN_1
  6
CONTINUOUS
 10
1.836772
 20
-3.202898
  0
VERTEX
  8
PLAN_1
  6
CONTINUOUS
 10
1.831768
 20
-3.206232
  0
VERTEX
  8
PLAN_1
  6
CONTINUOUS
 10
1.826346
 20
-3.208732
  0
VERTEX
  8
PLAN_1
  6
CONTINUOUS
 10
1.820508
 20
-3.211236
  0
VERTEX
  8
PLAN_1
  6
CONTINUOUS
 10
1.813839
 20
-3.212906
  0
VERTEX
  8
PLAN_1
  6
CONTINUOUS
 10
1.806748
 20
-3.213736
  0
VERTEX
  8
PLAN_1
  6
CONTINUOUS
 10
1.798827
 20
-3.214154
  0
VERTEX
  8
PLAN_1
  6
CONTINUOUS
 10
1.736276
 20
-3.214154
  0
VERTEX
  8
PLAN_1
  6
CONTINUOUS
 10
1.736276
 20
-3.298390
  0
SEQEND
  8
0
  0
POLYLINE
  8
PLAN_1
  6
CONTINUOUS
 66
     1
 40
0.003000
 41
0.003000
  0
VERTEX
  8
PLAN_1
  6
CONTINUOUS
 10
1.736276
 20
-3.191220
  0
VERTEX
  8
PLAN_1
  6
CONTINUOUS
 10
1.789650
 20
-3.191220
  0
VERTEX
  8
PLAN_1
  6
CONTINUOUS
 10
1.794236
 20
-3.191220
  0
VERTEX
  8
PLAN_1
  6
CONTINUOUS
 10
1.798409
 20
-3.190803
  0
VERTEX
  8
PLAN_1
  6
CONTINUOUS
 10
1.802579
 20
-3.189969
  0
VERTEX
  8
PLAN_1
  6
CONTINUOUS
 10
1.806331
 20
-3.189134
  0
VERTEX
  8
PLAN_1
  6
CONTINUOUS
 10
1.809665
 20
-3.188299
  0
VERTEX
  8
PLAN_1
  6
CONTINUOUS
 10
1.813004
 20
-3.187051
  0
VERTEX
  8
PLAN_1
  6
CONTINUOUS
 10
1.816339
 20
-3.185382
  0
VERTEX
  8
PLAN_1
  6
CONTINUOUS
 10
1.819260
 20
-3.183295
  0
VERTEX
  8
PLAN_1
  6
CONTINUOUS
 10
1.821760
 20
-3.181213
  0
VERTEX
  8
PLAN_1
  6
CONTINUOUS
 10
1.823846
 20
-3.178709
  0
VERTEX
  8
PLAN_1
  6
CONTINUOUS
 10
1.825929
 20
-3.175791
  0
VERTEX
  8
PLAN_1
  6
CONTINUOUS
 10
1.827181
 20
-3.172457
  0
VERTEX
  8
PLAN_1
  6
CONTINUOUS
 10
1.828433
 20
-3.168701
  0
VERTEX
  8
PLAN_1
  6
CONTINUOUS
 10
1.829681
 20
-3.164531
  0
VERTEX
  8
PLAN_1
  6
CONTINUOUS
 10
1.830098
 20
-3.160362
  0
VERTEX
  8
PLAN_1
  6
CONTINUOUS
 10
1.830098
 20
-3.155358
  0
VERTEX
  8
PLAN_1
  6
CONTINUOUS
 10
1.830098
 20
-3.150772
  0
VERTEX
  8
PLAN_1
  6
CONTINUOUS
 10
1.829681
 20
-3.146602
  0
VERTEX
  8
PLAN_1
  6
CONTINUOUS
 10
1.828433
 20
-3.142846
  0
VERTEX
  8
PLAN_1
  6
CONTINUOUS
 10
1.827181
 20
-3.139512
  0
VERTEX
  8
PLAN_1
  6
CONTINUOUS
 10
1.825512
 20
-3.136594
  0
VERTEX
  8
PLAN_1
  6
CONTINUOUS
 10
1.823846
 20
-3.133673
  0
VERTEX
  8
PLAN_1
  6
CONTINUOUS
 10
1.821343
 20
-3.131173
  0
VERTEX
  8
PLAN_1
  6
CONTINUOUS
 10
1.818843
 20
-3.129087
  0
VERTEX
  8
PLAN_1
  6
CONTINUOUS
 10
1.816339
 20
-3.127417
  0
VERTEX
  8
PLAN_1
  6
CONTINUOUS
 10
1.813004
 20
-3.125752
  0
VERTEX
  8
PLAN_1
  6
CONTINUOUS
 10
1.809665
 20
-3.124500
  0
VERTEX
  8
PLAN_1
  6
CONTINUOUS
 10
1.806331
 20
-3.123665
  0
VERTEX
  8
PLAN_1
  6
CONTINUOUS
 10
1.802579
 20
-3.122831
  0
VERTEX
  8
PLAN_1
  6
CONTINUOUS
 10
1.798827
 20
-3.122413
  0
VERTEX
  8
PLAN_1
  6
CONTINUOUS
 10
1.795071
 20
-3.121996
  0
VERTEX
  8
PLAN_1
  6
CONTINUOUS
 10
1.790902
 20
-3.121996
  0
VERTEX
  8
PLAN_1
  6
CONTINUOUS
 10
1.736276
 20
-3.121996
  0
VERTEX
  8
PLAN_1
  6
CONTINUOUS
 10
1.736276
 20
-3.191220
  0
SEQEND
  8
0
  0
POLYLINE
  8
PLAN_1
  6
CONTINUOUS
 66
     1
 40
0.003000
 41
0.003000
  0
VERTEX
  8
PLAN_1
  6
CONTINUOUS
 10
2.011913
 20
-3.157445
  0
VERTEX
  8
PLAN_1
  6
CONTINUOUS
 10
2.011496
 20
-3.151606
  0
VERTEX
  8
PLAN_1
  6
CONTINUOUS
 10
2.010244
 20
-3.146602
  0
VERTEX
  8
PLAN_1
  6
CONTINUOUS
 10
2.008992
 20
-3.142016
  0
VERTEX
  8
PLAN_1
  6
CONTINUOUS
 10
2.006909
 20
-3.137843
  0
VERTEX
  8
PLAN_1
  6
CONTINUOUS
 10
2.004406
 20
-3.134091
  0
VERTEX
  8
PLAN_1
  6
CONTINUOUS
 10
2.001488
 20
-3.130756
  0
VERTEX
  8
PLAN_1
  6
CONTINUOUS
 10
1.998567
 20
-3.127835
  0
VERTEX
  8
PLAN_1
  6
CONTINUOUS
 10
1.995232
 20
-3.125335
  0
VERTEX
  8
PLAN_1
  6
CONTINUOUS
 10
1.991480
 20
-3.123248
  0
VERTEX
  8
PLAN_1
  6
CONTINUOUS
 10
1.987724
 20
-3.121583
  0
VERTEX
  8
PLAN_1
  6
CONTINUOUS
 10
1.983555
 20
-3.119913
  0
VERTEX
  8
PLAN_1
  6
CONTINUOUS
 10
1.979386
 20
-3.118661
  0
VERTEX
  8
PLAN_1
  6
CONTINUOUS
 10
1.975217
 20
-3.117827
  0
VERTEX
  8
PLAN_1
  6
CONTINUOUS
 10
1.971047
 20
-3.117409
  0
VERTEX
  8
PLAN_1
  6
CONTINUOUS
 10
1.966874
 20
-3.116992
  0
VERTEX
  8
PLAN_1
  6
CONTINUOUS
 10
1.962705
 20
-3.116579
  0
VERTEX
  8
PLAN_1
  6
CONTINUOUS
 10
1.955618
 20
-3.116992
  0
VERTEX
  8
PLAN_1
  6
CONTINUOUS
 10
1.948110
 20
-3.117827
  0
VERTEX
  8
PLAN_1
  6
CONTINUOUS
 10
1.944358
 20
-3.118661
  0
VERTEX
  8
PLAN_1
  6
CONTINUOUS
 10
1.940606
 20
-3.119913
  0
VERTEX
  8
PLAN_1
  6
CONTINUOUS
 10
1.936850
 20
-3.121165
  0
VERTEX
  8
PLAN_1
  6
CONTINUOUS
 10
1.933516
 20
-3.122831
  0
VERTEX
  8
PLAN_1
  6
CONTINUOUS
 10
1.930181
 20
-3.124917
  0
VERTEX
  8
PLAN_1
  6
CONTINUOUS
 10
1.926843
 20
-3.127417
  0
VERTEX
  8
PLAN_1
  6
CONTINUOUS
 10
1.924343
 20
-3.130339
  0
VERTEX
  8
PLAN_1
  6
CONTINUOUS
 10
1.921839
 20
-3.133673
  0
VERTEX
  8
PLAN_1
  6
CONTINUOUS
 10
1.919756
 20
-3.137425
  0
VERTEX
  8
PLAN_1
  6
CONTINUOUS
 10
1.918087
 20
-3.141598
  0
VERTEX
  8
PLAN_1
  6
CONTINUOUS
 10
1.917252
 20
-3.146185
  0
VERTEX
  8
PLAN_1
  6
CONTINUOUS
 10
1.916835
 20
-3.151606
  0
VERTEX
  8
PLAN_1
  6
CONTINUOUS
 10
1.917252
 20
-3.154941
  0
VERTEX
  8
PLAN_1
  6
CONTINUOUS
 10
1.917669
 20
-3.157445
  0
VERTEX
  8
PLAN_1
  6
CONTINUOUS
 10
1.918087
 20
-3.159945
  0
VERTEX
  8
PLAN_1
  6
CONTINUOUS
 10
1.918921
 20
-3.162449
  0
VERTEX
  8
PLAN_1
  6
CONTINUOUS
 10
1.920173
 20
-3.164531
  0
VERTEX
  8
PLAN_1
  6
CONTINUOUS
 10
1.921421
 20
-3.166618
  0
VERTEX
  8
PLAN_1
  6
CONTINUOUS
 10
1.922673
 20
-3.168283
  0
VERTEX
  8
PLAN_1
  6
CONTINUOUS
 10
1.924343
 20
-3.169535
  0
VERTEX
  8
PLAN_1
  6
CONTINUOUS
 10
1.928094
 20
-3.172457
  0
VERTEX
  8
PLAN_1
  6
CONTINUOUS
 10
1.931846
 20
-3.174122
  0
VERTEX
  8
PLAN_1
  6
CONTINUOUS
 10
1.936433
 20
-3.175791
  0
VERTEX
  8
PLAN_1
  6
CONTINUOUS
 10
1.940606
 20
-3.177043
  0
VERTEX
  8
PLAN_1
  6
CONTINUOUS
 10
1.997319
 20
-3.189969
  0
VERTEX
  8
PLAN_1
  6
CONTINUOUS
 10
2.002323
 20
-3.191220
  0
VERTEX
  8
PLAN_1
  6
CONTINUOUS
 10
2.006909
 20
-3.192890
  0
VERTEX
  8
PLAN_1
  6
CONTINUOUS
 10
2.011079
 20
-3.194555
  0
VERTEX
  8
PLAN_1
  6
CONTINUOUS
 10
2.015665
 20
-3.196642
  0
VERTEX
  8
PLAN_1
  6
CONTINUOUS
 10
2.019417
 20
-3.198724
  0
VERTEX
  8
PLAN_1
  6
CONTINUOUS
 10
2.023169
 20
-3.201228
  0
VERTEX
  8
PLAN_1
  6
CONTINUOUS
 10
2.026508
 20
-3.204146
  0
VERTEX
  8
PLAN_1
  6
CONTINUOUS
 10
2.029843
 20
-3.207067
  0
VERTEX
  8
PLAN_1
  6
CONTINUOUS
 10
2.032764
 20
-3.210402
  0
VERTEX
  8
PLAN_1
  6
CONTINUOUS
 10
2.035264
 20
-3.214154
  0
VERTEX
  8
PLAN_1
  6
CONTINUOUS
 10
2.037350
 20
-3.218327
  0
VERTEX
  8
PLAN_1
  6
CONTINUOUS
 10
2.039433
 20
-3.222496
  0
VERTEX
  8
PLAN_1
  6
CONTINUOUS
 10
2.040685
 20
-3.227083
  0
VERTEX
  8
PLAN_1
  6
CONTINUOUS
 10
2.041937
 20
-3.232087
  0
VERTEX
  8
PLAN_1
  6
CONTINUOUS
 10
2.042354
 20
-3.237508
  0
VERTEX
  8
PLAN_1
  6
CONTINUOUS
 10
2.042772
 20
-3.243346
  0
VERTEX
  8
PLAN_1
  6
CONTINUOUS
 10
2.042772
 20
-3.247516
  0
VERTEX
  8
PLAN_1
  6
CONTINUOUS
 10
2.042354
 20
-3.251685
  0
VERTEX
  8
PLAN_1
  6
CONTINUOUS
 10
2.041520
 20
-3.255854
  0
VERTEX
  8
PLAN_1
  6
CONTINUOUS
 10
2.040685
 20
-3.259606
  0
VERTEX
  8
PLAN_1
  6
CONTINUOUS
 10
2.039850
 20
-3.262945
  0
VERTEX
  8
PLAN_1
  6
CONTINUOUS
 10
2.038598
 20
-3.266280
  0
VERTEX
  8
PLAN_1
  6
CONTINUOUS
 10
2.036933
 20
-3.269614
  0
VERTEX
  8
PLAN_1
  6
CONTINUOUS
 10
2.035264
 20
-3.272535
  0
VERTEX
  8
PLAN_1
  6
CONTINUOUS
 10
2.033594
 20
-3.275453
  0
VERTEX
  8
PLAN_1
  6
CONTINUOUS
 10
2.031512
 20
-3.278374
  0
VERTEX
  8
PLAN_1
  6
CONTINUOUS
 10
2.029425
 20
-3.280874
  0
VERTEX
  8
PLAN_1
  6
CONTINUOUS
 10
2.026925
 20
-3.282961
  0
VERTEX
  8
PLAN_1
  6
CONTINUOUS
 10
2.021921
 20
-3.287547
  0
VERTEX
  8
PLAN_1
  6
CONTINUOUS
 10
2.016500
 20
-3.291299
  0
VERTEX
  8
PLAN_1
  6
CONTINUOUS
 10
2.010661
 20
-3.294220
  0
VERTEX
  8
PLAN_1
  6
CONTINUOUS
 10
2.004406
 20
-3.297138
  0
VERTEX
  8
PLAN_1
  6
CONTINUOUS
 10
1.998150
 20
-3.299224
  0
VERTEX
  8
PLAN_1
  6
CONTINUOUS
 10
1.991480
 20
-3.300890
  0
VERTEX
  8
PLAN_1
  6
CONTINUOUS
 10
1.984807
 20
-3.302142
  0
VERTEX
  8
PLAN_1
  6
CONTINUOUS
 10
1.977717
 20
-3.302976
  0
VERTEX
  8
PLAN_1
  6
CONTINUOUS
 10
1.971465
 20
-3.303394
  0
VERTEX
  8
PLAN_1
  6
CONTINUOUS
 10
1.964791
 20
-3.303394
  0
VERTEX
  8
PLAN_1
  6
CONTINUOUS
 10
1.958118
 20
-3.303394
  0
VERTEX
  8
PLAN_1
  6
CONTINUOUS
 10
1.951862
 20
-3.302976
  0
VERTEX
  8
PLAN_1
  6
CONTINUOUS
 10
1.946445
 20
-3.302559
  0
VERTEX
  8
PLAN_1
  6
CONTINUOUS
 10
1.941024
 20
-3.301724
  0
VERTEX
  8
PLAN_1
  6
CONTINUOUS
 10
1.936020
 20
-3.300890
  0
VERTEX
  8
PLAN_1
  6
CONTINUOUS
 10
1.931846
 20
-3.299642
  0
VERTEX
  8
PLAN_1
  6
CONTINUOUS
 10
1.927677
 20
-3.298390
  0
VERTEX
  8
PLAN_1
  6
CONTINUOUS
 10
1.923925
 20
-3.297138
  0
VERTEX
  8
PLAN_1
  6
CONTINUOUS
 10
1.917669
 20
-3.294220
  0
VERTEX
  8
PLAN_1
  6
CONTINUOUS
 10
1.912665
 20
-3.290882
  0
VERTEX
  8
PLAN_1
  6
CONTINUOUS
 10
1.908079
 20
-3.287547
  0
VERTEX
  8
PLAN_1
  6
CONTINUOUS
 10
1.904327
 20
-3.284630
  0
VERTEX
  8
PLAN_1
  6
CONTINUOUS
 10
1.901406
 20
-3.281709
  0
VERTEX
  8
PLAN_1
  6
CONTINUOUS
 10
1.898906
 20
-3.278791
  0
VERTEX
  8
PLAN_1
  6
CONTINUOUS
 10
1.896402
 20
-3.275870
  0
VERTEX
  8
PLAN_1
  6
CONTINUOUS
 10
1.894319
 20
-3.272535
  0
VERTEX
  8
PLAN_1
  6
CONTINUOUS
 10
1.892232
 20
-3.269614
  0
VERTEX
  8
PLAN_1
  6
CONTINUOUS
 10
1.890567
 20
-3.266697
  0
VERTEX
  8
PLAN_1
  6
CONTINUOUS
 10
1.889315
 20
-3.263362
  0
VERTEX
  8
PLAN_1
  6
CONTINUOUS
 10
1.888063
 20
-3.260441
  0
VERTEX
  8
PLAN_1
  6
CONTINUOUS
 10
1.886394
 20
-3.254185
  0
VERTEX
  8
PLAN_1
  6
CONTINUOUS
 10
1.885146
 20
-3.247516
  0
VERTEX
  8
PLAN_1
  6
CONTINUOUS
 10
1.884311
 20
-3.240843
  0
VERTEX
  8
PLAN_1
  6
CONTINUOUS
 10
1.884311
 20
-3.233756
  0
VERTEX
  8
PLAN_1
  6
CONTINUOUS
 10
1.909331
 20
-3.233756
  0
VERTEX
  8
PLAN_1
  6
CONTINUOUS
 10
1.909748
 20
-3.240425
  0
VERTEX
  8
PLAN_1
  6
CONTINUOUS
 10
1.910996
 20
-3.246264
  0
VERTEX
  8
PLAN_1
  6
CONTINUOUS
 10
1.912248
 20
-3.251685
  0
VERTEX
  8
PLAN_1
  6
CONTINUOUS
 10
1.914335
 20
-3.256272
  0
VERTEX
  8
PLAN_1
  6
CONTINUOUS
 10
1.917252
 20
-3.260858
  0
VERTEX
  8
PLAN_1
  6
CONTINUOUS
 10
1.920173
 20
-3.264610
  0
VERTEX
  8
PLAN_1
  6
CONTINUOUS
 10
1.923508
 20
-3.267949
  0
VERTEX
  8
PLAN_1
  6
CONTINUOUS
 10
1.927260
 20
-3.270866
  0
VERTEX
  8
PLAN_1
  6
CONTINUOUS
 10
1.931429
 20
-3.273370
  0
VERTEX
  8
PLAN_1
  6
CONTINUOUS
 10
1.936020
 20
-3.275453
  0
VERTEX
  8
PLAN_1
  6
CONTINUOUS
 10
1.940606
 20
-3.277122
  0
VERTEX
  8
PLAN_1
  6
CONTINUOUS
 10
1.945193
 20
-3.278374
  0
VERTEX
  8
PLAN_1
  6
CONTINUOUS
 10
1.949780
 20
-3.279209
  0
VERTEX
  8
PLAN_1
  6
CONTINUOUS
 10
1.954783
 20
-3.280039
  0
VERTEX
  8
PLAN_1
  6
CONTINUOUS
 10
1.959787
 20
-3.280457
  0
VERTEX
  8
PLAN_1
  6
CONTINUOUS
 10
1.964374
 20
-3.280457
  0
VERTEX
  8
PLAN_1
  6
CONTINUOUS
 10
1.972295
 20
-3.280457
  0
VERTEX
  8
PLAN_1
  6
CONTINUOUS
 10
1.980638
 20
-3.279209
  0
VERTEX
  8
PLAN_1
  6
CONTINUOUS
 10
1.985224
 20
-3.278374
  0
VERTEX
  8
PLAN_1
  6
CONTINUOUS
 10
1.989394
 20
-3.277539
  0
VERTEX
  8
PLAN_1
  6
CONTINUOUS
 10
1.993980
 20
-3.276287
  0
VERTEX
  8
PLAN_1
  6
CONTINUOUS
 10
1.997732
 20
-3.274618
  0
VERTEX
  8
PLAN_1
  6
CONTINUOUS
 10
2.001906
 20
-3.272535
  0
VERTEX
  8
PLAN_1
  6
CONTINUOUS
 10
2.005240
 20
-3.270031
  0
VERTEX
  8
PLAN_1
  6
CONTINUOUS
 10
2.008575
 20
-3.267531
  0
VERTEX
  8
PLAN_1
  6
CONTINUOUS
 10
2.011079
 20
-3.264197
  0
VERTEX
  8
PLAN_1
  6
CONTINUOUS
 10
2.013579
 20
-3.260858
  0
VERTEX
  8
PLAN_1
  6
CONTINUOUS
 10
2.015248
 20
-3.256689
  0
VERTEX
  8
PLAN_1
  6
CONTINUOUS
 10
2.016500
 20
-3.252102
  0
VERTEX
  8
PLAN_1
  6
CONTINUOUS
 10
2.016500
 20
-3.247098
  0
VERTEX
  8
PLAN_1
  6
CONTINUOUS
 10
2.016500
 20
-3.243346
  0
VERTEX
  8
PLAN_1
  6
CONTINUOUS
 10
2.016083
 20
-3.239591
  0
VERTEX
  8
PLAN_1
  6
CONTINUOUS
 10
2.015665
 20
-3.236673
  0
VERTEX
  8
PLAN_1
  6
CONTINUOUS
 10
2.014831
 20
-3.233756
  0
VERTEX
  8
PLAN_1
  6
CONTINUOUS
 10
2.013579
 20
-3.231252
  0
VERTEX
  8
PLAN_1
  6
CONTINUOUS
 10
2.011913
 20
-3.228748
  0
VERTEX
  8
PLAN_1
  6
CONTINUOUS
 10
2.009827
 20
-3.226665
  0
VERTEX
  8
PLAN_1
  6
CONTINUOUS
 10
2.007740
 20
-3.224579
  0
VERTEX
  8
PLAN_1
  6
CONTINUOUS
 10
2.005240
 20
-3.222496
  0
VERTEX
  8
PLAN_1
  6
CONTINUOUS
 10
2.001906
 20
-3.220827
  0
VERTEX
  8
PLAN_1
  6
CONTINUOUS
 10
1.998567
 20
-3.219157
  0
VERTEX
  8
PLAN_1
  6
CONTINUOUS
 10
1.994815
 20
-3.217492
  0
VERTEX
  8
PLAN_1
  6
CONTINUOUS
 10
1.985224
 20
-3.214571
  0
VERTEX
  8
PLAN_1
  6
CONTINUOUS
 10
1.974382
 20
-3.211654
  0
VERTEX
  8
PLAN_1
  6
CONTINUOUS
 10
1.933516
 20
-3.202063
  0
VERTEX
  8
PLAN_1
  6
CONTINUOUS
 10
1.927677
 20
-3.200811
  0
VERTEX
  8
PLAN_1
  6
CONTINUOUS
 10
1.921421
 20
-3.198307
  0
VERTEX
  8
PLAN_1
  6
CONTINUOUS
 10
1.917669
 20
-3.197059
  0
VERTEX
  8
PLAN_1
  6
CONTINUOUS
 10
1.914335
 20
-3.195390
  0
VERTEX
  8
PLAN_1
  6
CONTINUOUS
 10
1.910583
 20
-3.193303
  0
VERTEX
  8
PLAN_1
  6
CONTINUOUS
 10
1.907244
 20
-3.190803
  0
VERTEX
  8
PLAN_1
  6
CONTINUOUS
 10
1.903909
 20
-3.187886
  0
VERTEX
  8
PLAN_1
  6
CONTINUOUS
 10
1.900988
 20
-3.184547
  0
VERTEX
  8
PLAN_1
  6
CONTINUOUS
 10
1.898071
 20
-3.180795
  0
VERTEX
  8
PLAN_1
  6
CONTINUOUS
 10
1.895571
 20
-3.177043
  0
VERTEX
  8
PLAN_1
  6
CONTINUOUS
 10
1.893902
 20
-3.172457
  0
VERTEX
  8
PLAN_1
  6
CONTINUOUS
 10
1.892232
 20
-3.167035
  0
VERTEX
  8
PLAN_1
  6
CONTINUOUS
 10
1.891398
 20
-3.161614
  0
VERTEX
  8
PLAN_1
  6
CONTINUOUS
 10
1.890980
 20
-3.155358
  0
VERTEX
  8
PLAN_1
  6
CONTINUOUS
 10
1.890980
 20
-3.149520
  0
VERTEX
  8
PLAN_1
  6
CONTINUOUS
 10
1.891815
 20
-3.143681
  0
VERTEX
  8
PLAN_1
  6
CONTINUOUS
 10
1.893067
 20
-3.138260
  0
VERTEX
  8
PLAN_1
  6
CONTINUOUS
 10
1.894736
 20
-3.132421
  0
VERTEX
  8
PLAN_1
  6
CONTINUOUS
 10
1.897236
 20
-3.127417
  0
VERTEX
  8
PLAN_1
  6
CONTINUOUS
 10
1.899740
 20
-3.121996
  0
VERTEX
  8
PLAN_1
  6
CONTINUOUS
 10
1.903075
 20
-3.117409
  0
VERTEX
  8
PLAN_1
  6
CONTINUOUS
 10
1.907244
 20
-3.112823
  0
VERTEX
  8
PLAN_1
  6
CONTINUOUS
 10
1.911413
 20
-3.108654
  0
VERTEX
  8
PLAN_1
  6
CONTINUOUS
 10
1.916417
 20
-3.104902
  0
VERTEX
  8
PLAN_1
  6
CONTINUOUS
 10
1.922256
 20
-3.101563
  0
VERTEX
  8
PLAN_1
  6
CONTINUOUS
 10
1.928512
 20
-3.099063
  0
VERTEX
  8
PLAN_1
  6
CONTINUOUS
 10
1.935185
 20
-3.096559
  0
VERTEX
  8
PLAN_1
  6
CONTINUOUS
 10
1.942689
 20
-3.094894
  0
VERTEX
  8
PLAN_1
  6
CONTINUOUS
 10
1.950614
 20
-3.094059
  0
VERTEX
  8
PLAN_1
  6
CONTINUOUS
 10
1.959370
 20
-3.093642
  0
VERTEX
  8
PLAN_1
  6
CONTINUOUS
 10
1.966043
 20
-3.093642
  0
VERTEX
  8
PLAN_1
  6
CONTINUOUS
 10
1.971882
 20
-3.094059
  0
VERTEX
  8
PLAN_1
  6
CONTINUOUS
 10
1.977299
 20
-3.094894
  0
VERTEX
  8
PLAN_1
  6
CONTINUOUS
 10
1.982720
 20
-3.095728
  0
VERTEX
  8
PLAN_1
  6
CONTINUOUS
 10
1.987724
 20
-3.096559
  0
VERTEX
  8
PLAN_1
  6
CONTINUOUS
 10
1.992311
 20
-3.097811
  0
VERTEX
  8
PLAN_1
  6
CONTINUOUS
 10
1.996902
 20
-3.099063
  0
VERTEX
  8
PLAN_1
  6
CONTINUOUS
 10
2.001071
 20
-3.100732
  0
VERTEX
  8
PLAN_1
  6
CONTINUOUS
 10
2.004823
 20
-3.102398
  0
VERTEX
  8
PLAN_1
  6
CONTINUOUS
 10
2.008157
 20
-3.104067
  0
VERTEX
  8
PLAN_1
  6
CONTINUOUS
 10
2.011496
 20
-3.106154
  0
VERTEX
  8
PLAN_1
  6
CONTINUOUS
 10
2.014413
 20
-3.108236
  0
VERTEX
  8
PLAN_1
  6
CONTINUOUS
 10
2.017335
 20
-3.110323
  0
VERTEX
  8
PLAN_1
  6
CONTINUOUS
 10
2.019835
 20
-3.112406
  0
VERTEX
  8
PLAN_1
  6
CONTINUOUS
 10
2.021921
 20
-3.114909
  0
VERTEX
  8
PLAN_1
  6
CONTINUOUS
 10
2.024004
 20
-3.117409
  0
VERTEX
  8
PLAN_1
  6
CONTINUOUS
 10
2.027760
 20
-3.122413
  0
VERTEX
  8
PLAN_1
  6
CONTINUOUS
 10
2.030677
 20
-3.127417
  0
VERTEX
  8
PLAN_1
  6
CONTINUOUS
 10
2.032764
 20
-3.132839
  0
VERTEX
  8
PLAN_1
  6
CONTINUOUS
 10
2.034429
 20
-3.138260
  0
VERTEX
  8
PLAN_1
  6
CONTINUOUS
 10
2.035681
 20
-3.143264
  0
VERTEX
  8
PLAN_1
  6
CONTINUOUS
 10
2.036516
 20
-3.148268
  0
VERTEX
  8
PLAN_1
  6
CONTINUOUS
 10
2.036933
 20
-3.152854
  0
VERTEX
  8
PLAN_1
  6
CONTINUOUS
 10
2.037350
 20
-3.157445
  0
VERTEX
  8
PLAN_1
  6
CONTINUOUS
 10
2.011913
 20
-3.157445
  0
SEQEND
  8
0
  0
POLYLINE
  8
PLAN_1
 62
     5
  6
CONTINUOUS
 66
     1
 40
0.003000
 41
0.003000
  0
VERTEX
  8
PLAN_1
 62
     5
  6
CONTINUOUS
 10
-2.045913
 20
1.341154
  0
VERTEX
  8
PLAN_1
 62
     5
  6
CONTINUOUS
 10
-2.045913
 20
1.349492
  0
SEQEND
  8
0
  0
POLYLINE
  8
PLAN_1
 62
     5
  6
CONTINUOUS
 66
     1
 40
0.003000
 41
0.003000
  0
VERTEX
  8
PLAN_1
 62
     5
  6
CONTINUOUS
 10
-2.045913
 20
1.357835
  0
VERTEX
  8
PLAN_1
 62
     5
  6
CONTINUOUS
 10
-2.045913
 20
1.366173
  0
SEQEND
  8
0
  0
POLYLINE
  8
PLAN_1
 62
     5
  6
CONTINUOUS
 66
     1
 40
0.003000
 41
0.003000
  0
VERTEX
  8
PLAN_1
 62
     5
  6
CONTINUOUS
 10
-2.045913
 20
1.374512
  0
VERTEX
  8
PLAN_1
 62
     5
  6
CONTINUOUS
 10
-2.045913
 20
1.382854
  0
SEQEND
  8
0
  0
POLYLINE
  8
PLAN_1
 62
     5
  6
CONTINUOUS
 66
     1
 40
0.003000
 41
0.003000
  0
VERTEX
  8
PLAN_1
 62
     5
  6
CONTINUOUS
 10
-2.045913
 20
1.391193
  0
VERTEX
  8
PLAN_1
 62
     5
  6
CONTINUOUS
 10
-2.045913
 20
1.399531
  0
SEQEND
  8
0
  0
POLYLINE
  8
PLAN_1
 62
     5
  6
CONTINUOUS
 66
     1
 40
0.003000
 41
0.003000
  0
VERTEX
  8
PLAN_1
 62
     5
  6
CONTINUOUS
 10
-2.045913
 20
1.407874
  0
VERTEX
  8
PLAN_1
 62
     5
  6
CONTINUOUS
 10
-2.045913
 20
1.416213
  0
SEQEND
  8
0
  0
POLYLINE
  8
PLAN_1
 62
     5
  6
CONTINUOUS
 66
     1
 40
0.003000
 41
0.003000
  0
VERTEX
  8
PLAN_1
 62
     5
  6
CONTINUOUS
 10
-2.045913
 20
1.424551
  0
VERTEX
  8
PLAN_1
 62
     5
  6
CONTINUOUS
 10
-2.045913
 20
1.432894
  0
SEQEND
  8
0
  0
POLYLINE
  8
PLAN_1
 62
     5
  6
CONTINUOUS
 66
     1
 40
0.003000
 41
0.003000
  0
VERTEX
  8
PLAN_1
 62
     5
  6
CONTINUOUS
 10
-2.045913
 20
1.441232
  0
VERTEX
  8
PLAN_1
 62
     5
  6
CONTINUOUS
 10
-2.045913
 20
1.449575
  0
SEQEND
  8
0
  0
POLYLINE
  8
PLAN_1
 62
     5
  6
CONTINUOUS
 66
     1
 40
0.003000
 41
0.003000
  0
VERTEX
  8
PLAN_1
 62
     5
  6
CONTINUOUS
 10
-2.045913
 20
1.457913
  0
VERTEX
  8
PLAN_1
 62
     5
  6
CONTINUOUS
 10
-2.045913
 20
1.466252
  0
SEQEND
  8
0
  0
POLYLINE
  8
PLAN_1
 62
     5
  6
CONTINUOUS
 66
     1
 40
0.003000
 41
0.003000
  0
VERTEX
  8
PLAN_1
 62
     5
  6
CONTINUOUS
 10
-2.045913
 20
1.474594
  0
VERTEX
  8
PLAN_1
 62
     5
  6
CONTINUOUS
 10
-2.045913
 20
1.482933
  0
SEQEND
  8
0
  0
POLYLINE
  8
PLAN_1
 62
     5
  6
CONTINUOUS
 66
     1
 40
0.003000
 41
0.003000
  0
VERTEX
  8
PLAN_1
 62
     5
  6
CONTINUOUS
 10
-2.045913
 20
1.491272
  0
VERTEX
  8
PLAN_1
 62
     5
  6
CONTINUOUS
 10
-2.045913
 20
1.499614
  0
SEQEND
  8
0
  0
POLYLINE
  8
PLAN_1
 62
     5
  6
CONTINUOUS
 66
     1
 40
0.003000
 41
0.003000
  0
VERTEX
  8
PLAN_1
 62
     5
  6
CONTINUOUS
 10
-2.045913
 20
1.507953
  0
VERTEX
  8
PLAN_1
 62
     5
  6
CONTINUOUS
 10
-2.045913
 20
1.516291
  0
SEQEND
  8
0
  0
POLYLINE
  8
PLAN_1
 62
     5
  6
CONTINUOUS
 66
     1
 40
0.003000
 41
0.003000
  0
VERTEX
  8
PLAN_1
 62
     5
  6
CONTINUOUS
 10
-2.045913
 20
1.524634
  0
VERTEX
  8
PLAN_1
 62
     5
  6
CONTINUOUS
 10
-2.045913
 20
1.532972
  0
SEQEND
  8
0
  0
POLYLINE
  8
PLAN_1
 62
     5
  6
CONTINUOUS
 66
     1
 40
0.003000
 41
0.003000
  0
VERTEX
  8
PLAN_1
 62
     5
  6
CONTINUOUS
 10
-2.045913
 20
1.541315
  0
VERTEX
  8
PLAN_1
 62
     5
  6
CONTINUOUS
 10
-2.045913
 20
1.549654
  0
SEQEND
  8
0
  0
POLYLINE
  8
PLAN_1
 62
     5
  6
CONTINUOUS
 66
     1
 40
0.003000
 41
0.003000
  0
VERTEX
  8
PLAN_1
 62
     5
  6
CONTINUOUS
 10
-2.045913
 20
1.557992
  0
VERTEX
  8
PLAN_1
 62
     5
  6
CONTINUOUS
 10
-2.045913
 20
1.566335
  0
SEQEND
  8
0
  0
POLYLINE
  8
PLAN_1
 62
     5
  6
CONTINUOUS
 66
     1
 40
0.003000
 41
0.003000
  0
VERTEX
  8
PLAN_1
 62
     5
  6
CONTINUOUS
 10
-2.045913
 20
1.574673
  0
VERTEX
  8
PLAN_1
 62
     5
  6
CONTINUOUS
 10
-2.045913
 20
1.583012
  0
SEQEND
  8
0
  0
POLYLINE
  8
PLAN_1
 62
     5
  6
CONTINUOUS
 66
     1
 40
0.003000
 41
0.003000
  0
VERTEX
  8
PLAN_1
 62
     5
  6
CONTINUOUS
 10
-2.045913
 20
1.591354
  0
VERTEX
  8
PLAN_1
 62
     5
  6
CONTINUOUS
 10
-2.045913
 20
1.599693
  0
SEQEND
  8
0
  0
POLYLINE
  8
PLAN_1
 62
     5
  6
CONTINUOUS
 66
     1
 40
0.003000
 41
0.003000
  0
VERTEX
  8
PLAN_1
 62
     5
  6
CONTINUOUS
 10
-2.045913
 20
1.608031
  0
VERTEX
  8
PLAN_1
 62
     5
  6
CONTINUOUS
 10
-2.045913
 20
1.616374
  0
SEQEND
  8
0
  0
POLYLINE
  8
PLAN_1
 62
     5
  6
CONTINUOUS
 66
     1
 40
0.003000
 41
0.003000
  0
VERTEX
  8
PLAN_1
 62
     5
  6
CONTINUOUS
 10
-2.045913
 20
1.624713
  0
VERTEX
  8
PLAN_1
 62
     5
  6
CONTINUOUS
 10
-2.045913
 20
1.633051
  0
SEQEND
  8
0
  0
POLYLINE
  8
PLAN_1
 62
     5
  6
CONTINUOUS
 66
     1
 40
0.003000
 41
0.003000
  0
VERTEX
  8
PLAN_1
 62
     5
  6
CONTINUOUS
 10
-2.045913
 20
1.641394
  0
VERTEX
  8
PLAN_1
 62
     5
  6
CONTINUOUS
 10
-2.045913
 20
1.649732
  0
SEQEND
  8
0
  0
POLYLINE
  8
PLAN_1
 62
     5
  6
CONTINUOUS
 66
     1
 40
0.003000
 41
0.003000
  0
VERTEX
  8
PLAN_1
 62
     5
  6
CONTINUOUS
 10
-2.045913
 20
1.658075
  0
VERTEX
  8
PLAN_1
 62
     5
  6
CONTINUOUS
 10
-2.045913
 20
1.666413
  0
SEQEND
  8
0
  0
POLYLINE
  8
PLAN_1
 62
     5
  6
CONTINUOUS
 66
     1
 40
0.003000
 41
0.003000
  0
VERTEX
  8
PLAN_1
 62
     5
  6
CONTINUOUS
 10
-2.045913
 20
1.674752
  0
VERTEX
  8
PLAN_1
 62
     5
  6
CONTINUOUS
 10
-2.045913
 20
1.683094
  0
SEQEND
  8
0
  0
POLYLINE
  8
PLAN_1
 62
     5
  6
CONTINUOUS
 66
     1
 40
0.003000
 41
0.003000
  0
VERTEX
  8
PLAN_1
 62
     5
  6
CONTINUOUS
 10
-2.045913
 20
1.691016
  0
VERTEX
  8
PLAN_1
 62
     5
  6
CONTINUOUS
 10
-2.045913
 20
1.699354
  0
SEQEND
  8
0
  0
POLYLINE
  8
PLAN_1
 62
     5
  6
CONTINUOUS
 66
     1
 40
0.003000
 41
0.003000
  0
VERTEX
  8
PLAN_1
 62
     5
  6
CONTINUOUS
 10
-2.045913
 20
1.707697
  0
VERTEX
  8
PLAN_1
 62
     5
  6
CONTINUOUS
 10
-2.045913
 20
1.716035
  0
SEQEND
  8
0
  0
POLYLINE
  8
PLAN_1
 62
     5
  6
CONTINUOUS
 66
     1
 40
0.003000
 41
0.003000
  0
VERTEX
  8
PLAN_1
 62
     5
  6
CONTINUOUS
 10
-2.045913
 20
1.724378
  0
VERTEX
  8
PLAN_1
 62
     5
  6
CONTINUOUS
 10
-2.045913
 20
1.732717
  0
SEQEND
  8
0
  0
POLYLINE
  8
PLAN_1
 62
     5
  6
CONTINUOUS
 66
     1
 40
0.003000
 41
0.003000
  0
VERTEX
  8
PLAN_1
 62
     5
  6
CONTINUOUS
 10
-2.045913
 20
1.741055
  0
VERTEX
  8
PLAN_1
 62
     5
  6
CONTINUOUS
 10
-2.045913
 20
1.749398
  0
SEQEND
  8
0
  0
POLYLINE
  8
PLAN_1
 62
     5
  6
CONTINUOUS
 66
     1
 40
0.003000
 41
0.003000
  0
VERTEX
  8
PLAN_1
 62
     5
  6
CONTINUOUS
 10
-2.045913
 20
1.757736
  0
VERTEX
  8
PLAN_1
 62
     5
  6
CONTINUOUS
 10
-2.045913
 20
1.766075
  0
SEQEND
  8
0
  0
POLYLINE
  8
PLAN_1
 62
     5
  6
CONTINUOUS
 66
     1
 40
0.003000
 41
0.003000
  0
VERTEX
  8
PLAN_1
 62
     5
  6
CONTINUOUS
 10
-2.045913
 20
1.774417
  0
VERTEX
  8
PLAN_1
 62
     5
  6
CONTINUOUS
 10
-2.045913
 20
1.782756
  0
SEQEND
  8
0
  0
POLYLINE
  8
PLAN_1
 62
     5
  6
CONTINUOUS
 66
     1
 40
0.003000
 41
0.003000
  0
VERTEX
  8
PLAN_1
 62
     5
  6
CONTINUOUS
 10
-2.045913
 20
1.791094
  0
VERTEX
  8
PLAN_1
 62
     5
  6
CONTINUOUS
 10
-2.045913
 20
1.799437
  0
SEQEND
  8
0
  0
POLYLINE
  8
PLAN_1
 62
     5
  6
CONTINUOUS
 66
     1
 40
0.003000
 41
0.003000
  0
VERTEX
  8
PLAN_1
 62
     5
  6
CONTINUOUS
 10
-2.045913
 20
1.807776
  0
VERTEX
  8
PLAN_1
 62
     5
  6
CONTINUOUS
 10
-2.045913
 20
1.816114
  0
SEQEND
  8
0
  0
POLYLINE
  8
PLAN_1
 62
     5
  6
CONTINUOUS
 66
     1
 40
0.003000
 41
0.003000
  0
VERTEX
  8
PLAN_1
 62
     5
  6
CONTINUOUS
 10
-2.045913
 20
1.824457
  0
VERTEX
  8
PLAN_1
 62
     5
  6
CONTINUOUS
 10
-2.045913
 20
1.832795
  0
SEQEND
  8
0
  0
POLYLINE
  8
PLAN_1
 62
     5
  6
CONTINUOUS
 66
     1
 40
0.003000
 41
0.003000
  0
VERTEX
  8
PLAN_1
 62
     5
  6
CONTINUOUS
 10
-2.045913
 20
1.841138
  0
VERTEX
  8
PLAN_1
 62
     5
  6
CONTINUOUS
 10
-2.045913
 20
1.849476
  0
SEQEND
  8
0
  0
POLYLINE
  8
PLAN_1
 62
     5
  6
CONTINUOUS
 66
     1
 40
0.003000
 41
0.003000
  0
VERTEX
  8
PLAN_1
 62
     5
  6
CONTINUOUS
 10
-2.045913
 20
1.857815
  0
VERTEX
  8
PLAN_1
 62
     5
  6
CONTINUOUS
 10
-2.045913
 20
1.866157
  0
SEQEND
  8
0
  0
POLYLINE
  8
PLAN_1
 62
     5
  6
CONTINUOUS
 66
     1
 40
0.003000
 41
0.003000
  0
VERTEX
  8
PLAN_1
 62
     5
  6
CONTINUOUS
 10
-2.045913
 20
1.874496
  0
VERTEX
  8
PLAN_1
 62
     5
  6
CONTINUOUS
 10
-2.045913
 20
1.882835
  0
SEQEND
  8
0
  0
POLYLINE
  8
PLAN_1
 62
     5
  6
CONTINUOUS
 66
     1
 40
0.003000
 41
0.003000
  0
VERTEX
  8
PLAN_1
 62
     5
  6
CONTINUOUS
 10
-2.045913
 20
1.891177
  0
VERTEX
  8
PLAN_1
 62
     5
  6
CONTINUOUS
 10
-2.045913
 20
1.899516
  0
SEQEND
  8
0
  0
POLYLINE
  8
PLAN_1
 62
     5
  6
CONTINUOUS
 66
     1
 40
0.003000
 41
0.003000
  0
VERTEX
  8
PLAN_1
 62
     5
  6
CONTINUOUS
 10
-2.045913
 20
1.907854
  0
VERTEX
  8
PLAN_1
 62
     5
  6
CONTINUOUS
 10
-2.045913
 20
1.916197
  0
SEQEND
  8
0
  0
POLYLINE
  8
PLAN_1
 62
     5
  6
CONTINUOUS
 66
     1
 40
0.003000
 41
0.003000
  0
VERTEX
  8
PLAN_1
 62
     5
  6
CONTINUOUS
 10
-2.045913
 20
1.924535
  0
VERTEX
  8
PLAN_1
 62
     5
  6
CONTINUOUS
 10
-2.045913
 20
1.932878
  0
SEQEND
  8
0
  0
POLYLINE
  8
PLAN_1
 62
     5
  6
CONTINUOUS
 66
     1
 40
0.003000
 41
0.003000
  0
VERTEX
  8
PLAN_1
 62
     5
  6
CONTINUOUS
 10
-2.045913
 20
1.941217
  0
VERTEX
  8
PLAN_1
 62
     5
  6
CONTINUOUS
 10
-2.045913
 20
1.949555
  0
SEQEND
  8
0
  0
POLYLINE
  8
PLAN_1
 62
     5
  6
CONTINUOUS
 66
     1
 40
0.003000
 41
0.003000
  0
VERTEX
  8
PLAN_1
 62
     5
  6
CONTINUOUS
 10
-2.045913
 20
1.957898
  0
VERTEX
  8
PLAN_1
 62
     5
  6
CONTINUOUS
 10
-2.045913
 20
1.966236
  0
SEQEND
  8
0
  0
POLYLINE
  8
PLAN_1
 62
     5
  6
CONTINUOUS
 66
     1
 40
0.003000
 41
0.003000
  0
VERTEX
  8
PLAN_1
 62
     5
  6
CONTINUOUS
 10
-2.045913
 20
1.974575
  0
VERTEX
  8
PLAN_1
 62
     5
  6
CONTINUOUS
 10
-2.045913
 20
1.982917
  0
SEQEND
  8
0
  0
POLYLINE
  8
PLAN_1
 62
     5
  6
CONTINUOUS
 66
     1
 40
0.003000
 41
0.003000
  0
VERTEX
  8
PLAN_1
 62
     5
  6
CONTINUOUS
 10
-2.045913
 20
1.991256
  0
VERTEX
  8
PLAN_1
 62
     5
  6
CONTINUOUS
 10
-2.045913
 20
1.999594
  0
SEQEND
  8
0
  0
POLYLINE
  8
PLAN_1
 62
     5
  6
CONTINUOUS
 66
     1
 40
0.003000
 41
0.003000
  0
VERTEX
  8
PLAN_1
 62
     5
  6
CONTINUOUS
 10
-2.045913
 20
2.007937
  0
VERTEX
  8
PLAN_1
 62
     5
  6
CONTINUOUS
 10
-2.045913
 20
2.016276
  0
SEQEND
  8
0
  0
POLYLINE
  8
PLAN_1
 62
     5
  6
CONTINUOUS
 66
     1
 40
0.003000
 41
0.003000
  0
VERTEX
  8
PLAN_1
 62
     5
  6
CONTINUOUS
 10
-2.045913
 20
2.024614
  0
VERTEX
  8
PLAN_1
 62
     5
  6
CONTINUOUS
 10
-2.045913
 20
2.032539
  0
SEQEND
  8
0
  0
POLYLINE
  8
PLAN_1
 62
     5
  6
CONTINUOUS
 66
     1
 40
0.003000
 41
0.003000
  0
VERTEX
  8
PLAN_1
 62
     5
  6
CONTINUOUS
 10
-2.045913
 20
2.040878
  0
VERTEX
  8
PLAN_1
 62
     5
  6
CONTINUOUS
 10
-2.045913
 20
2.049220
  0
SEQEND
  8
0
  0
POLYLINE
  8
PLAN_1
 62
     5
  6
CONTINUOUS
 66
     1
 40
0.003000
 41
0.003000
  0
VERTEX
  8
PLAN_1
 62
     5
  6
CONTINUOUS
 10
-2.045913
 20
2.057559
  0
VERTEX
  8
PLAN_1
 62
     5
  6
CONTINUOUS
 10
-2.045913
 20
2.065898
  0
SEQEND
  8
0
  0
POLYLINE
  8
PLAN_1
 62
     5
  6
CONTINUOUS
 66
     1
 40
0.003000
 41
0.003000
  0
VERTEX
  8
PLAN_1
 62
     5
  6
CONTINUOUS
 10
-2.045913
 20
2.074240
  0
VERTEX
  8
PLAN_1
 62
     5
  6
CONTINUOUS
 10
-2.045913
 20
2.082579
  0
SEQEND
  8
0
  0
POLYLINE
  8
PLAN_1
 62
     5
  6
CONTINUOUS
 66
     1
 40
0.003000
 41
0.003000
  0
VERTEX
  8
PLAN_1
 62
     5
  6
CONTINUOUS
 10
-2.045913
 20
2.084248
  0
VERTEX
  8
PLAN_1
 62
     5
  6
CONTINUOUS
 10
-2.046331
 20
2.088417
  0
VERTEX
  8
PLAN_1
 62
     5
  6
CONTINUOUS
 10
-2.045913
 20
2.092587
  0
SEQEND
  8
0
  0
POLYLINE
  8
PLAN_1
 62
     5
  6
CONTINUOUS
 66
     1
 40
0.003000
 41
0.003000
  0
VERTEX
  8
PLAN_1
 62
     5
  6
CONTINUOUS
 10
-2.044248
 20
2.100512
  0
VERTEX
  8
PLAN_1
 62
     5
  6
CONTINUOUS
 10
-2.042996
 20
2.103429
  0
VERTEX
  8
PLAN_1
 62
     5
  6
CONTINUOUS
 10
-2.040909
 20
2.106764
  0
VERTEX
  8
PLAN_1
 62
     5
  6
CONTINUOUS
 10
-2.040492
 20
2.108016
  0
SEQEND
  8
0
  0
POLYLINE
  8
PLAN_1
 62
     5
  6
CONTINUOUS
 66
     1
 40
0.003000
 41
0.003000
  0
VERTEX
  8
PLAN_1
 62
     5
  6
CONTINUOUS
 10
-2.035075
 20
2.114272
  0
VERTEX
  8
PLAN_1
 62
     5
  6
CONTINUOUS
 10
-2.033823
 20
2.115524
  0
VERTEX
  8
PLAN_1
 62
     5
  6
CONTINUOUS
 10
-2.030902
 20
2.117606
  0
VERTEX
  8
PLAN_1
 62
     5
  6
CONTINUOUS
 10
-2.028402
 20
2.119276
  0
SEQEND
  8
0
  0
POLYLINE
  8
PLAN_1
 62
     5
  6
CONTINUOUS
 66
     1
 40
0.003000
 41
0.003000
  0
VERTEX
  8
PLAN_1
 62
     5
  6
CONTINUOUS
 10
-2.020476
 20
2.122610
  0
VERTEX
  8
PLAN_1
 62
     5
  6
CONTINUOUS
 10
-2.016724
 20
2.123445
  0
VERTEX
  8
PLAN_1
 62
     5
  6
CONTINUOUS
 10
-2.012555
 20
2.124280
  0
SEQEND
  8
0
  0
POLYLINE
  8
PLAN_1
 62
     5
  6
CONTINUOUS
 66
     1
 40
0.003000
 41
0.003000
  0
VERTEX
  8
PLAN_1
 62
     5
  6
CONTINUOUS
 10
-2.008803
 20
2.124280
  0
VERTEX
  8
PLAN_1
 62
     5
  6
CONTINUOUS
 10
-2.000461
 20
2.124280
  0
SEQEND
  8
0
  0
POLYLINE
  8
PLAN_1
 62
     5
  6
CONTINUOUS
 66
     1
 40
0.003000
 41
0.003000
  0
VERTEX
  8
PLAN_1
 62
     5
  6
CONTINUOUS
 10
-1.992122
 20
2.124280
  0
VERTEX
  8
PLAN_1
 62
     5
  6
CONTINUOUS
 10
-1.983783
 20
2.124280
  0
SEQEND
  8
0
  0
POLYLINE
  8
PLAN_1
 62
     5
  6
CONTINUOUS
 66
     1
 40
0.003000
 41
0.003000
  0
VERTEX
  8
PLAN_1
 62
     5
  6
CONTINUOUS
 10
-1.975441
 20
2.124280
  0
VERTEX
  8
PLAN_1
 62
     5
  6
CONTINUOUS
 10
-1.967102
 20
2.124280
  0
SEQEND
  8
0
  0
POLYLINE
  8
PLAN_1
 62
     5
  6
CONTINUOUS
 66
     1
 40
0.003000
 41
0.003000
  0
VERTEX
  8
PLAN_1
 62
     5
  6
CONTINUOUS
 10
-1.958764
 20
2.124280
  0
VERTEX
  8
PLAN_1
 62
     5
  6
CONTINUOUS
 10
-1.950421
 20
2.124280
  0
SEQEND
  8
0
  0
POLYLINE
  8
PLAN_1
 62
     5
  6
CONTINUOUS
 66
     1
 40
0.003000
 41
0.003000
  0
VERTEX
  8
PLAN_1
 62
     5
  6
CONTINUOUS
 10
-1.942083
 20
2.124280
  0
VERTEX
  8
PLAN_1
 62
     5
  6
CONTINUOUS
 10
-1.933740
 20
2.124280
  0
SEQEND
  8
0
  0
POLYLINE
  8
PLAN_1
 62
     5
  6
CONTINUOUS
 66
     1
 40
0.003000
 41
0.003000
  0
VERTEX
  8
PLAN_1
 62
     5
  6
CONTINUOUS
 10
-1.925402
 20
2.124280
  0
VERTEX
  8
PLAN_1
 62
     5
  6
CONTINUOUS
 10
-1.917063
 20
2.124280
  0
SEQEND
  8
0
  0
POLYLINE
  8
PLAN_1
 62
     5
  6
CONTINUOUS
 66
     1
 40
0.003000
 41
0.003000
  0
VERTEX
  8
PLAN_1
 62
     5
  6
CONTINUOUS
 10
-1.908720
 20
2.124280
  0
VERTEX
  8
PLAN_1
 62
     5
  6
CONTINUOUS
 10
-1.900382
 20
2.124280
  0
SEQEND
  8
0
  0
POLYLINE
  8
PLAN_1
 62
     5
  6
CONTINUOUS
 66
     1
 40
0.003000
 41
0.003000
  0
VERTEX
  8
PLAN_1
 62
     5
  6
CONTINUOUS
 10
-1.892043
 20
2.124280
  0
VERTEX
  8
PLAN_1
 62
     5
  6
CONTINUOUS
 10
-1.883701
 20
2.124280
  0
SEQEND
  8
0
  0
POLYLINE
  8
PLAN_1
 62
     5
  6
CONTINUOUS
 66
     1
 40
0.003000
 41
0.003000
  0
VERTEX
  8
PLAN_1
 62
     5
  6
CONTINUOUS
 10
-1.875362
 20
2.124280
  0
VERTEX
  8
PLAN_1
 62
     5
  6
CONTINUOUS
 10
-1.867024
 20
2.124280
  0
SEQEND
  8
0
  0
POLYLINE
  8
PLAN_1
 62
     5
  6
CONTINUOUS
 66
     1
 40
0.003000
 41
0.003000
  0
VERTEX
  8
PLAN_1
 62
     5
  6
CONTINUOUS
 10
-1.858681
 20
2.124280
  0
VERTEX
  8
PLAN_1
 62
     5
  6
CONTINUOUS
 10
-1.850343
 20
2.124280
  0
SEQEND
  8
0
  0
POLYLINE
  8
PLAN_1
 62
     5
  6
CONTINUOUS
 66
     1
 40
0.003000
 41
0.003000
  0
VERTEX
  8
PLAN_1
 62
     5
  6
CONTINUOUS
 10
-1.842004
 20
2.124280
  0
VERTEX
  8
PLAN_1
 62
     5
  6
CONTINUOUS
 10
-1.833661
 20
2.124280
  0
SEQEND
  8
0
  0
POLYLINE
  8
PLAN_1
 62
     5
  6
CONTINUOUS
 66
     1
 40
0.003000
 41
0.003000
  0
VERTEX
  8
PLAN_1
 62
     5
  6
CONTINUOUS
 10
-1.825323
 20
2.124280
  0
VERTEX
  8
PLAN_1
 62
     5
  6
CONTINUOUS
 10
-1.816980
 20
2.124280
  0
SEQEND
  8
0
  0
POLYLINE
  8
PLAN_1
 62
     5
  6
CONTINUOUS
 66
     1
 40
0.003000
 41
0.003000
  0
VERTEX
  8
PLAN_1
 62
     5
  6
CONTINUOUS
 10
-1.808642
 20
2.124280
  0
VERTEX
  8
PLAN_1
 62
     5
  6
CONTINUOUS
 10
-1.800303
 20
2.124280
  0
SEQEND
  8
0
  0
POLYLINE
  8
PLAN_1
 62
     5
  6
CONTINUOUS
 66
     1
 40
0.003000
 41
0.003000
  0
VERTEX
  8
PLAN_1
 62
     5
  6
CONTINUOUS
 10
-1.791961
 20
2.124280
  0
VERTEX
  8
PLAN_1
 62
     5
  6
CONTINUOUS
 10
-1.783622
 20
2.124280
  0
SEQEND
  8
0
  0
POLYLINE
  8
PLAN_1
 62
     5
  6
CONTINUOUS
 66
     1
 40
0.003000
 41
0.003000
  0
VERTEX
  8
PLAN_1
 62
     5
  6
CONTINUOUS
 10
-1.775283
 20
2.124280
  0
VERTEX
  8
PLAN_1
 62
     5
  6
CONTINUOUS
 10
-1.766941
 20
2.124280
  0
SEQEND
  8
0
  0
POLYLINE
  8
PLAN_1
 62
     5
  6
CONTINUOUS
 66
     1
 40
0.003000
 41
0.003000
  0
VERTEX
  8
PLAN_1
 62
     5
  6
CONTINUOUS
 10
-1.758602
 20
2.124280
  0
VERTEX
  8
PLAN_1
 62
     5
  6
CONTINUOUS
 10
-1.750264
 20
2.124280
  0
SEQEND
  8
0
  0
POLYLINE
  8
PLAN_1
 62
     5
  6
CONTINUOUS
 66
     1
 40
0.003000
 41
0.003000
  0
VERTEX
  8
PLAN_1
 62
     5
  6
CONTINUOUS
 10
-1.741921
 20
2.124280
  0
VERTEX
  8
PLAN_1
 62
     5
  6
CONTINUOUS
 10
-1.733583
 20
2.124280
  0
SEQEND
  8
0
  0
POLYLINE
  8
PLAN_1
 62
     5
  6
CONTINUOUS
 66
     1
 40
0.003000
 41
0.003000
  0
VERTEX
  8
PLAN_1
 62
     5
  6
CONTINUOUS
 10
-1.725240
 20
2.124280
  0
VERTEX
  8
PLAN_1
 62
     5
  6
CONTINUOUS
 10
-1.716902
 20
2.124280
  0
SEQEND
  8
0
  0
POLYLINE
  8
PLAN_1
 62
     5
  6
CONTINUOUS
 66
     1
 40
0.003000
 41
0.003000
  0
VERTEX
  8
PLAN_1
 62
     5
  6
CONTINUOUS
 10
-1.708563
 20
2.124280
  0
VERTEX
  8
PLAN_1
 62
     5
  6
CONTINUOUS
 10
-1.700220
 20
2.124280
  0
SEQEND
  8
0
  0
POLYLINE
  8
PLAN_1
 62
     5
  6
CONTINUOUS
 66
     1
 40
0.003000
 41
0.003000
  0
VERTEX
  8
PLAN_1
 62
     5
  6
CONTINUOUS
 10
-1.691882
 20
2.124280
  0
VERTEX
  8
PLAN_1
 62
     5
  6
CONTINUOUS
 10
-1.683961
 20
2.124280
  0
SEQEND
  8
0
  0
POLYLINE
  8
PLAN_1
 62
     5
  6
CONTINUOUS
 66
     1
 40
0.003000
 41
0.003000
  0
VERTEX
  8
PLAN_1
 62
     5
  6
CONTINUOUS
 10
-1.675618
 20
2.124280
  0
VERTEX
  8
PLAN_1
 62
     5
  6
CONTINUOUS
 10
-1.667280
 20
2.124280
  0
SEQEND
  8
0
  0
POLYLINE
  8
PLAN_1
 62
     5
  6
CONTINUOUS
 66
     1
 40
0.003000
 41
0.003000
  0
VERTEX
  8
PLAN_1
 62
     5
  6
CONTINUOUS
 10
-1.658941
 20
2.124280
  0
VERTEX
  8
PLAN_1
 62
     5
  6
CONTINUOUS
 10
-1.650598
 20
2.124280
  0
SEQEND
  8
0
  0
POLYLINE
  8
PLAN_1
 62
     5
  6
CONTINUOUS
 66
     1
 40
0.003000
 41
0.003000
  0
VERTEX
  8
PLAN_1
 62
     5
  6
CONTINUOUS
 10
-1.642260
 20
2.124280
  0
VERTEX
  8
PLAN_1
 62
     5
  6
CONTINUOUS
 10
-1.633917
 20
2.124280
  0
SEQEND
  8
0
  0
POLYLINE
  8
PLAN_1
 62
     5
  6
CONTINUOUS
 66
     1
 40
0.003000
 41
0.003000
  0
VERTEX
  8
PLAN_1
 62
     5
  6
CONTINUOUS
 10
-1.625579
 20
2.124280
  0
VERTEX
  8
PLAN_1
 62
     5
  6
CONTINUOUS
 10
-1.617240
 20
2.124280
  0
SEQEND
  8
0
  0
POLYLINE
  8
PLAN_1
 62
     5
  6
CONTINUOUS
 66
     1
 40
0.003000
 41
0.003000
  0
VERTEX
  8
PLAN_1
 62
     5
  6
CONTINUOUS
 10
-1.608898
 20
2.124280
  0
VERTEX
  8
PLAN_1
 62
     5
  6
CONTINUOUS
 10
-1.600559
 20
2.124280
  0
SEQEND
  8
0
  0
POLYLINE
  8
PLAN_1
 62
     5
  6
CONTINUOUS
 66
     1
 40
0.003000
 41
0.003000
  0
VERTEX
  8
PLAN_1
 62
     5
  6
CONTINUOUS
 10
-1.592220
 20
2.124280
  0
VERTEX
  8
PLAN_1
 62
     5
  6
CONTINUOUS
 10
-1.583878
 20
2.124280
  0
SEQEND
  8
0
  0
POLYLINE
  8
PLAN_1
 62
     5
  6
CONTINUOUS
 66
     1
 40
0.003000
 41
0.003000
  0
VERTEX
  8
PLAN_1
 62
     5
  6
CONTINUOUS
 10
-1.575539
 20
2.124280
  0
VERTEX
  8
PLAN_1
 62
     5
  6
CONTINUOUS
 10
-1.567201
 20
2.124280
  0
SEQEND
  8
0
  0
POLYLINE
  8
PLAN_1
 62
     5
  6
CONTINUOUS
 66
     1
 40
0.003000
 41
0.003000
  0
VERTEX
  8
PLAN_1
 62
     5
  6
CONTINUOUS
 10
-1.558858
 20
2.124280
  0
VERTEX
  8
PLAN_1
 62
     5
  6
CONTINUOUS
 10
-1.550520
 20
2.124280
  0
SEQEND
  8
0
  0
POLYLINE
  8
PLAN_1
 62
     5
  6
CONTINUOUS
 66
     1
 40
0.003000
 41
0.003000
  0
VERTEX
  8
PLAN_1
 62
     5
  6
CONTINUOUS
 10
-1.542177
 20
2.124280
  0
VERTEX
  8
PLAN_1
 62
     5
  6
CONTINUOUS
 10
-1.533839
 20
2.124280
  0
SEQEND
  8
0
  0
POLYLINE
  8
PLAN_1
 62
     5
  6
CONTINUOUS
 66
     1
 40
0.003000
 41
0.003000
  0
VERTEX
  8
PLAN_1
 62
     5
  6
CONTINUOUS
 10
-1.525500
 20
2.124280
  0
VERTEX
  8
PLAN_1
 62
     5
  6
CONTINUOUS
 10
-1.517157
 20
2.124280
  0
SEQEND
  8
0
  0
POLYLINE
  8
PLAN_1
 62
     5
  6
CONTINUOUS
 66
     1
 40
0.003000
 41
0.003000
  0
VERTEX
  8
PLAN_1
 62
     5
  6
CONTINUOUS
 10
-1.508819
 20
2.124280
  0
VERTEX
  8
PLAN_1
 62
     5
  6
CONTINUOUS
 10
-1.500480
 20
2.124280
  0
SEQEND
  8
0
  0
POLYLINE
  8
PLAN_1
 62
     5
  6
CONTINUOUS
 66
     1
 40
0.003000
 41
0.003000
  0
VERTEX
  8
PLAN_1
 62
     5
  6
CONTINUOUS
 10
-1.492138
 20
2.124280
  0
VERTEX
  8
PLAN_1
 62
     5
  6
CONTINUOUS
 10
-1.483799
 20
2.124280
  0
SEQEND
  8
0
  0
POLYLINE
  8
PLAN_1
 62
     5
  6
CONTINUOUS
 66
     1
 40
0.003000
 41
0.003000
  0
VERTEX
  8
PLAN_1
 62
     5
  6
CONTINUOUS
 10
-1.475461
 20
2.124280
  0
VERTEX
  8
PLAN_1
 62
     5
  6
CONTINUOUS
 10
-1.467118
 20
2.124280
  0
SEQEND
  8
0
  0
POLYLINE
  8
PLAN_1
 62
     5
  6
CONTINUOUS
 66
     1
 40
0.003000
 41
0.003000
  0
VERTEX
  8
PLAN_1
 62
     5
  6
CONTINUOUS
 10
-1.458780
 20
2.124280
  0
VERTEX
  8
PLAN_1
 62
     5
  6
CONTINUOUS
 10
-1.450441
 20
2.124280
  0
SEQEND
  8
0
  0
POLYLINE
  8
PLAN_1
 62
     5
  6
CONTINUOUS
 66
     1
 40
0.003000
 41
0.003000
  0
VERTEX
  8
PLAN_1
 62
     5
  6
CONTINUOUS
 10
-1.442098
 20
2.124280
  0
VERTEX
  8
PLAN_1
 62
     5
  6
CONTINUOUS
 10
-1.433760
 20
2.124280
  0
SEQEND
  8
0
  0
POLYLINE
  8
PLAN_1
 62
     5
  6
CONTINUOUS
 66
     1
 40
0.003000
 41
0.003000
  0
VERTEX
  8
PLAN_1
 62
     5
  6
CONTINUOUS
 10
-1.425417
 20
2.124280
  0
VERTEX
  8
PLAN_1
 62
     5
  6
CONTINUOUS
 10
-1.417079
 20
2.124280
  0
SEQEND
  8
0
  0
POLYLINE
  8
PLAN_1
 62
     5
  6
CONTINUOUS
 66
     1
 40
0.003000
 41
0.003000
  0
VERTEX
  8
PLAN_1
 62
     5
  6
CONTINUOUS
 10
-1.408740
 20
2.124280
  0
VERTEX
  8
PLAN_1
 62
     5
  6
CONTINUOUS
 10
-1.400398
 20
2.124280
  0
SEQEND
  8
0
  0
POLYLINE
  8
PLAN_1
 62
     5
  6
CONTINUOUS
 66
     1
 40
0.003000
 41
0.003000
  0
VERTEX
  8
PLAN_1
 62
     5
  6
CONTINUOUS
 10
-1.392059
 20
2.124280
  0
VERTEX
  8
PLAN_1
 62
     5
  6
CONTINUOUS
 10
-1.383720
 20
2.124280
  0
SEQEND
  8
0
  0
POLYLINE
  8
PLAN_1
 62
     5
  6
CONTINUOUS
 66
     1
 40
0.003000
 41
0.003000
  0
VERTEX
  8
PLAN_1
 62
     5
  6
CONTINUOUS
 10
-1.375378
 20
2.124280
  0
VERTEX
  8
PLAN_1
 62
     5
  6
CONTINUOUS
 10
-1.367039
 20
2.124280
  0
SEQEND
  8
0
  0
POLYLINE
  8
PLAN_1
 62
     5
  6
CONTINUOUS
 66
     1
 40
0.003000
 41
0.003000
  0
VERTEX
  8
PLAN_1
 62
     5
  6
CONTINUOUS
 10
-1.358701
 20
2.124280
  0
VERTEX
  8
PLAN_1
 62
     5
  6
CONTINUOUS
 10
-1.350358
 20
2.124280
  0
SEQEND
  8
0
  0
POLYLINE
  8
PLAN_1
 62
     5
  6
CONTINUOUS
 66
     1
 40
0.003000
 41
0.003000
  0
VERTEX
  8
PLAN_1
 62
     5
  6
CONTINUOUS
 10
-1.342020
 20
2.124280
  0
VERTEX
  8
PLAN_1
 62
     5
  6
CONTINUOUS
 10
-1.334094
 20
2.124280
  0
SEQEND
  8
0
  0
POLYLINE
  8
PLAN_1
 62
     5
  6
CONTINUOUS
 66
     1
 40
0.003000
 41
0.003000
  0
VERTEX
  8
PLAN_1
 62
     5
  6
CONTINUOUS
 10
-1.325756
 20
2.124280
  0
VERTEX
  8
PLAN_1
 62
     5
  6
CONTINUOUS
 10
-1.317417
 20
2.124280
  0
SEQEND
  8
0
  0
POLYLINE
  8
PLAN_1
 62
     5
  6
CONTINUOUS
 66
     1
 40
0.003000
 41
0.003000
  0
VERTEX
  8
PLAN_1
 62
     5
  6
CONTINUOUS
 10
-1.309075
 20
2.124280
  0
VERTEX
  8
PLAN_1
 62
     5
  6
CONTINUOUS
 10
-1.300736
 20
2.124280
  0
SEQEND
  8
0
  0
POLYLINE
  8
PLAN_1
 62
     5
  6
CONTINUOUS
 66
     1
 40
0.003000
 41
0.003000
  0
VERTEX
  8
PLAN_1
 62
     5
  6
CONTINUOUS
 10
-1.292398
 20
2.124280
  0
VERTEX
  8
PLAN_1
 62
     5
  6
CONTINUOUS
 10
-1.284055
 20
2.124280
  0
SEQEND
  8
0
  0
POLYLINE
  8
PLAN_1
 62
     5
  6
CONTINUOUS
 66
     1
 40
0.003000
 41
0.003000
  0
VERTEX
  8
PLAN_1
 62
     5
  6
CONTINUOUS
 10
-1.275717
 20
2.124280
  0
VERTEX
  8
PLAN_1
 62
     5
  6
CONTINUOUS
 10
-1.267378
 20
2.124280
  0
SEQEND
  8
0
  0
POLYLINE
  8
PLAN_1
 62
     5
  6
CONTINUOUS
 66
     1
 40
0.003000
 41
0.003000
  0
VERTEX
  8
PLAN_1
 62
     5
  6
CONTINUOUS
 10
-1.259035
 20
2.124280
  0
VERTEX
  8
PLAN_1
 62
     5
  6
CONTINUOUS
 10
-1.250697
 20
2.124280
  0
SEQEND
  8
0
  0
POLYLINE
  8
PLAN_1
 62
     5
  6
CONTINUOUS
 66
     1
 40
0.003000
 41
0.003000
  0
VERTEX
  8
PLAN_1
 62
     5
  6
CONTINUOUS
 10
-1.242354
 20
2.124280
  0
VERTEX
  8
PLAN_1
 62
     5
  6
CONTINUOUS
 10
-1.234016
 20
2.124280
  0
SEQEND
  8
0
  0
POLYLINE
  8
PLAN_1
 62
     5
  6
CONTINUOUS
 66
     1
 40
0.003000
 41
0.003000
  0
VERTEX
  8
PLAN_1
 62
     5
  6
CONTINUOUS
 10
-1.225677
 20
2.124280
  0
VERTEX
  8
PLAN_1
 62
     5
  6
CONTINUOUS
 10
-1.217335
 20
2.124280
  0
SEQEND
  8
0
  0
POLYLINE
  8
PLAN_1
 62
     5
  6
CONTINUOUS
 66
     1
 40
0.003000
 41
0.003000
  0
VERTEX
  8
PLAN_1
 62
     5
  6
CONTINUOUS
 10
-1.208996
 20
2.124280
  0
VERTEX
  8
PLAN_1
 62
     5
  6
CONTINUOUS
 10
-1.200657
 20
2.124280
  0
SEQEND
  8
0
  0
POLYLINE
  8
PLAN_1
 62
     5
  6
CONTINUOUS
 66
     1
 40
0.003000
 41
0.003000
  0
VERTEX
  8
PLAN_1
 62
     5
  6
CONTINUOUS
 10
-1.192315
 20
2.124280
  0
VERTEX
  8
PLAN_1
 62
     5
  6
CONTINUOUS
 10
-1.183976
 20
2.124280
  0
SEQEND
  8
0
  0
POLYLINE
  8
PLAN_1
 62
     5
  6
CONTINUOUS
 66
     1
 40
0.003000
 41
0.003000
  0
VERTEX
  8
PLAN_1
 62
     5
  6
CONTINUOUS
 10
-1.175638
 20
2.124280
  0
VERTEX
  8
PLAN_1
 62
     5
  6
CONTINUOUS
 10
-1.167295
 20
2.124280
  0
SEQEND
  8
0
  0
POLYLINE
  8
PLAN_1
 62
     5
  6
CONTINUOUS
 66
     1
 40
0.003000
 41
0.003000
  0
VERTEX
  8
PLAN_1
 62
     5
  6
CONTINUOUS
 10
-1.158957
 20
2.124280
  0
VERTEX
  8
PLAN_1
 62
     5
  6
CONTINUOUS
 10
-1.150614
 20
2.124280
  0
SEQEND
  8
0
  0
POLYLINE
  8
PLAN_1
 62
     5
  6
CONTINUOUS
 66
     1
 40
0.003000
 41
0.003000
  0
VERTEX
  8
PLAN_1
 62
     5
  6
CONTINUOUS
 10
-1.142276
 20
2.124280
  0
VERTEX
  8
PLAN_1
 62
     5
  6
CONTINUOUS
 10
-1.133937
 20
2.124280
  0
SEQEND
  8
0
  0
POLYLINE
  8
PLAN_1
 62
     5
  6
CONTINUOUS
 66
     1
 40
0.003000
 41
0.003000
  0
VERTEX
  8
PLAN_1
 62
     5
  6
CONTINUOUS
 10
-1.125594
 20
2.124280
  0
VERTEX
  8
PLAN_1
 62
     5
  6
CONTINUOUS
 10
-1.117256
 20
2.124280
  0
SEQEND
  8
0
  0
POLYLINE
  8
PLAN_1
 62
     5
  6
CONTINUOUS
 66
     1
 40
0.003000
 41
0.003000
  0
VERTEX
  8
PLAN_1
 62
     5
  6
CONTINUOUS
 10
-1.108917
 20
2.124280
  0
VERTEX
  8
PLAN_1
 62
     5
  6
CONTINUOUS
 10
-1.100575
 20
2.124280
  0
SEQEND
  8
0
  0
POLYLINE
  8
PLAN_1
 62
     5
  6
CONTINUOUS
 66
     1
 40
0.003000
 41
0.003000
  0
VERTEX
  8
PLAN_1
 62
     5
  6
CONTINUOUS
 10
-1.092236
 20
2.124280
  0
VERTEX
  8
PLAN_1
 62
     5
  6
CONTINUOUS
 10
-1.083898
 20
2.124280
  0
SEQEND
  8
0
  0
POLYLINE
  8
PLAN_1
 62
     5
  6
CONTINUOUS
 66
     1
 40
0.003000
 41
0.003000
  0
VERTEX
  8
PLAN_1
 62
     5
  6
CONTINUOUS
 10
-1.075555
 20
2.124280
  0
VERTEX
  8
PLAN_1
 62
     5
  6
CONTINUOUS
 10
-1.067217
 20
2.124280
  0
SEQEND
  8
0
  0
POLYLINE
  8
PLAN_1
 62
     5
  6
CONTINUOUS
 66
     1
 40
0.003000
 41
0.003000
  0
VERTEX
  8
PLAN_1
 62
     5
  6
CONTINUOUS
 10
-1.058878
 20
2.124280
  0
VERTEX
  8
PLAN_1
 62
     5
  6
CONTINUOUS
 10
-1.050535
 20
2.124280
  0
SEQEND
  8
0
  0
POLYLINE
  8
PLAN_1
 62
     5
  6
CONTINUOUS
 66
     1
 40
0.003000
 41
0.003000
  0
VERTEX
  8
PLAN_1
 62
     5
  6
CONTINUOUS
 10
-1.042197
 20
2.124280
  0
VERTEX
  8
PLAN_1
 62
     5
  6
CONTINUOUS
 10
-1.033854
 20
2.124280
  0
SEQEND
  8
0
  0
POLYLINE
  8
PLAN_1
 62
     5
  6
CONTINUOUS
 66
     1
 40
0.003000
 41
0.003000
  0
VERTEX
  8
PLAN_1
 62
     5
  6
CONTINUOUS
 10
-1.025516
 20
2.124280
  0
VERTEX
  8
PLAN_1
 62
     5
  6
CONTINUOUS
 10
-1.017177
 20
2.124280
  0
SEQEND
  8
0
  0
POLYLINE
  8
PLAN_1
 62
     5
  6
CONTINUOUS
 66
     1
 40
0.003000
 41
0.003000
  0
VERTEX
  8
PLAN_1
 62
     5
  6
CONTINUOUS
 10
-1.008835
 20
2.124280
  0
VERTEX
  8
PLAN_1
 62
     5
  6
CONTINUOUS
 10
-1.000496
 20
2.124280
  0
SEQEND
  8
0
  0
POLYLINE
  8
PLAN_1
 62
     5
  6
CONTINUOUS
 66
     1
 40
0.003000
 41
0.003000
  0
VERTEX
  8
PLAN_1
 62
     5
  6
CONTINUOUS
 10
-0.992575
 20
2.124280
  0
VERTEX
  8
PLAN_1
 62
     5
  6
CONTINUOUS
 10
-0.984232
 20
2.124280
  0
SEQEND
  8
0
  0
POLYLINE
  8
PLAN_1
 62
     5
  6
CONTINUOUS
 66
     1
 40
0.003000
 41
0.003000
  0
VERTEX
  8
PLAN_1
 62
     5
  6
CONTINUOUS
 10
-0.975894
 20
2.124280
  0
VERTEX
  8
PLAN_1
 62
     5
  6
CONTINUOUS
 10
-0.967551
 20
2.124280
  0
SEQEND
  8
0
  0
POLYLINE
  8
PLAN_1
 62
     5
  6
CONTINUOUS
 66
     1
 40
0.003000
 41
0.003000
  0
VERTEX
  8
PLAN_1
 62
     5
  6
CONTINUOUS
 10
-0.959213
 20
2.124280
  0
VERTEX
  8
PLAN_1
 62
     5
  6
CONTINUOUS
 10
-0.950874
 20
2.124280
  0
SEQEND
  8
0
  0
POLYLINE
  8
PLAN_1
 62
     5
  6
CONTINUOUS
 66
     1
 40
0.003000
 41
0.003000
  0
VERTEX
  8
PLAN_1
 62
     5
  6
CONTINUOUS
 10
-0.942531
 20
2.124280
  0
VERTEX
  8
PLAN_1
 62
     5
  6
CONTINUOUS
 10
-0.934193
 20
2.124280
  0
SEQEND
  8
0
  0
POLYLINE
  8
PLAN_1
 62
     5
  6
CONTINUOUS
 66
     1
 40
0.003000
 41
0.003000
  0
VERTEX
  8
PLAN_1
 62
     5
  6
CONTINUOUS
 10
-0.925854
 20
2.124280
  0
VERTEX
  8
PLAN_1
 62
     5
  6
CONTINUOUS
 10
-0.917512
 20
2.124280
  0
SEQEND
  8
0
  0
POLYLINE
  8
PLAN_1
 62
     5
  6
CONTINUOUS
 66
     1
 40
0.003000
 41
0.003000
  0
VERTEX
  8
PLAN_1
 62
     5
  6
CONTINUOUS
 10
-0.909173
 20
2.124280
  0
VERTEX
  8
PLAN_1
 62
     5
  6
CONTINUOUS
 10
-0.900835
 20
2.124280
  0
SEQEND
  8
0
  0
POLYLINE
  8
PLAN_1
 62
     5
  6
CONTINUOUS
 66
     1
 40
0.003000
 41
0.003000
  0
VERTEX
  8
PLAN_1
 62
     5
  6
CONTINUOUS
 10
-0.892492
 20
2.124280
  0
VERTEX
  8
PLAN_1
 62
     5
  6
CONTINUOUS
 10
-0.884154
 20
2.124280
  0
SEQEND
  8
0
  0
POLYLINE
  8
PLAN_1
 62
     5
  6
CONTINUOUS
 66
     1
 40
0.003000
 41
0.003000
  0
VERTEX
  8
PLAN_1
 62
     5
  6
CONTINUOUS
 10
-0.875815
 20
2.124280
  0
VERTEX
  8
PLAN_1
 62
     5
  6
CONTINUOUS
 10
-0.867472
 20
2.124280
  0
SEQEND
  8
0
  0
POLYLINE
  8
PLAN_1
 62
     5
  6
CONTINUOUS
 66
     1
 40
0.003000
 41
0.003000
  0
VERTEX
  8
PLAN_1
 62
     5
  6
CONTINUOUS
 10
-0.859134
 20
2.124280
  0
VERTEX
  8
PLAN_1
 62
     5
  6
CONTINUOUS
 10
-0.850791
 20
2.124280
  0
SEQEND
  8
0
  0
POLYLINE
  8
PLAN_1
 62
     5
  6
CONTINUOUS
 66
     1
 40
0.003000
 41
0.003000
  0
VERTEX
  8
PLAN_1
 62
     5
  6
CONTINUOUS
 10
-0.842453
 20
2.124280
  0
VERTEX
  8
PLAN_1
 62
     5
  6
CONTINUOUS
 10
-0.834114
 20
2.124280
  0
SEQEND
  8
0
  0
POLYLINE
  8
PLAN_1
 62
     5
  6
CONTINUOUS
 66
     1
 40
0.003000
 41
0.003000
  0
VERTEX
  8
PLAN_1
 62
     5
  6
CONTINUOUS
 10
-0.825772
 20
2.124280
  0
VERTEX
  8
PLAN_1
 62
     5
  6
CONTINUOUS
 10
-0.817433
 20
2.124280
  0
SEQEND
  8
0
  0
POLYLINE
  8
PLAN_1
 62
     5
  6
CONTINUOUS
 66
     1
 40
0.003000
 41
0.003000
  0
VERTEX
  8
PLAN_1
 62
     5
  6
CONTINUOUS
 10
-0.809094
 20
2.124280
  0
VERTEX
  8
PLAN_1
 62
     5
  6
CONTINUOUS
 10
-0.800752
 20
2.124280
  0
SEQEND
  8
0
  0
POLYLINE
  8
PLAN_1
 62
     5
  6
CONTINUOUS
 66
     1
 40
0.003000
 41
0.003000
  0
VERTEX
  8
PLAN_1
 62
     5
  6
CONTINUOUS
 10
-0.792413
 20
2.124280
  0
VERTEX
  8
PLAN_1
 62
     5
  6
CONTINUOUS
 10
-0.784075
 20
2.124280
  0
SEQEND
  8
0
  0
POLYLINE
  8
PLAN_1
 62
     5
  6
CONTINUOUS
 66
     1
 40
0.003000
 41
0.003000
  0
VERTEX
  8
PLAN_1
 62
     5
  6
CONTINUOUS
 10
-0.775732
 20
2.124280
  0
VERTEX
  8
PLAN_1
 62
     5
  6
CONTINUOUS
 10
-0.767394
 20
2.124280
  0
SEQEND
  8
0
  0
POLYLINE
  8
PLAN_1
 62
     5
  6
CONTINUOUS
 66
     1
 40
0.003000
 41
0.003000
  0
VERTEX
  8
PLAN_1
 62
     5
  6
CONTINUOUS
 10
-0.759051
 20
2.124280
  0
VERTEX
  8
PLAN_1
 62
     5
  6
CONTINUOUS
 10
-0.750713
 20
2.124280
  0
SEQEND
  8
0
  0
POLYLINE
  8
PLAN_1
 62
     5
  6
CONTINUOUS
 66
     1
 40
0.003000
 41
0.003000
  0
VERTEX
  8
PLAN_1
 62
     5
  6
CONTINUOUS
 10
-0.742374
 20
2.124280
  0
VERTEX
  8
PLAN_1
 62
     5
  6
CONTINUOUS
 10
-0.734031
 20
2.124280
  0
SEQEND
  8
0
  0
POLYLINE
  8
PLAN_1
 62
     5
  6
CONTINUOUS
 66
     1
 40
0.003000
 41
0.003000
  0
VERTEX
  8
PLAN_1
 62
     5
  6
CONTINUOUS
 10
-0.725693
 20
2.124280
  0
VERTEX
  8
PLAN_1
 62
     5
  6
CONTINUOUS
 10
-0.717354
 20
2.124280
  0
SEQEND
  8
0
  0
POLYLINE
  8
PLAN_1
 62
     5
  6
CONTINUOUS
 66
     1
 40
0.003000
 41
0.003000
  0
VERTEX
  8
PLAN_1
 62
     5
  6
CONTINUOUS
 10
-0.709012
 20
2.124280
  0
VERTEX
  8
PLAN_1
 62
     5
  6
CONTINUOUS
 10
-0.700673
 20
2.124280
  0
SEQEND
  8
0
  0
POLYLINE
  8
PLAN_1
 62
     5
  6
CONTINUOUS
 66
     1
 40
0.003000
 41
0.003000
  0
VERTEX
  8
PLAN_1
 62
     5
  6
CONTINUOUS
 10
-0.692335
 20
2.124280
  0
VERTEX
  8
PLAN_1
 62
     5
  6
CONTINUOUS
 10
-0.683992
 20
2.124280
  0
SEQEND
  8
0
  0
POLYLINE
  8
PLAN_1
 62
     5
  6
CONTINUOUS
 66
     1
 40
0.003000
 41
0.003000
  0
VERTEX
  8
PLAN_1
 62
     5
  6
CONTINUOUS
 10
-0.675654
 20
2.124280
  0
VERTEX
  8
PLAN_1
 62
     5
  6
CONTINUOUS
 10
-0.667315
 20
2.124280
  0
SEQEND
  8
0
  0
POLYLINE
  8
PLAN_1
 62
     5
  6
CONTINUOUS
 66
     1
 40
0.003000
 41
0.003000
  0
VERTEX
  8
PLAN_1
 62
     5
  6
CONTINUOUS
 10
-0.658972
 20
2.124280
  0
VERTEX
  8
PLAN_1
 62
     5
  6
CONTINUOUS
 10
-0.651051
 20
2.124280
  0
SEQEND
  8
0
  0
POLYLINE
  8
PLAN_1
 62
     5
  6
CONTINUOUS
 66
     1
 40
0.003000
 41
0.003000
  0
VERTEX
  8
PLAN_1
 62
     5
  6
CONTINUOUS
 10
-0.642709
 20
2.124280
  0
VERTEX
  8
PLAN_1
 62
     5
  6
CONTINUOUS
 10
-0.634370
 20
2.124280
  0
SEQEND
  8
0
  0
POLYLINE
  8
PLAN_1
 62
     5
  6
CONTINUOUS
 66
     1
 40
0.003000
 41
0.003000
  0
VERTEX
  8
PLAN_1
 62
     5
  6
CONTINUOUS
 10
-0.626031
 20
2.124280
  0
VERTEX
  8
PLAN_1
 62
     5
  6
CONTINUOUS
 10
-0.617689
 20
2.124280
  0
SEQEND
  8
0
  0
POLYLINE
  8
PLAN_1
 62
     5
  6
CONTINUOUS
 66
     1
 40
0.003000
 41
0.003000
  0
VERTEX
  8
PLAN_1
 62
     5
  6
CONTINUOUS
 10
-0.609350
 20
2.124280
  0
VERTEX
  8
PLAN_1
 62
     5
  6
CONTINUOUS
 10
-0.601012
 20
2.124280
  0
SEQEND
  8
0
  0
POLYLINE
  8
PLAN_1
 62
     5
  6
CONTINUOUS
 66
     1
 40
0.003000
 41
0.003000
  0
VERTEX
  8
PLAN_1
 62
     5
  6
CONTINUOUS
 10
-0.592669
 20
2.124280
  0
VERTEX
  8
PLAN_1
 62
     5
  6
CONTINUOUS
 10
-0.584331
 20
2.124280
  0
SEQEND
  8
0
  0
POLYLINE
  8
PLAN_1
 62
     5
  6
CONTINUOUS
 66
     1
 40
0.003000
 41
0.003000
  0
VERTEX
  8
PLAN_1
 62
     5
  6
CONTINUOUS
 10
-0.575988
 20
2.124280
  0
VERTEX
  8
PLAN_1
 62
     5
  6
CONTINUOUS
 10
-0.567650
 20
2.124280
  0
SEQEND
  8
0
  0
POLYLINE
  8
PLAN_1
 62
     5
  6
CONTINUOUS
 66
     1
 40
0.003000
 41
0.003000
  0
VERTEX
  8
PLAN_1
 62
     5
  6
CONTINUOUS
 10
-0.559311
 20
2.124280
  0
VERTEX
  8
PLAN_1
 62
     5
  6
CONTINUOUS
 10
-0.550969
 20
2.124280
  0
SEQEND
  8
0
  0
POLYLINE
  8
PLAN_1
 62
     5
  6
CONTINUOUS
 66
     1
 40
0.003000
 41
0.003000
  0
VERTEX
  8
PLAN_1
 62
     5
  6
CONTINUOUS
 10
-0.542630
 20
2.124280
  0
VERTEX
  8
PLAN_1
 62
     5
  6
CONTINUOUS
 10
-0.534291
 20
2.124280
  0
SEQEND
  8
0
  0
POLYLINE
  8
PLAN_1
 62
     5
  6
CONTINUOUS
 66
     1
 40
0.003000
 41
0.003000
  0
VERTEX
  8
PLAN_1
 62
     5
  6
CONTINUOUS
 10
-0.525949
 20
2.124280
  0
VERTEX
  8
PLAN_1
 62
     5
  6
CONTINUOUS
 10
-0.517610
 20
2.124280
  0
SEQEND
  8
0
  0
POLYLINE
  8
PLAN_1
 62
     5
  6
CONTINUOUS
 66
     1
 40
0.003000
 41
0.003000
  0
VERTEX
  8
PLAN_1
 62
     5
  6
CONTINUOUS
 10
-0.509272
 20
2.124280
  0
VERTEX
  8
PLAN_1
 62
     5
  6
CONTINUOUS
 10
-0.500929
 20
2.124280
  0
SEQEND
  8
0
  0
POLYLINE
  8
PLAN_1
 62
     5
  6
CONTINUOUS
 66
     1
 40
0.003000
 41
0.003000
  0
VERTEX
  8
PLAN_1
 62
     5
  6
CONTINUOUS
 10
-0.492591
 20
2.124280
  0
VERTEX
  8
PLAN_1
 62
     5
  6
CONTINUOUS
 10
-0.484252
 20
2.124280
  0
SEQEND
  8
0
  0
POLYLINE
  8
PLAN_1
 62
     5
  6
CONTINUOUS
 66
     1
 40
0.003000
 41
0.003000
  0
VERTEX
  8
PLAN_1
 62
     5
  6
CONTINUOUS
 10
-0.475909
 20
2.124280
  0
VERTEX
  8
PLAN_1
 62
     5
  6
CONTINUOUS
 10
-0.467571
 20
2.124280
  0
SEQEND
  8
0
  0
POLYLINE
  8
PLAN_1
 62
     5
  6
CONTINUOUS
 66
     1
 40
0.003000
 41
0.003000
  0
VERTEX
  8
PLAN_1
 62
     5
  6
CONTINUOUS
 10
-0.459228
 20
2.124280
  0
VERTEX
  8
PLAN_1
 62
     5
  6
CONTINUOUS
 10
-0.450890
 20
2.124280
  0
SEQEND
  8
0
  0
POLYLINE
  8
PLAN_1
 62
     5
  6
CONTINUOUS
 66
     1
 40
0.003000
 41
0.003000
  0
VERTEX
  8
PLAN_1
 62
     5
  6
CONTINUOUS
 10
-0.442551
 20
2.124280
  0
VERTEX
  8
PLAN_1
 62
     5
  6
CONTINUOUS
 10
-0.434209
 20
2.124280
  0
SEQEND
  8
0
  0
POLYLINE
  8
PLAN_1
 62
     5
  6
CONTINUOUS
 66
     1
 40
0.003000
 41
0.003000
  0
VERTEX
  8
PLAN_1
 62
     5
  6
CONTINUOUS
 10
-0.434209
 20
2.124280
  0
VERTEX
  8
PLAN_1
 62
     5
  6
CONTINUOUS
 10
-0.430039
 20
2.124280
  0
VERTEX
  8
PLAN_1
 62
     5
  6
CONTINUOUS
 10
-0.425870
 20
2.123445
  0
SEQEND
  8
0
  0
POLYLINE
  8
PLAN_1
 62
     5
  6
CONTINUOUS
 66
     1
 40
0.003000
 41
0.003000
  0
VERTEX
  8
PLAN_1
 62
     5
  6
CONTINUOUS
 10
-0.417949
 20
2.120945
  0
VERTEX
  8
PLAN_1
 62
     5
  6
CONTINUOUS
 10
-0.415028
 20
2.119693
  0
VERTEX
  8
PLAN_1
 62
     5
  6
CONTINUOUS
 10
-0.411693
 20
2.117606
  0
VERTEX
  8
PLAN_1
 62
     5
  6
CONTINUOUS
 10
-0.410858
 20
2.116772
  0
SEQEND
  8
0
  0
POLYLINE
  8
PLAN_1
 62
     5
  6
CONTINUOUS
 66
     1
 40
0.003000
 41
0.003000
  0
VERTEX
  8
PLAN_1
 62
     5
  6
CONTINUOUS
 10
-0.404602
 20
2.111350
  0
VERTEX
  8
PLAN_1
 62
     5
  6
CONTINUOUS
 10
-0.402933
 20
2.109685
  0
VERTEX
  8
PLAN_1
 62
     5
  6
CONTINUOUS
 10
-0.400433
 20
2.106764
  0
VERTEX
  8
PLAN_1
 62
     5
  6
CONTINUOUS
 10
-0.399181
 20
2.104681
  0
SEQEND
  8
0
  0
POLYLINE
  8
PLAN_1
 62
     5
  6
CONTINUOUS
 66
     1
 40
0.003000
 41
0.003000
  0
VERTEX
  8
PLAN_1
 62
     5
  6
CONTINUOUS
 10
-0.395429
 20
2.097173
  0
VERTEX
  8
PLAN_1
 62
     5
  6
CONTINUOUS
 10
-0.395012
 20
2.096339
  0
VERTEX
  8
PLAN_1
 62
     5
  6
CONTINUOUS
 10
-0.393760
 20
2.092587
  0
VERTEX
  8
PLAN_1
 62
     5
  6
CONTINUOUS
 10
-0.393343
 20
2.089252
  0
SEQEND
  8
0
  0
POLYLINE
  8
PLAN_1
 62
     5
  6
CONTINUOUS
 66
     1
 40
0.003000
 41
0.003000
  0
VERTEX
  8
PLAN_1
 62
     5
  6
CONTINUOUS
 10
-0.392512
 20
2.084248
  0
VERTEX
  8
PLAN_1
 62
     5
  6
CONTINUOUS
 10
-0.392512
 20
2.076323
  0
SEQEND
  8
0
  0
POLYLINE
  8
PLAN_1
 62
     5
  6
CONTINUOUS
 66
     1
 40
0.003000
 41
0.003000
  0
VERTEX
  8
PLAN_1
 62
     5
  6
CONTINUOUS
 10
-0.392512
 20
2.067984
  0
VERTEX
  8
PLAN_1
 62
     5
  6
CONTINUOUS
 10
-0.392512
 20
2.059646
  0
SEQEND
  8
0
  0
POLYLINE
  8
PLAN_1
 62
     5
  6
CONTINUOUS
 66
     1
 40
0.003000
 41
0.003000
  0
VERTEX
  8
PLAN_1
 62
     5
  6
CONTINUOUS
 10
-0.392512
 20
2.051303
  0
VERTEX
  8
PLAN_1
 62
     5
  6
CONTINUOUS
 10
-0.392512
 20
2.042965
  0
SEQEND
  8
0
  0
POLYLINE
  8
PLAN_1
 62
     5
  6
CONTINUOUS
 66
     1
 40
0.003000
 41
0.003000
  0
VERTEX
  8
PLAN_1
 62
     5
  6
CONTINUOUS
 10
-0.392512
 20
2.034622
  0
VERTEX
  8
PLAN_1
 62
     5
  6
CONTINUOUS
 10
-0.392512
 20
2.026283
  0
SEQEND
  8
0
  0
POLYLINE
  8
PLAN_1
 62
     5
  6
CONTINUOUS
 66
     1
 40
0.003000
 41
0.003000
  0
VERTEX
  8
PLAN_1
 62
     5
  6
CONTINUOUS
 10
-0.392512
 20
2.017945
  0
VERTEX
  8
PLAN_1
 62
     5
  6
CONTINUOUS
 10
-0.392512
 20
2.009602
  0
SEQEND
  8
0
  0
POLYLINE
  8
PLAN_1
 62
     5
  6
CONTINUOUS
 66
     1
 40
0.003000
 41
0.003000
  0
VERTEX
  8
PLAN_1
 62
     5
  6
CONTINUOUS
 10
-0.392512
 20
2.001264
  0
VERTEX
  8
PLAN_1
 62
     5
  6
CONTINUOUS
 10
-0.392512
 20
1.992925
  0
SEQEND
  8
0
  0
POLYLINE
  8
PLAN_1
 62
     5
  6
CONTINUOUS
 66
     1
 40
0.003000
 41
0.003000
  0
VERTEX
  8
PLAN_1
 62
     5
  6
CONTINUOUS
 10
-0.392512
 20
1.984583
  0
VERTEX
  8
PLAN_1
 62
     5
  6
CONTINUOUS
 10
-0.392512
 20
1.976244
  0
SEQEND
  8
0
  0
POLYLINE
  8
PLAN_1
 62
     5
  6
CONTINUOUS
 66
     1
 40
0.003000
 41
0.003000
  0
VERTEX
  8
PLAN_1
 62
     5
  6
CONTINUOUS
 10
-0.392512
 20
1.967906
  0
VERTEX
  8
PLAN_1
 62
     5
  6
CONTINUOUS
 10
-0.392512
 20
1.959563
  0
SEQEND
  8
0
  0
POLYLINE
  8
PLAN_1
 62
     5
  6
CONTINUOUS
 66
     1
 40
0.003000
 41
0.003000
  0
VERTEX
  8
PLAN_1
 62
     5
  6
CONTINUOUS
 10
-0.392512
 20
1.951224
  0
VERTEX
  8
PLAN_1
 62
     5
  6
CONTINUOUS
 10
-0.392512
 20
1.942886
  0
SEQEND
  8
0
  0
POLYLINE
  8
PLAN_1
 62
     5
  6
CONTINUOUS
 66
     1
 40
0.003000
 41
0.003000
  0
VERTEX
  8
PLAN_1
 62
     5
  6
CONTINUOUS
 10
-0.392512
 20
1.934543
  0
VERTEX
  8
PLAN_1
 62
     5
  6
CONTINUOUS
 10
-0.392512
 20
1.926205
  0
SEQEND
  8
0
  0
POLYLINE
  8
PLAN_1
 62
     5
  6
CONTINUOUS
 66
     1
 40
0.003000
 41
0.003000
  0
VERTEX
  8
PLAN_1
 62
     5
  6
CONTINUOUS
 10
-0.392512
 20
1.917862
  0
VERTEX
  8
PLAN_1
 62
     5
  6
CONTINUOUS
 10
-0.392512
 20
1.909524
  0
SEQEND
  8
0
  0
POLYLINE
  8
PLAN_1
 62
     5
  6
CONTINUOUS
 66
     1
 40
0.003000
 41
0.003000
  0
VERTEX
  8
PLAN_1
 62
     5
  6
CONTINUOUS
 10
-0.392512
 20
1.901185
  0
VERTEX
  8
PLAN_1
 62
     5
  6
CONTINUOUS
 10
-0.392512
 20
1.892843
  0
SEQEND
  8
0
  0
POLYLINE
  8
PLAN_1
 62
     5
  6
CONTINUOUS
 66
     1
 40
0.003000
 41
0.003000
  0
VERTEX
  8
PLAN_1
 62
     5
  6
CONTINUOUS
 10
-0.392512
 20
1.884504
  0
VERTEX
  8
PLAN_1
 62
     5
  6
CONTINUOUS
 10
-0.392512
 20
1.876165
  0
SEQEND
  8
0
  0
POLYLINE
  8
PLAN_1
 62
     5
  6
CONTINUOUS
 66
     1
 40
0.003000
 41
0.003000
  0
VERTEX
  8
PLAN_1
 62
     5
  6
CONTINUOUS
 10
-0.392512
 20
1.867823
  0
VERTEX
  8
PLAN_1
 62
     5
  6
CONTINUOUS
 10
-0.392512
 20
1.859484
  0
SEQEND
  8
0
  0
POLYLINE
  8
PLAN_1
 62
     5
  6
CONTINUOUS
 66
     1
 40
0.003000
 41
0.003000
  0
VERTEX
  8
PLAN_1
 62
     5
  6
CONTINUOUS
 10
-0.392512
 20
1.851146
  0
VERTEX
  8
PLAN_1
 62
     5
  6
CONTINUOUS
 10
-0.392512
 20
1.842803
  0
SEQEND
  8
0
  0
POLYLINE
  8
PLAN_1
 62
     5
  6
CONTINUOUS
 66
     1
 40
0.003000
 41
0.003000
  0
VERTEX
  8
PLAN_1
 62
     5
  6
CONTINUOUS
 10
-0.392512
 20
1.834465
  0
VERTEX
  8
PLAN_1
 62
     5
  6
CONTINUOUS
 10
-0.392512
 20
1.826122
  0
SEQEND
  8
0
  0
POLYLINE
  8
PLAN_1
 62
     5
  6
CONTINUOUS
 66
     1
 40
0.003000
 41
0.003000
  0
VERTEX
  8
PLAN_1
 62
     5
  6
CONTINUOUS
 10
-0.392512
 20
1.817783
  0
VERTEX
  8
PLAN_1
 62
     5
  6
CONTINUOUS
 10
-0.392512
 20
1.809445
  0
SEQEND
  8
0
  0
POLYLINE
  8
PLAN_1
 62
     5
  6
CONTINUOUS
 66
     1
 40
0.003000
 41
0.003000
  0
VERTEX
  8
PLAN_1
 62
     5
  6
CONTINUOUS
 10
-0.392512
 20
1.801102
  0
VERTEX
  8
PLAN_1
 62
     5
  6
CONTINUOUS
 10
-0.392512
 20
1.792764
  0
SEQEND
  8
0
  0
POLYLINE
  8
PLAN_1
 62
     5
  6
CONTINUOUS
 66
     1
 40
0.003000
 41
0.003000
  0
VERTEX
  8
PLAN_1
 62
     5
  6
CONTINUOUS
 10
-0.392512
 20
1.784425
  0
VERTEX
  8
PLAN_1
 62
     5
  6
CONTINUOUS
 10
-0.392512
 20
1.776083
  0
SEQEND
  8
0
  0
POLYLINE
  8
PLAN_1
 62
     5
  6
CONTINUOUS
 66
     1
 40
0.003000
 41
0.003000
  0
VERTEX
  8
PLAN_1
 62
     5
  6
CONTINUOUS
 10
-0.392512
 20
1.767744
  0
VERTEX
  8
PLAN_1
 62
     5
  6
CONTINUOUS
 10
-0.392512
 20
1.759406
  0
SEQEND
  8
0
  0
POLYLINE
  8
PLAN_1
 62
     5
  6
CONTINUOUS
 66
     1
 40
0.003000
 41
0.003000
  0
VERTEX
  8
PLAN_1
 62
     5
  6
CONTINUOUS
 10
-0.392512
 20
1.751063
  0
VERTEX
  8
PLAN_1
 62
     5
  6
CONTINUOUS
 10
-0.392512
 20
1.742724
  0
SEQEND
  8
0
  0
POLYLINE
  8
PLAN_1
 62
     5
  6
CONTINUOUS
 66
     1
 40
0.003000
 41
0.003000
  0
VERTEX
  8
PLAN_1
 62
     5
  6
CONTINUOUS
 10
-0.392512
 20
1.734799
  0
VERTEX
  8
PLAN_1
 62
     5
  6
CONTINUOUS
 10
-0.392512
 20
1.726461
  0
SEQEND
  8
0
  0
POLYLINE
  8
PLAN_1
 62
     5
  6
CONTINUOUS
 66
     1
 40
0.003000
 41
0.003000
  0
VERTEX
  8
PLAN_1
 62
     5
  6
CONTINUOUS
 10
-0.392512
 20
1.718122
  0
VERTEX
  8
PLAN_1
 62
     5
  6
CONTINUOUS
 10
-0.392512
 20
1.709780
  0
SEQEND
  8
0
  0
POLYLINE
  8
PLAN_1
 62
     5
  6
CONTINUOUS
 66
     1
 40
0.003000
 41
0.003000
  0
VERTEX
  8
PLAN_1
 62
     5
  6
CONTINUOUS
 10
-0.392512
 20
1.701441
  0
VERTEX
  8
PLAN_1
 62
     5
  6
CONTINUOUS
 10
-0.392512
 20
1.693102
  0
SEQEND
  8
0
  0
POLYLINE
  8
PLAN_1
 62
     5
  6
CONTINUOUS
 66
     1
 40
0.003000
 41
0.003000
  0
VERTEX
  8
PLAN_1
 62
     5
  6
CONTINUOUS
 10
-0.392512
 20
1.684760
  0
VERTEX
  8
PLAN_1
 62
     5
  6
CONTINUOUS
 10
-0.392512
 20
1.676421
  0
SEQEND
  8
0
  0
POLYLINE
  8
PLAN_1
 62
     5
  6
CONTINUOUS
 66
     1
 40
0.003000
 41
0.003000
  0
VERTEX
  8
PLAN_1
 62
     5
  6
CONTINUOUS
 10
-0.392512
 20
1.668083
  0
VERTEX
  8
PLAN_1
 62
     5
  6
CONTINUOUS
 10
-0.392512
 20
1.659740
  0
SEQEND
  8
0
  0
POLYLINE
  8
PLAN_1
 62
     5
  6
CONTINUOUS
 66
     1
 40
0.003000
 41
0.003000
  0
VERTEX
  8
PLAN_1
 62
     5
  6
CONTINUOUS
 10
-0.392512
 20
1.651402
  0
VERTEX
  8
PLAN_1
 62
     5
  6
CONTINUOUS
 10
-0.392512
 20
1.643059
  0
SEQEND
  8
0
  0
POLYLINE
  8
PLAN_1
 62
     5
  6
CONTINUOUS
 66
     1
 40
0.003000
 41
0.003000
  0
VERTEX
  8
PLAN_1
 62
     5
  6
CONTINUOUS
 10
-0.392512
 20
1.634720
  0
VERTEX
  8
PLAN_1
 62
     5
  6
CONTINUOUS
 10
-0.392512
 20
1.626382
  0
SEQEND
  8
0
  0
POLYLINE
  8
PLAN_1
 62
     5
  6
CONTINUOUS
 66
     1
 40
0.003000
 41
0.003000
  0
VERTEX
  8
PLAN_1
 62
     5
  6
CONTINUOUS
 10
-0.392512
 20
1.618039
  0
VERTEX
  8
PLAN_1
 62
     5
  6
CONTINUOUS
 10
-0.392512
 20
1.609701
  0
SEQEND
  8
0
  0
POLYLINE
  8
PLAN_1
 62
     5
  6
CONTINUOUS
 66
     1
 40
0.003000
 41
0.003000
  0
VERTEX
  8
PLAN_1
 62
     5
  6
CONTINUOUS
 10
-0.392512
 20
1.601362
  0
VERTEX
  8
PLAN_1
 62
     5
  6
CONTINUOUS
 10
-0.392512
 20
1.593020
  0
SEQEND
  8
0
  0
POLYLINE
  8
PLAN_1
 62
     5
  6
CONTINUOUS
 66
     1
 40
0.003000
 41
0.003000
  0
VERTEX
  8
PLAN_1
 62
     5
  6
CONTINUOUS
 10
-0.392512
 20
1.584681
  0
VERTEX
  8
PLAN_1
 62
     5
  6
CONTINUOUS
 10
-0.392512
 20
1.576343
  0
SEQEND
  8
0
  0
POLYLINE
  8
PLAN_1
 62
     5
  6
CONTINUOUS
 66
     1
 40
0.003000
 41
0.003000
  0
VERTEX
  8
PLAN_1
 62
     5
  6
CONTINUOUS
 10
-0.392512
 20
1.568000
  0
VERTEX
  8
PLAN_1
 62
     5
  6
CONTINUOUS
 10
-0.392512
 20
1.559661
  0
SEQEND
  8
0
  0
POLYLINE
  8
PLAN_1
 62
     5
  6
CONTINUOUS
 66
     1
 40
0.003000
 41
0.003000
  0
VERTEX
  8
PLAN_1
 62
     5
  6
CONTINUOUS
 10
-0.392512
 20
1.551323
  0
VERTEX
  8
PLAN_1
 62
     5
  6
CONTINUOUS
 10
-0.392512
 20
1.542980
  0
SEQEND
  8
0
  0
POLYLINE
  8
PLAN_1
 62
     5
  6
CONTINUOUS
 66
     1
 40
0.003000
 41
0.003000
  0
VERTEX
  8
PLAN_1
 62
     5
  6
CONTINUOUS
 10
-0.392512
 20
1.534642
  0
VERTEX
  8
PLAN_1
 62
     5
  6
CONTINUOUS
 10
-0.392512
 20
1.526299
  0
SEQEND
  8
0
  0
POLYLINE
  8
PLAN_1
 62
     5
  6
CONTINUOUS
 66
     1
 40
0.003000
 41
0.003000
  0
VERTEX
  8
PLAN_1
 62
     5
  6
CONTINUOUS
 10
-0.392512
 20
1.517961
  0
VERTEX
  8
PLAN_1
 62
     5
  6
CONTINUOUS
 10
-0.392512
 20
1.509622
  0
SEQEND
  8
0
  0
POLYLINE
  8
PLAN_1
 62
     5
  6
CONTINUOUS
 66
     1
 40
0.003000
 41
0.003000
  0
VERTEX
  8
PLAN_1
 62
     5
  6
CONTINUOUS
 10
-0.392512
 20
1.501280
  0
VERTEX
  8
PLAN_1
 62
     5
  6
CONTINUOUS
 10
-0.392512
 20
1.492941
  0
SEQEND
  8
0
  0
POLYLINE
  8
PLAN_1
 62
     5
  6
CONTINUOUS
 66
     1
 40
0.003000
 41
0.003000
  0
VERTEX
  8
PLAN_1
 62
     5
  6
CONTINUOUS
 10
-0.392512
 20
1.484602
  0
VERTEX
  8
PLAN_1
 62
     5
  6
CONTINUOUS
 10
-0.392512
 20
1.476260
  0
SEQEND
  8
0
  0
POLYLINE
  8
PLAN_1
 62
     5
  6
CONTINUOUS
 66
     1
 40
0.003000
 41
0.003000
  0
VERTEX
  8
PLAN_1
 62
     5
  6
CONTINUOUS
 10
-0.392512
 20
1.467921
  0
VERTEX
  8
PLAN_1
 62
     5
  6
CONTINUOUS
 10
-0.392512
 20
1.459583
  0
SEQEND
  8
0
  0
POLYLINE
  8
PLAN_1
 62
     5
  6
CONTINUOUS
 66
     1
 40
0.003000
 41
0.003000
  0
VERTEX
  8
PLAN_1
 62
     5
  6
CONTINUOUS
 10
-0.392512
 20
1.451240
  0
VERTEX
  8
PLAN_1
 62
     5
  6
CONTINUOUS
 10
-0.392512
 20
1.442902
  0
SEQEND
  8
0
  0
POLYLINE
  8
PLAN_1
 62
     5
  6
CONTINUOUS
 66
     1
 40
0.003000
 41
0.003000
  0
VERTEX
  8
PLAN_1
 62
     5
  6
CONTINUOUS
 10
-0.392512
 20
1.434559
  0
VERTEX
  8
PLAN_1
 62
     5
  6
CONTINUOUS
 10
-0.392512
 20
1.426220
  0
SEQEND
  8
0
  0
POLYLINE
  8
PLAN_1
 62
     5
  6
CONTINUOUS
 66
     1
 40
0.003000
 41
0.003000
  0
VERTEX
  8
PLAN_1
 62
     5
  6
CONTINUOUS
 10
-0.392512
 20
1.417882
  0
VERTEX
  8
PLAN_1
 62
     5
  6
CONTINUOUS
 10
-0.392512
 20
1.409539
  0
SEQEND
  8
0
  0
POLYLINE
  8
PLAN_1
 62
     5
  6
CONTINUOUS
 66
     1
 40
0.003000
 41
0.003000
  0
VERTEX
  8
PLAN_1
 62
     5
  6
CONTINUOUS
 10
-0.392512
 20
1.401201
  0
VERTEX
  8
PLAN_1
 62
     5
  6
CONTINUOUS
 10
-0.392512
 20
1.393280
  0
SEQEND
  8
0
  0
POLYLINE
  8
PLAN_1
 62
     5
  6
CONTINUOUS
 66
     1
 40
0.003000
 41
0.003000
  0
VERTEX
  8
PLAN_1
 62
     5
  6
CONTINUOUS
 10
-0.392512
 20
1.384937
  0
VERTEX
  8
PLAN_1
 62
     5
  6
CONTINUOUS
 10
-0.392512
 20
1.376598
  0
SEQEND
  8
0
  0
POLYLINE
  8
PLAN_1
 62
     5
  6
CONTINUOUS
 66
     1
 40
0.003000
 41
0.003000
  0
VERTEX
  8
PLAN_1
 62
     5
  6
CONTINUOUS
 10
-0.392512
 20
1.368260
  0
VERTEX
  8
PLAN_1
 62
     5
  6
CONTINUOUS
 10
-0.392512
 20
1.359917
  0
SEQEND
  8
0
  0
POLYLINE
  8
PLAN_1
 62
     5
  6
CONTINUOUS
 66
     1
 40
0.003000
 41
0.003000
  0
VERTEX
  8
PLAN_1
 62
     5
  6
CONTINUOUS
 10
-0.392512
 20
1.351579
  0
VERTEX
  8
PLAN_1
 62
     5
  6
CONTINUOUS
 10
-0.392512
 20
1.343236
  0
SEQEND
  8
0
  0
POLYLINE
  8
PLAN_1
 62
     5
  6
CONTINUOUS
 66
     1
 40
0.003000
 41
0.003000
  0
VERTEX
  8
PLAN_1
 62
     5
  6
CONTINUOUS
 10
-0.722776
 20
1.848642
  0
VERTEX
  8
PLAN_1
 62
     5
  6
CONTINUOUS
 10
-0.714433
 20
1.848642
  0
SEQEND
  8
0
  0
POLYLINE
  8
PLAN_1
 62
     5
  6
CONTINUOUS
 66
     1
 40
0.003000
 41
0.003000
  0
VERTEX
  8
PLAN_1
 62
     5
  6
CONTINUOUS
 10
-0.706094
 20
1.848642
  0
VERTEX
  8
PLAN_1
 62
     5
  6
CONTINUOUS
 10
-0.697756
 20
1.848642
  0
SEQEND
  8
0
  0
POLYLINE
  8
PLAN_1
 62
     5
  6
CONTINUOUS
 66
     1
 40
0.003000
 41
0.003000
  0
VERTEX
  8
PLAN_1
 62
     5
  6
CONTINUOUS
 10
-0.689413
 20
1.848642
  0
VERTEX
  8
PLAN_1
 62
     5
  6
CONTINUOUS
 10
-0.681075
 20
1.848642
  0
SEQEND
  8
0
  0
POLYLINE
  8
PLAN_1
 62
     5
  6
CONTINUOUS
 66
     1
 40
0.003000
 41
0.003000
  0
VERTEX
  8
PLAN_1
 62
     5
  6
CONTINUOUS
 10
-0.672732
 20
1.848642
  0
VERTEX
  8
PLAN_1
 62
     5
  6
CONTINUOUS
 10
-0.664394
 20
1.848642
  0
SEQEND
  8
0
  0
POLYLINE
  8
PLAN_1
 62
     5
  6
CONTINUOUS
 66
     1
 40
0.003000
 41
0.003000
  0
VERTEX
  8
PLAN_1
 62
     5
  6
CONTINUOUS
 10
-0.656055
 20
1.848642
  0
VERTEX
  8
PLAN_1
 62
     5
  6
CONTINUOUS
 10
-0.647713
 20
1.848642
  0
SEQEND
  8
0
  0
POLYLINE
  8
PLAN_1
 62
     5
  6
CONTINUOUS
 66
     1
 40
0.003000
 41
0.003000
  0
VERTEX
  8
PLAN_1
 62
     5
  6
CONTINUOUS
 10
-0.639374
 20
1.848642
  0
VERTEX
  8
PLAN_1
 62
     5
  6
CONTINUOUS
 10
-0.631035
 20
1.848642
  0
SEQEND
  8
0
  0
POLYLINE
  8
PLAN_1
 62
     5
  6
CONTINUOUS
 66
     1
 40
0.003000
 41
0.003000
  0
VERTEX
  8
PLAN_1
 62
     5
  6
CONTINUOUS
 10
-0.622693
 20
1.848642
  0
VERTEX
  8
PLAN_1
 62
     5
  6
CONTINUOUS
 10
-0.614772
 20
1.848642
  0
SEQEND
  8
0
  0
POLYLINE
  8
PLAN_1
 62
     5
  6
CONTINUOUS
 66
     1
 40
0.003000
 41
0.003000
  0
VERTEX
  8
PLAN_1
 62
     5
  6
CONTINUOUS
 10
-0.606429
 20
1.848642
  0
VERTEX
  8
PLAN_1
 62
     5
  6
CONTINUOUS
 10
-0.598091
 20
1.848642
  0
SEQEND
  8
0
  0
POLYLINE
  8
PLAN_1
 62
     5
  6
CONTINUOUS
 66
     1
 40
0.003000
 41
0.003000
  0
VERTEX
  8
PLAN_1
 62
     5
  6
CONTINUOUS
 10
-0.589752
 20
1.848642
  0
VERTEX
  8
PLAN_1
 62
     5
  6
CONTINUOUS
 10
-0.581409
 20
1.848642
  0
SEQEND
  8
0
  0
POLYLINE
  8
PLAN_1
 62
     5
  6
CONTINUOUS
 66
     1
 40
0.003000
 41
0.003000
  0
VERTEX
  8
PLAN_1
 62
     5
  6
CONTINUOUS
 10
-0.573071
 20
1.848642
  0
VERTEX
  8
PLAN_1
 62
     5
  6
CONTINUOUS
 10
-0.564732
 20
1.848642
  0
SEQEND
  8
0
  0
POLYLINE
  8
PLAN_1
 62
     5
  6
CONTINUOUS
 66
     1
 40
0.003000
 41
0.003000
  0
VERTEX
  8
PLAN_1
 62
     5
  6
CONTINUOUS
 10
-0.556390
 20
1.848642
  0
VERTEX
  8
PLAN_1
 62
     5
  6
CONTINUOUS
 10
-0.548051
 20
1.848642
  0
SEQEND
  8
0
  0
POLYLINE
  8
PLAN_1
 62
     5
  6
CONTINUOUS
 66
     1
 40
0.003000
 41
0.003000
  0
VERTEX
  8
PLAN_1
 62
     5
  6
CONTINUOUS
 10
-0.539713
 20
1.848642
  0
VERTEX
  8
PLAN_1
 62
     5
  6
CONTINUOUS
 10
-0.531370
 20
1.848642
  0
SEQEND
  8
0
  0
POLYLINE
  8
PLAN_1
 62
     5
  6
CONTINUOUS
 66
     1
 40
0.003000
 41
0.003000
  0
VERTEX
  8
PLAN_1
 62
     5
  6
CONTINUOUS
 10
-0.523031
 20
1.848642
  0
VERTEX
  8
PLAN_1
 62
     5
  6
CONTINUOUS
 10
-0.514693
 20
1.848642
  0
SEQEND
  8
0
  0
POLYLINE
  8
PLAN_1
 62
     5
  6
CONTINUOUS
 66
     1
 40
0.003000
 41
0.003000
  0
VERTEX
  8
PLAN_1
 62
     5
  6
CONTINUOUS
 10
-0.506350
 20
1.848642
  0
VERTEX
  8
PLAN_1
 62
     5
  6
CONTINUOUS
 10
-0.498012
 20
1.848642
  0
SEQEND
  8
0
  0
POLYLINE
  8
PLAN_1
 62
     5
  6
CONTINUOUS
 66
     1
 40
0.003000
 41
0.003000
  0
VERTEX
  8
PLAN_1
 62
     5
  6
CONTINUOUS
 10
-0.489669
 20
1.848642
  0
VERTEX
  8
PLAN_1
 62
     5
  6
CONTINUOUS
 10
-0.481331
 20
1.848642
  0
SEQEND
  8
0
  0
POLYLINE
  8
PLAN_1
 62
     5
  6
CONTINUOUS
 66
     1
 40
0.003000
 41
0.003000
  0
VERTEX
  8
PLAN_1
 62
     5
  6
CONTINUOUS
 10
-0.472992
 20
1.848642
  0
VERTEX
  8
PLAN_1
 62
     5
  6
CONTINUOUS
 10
-0.464650
 20
1.848642
  0
SEQEND
  8
0
  0
POLYLINE
  8
PLAN_1
 62
     5
  6
CONTINUOUS
 66
     1
 40
0.003000
 41
0.003000
  0
VERTEX
  8
PLAN_1
 62
     5
  6
CONTINUOUS
 10
-0.456311
 20
1.848642
  0
VERTEX
  8
PLAN_1
 62
     5
  6
CONTINUOUS
 10
-0.447972
 20
1.848642
  0
SEQEND
  8
0
  0
POLYLINE
  8
PLAN_1
 62
     5
  6
CONTINUOUS
 66
     1
 40
0.003000
 41
0.003000
  0
VERTEX
  8
PLAN_1
 62
     5
  6
CONTINUOUS
 10
-0.439630
 20
1.848642
  0
VERTEX
  8
PLAN_1
 62
     5
  6
CONTINUOUS
 10
-0.431291
 20
1.848642
  0
SEQEND
  8
0
  0
POLYLINE
  8
PLAN_1
 62
     5
  6
CONTINUOUS
 66
     1
 40
0.003000
 41
0.003000
  0
VERTEX
  8
PLAN_1
 62
     5
  6
CONTINUOUS
 10
-0.422953
 20
1.848642
  0
VERTEX
  8
PLAN_1
 62
     5
  6
CONTINUOUS
 10
-0.414610
 20
1.848642
  0
SEQEND
  8
0
  0
POLYLINE
  8
PLAN_1
 62
     5
  6
CONTINUOUS
 66
     1
 40
0.003000
 41
0.003000
  0
VERTEX
  8
PLAN_1
 62
     5
  6
CONTINUOUS
 10
-0.406272
 20
1.848642
  0
VERTEX
  8
PLAN_1
 62
     5
  6
CONTINUOUS
 10
-0.398346
 20
1.848642
  0
SEQEND
  8
0
  0
POLYLINE
  8
PLAN_1
 62
     5
  6
CONTINUOUS
 66
     1
 40
0.003000
 41
0.003000
  0
VERTEX
  8
PLAN_1
 62
     5
  6
CONTINUOUS
 10
-0.406272
 20
1.848642
  0
VERTEX
  8
PLAN_1
 62
     5
  6
CONTINUOUS
 10
-0.398346
 20
1.848642
  0
SEQEND
  8
0
  0
POLYLINE
  8
PLAN_1
 62
     5
  6
CONTINUOUS
 66
     1
 40
0.003000
 41
0.003000
  0
VERTEX
  8
PLAN_1
 62
     5
  6
CONTINUOUS
 10
-0.583496
 20
1.715618
  0
VERTEX
  8
PLAN_1
 62
     5
  6
CONTINUOUS
 10
-0.583496
 20
1.723961
  0
SEQEND
  8
0
  0
POLYLINE
  8
PLAN_1
 62
     5
  6
CONTINUOUS
 66
     1
 40
0.003000
 41
0.003000
  0
VERTEX
  8
PLAN_1
 62
     5
  6
CONTINUOUS
 10
-0.583496
 20
1.732299
  0
VERTEX
  8
PLAN_1
 62
     5
  6
CONTINUOUS
 10
-0.583496
 20
1.740638
  0
SEQEND
  8
0
  0
POLYLINE
  8
PLAN_1
 62
     5
  6
CONTINUOUS
 66
     1
 40
0.003000
 41
0.003000
  0
VERTEX
  8
PLAN_1
 62
     5
  6
CONTINUOUS
 10
-0.583496
 20
1.748980
  0
VERTEX
  8
PLAN_1
 62
     5
  6
CONTINUOUS
 10
-0.583496
 20
1.757319
  0
SEQEND
  8
0
  0
POLYLINE
  8
PLAN_1
 62
     5
  6
CONTINUOUS
 66
     1
 40
0.003000
 41
0.003000
  0
VERTEX
  8
PLAN_1
 62
     5
  6
CONTINUOUS
 10
-0.583496
 20
1.765657
  0
VERTEX
  8
PLAN_1
 62
     5
  6
CONTINUOUS
 10
-0.583496
 20
1.774000
  0
SEQEND
  8
0
  0
POLYLINE
  8
PLAN_1
 62
     5
  6
CONTINUOUS
 66
     1
 40
0.003000
 41
0.003000
  0
VERTEX
  8
PLAN_1
 62
     5
  6
CONTINUOUS
 10
-0.583496
 20
1.782339
  0
VERTEX
  8
PLAN_1
 62
     5
  6
CONTINUOUS
 10
-0.583496
 20
1.790677
  0
SEQEND
  8
0
  0
POLYLINE
  8
PLAN_1
 62
     5
  6
CONTINUOUS
 66
     1
 40
0.003000
 41
0.003000
  0
VERTEX
  8
PLAN_1
 62
     5
  6
CONTINUOUS
 10
-0.583496
 20
1.799020
  0
VERTEX
  8
PLAN_1
 62
     5
  6
CONTINUOUS
 10
-0.583496
 20
1.807358
  0
SEQEND
  8
0
  0
POLYLINE
  8
PLAN_1
 62
     5
  6
CONTINUOUS
 66
     1
 40
0.003000
 41
0.003000
  0
VERTEX
  8
PLAN_1
 62
     5
  6
CONTINUOUS
 10
-0.583496
 20
1.815701
  0
VERTEX
  8
PLAN_1
 62
     5
  6
CONTINUOUS
 10
-0.583496
 20
1.824039
  0
SEQEND
  8
0
  0
POLYLINE
  8
PLAN_1
 62
     5
  6
CONTINUOUS
 66
     1
 40
0.003000
 41
0.003000
  0
VERTEX
  8
PLAN_1
 62
     5
  6
CONTINUOUS
 10
-0.583496
 20
1.832378
  0
VERTEX
  8
PLAN_1
 62
     5
  6
CONTINUOUS
 10
-0.583496
 20
1.840720
  0
SEQEND
  8
0
  0
POLYLINE
  8
PLAN_1
 62
     5
  6
CONTINUOUS
 66
     1
 40
0.003000
 41
0.003000
  0
VERTEX
  8
PLAN_1
 62
     5
  6
CONTINUOUS
 10
-0.583496
 20
1.849059
  0
VERTEX
  8
PLAN_1
 62
     5
  6
CONTINUOUS
 10
-0.583496
 20
1.857398
  0
SEQEND
  8
0
  0
POLYLINE
  8
PLAN_1
 62
     5
  6
CONTINUOUS
 66
     1
 40
0.003000
 41
0.003000
  0
VERTEX
  8
PLAN_1
 62
     5
  6
CONTINUOUS
 10
-0.583496
 20
1.865740
  0
VERTEX
  8
PLAN_1
 62
     5
  6
CONTINUOUS
 10
-0.583496
 20
1.874079
  0
SEQEND
  8
0
  0
POLYLINE
  8
PLAN_1
 62
     5
  6
CONTINUOUS
 66
     1
 40
0.003000
 41
0.003000
  0
VERTEX
  8
PLAN_1
 62
     5
  6
CONTINUOUS
 10
-0.583496
 20
1.882417
  0
VERTEX
  8
PLAN_1
 62
     5
  6
CONTINUOUS
 10
-0.583496
 20
1.890760
  0
SEQEND
  8
0
  0
POLYLINE
  8
PLAN_1
 62
     5
  6
CONTINUOUS
 66
     1
 40
0.003000
 41
0.003000
  0
VERTEX
  8
PLAN_1
 62
     5
  6
CONTINUOUS
 10
-0.583496
 20
1.899098
  0
VERTEX
  8
PLAN_1
 62
     5
  6
CONTINUOUS
 10
-0.583496
 20
1.907441
  0
SEQEND
  8
0
  0
POLYLINE
  8
PLAN_1
 62
     5
  6
CONTINUOUS
 66
     1
 40
0.003000
 41
0.003000
  0
VERTEX
  8
PLAN_1
 62
     5
  6
CONTINUOUS
 10
-0.583496
 20
1.915780
  0
VERTEX
  8
PLAN_1
 62
     5
  6
CONTINUOUS
 10
-0.583496
 20
1.924118
  0
SEQEND
  8
0
  0
POLYLINE
  8
PLAN_1
 62
     5
  6
CONTINUOUS
 66
     1
 40
0.003000
 41
0.003000
  0
VERTEX
  8
PLAN_1
 62
     5
  6
CONTINUOUS
 10
-0.583496
 20
1.932461
  0
VERTEX
  8
PLAN_1
 62
     5
  6
CONTINUOUS
 10
-0.583496
 20
1.940382
  0
SEQEND
  8
0
  0
POLYLINE
  8
PLAN_1
 62
     5
  6
CONTINUOUS
 66
     1
 40
0.003000
 41
0.003000
  0
VERTEX
  8
PLAN_1
 62
     5
  6
CONTINUOUS
 10
-0.583496
 20
1.948720
  0
VERTEX
  8
PLAN_1
 62
     5
  6
CONTINUOUS
 10
-0.583496
 20
1.957063
  0
SEQEND
  8
0
  0
POLYLINE
  8
PLAN_1
 62
     5
  6
CONTINUOUS
 66
     1
 40
0.003000
 41
0.003000
  0
VERTEX
  8
PLAN_1
 62
     5
  6
CONTINUOUS
 10
-0.583496
 20
1.965402
  0
VERTEX
  8
PLAN_1
 62
     5
  6
CONTINUOUS
 10
-0.583496
 20
1.973740
  0
SEQEND
  8
0
  0
POLYLINE
  8
PLAN_1
 62
     5
  6
CONTINUOUS
 66
     1
 40
0.003000
 41
0.003000
  0
VERTEX
  8
PLAN_1
 62
     5
  6
CONTINUOUS
 10
-0.583496
 20
1.982083
  0
VERTEX
  8
PLAN_1
 62
     5
  6
CONTINUOUS
 10
-0.583496
 20
1.987921
  0
SEQEND
  8
0
  0
POLYLINE
  8
PLAN_1
 62
     5
  6
CONTINUOUS
 66
     1
 40
0.003000
 41
0.003000
  0
VERTEX
  8
PLAN_1
 62
     5
  6
CONTINUOUS
 10
-0.583496
 20
1.982083
  0
VERTEX
  8
PLAN_1
 62
     5
  6
CONTINUOUS
 10
-0.583496
 20
1.987921
  0
SEQEND
  8
0
  0
POLYLINE
  8
PLAN_1
 62
     5
  6
CONTINUOUS
 66
     1
 40
0.003000
 41
0.003000
  0
VERTEX
  8
PLAN_1
 62
     5
  6
CONTINUOUS
 10
-2.002547
 20
1.848642
  0
VERTEX
  8
PLAN_1
 62
     5
  6
CONTINUOUS
 10
-1.994209
 20
1.848642
  0
SEQEND
  8
0
  0
POLYLINE
  8
PLAN_1
 62
     5
  6
CONTINUOUS
 66
     1
 40
0.003000
 41
0.003000
  0
VERTEX
  8
PLAN_1
 62
     5
  6
CONTINUOUS
 10
-1.985866
 20
1.848642
  0
VERTEX
  8
PLAN_1
 62
     5
  6
CONTINUOUS
 10
-1.977528
 20
1.848642
  0
SEQEND
  8
0
  0
POLYLINE
  8
PLAN_1
 62
     5
  6
CONTINUOUS
 66
     1
 40
0.003000
 41
0.003000
  0
VERTEX
  8
PLAN_1
 62
     5
  6
CONTINUOUS
 10
-1.969185
 20
1.848642
  0
VERTEX
  8
PLAN_1
 62
     5
  6
CONTINUOUS
 10
-1.960846
 20
1.848642
  0
SEQEND
  8
0
  0
POLYLINE
  8
PLAN_1
 62
     5
  6
CONTINUOUS
 66
     1
 40
0.003000
 41
0.003000
  0
VERTEX
  8
PLAN_1
 62
     5
  6
CONTINUOUS
 10
-1.952508
 20
1.848642
  0
VERTEX
  8
PLAN_1
 62
     5
  6
CONTINUOUS
 10
-1.944165
 20
1.848642
  0
SEQEND
  8
0
  0
POLYLINE
  8
PLAN_1
 62
     5
  6
CONTINUOUS
 66
     1
 40
0.003000
 41
0.003000
  0
VERTEX
  8
PLAN_1
 62
     5
  6
CONTINUOUS
 10
-1.935827
 20
1.848642
  0
VERTEX
  8
PLAN_1
 62
     5
  6
CONTINUOUS
 10
-1.927488
 20
1.848642
  0
SEQEND
  8
0
  0
POLYLINE
  8
PLAN_1
 62
     5
  6
CONTINUOUS
 66
     1
 40
0.003000
 41
0.003000
  0
VERTEX
  8
PLAN_1
 62
     5
  6
CONTINUOUS
 10
-1.919146
 20
1.848642
  0
VERTEX
  8
PLAN_1
 62
     5
  6
CONTINUOUS
 10
-1.910807
 20
1.848642
  0
SEQEND
  8
0
  0
POLYLINE
  8
PLAN_1
 62
     5
  6
CONTINUOUS
 66
     1
 40
0.003000
 41
0.003000
  0
VERTEX
  8
PLAN_1
 62
     5
  6
CONTINUOUS
 10
-1.902469
 20
1.848642
  0
VERTEX
  8
PLAN_1
 62
     5
  6
CONTINUOUS
 10
-1.894126
 20
1.848642
  0
SEQEND
  8
0
  0
POLYLINE
  8
PLAN_1
 62
     5
  6
CONTINUOUS
 66
     1
 40
0.003000
 41
0.003000
  0
VERTEX
  8
PLAN_1
 62
     5
  6
CONTINUOUS
 10
-1.885787
 20
1.848642
  0
VERTEX
  8
PLAN_1
 62
     5
  6
CONTINUOUS
 10
-1.877449
 20
1.848642
  0
SEQEND
  8
0
  0
POLYLINE
  8
PLAN_1
 62
     5
  6
CONTINUOUS
 66
     1
 40
0.003000
 41
0.003000
  0
VERTEX
  8
PLAN_1
 62
     5
  6
CONTINUOUS
 10
-1.869106
 20
1.848642
  0
VERTEX
  8
PLAN_1
 62
     5
  6
CONTINUOUS
 10
-1.860768
 20
1.848642
  0
SEQEND
  8
0
  0
POLYLINE
  8
PLAN_1
 62
     5
  6
CONTINUOUS
 66
     1
 40
0.003000
 41
0.003000
  0
VERTEX
  8
PLAN_1
 62
     5
  6
CONTINUOUS
 10
-1.852425
 20
1.848642
  0
VERTEX
  8
PLAN_1
 62
     5
  6
CONTINUOUS
 10
-1.844087
 20
1.848642
  0
SEQEND
  8
0
  0
POLYLINE
  8
PLAN_1
 62
     5
  6
CONTINUOUS
 66
     1
 40
0.003000
 41
0.003000
  0
VERTEX
  8
PLAN_1
 62
     5
  6
CONTINUOUS
 10
-1.835748
 20
1.848642
  0
VERTEX
  8
PLAN_1
 62
     5
  6
CONTINUOUS
 10
-1.827406
 20
1.848642
  0
SEQEND
  8
0
  0
POLYLINE
  8
PLAN_1
 62
     5
  6
CONTINUOUS
 66
     1
 40
0.003000
 41
0.003000
  0
VERTEX
  8
PLAN_1
 62
     5
  6
CONTINUOUS
 10
-1.819067
 20
1.848642
  0
VERTEX
  8
PLAN_1
 62
     5
  6
CONTINUOUS
 10
-1.811146
 20
1.848642
  0
SEQEND
  8
0
  0
POLYLINE
  8
PLAN_1
 62
     5
  6
CONTINUOUS
 66
     1
 40
0.003000
 41
0.003000
  0
VERTEX
  8
PLAN_1
 62
     5
  6
CONTINUOUS
 10
-1.802803
 20
1.848642
  0
VERTEX
  8
PLAN_1
 62
     5
  6
CONTINUOUS
 10
-1.794465
 20
1.848642
  0
SEQEND
  8
0
  0
POLYLINE
  8
PLAN_1
 62
     5
  6
CONTINUOUS
 66
     1
 40
0.003000
 41
0.003000
  0
VERTEX
  8
PLAN_1
 62
     5
  6
CONTINUOUS
 10
-1.786122
 20
1.848642
  0
VERTEX
  8
PLAN_1
 62
     5
  6
CONTINUOUS
 10
-1.777783
 20
1.848642
  0
SEQEND
  8
0
  0
POLYLINE
  8
PLAN_1
 62
     5
  6
CONTINUOUS
 66
     1
 40
0.003000
 41
0.003000
  0
VERTEX
  8
PLAN_1
 62
     5
  6
CONTINUOUS
 10
-1.769445
 20
1.848642
  0
VERTEX
  8
PLAN_1
 62
     5
  6
CONTINUOUS
 10
-1.761102
 20
1.848642
  0
SEQEND
  8
0
  0
POLYLINE
  8
PLAN_1
 62
     5
  6
CONTINUOUS
 66
     1
 40
0.003000
 41
0.003000
  0
VERTEX
  8
PLAN_1
 62
     5
  6
CONTINUOUS
 10
-1.752764
 20
1.848642
  0
VERTEX
  8
PLAN_1
 62
     5
  6
CONTINUOUS
 10
-1.744425
 20
1.848642
  0
SEQEND
  8
0
  0
POLYLINE
  8
PLAN_1
 62
     5
  6
CONTINUOUS
 66
     1
 40
0.003000
 41
0.003000
  0
VERTEX
  8
PLAN_1
 62
     5
  6
CONTINUOUS
 10
-1.736083
 20
1.848642
  0
VERTEX
  8
PLAN_1
 62
     5
  6
CONTINUOUS
 10
-1.727744
 20
1.848642
  0
SEQEND
  8
0
  0
POLYLINE
  8
PLAN_1
 62
     5
  6
CONTINUOUS
 66
     1
 40
0.003000
 41
0.003000
  0
VERTEX
  8
PLAN_1
 62
     5
  6
CONTINUOUS
 10
-1.719406
 20
1.848642
  0
VERTEX
  8
PLAN_1
 62
     5
  6
CONTINUOUS
 10
-1.718988
 20
1.848642
  0
SEQEND
  8
0
  0
POLYLINE
  8
PLAN_1
 62
     5
  6
CONTINUOUS
 66
     1
 40
0.003000
 41
0.003000
  0
VERTEX
  8
PLAN_1
 62
     5
  6
CONTINUOUS
 10
-1.719406
 20
1.848642
  0
VERTEX
  8
PLAN_1
 62
     5
  6
CONTINUOUS
 10
-1.718988
 20
1.848642
  0
SEQEND
  8
0
  0
POLYLINE
  8
PLAN_1
 62
     5
  6
CONTINUOUS
 66
     1
 40
0.003000
 41
0.003000
  0
VERTEX
  8
PLAN_1
 62
     5
  6
CONTINUOUS
 10
-1.863268
 20
1.700606
  0
VERTEX
  8
PLAN_1
 62
     5
  6
CONTINUOUS
 10
-1.863268
 20
1.708949
  0
SEQEND
  8
0
  0
POLYLINE
  8
PLAN_1
 62
     5
  6
CONTINUOUS
 66
     1
 40
0.003000
 41
0.003000
  0
VERTEX
  8
PLAN_1
 62
     5
  6
CONTINUOUS
 10
-1.863268
 20
1.717287
  0
VERTEX
  8
PLAN_1
 62
     5
  6
CONTINUOUS
 10
-1.863268
 20
1.725626
  0
SEQEND
  8
0
  0
POLYLINE
  8
PLAN_1
 62
     5
  6
CONTINUOUS
 66
     1
 40
0.003000
 41
0.003000
  0
VERTEX
  8
PLAN_1
 62
     5
  6
CONTINUOUS
 10
-1.863268
 20
1.733969
  0
VERTEX
  8
PLAN_1
 62
     5
  6
CONTINUOUS
 10
-1.863268
 20
1.742307
  0
SEQEND
  8
0
  0
POLYLINE
  8
PLAN_1
 62
     5
  6
CONTINUOUS
 66
     1
 40
0.003000
 41
0.003000
  0
VERTEX
  8
PLAN_1
 62
     5
  6
CONTINUOUS
 10
-1.863268
 20
1.750646
  0
VERTEX
  8
PLAN_1
 62
     5
  6
CONTINUOUS
 10
-1.863268
 20
1.758988
  0
SEQEND
  8
0
  0
POLYLINE
  8
PLAN_1
 62
     5
  6
CONTINUOUS
 66
     1
 40
0.003000
 41
0.003000
  0
VERTEX
  8
PLAN_1
 62
     5
  6
CONTINUOUS
 10
-1.863268
 20
1.767327
  0
VERTEX
  8
PLAN_1
 62
     5
  6
CONTINUOUS
 10
-1.863268
 20
1.775665
  0
SEQEND
  8
0
  0
POLYLINE
  8
PLAN_1
 62
     5
  6
CONTINUOUS
 66
     1
 40
0.003000
 41
0.003000
  0
VERTEX
  8
PLAN_1
 62
     5
  6
CONTINUOUS
 10
-1.863268
 20
1.784008
  0
VERTEX
  8
PLAN_1
 62
     5
  6
CONTINUOUS
 10
-1.863268
 20
1.792346
  0
SEQEND
  8
0
  0
POLYLINE
  8
PLAN_1
 62
     5
  6
CONTINUOUS
 66
     1
 40
0.003000
 41
0.003000
  0
VERTEX
  8
PLAN_1
 62
     5
  6
CONTINUOUS
 10
-1.863268
 20
1.800689
  0
VERTEX
  8
PLAN_1
 62
     5
  6
CONTINUOUS
 10
-1.863268
 20
1.809028
  0
SEQEND
  8
0
  0
POLYLINE
  8
PLAN_1
 62
     5
  6
CONTINUOUS
 66
     1
 40
0.003000
 41
0.003000
  0
VERTEX
  8
PLAN_1
 62
     5
  6
CONTINUOUS
 10
-1.863268
 20
1.817366
  0
VERTEX
  8
PLAN_1
 62
     5
  6
CONTINUOUS
 10
-1.863268
 20
1.825709
  0
SEQEND
  8
0
  0
POLYLINE
  8
PLAN_1
 62
     5
  6
CONTINUOUS
 66
     1
 40
0.003000
 41
0.003000
  0
VERTEX
  8
PLAN_1
 62
     5
  6
CONTINUOUS
 10
-1.863268
 20
1.834047
  0
VERTEX
  8
PLAN_1
 62
     5
  6
CONTINUOUS
 10
-1.863268
 20
1.842386
  0
SEQEND
  8
0
  0
POLYLINE
  8
PLAN_1
 62
     5
  6
CONTINUOUS
 66
     1
 40
0.003000
 41
0.003000
  0
VERTEX
  8
PLAN_1
 62
     5
  6
CONTINUOUS
 10
-1.863268
 20
1.850728
  0
VERTEX
  8
PLAN_1
 62
     5
  6
CONTINUOUS
 10
-1.863268
 20
1.859067
  0
SEQEND
  8
0
  0
POLYLINE
  8
PLAN_1
 62
     5
  6
CONTINUOUS
 66
     1
 40
0.003000
 41
0.003000
  0
VERTEX
  8
PLAN_1
 62
     5
  6
CONTINUOUS
 10
-1.863268
 20
1.867406
  0
VERTEX
  8
PLAN_1
 62
     5
  6
CONTINUOUS
 10
-1.863268
 20
1.875331
  0
SEQEND
  8
0
  0
POLYLINE
  8
PLAN_1
 62
     5
  6
CONTINUOUS
 66
     1
 40
0.003000
 41
0.003000
  0
VERTEX
  8
PLAN_1
 62
     5
  6
CONTINUOUS
 10
-1.863268
 20
1.883669
  0
VERTEX
  8
PLAN_1
 62
     5
  6
CONTINUOUS
 10
-1.863268
 20
1.892012
  0
SEQEND
  8
0
  0
POLYLINE
  8
PLAN_1
 62
     5
  6
CONTINUOUS
 66
     1
 40
0.003000
 41
0.003000
  0
VERTEX
  8
PLAN_1
 62
     5
  6
CONTINUOUS
 10
-1.863268
 20
1.900350
  0
VERTEX
  8
PLAN_1
 62
     5
  6
CONTINUOUS
 10
-1.863268
 20
1.908689
  0
SEQEND
  8
0
  0
POLYLINE
  8
PLAN_1
 62
     5
  6
CONTINUOUS
 66
     1
 40
0.003000
 41
0.003000
  0
VERTEX
  8
PLAN_1
 62
     5
  6
CONTINUOUS
 10
-1.863268
 20
1.917031
  0
VERTEX
  8
PLAN_1
 62
     5
  6
CONTINUOUS
 10
-1.863268
 20
1.925370
  0
SEQEND
  8
0
  0
POLYLINE
  8
PLAN_1
 62
     5
  6
CONTINUOUS
 66
     1
 40
0.003000
 41
0.003000
  0
VERTEX
  8
PLAN_1
 62
     5
  6
CONTINUOUS
 10
-1.863268
 20
1.933709
  0
VERTEX
  8
PLAN_1
 62
     5
  6
CONTINUOUS
 10
-1.863268
 20
1.942051
  0
SEQEND
  8
0
  0
POLYLINE
  8
PLAN_1
 62
     5
  6
CONTINUOUS
 66
     1
 40
0.003000
 41
0.003000
  0
VERTEX
  8
PLAN_1
 62
     5
  6
CONTINUOUS
 10
-1.863268
 20
1.950390
  0
VERTEX
  8
PLAN_1
 62
     5
  6
CONTINUOUS
 10
-1.863268
 20
1.958728
  0
SEQEND
  8
0
  0
POLYLINE
  8
PLAN_1
 62
     5
  6
CONTINUOUS
 66
     1
 40
0.003000
 41
0.003000
  0
VERTEX
  8
PLAN_1
 62
     5
  6
CONTINUOUS
 10
-1.863268
 20
1.967071
  0
VERTEX
  8
PLAN_1
 62
     5
  6
CONTINUOUS
 10
-1.863268
 20
1.975409
  0
SEQEND
  8
0
  0
POLYLINE
  8
PLAN_1
 62
     5
  6
CONTINUOUS
 66
     1
 40
0.003000
 41
0.003000
  0
VERTEX
  8
PLAN_1
 62
     5
  6
CONTINUOUS
 10
-1.863268
 20
1.983752
  0
VERTEX
  8
PLAN_1
 62
     5
  6
CONTINUOUS
 10
-1.863268
 20
1.992091
  0
SEQEND
  8
0
  0
POLYLINE
  8
PLAN_1
 62
     5
  6
CONTINUOUS
 66
     1
 40
0.003000
 41
0.003000
  0
VERTEX
  8
PLAN_1
 62
     5
  6
CONTINUOUS
 10
-1.863268
 20
2.000429
  0
VERTEX
  8
PLAN_1
 62
     5
  6
CONTINUOUS
 10
-1.863268
 20
2.008772
  0
SEQEND
  8
0
  0
POLYLINE
  8
PLAN_1
 62
     5
  6
CONTINUOUS
 66
     1
 40
0.003000
 41
0.003000
  0
VERTEX
  8
PLAN_1
 62
     5
  6
CONTINUOUS
 10
-1.863268
 20
2.017110
  0
VERTEX
  8
PLAN_1
 62
     5
  6
CONTINUOUS
 10
-1.863268
 20
2.025449
  0
SEQEND
  8
0
  0
POLYLINE
  8
PLAN_1
  6
CONTINUOUS
 66
     1
 40
0.008339
 41
0.008339
  0
VERTEX
  8
PLAN_1
  6
CONTINUOUS
 10
-1.907055
 20
3.080461
  0
VERTEX
  8
PLAN_1
  6
CONTINUOUS
 10
-1.907055
 20
2.124280
  0
VERTEX
  8
PLAN_1
  6
CONTINUOUS
 10
-0.540130
 20
2.124280
  0
VERTEX
  8
PLAN_1
  6
CONTINUOUS
 10
-0.540130
 20
3.080461
  0
VERTEX
  8
PLAN_1
  6
CONTINUOUS
 10
-1.907055
 20
3.080461
  0
SEQEND
  8
0
  0
POLYLINE
  8
PLAN_1
  6
CONTINUOUS
 66
     1
 40
0.008339
 41
0.008339
  0
VERTEX
  8
PLAN_1
  6
CONTINUOUS
 10
-1.906638
 20
2.324441
  0
VERTEX
  8
PLAN_1
  6
CONTINUOUS
 10
-1.564697
 20
2.324441
  0
VERTEX
  8
PLAN_1
  6
CONTINUOUS
 10
-1.564697
 20
2.124280
  0
SEQEND
  8
0
  0
POLYLINE
  8
PLAN_1
  6
CONTINUOUS
 66
     1
 40
0.008339
 41
0.008339
  0
VERTEX
  8
PLAN_1
  6
CONTINUOUS
 10
-0.886654
 20
2.124280
  0
VERTEX
  8
PLAN_1
  6
CONTINUOUS
 10
-0.886654
 20
2.323189
  0
VERTEX
  8
PLAN_1
  6
CONTINUOUS
 10
-0.539713
 20
2.323189
  0
SEQEND
  8
0
  0
POLYLINE
  8
PLAN_1
  6
CONTINUOUS
 66
     1
 40
0.008339
 41
0.008339
  0
VERTEX
  8
PLAN_1
  6
CONTINUOUS
 10
-1.658941
 20
2.324024
  0
VERTEX
  8
PLAN_1
  6
CONTINUOUS
 10
-1.658941
 20
2.124280
  0
SEQEND
  8
0
  0
POLYLINE
  8
PLAN_1
  6
CONTINUOUS
 66
     1
 40
0.008339
 41
0.008339
  0
VERTEX
  8
PLAN_1
  6
CONTINUOUS
 10
-0.784075
 20
2.324024
  0
VERTEX
  8
PLAN_1
  6
CONTINUOUS
 10
-0.784075
 20
2.124280
  0
SEQEND
  8
0
  0
POLYLINE
  8
PLAN_1
  6
CONTINUOUS
 66
     1
 40
0.008339
 41
0.008339
  0
VERTEX
  8
PLAN_1
  6
CONTINUOUS
 10
-1.015091
 20
1.691016
  0
VERTEX
  8
PLAN_1
  6
CONTINUOUS
 10
-1.015091
 20
1.739390
  0
VERTEX
  8
PLAN_1
  6
CONTINUOUS
 10
-1.432091
 20
1.739390
  0
VERTEX
  8
PLAN_1
  6
CONTINUOUS
 10
-1.432091
 20
1.691016
  0
VERTEX
  8
PLAN_1
  6
CONTINUOUS
 10
-1.015091
 20
1.691016
  0
SEQEND
  8
0
  0
POLYLINE
  8
PLAN_1
  6
CONTINUOUS
 66
     1
 40
0.008339
 41
0.008339
  0
VERTEX
  8
PLAN_1
  6
CONTINUOUS
 10
-0.663142
 20
2.100512
  0
VERTEX
  8
PLAN_1
  6
CONTINUOUS
 10
-0.663142
 20
2.124280
  0
VERTEX
  8
PLAN_1
  6
CONTINUOUS
 10
-1.783622
 20
2.124280
  0
VERTEX
  8
PLAN_1
  6
CONTINUOUS
 10
-1.783622
 20
2.100512
  0
VERTEX
  8
PLAN_1
  6
CONTINUOUS
 10
-0.663142
 20
2.100512
  0
SEQEND
  8
0
  0
POLYLINE
  8
PLAN_1
  6
CONTINUOUS
 66
     1
 40
0.008339
 41
0.008339
  0
VERTEX
  8
PLAN_1
  6
CONTINUOUS
 10
-0.879567
 20
1.739390
  0
VERTEX
  8
PLAN_1
  6
CONTINUOUS
 10
-0.879567
 20
2.100512
  0
VERTEX
  8
PLAN_1
  6
CONTINUOUS
 10
-1.567201
 20
2.100512
  0
VERTEX
  8
PLAN_1
  6
CONTINUOUS
 10
-1.567201
 20
1.739390
  0
VERTEX
  8
PLAN_1
  6
CONTINUOUS
 10
-0.879567
 20
1.739390
  0
SEQEND
  8
0
  0
POLYLINE
  8
PLAN_1
  6
CONTINUOUS
 66
     1
 40
0.008339
 41
0.008339
  0
VERTEX
  8
PLAN_1
  6
CONTINUOUS
 10
-1.222339
 20
2.266059
  0
VERTEX
  8
PLAN_1
  6
CONTINUOUS
 10
-1.203575
 20
2.266894
  0
VERTEX
  8
PLAN_1
  6
CONTINUOUS
 10
-1.185228
 20
2.268146
  0
VERTEX
  8
PLAN_1
  6
CONTINUOUS
 10
-1.166878
 20
2.270228
  0
VERTEX
  8
PLAN_1
  6
CONTINUOUS
 10
-1.148949
 20
2.273567
  0
VERTEX
  8
PLAN_1
  6
CONTINUOUS
 10
-1.131016
 20
2.277736
  0
VERTEX
  8
PLAN_1
  6
CONTINUOUS
 10
-1.113921
 20
2.282740
  0
VERTEX
  8
PLAN_1
  6
CONTINUOUS
 10
-1.096823
 20
2.288161
  0
VERTEX
  8
PLAN_1
  6
CONTINUOUS
 10
-1.080559
 20
2.294831
  0
VERTEX
  8
PLAN_1
  6
CONTINUOUS
 10
-1.064295
 20
2.302339
  0
VERTEX
  8
PLAN_1
  6
CONTINUOUS
 10
-1.048453
 20
2.310260
  0
VERTEX
  8
PLAN_1
  6
CONTINUOUS
 10
-1.033441
 20
2.319020
  0
VERTEX
  8
PLAN_1
  6
CONTINUOUS
 10
-1.018425
 20
2.328610
  0
VERTEX
  8
PLAN_1
  6
CONTINUOUS
 10
-1.004248
 20
2.338618
  0
VERTEX
  8
PLAN_1
  6
CONTINUOUS
 10
-0.990488
 20
2.349461
  0
VERTEX
  8
PLAN_1
  6
CONTINUOUS
 10
-0.977146
 20
2.361134
  0
VERTEX
  8
PLAN_1
  6
CONTINUOUS
 10
-0.964634
 20
2.373228
  0
VERTEX
  8
PLAN_1
  6
CONTINUOUS
 10
-0.952539
 20
2.385736
  0
VERTEX
  8
PLAN_1
  6
CONTINUOUS
 10
-0.940866
 20
2.399083
  0
VERTEX
  8
PLAN_1
  6
CONTINUOUS
 10
-0.930024
 20
2.412843
  0
VERTEX
  8
PLAN_1
  6
CONTINUOUS
 10
-0.920016
 20
2.427020
  0
VERTEX
  8
PLAN_1
  6
CONTINUOUS
 10
-0.910425
 20
2.441614
  0
VERTEX
  8
PLAN_1
  6
CONTINUOUS
 10
-0.901665
 20
2.457043
  0
VERTEX
  8
PLAN_1
  6
CONTINUOUS
 10
-0.893744
 20
2.472890
  0
VERTEX
  8
PLAN_1
  6
CONTINUOUS
 10
-0.886236
 20
2.488736
  0
VERTEX
  8
PLAN_1
  6
CONTINUOUS
 10
-0.879984
 20
2.505417
  0
VERTEX
  8
PLAN_1
  6
CONTINUOUS
 10
-0.874146
 20
2.522516
  0
VERTEX
  8
PLAN_1
  6
CONTINUOUS
 10
-0.869142
 20
2.539610
  0
VERTEX
  8
PLAN_1
  6
CONTINUOUS
 10
-0.864972
 20
2.557543
  0
VERTEX
  8
PLAN_1
  6
CONTINUOUS
 10
-0.862051
 20
2.575472
  0
VERTEX
  8
PLAN_1
  6
CONTINUOUS
 10
-0.859551
 20
2.593406
  0
VERTEX
  8
PLAN_1
  6
CONTINUOUS
 10
-0.858299
 20
2.612169
  0
VERTEX
  8
PLAN_1
  6
CONTINUOUS
 10
-0.857465
 20
2.630933
  0
VERTEX
  8
PLAN_1
  6
CONTINUOUS
 10
-0.858299
 20
2.649701
  0
VERTEX
  8
PLAN_1
  6
CONTINUOUS
 10
-0.859551
 20
2.668047
  0
VERTEX
  8
PLAN_1
  6
CONTINUOUS
 10
-0.862051
 20
2.686394
  0
VERTEX
  8
PLAN_1
  6
CONTINUOUS
 10
-0.864972
 20
2.704327
  0
VERTEX
  8
PLAN_1
  6
CONTINUOUS
 10
-0.869142
 20
2.721839
  0
VERTEX
  8
PLAN_1
  6
CONTINUOUS
 10
-0.874146
 20
2.739354
  0
VERTEX
  8
PLAN_1
  6
CONTINUOUS
 10
-0.879984
 20
2.756035
  0
VERTEX
  8
PLAN_1
  6
CONTINUOUS
 10
-0.886236
 20
2.772713
  0
VERTEX
  8
PLAN_1
  6
CONTINUOUS
 10
-0.893744
 20
2.788976
  0
VERTEX
  8
PLAN_1
  6
CONTINUOUS
 10
-0.901665
 20
2.804823
  0
VERTEX
  8
PLAN_1
  6
CONTINUOUS
 10
-0.910425
 20
2.819835
  0
VERTEX
  8
PLAN_1
  6
CONTINUOUS
 10
-0.920016
 20
2.834846
  0
VERTEX
  8
PLAN_1
  6
CONTINUOUS
 10
-0.930024
 20
2.849024
  0
VERTEX
  8
PLAN_1
  6
CONTINUOUS
 10
-0.940866
 20
2.862787
  0
VERTEX
  8
PLAN_1
  6
CONTINUOUS
 10
-0.952539
 20
2.876130
  0
VERTEX
  8
PLAN_1
  6
CONTINUOUS
 10
-0.964634
 20
2.888642
  0
VERTEX
  8
PLAN_1
  6
CONTINUOUS
 10
-0.977146
 20
2.900732
  0
VERTEX
  8
PLAN_1
  6
CONTINUOUS
 10
-0.990488
 20
2.912409
  0
VERTEX
  8
PLAN_1
  6
CONTINUOUS
 10
-1.004248
 20
2.923252
  0
VERTEX
  8
PLAN_1
  6
CONTINUOUS
 10
-1.018425
 20
2.933260
  0
VERTEX
  8
PLAN_1
  6
CONTINUOUS
 10
-1.033441
 20
2.942850
  0
VERTEX
  8
PLAN_1
  6
CONTINUOUS
 10
-1.048453
 20
2.951606
  0
VERTEX
  8
PLAN_1
  6
CONTINUOUS
 10
-1.064295
 20
2.959531
  0
VERTEX
  8
PLAN_1
  6
CONTINUOUS
 10
-1.080559
 20
2.967035
  0
VERTEX
  8
PLAN_1
  6
CONTINUOUS
 10
-1.096823
 20
2.973291
  0
VERTEX
  8
PLAN_1
  6
CONTINUOUS
 10
-1.113921
 20
2.979130
  0
VERTEX
  8
PLAN_1
  6
CONTINUOUS
 10
-1.131016
 20
2.984134
  0
VERTEX
  8
PLAN_1
  6
CONTINUOUS
 10
-1.148949
 20
2.988303
  0
VERTEX
  8
PLAN_1
  6
CONTINUOUS
 10
-1.166878
 20
2.991220
  0
VERTEX
  8
PLAN_1
  6
CONTINUOUS
 10
-1.185228
 20
2.993724
  0
VERTEX
  8
PLAN_1
  6
CONTINUOUS
 10
-1.203575
 20
2.994976
  0
VERTEX
  8
PLAN_1
  6
CONTINUOUS
 10
-1.222339
 20
2.995394
  0
VERTEX
  8
PLAN_1
  6
CONTINUOUS
 10
-1.241106
 20
2.994976
  0
VERTEX
  8
PLAN_1
  6
CONTINUOUS
 10
-1.259453
 20
2.993724
  0
VERTEX
  8
PLAN_1
  6
CONTINUOUS
 10
-1.277799
 20
2.991220
  0
VERTEX
  8
PLAN_1
  6
CONTINUOUS
 10
-1.295732
 20
2.988303
  0
VERTEX
  8
PLAN_1
  6
CONTINUOUS
 10
-1.313244
 20
2.984134
  0
VERTEX
  8
PLAN_1
  6
CONTINUOUS
 10
-1.330760
 20
2.979130
  0
VERTEX
  8
PLAN_1
  6
CONTINUOUS
 10
-1.347858
 20
2.973291
  0
VERTEX
  8
PLAN_1
  6
CONTINUOUS
 10
-1.364118
 20
2.967035
  0
VERTEX
  8
PLAN_1
  6
CONTINUOUS
 10
-1.380382
 20
2.959531
  0
VERTEX
  8
PLAN_1
  6
CONTINUOUS
 10
-1.396228
 20
2.951606
  0
VERTEX
  8
PLAN_1
  6
CONTINUOUS
 10
-1.411240
 20
2.942850
  0
VERTEX
  8
PLAN_1
  6
CONTINUOUS
 10
-1.426252
 20
2.933260
  0
VERTEX
  8
PLAN_1
  6
CONTINUOUS
 10
-1.440429
 20
2.923252
  0
VERTEX
  8
PLAN_1
  6
CONTINUOUS
 10
-1.454193
 20
2.912409
  0
VERTEX
  8
PLAN_1
  6
CONTINUOUS
 10
-1.467535
 20
2.900732
  0
VERTEX
  8
PLAN_1
  6
CONTINUOUS
 10
-1.480047
 20
2.888642
  0
VERTEX
  8
PLAN_1
  6
CONTINUOUS
 10
-1.492138
 20
2.876130
  0
VERTEX
  8
PLAN_1
  6
CONTINUOUS
 10
-1.503815
 20
2.862787
  0
VERTEX
  8
PLAN_1
  6
CONTINUOUS
 10
-1.514657
 20
2.849024
  0
VERTEX
  8
PLAN_1
  6
CONTINUOUS
 10
-1.524665
 20
2.834846
  0
VERTEX
  8
PLAN_1
  6
CONTINUOUS
 10
-1.534256
 20
2.819835
  0
VERTEX
  8
PLAN_1
  6
CONTINUOUS
 10
-1.543012
 20
2.804823
  0
VERTEX
  8
PLAN_1
  6
CONTINUOUS
 10
-1.550937
 20
2.788976
  0
VERTEX
  8
PLAN_1
  6
CONTINUOUS
 10
-1.558441
 20
2.772713
  0
VERTEX
  8
PLAN_1
  6
CONTINUOUS
 10
-1.564697
 20
2.756035
  0
VERTEX
  8
PLAN_1
  6
CONTINUOUS
 10
-1.570535
 20
2.739354
  0
VERTEX
  8
PLAN_1
  6
CONTINUOUS
 10
-1.575539
 20
2.721839
  0
VERTEX
  8
PLAN_1
  6
CONTINUOUS
 10
-1.579709
 20
2.704327
  0
VERTEX
  8
PLAN_1
  6
CONTINUOUS
 10
-1.582630
 20
2.686394
  0
VERTEX
  8
PLAN_1
  6
CONTINUOUS
 10
-1.585130
 20
2.668047
  0
VERTEX
  8
PLAN_1
  6
CONTINUOUS
 10
-1.586382
 20
2.649701
  0
VERTEX
  8
PLAN_1
  6
CONTINUOUS
 10
-1.586799
 20
2.630933
  0
VERTEX
  8
PLAN_1
  6
CONTINUOUS
 10
-1.586382
 20
2.612169
  0
VERTEX
  8
PLAN_1
  6
CONTINUOUS
 10
-1.585130
 20
2.593406
  0
VERTEX
  8
PLAN_1
  6
CONTINUOUS
 10
-1.582630
 20
2.575472
  0
VERTEX
  8
PLAN_1
  6
CONTINUOUS
 10
-1.579709
 20
2.557543
  0
VERTEX
  8
PLAN_1
  6
CONTINUOUS
 10
-1.575539
 20
2.539610
  0
VERTEX
  8
PLAN_1
  6
CONTINUOUS
 10
-1.570535
 20
2.522516
  0
VERTEX
  8
PLAN_1
  6
CONTINUOUS
 10
-1.564697
 20
2.505417
  0
VERTEX
  8
PLAN_1
  6
CONTINUOUS
 10
-1.558441
 20
2.488736
  0
VERTEX
  8
PLAN_1
  6
CONTINUOUS
 10
-1.550937
 20
2.472890
  0
VERTEX
  8
PLAN_1
  6
CONTINUOUS
 10
-1.543012
 20
2.457043
  0
VERTEX
  8
PLAN_1
  6
CONTINUOUS
 10
-1.534256
 20
2.441614
  0
VERTEX
  8
PLAN_1
  6
CONTINUOUS
 10
-1.524665
 20
2.427020
  0
VERTEX
  8
PLAN_1
  6
CONTINUOUS
 10
-1.514657
 20
2.412843
  0
VERTEX
  8
PLAN_1
  6
CONTINUOUS
 10
-1.503815
 20
2.399083
  0
VERTEX
  8
PLAN_1
  6
CONTINUOUS
 10
-1.492138
 20
2.385736
  0
VERTEX
  8
PLAN_1
  6
CONTINUOUS
 10
-1.480047
 20
2.373228
  0
VERTEX
  8
PLAN_1
  6
CONTINUOUS
 10
-1.467535
 20
2.361134
  0
VERTEX
  8
PLAN_1
  6
CONTINUOUS
 10
-1.454193
 20
2.349461
  0
VERTEX
  8
PLAN_1
  6
CONTINUOUS
 10
-1.440429
 20
2.338618
  0
VERTEX
  8
PLAN_1
  6
CONTINUOUS
 10
-1.426252
 20
2.328610
  0
VERTEX
  8
PLAN_1
  6
CONTINUOUS
 10
-1.411240
 20
2.319020
  0
VERTEX
  8
PLAN_1
  6
CONTINUOUS
 10
-1.396228
 20
2.310260
  0
VERTEX
  8
PLAN_1
  6
CONTINUOUS
 10
-1.380382
 20
2.302339
  0
VERTEX
  8
PLAN_1
  6
CONTINUOUS
 10
-1.364118
 20
2.294831
  0
VERTEX
  8
PLAN_1
  6
CONTINUOUS
 10
-1.347858
 20
2.288161
  0
VERTEX
  8
PLAN_1
  6
CONTINUOUS
 10
-1.330760
 20
2.282740
  0
VERTEX
  8
PLAN_1
  6
CONTINUOUS
 10
-1.313244
 20
2.277736
  0
VERTEX
  8
PLAN_1
  6
CONTINUOUS
 10
-1.295732
 20
2.273567
  0
VERTEX
  8
PLAN_1
  6
CONTINUOUS
 10
-1.277799
 20
2.270228
  0
VERTEX
  8
PLAN_1
  6
CONTINUOUS
 10
-1.259453
 20
2.268146
  0
VERTEX
  8
PLAN_1
  6
CONTINUOUS
 10
-1.241106
 20
2.266894
  0
VERTEX
  8
PLAN_1
  6
CONTINUOUS
 10
-1.222339
 20
2.266059
  0
SEQEND
  8
0
  0
POLYLINE
  8
PLAN_1
  6
CONTINUOUS
 66
     1
 40
0.008339
 41
0.008339
  0
VERTEX
  8
PLAN_1
  6
CONTINUOUS
 10
-1.222756
 20
2.320268
  0
VERTEX
  8
PLAN_1
  6
CONTINUOUS
 10
-1.206909
 20
2.320685
  0
VERTEX
  8
PLAN_1
  6
CONTINUOUS
 10
-1.191067
 20
2.321520
  0
VERTEX
  8
PLAN_1
  6
CONTINUOUS
 10
-1.175220
 20
2.323606
  0
VERTEX
  8
PLAN_1
  6
CONTINUOUS
 10
-1.160209
 20
2.326524
  0
VERTEX
  8
PLAN_1
  6
CONTINUOUS
 10
-1.145197
 20
2.329858
  0
VERTEX
  8
PLAN_1
  6
CONTINUOUS
 10
-1.130181
 20
2.334031
  0
VERTEX
  8
PLAN_1
  6
CONTINUOUS
 10
-1.116004
 20
2.339035
  0
VERTEX
  8
PLAN_1
  6
CONTINUOUS
 10
-1.101827
 20
2.344457
  0
VERTEX
  8
PLAN_1
  6
CONTINUOUS
 10
-1.088067
 20
2.350709
  0
VERTEX
  8
PLAN_1
  6
CONTINUOUS
 10
-1.074720
 20
2.357799
  0
VERTEX
  8
PLAN_1
  6
CONTINUOUS
 10
-1.061378
 20
2.364890
  0
VERTEX
  8
PLAN_1
  6
CONTINUOUS
 10
-1.048866
 20
2.373228
  0
VERTEX
  8
PLAN_1
  6
CONTINUOUS
 10
-1.036776
 20
2.381984
  0
VERTEX
  8
PLAN_1
  6
CONTINUOUS
 10
-1.025098
 20
2.391157
  0
VERTEX
  8
PLAN_1
  6
CONTINUOUS
 10
-1.013839
 20
2.400752
  0
VERTEX
  8
PLAN_1
  6
CONTINUOUS
 10
-1.002996
 20
2.411173
  0
VERTEX
  8
PLAN_1
  6
CONTINUOUS
 10
-0.992575
 20
2.422016
  0
VERTEX
  8
PLAN_1
  6
CONTINUOUS
 10
-0.982980
 20
2.433276
  0
VERTEX
  8
PLAN_1
  6
CONTINUOUS
 10
-0.973807
 20
2.444953
  0
VERTEX
  8
PLAN_1
  6
CONTINUOUS
 10
-0.965051
 20
2.457043
  0
VERTEX
  8
PLAN_1
  6
CONTINUOUS
 10
-0.956713
 20
2.469555
  0
VERTEX
  8
PLAN_1
  6
CONTINUOUS
 10
-0.949622
 20
2.482898
  0
VERTEX
  8
PLAN_1
  6
CONTINUOUS
 10
-0.942531
 20
2.496244
  0
VERTEX
  8
PLAN_1
  6
CONTINUOUS
 10
-0.936280
 20
2.510004
  0
VERTEX
  8
PLAN_1
  6
CONTINUOUS
 10
-0.930858
 20
2.524181
  0
VERTEX
  8
PLAN_1
  6
CONTINUOUS
 10
-0.925854
 20
2.538358
  0
VERTEX
  8
PLAN_1
  6
CONTINUOUS
 10
-0.921681
 20
2.553370
  0
VERTEX
  8
PLAN_1
  6
CONTINUOUS
 10
-0.918346
 20
2.568386
  0
VERTEX
  8
PLAN_1
  6
CONTINUOUS
 10
-0.915429
 20
2.583398
  0
VERTEX
  8
PLAN_1
  6
CONTINUOUS
 10
-0.913343
 20
2.599240
  0
VERTEX
  8
PLAN_1
  6
CONTINUOUS
 10
-0.912508
 20
2.615087
  0
VERTEX
  8
PLAN_1
  6
CONTINUOUS
 10
-0.912091
 20
2.630933
  0
VERTEX
  8
PLAN_1
  6
CONTINUOUS
 10
-0.912508
 20
2.646780
  0
VERTEX
  8
PLAN_1
  6
CONTINUOUS
 10
-0.913343
 20
2.662626
  0
VERTEX
  8
PLAN_1
  6
CONTINUOUS
 10
-0.915429
 20
2.678055
  0
VERTEX
  8
PLAN_1
  6
CONTINUOUS
 10
-0.918346
 20
2.693484
  0
VERTEX
  8
PLAN_1
  6
CONTINUOUS
 10
-0.921681
 20
2.708496
  0
VERTEX
  8
PLAN_1
  6
CONTINUOUS
 10
-0.925854
 20
2.723091
  0
VERTEX
  8
PLAN_1
  6
CONTINUOUS
 10
-0.930858
 20
2.737685
  0
VERTEX
  8
PLAN_1
  6
CONTINUOUS
 10
-0.936280
 20
2.751862
  0
VERTEX
  8
PLAN_1
  6
CONTINUOUS
 10
-0.942531
 20
2.765626
  0
VERTEX
  8
PLAN_1
  6
CONTINUOUS
 10
-0.949622
 20
2.778969
  0
VERTEX
  8
PLAN_1
  6
CONTINUOUS
 10
-0.956713
 20
2.791898
  0
VERTEX
  8
PLAN_1
  6
CONTINUOUS
 10
-0.965051
 20
2.804823
  0
VERTEX
  8
PLAN_1
  6
CONTINUOUS
 10
-0.973807
 20
2.816917
  0
VERTEX
  8
PLAN_1
  6
CONTINUOUS
 10
-0.982980
 20
2.828591
  0
VERTEX
  8
PLAN_1
  6
CONTINUOUS
 10
-0.992575
 20
2.839850
  0
VERTEX
  8
PLAN_1
  6
CONTINUOUS
 10
-1.002996
 20
2.850693
  0
VERTEX
  8
PLAN_1
  6
CONTINUOUS
 10
-1.013839
 20
2.861118
  0
VERTEX
  8
PLAN_1
  6
CONTINUOUS
 10
-1.025098
 20
2.870709
  0
VERTEX
  8
PLAN_1
  6
CONTINUOUS
 10
-1.036776
 20
2.879882
  0
VERTEX
  8
PLAN_1
  6
CONTINUOUS
 10
-1.048866
 20
2.888642
  0
VERTEX
  8
PLAN_1
  6
CONTINUOUS
 10
-1.061378
 20
2.896563
  0
VERTEX
  8
PLAN_1
  6
CONTINUOUS
 10
-1.074720
 20
2.904071
  0
VERTEX
  8
PLAN_1
  6
CONTINUOUS
 10
-1.088067
 20
2.911157
  0
VERTEX
  8
PLAN_1
  6
CONTINUOUS
 10
-1.101827
 20
2.917413
  0
VERTEX
  8
PLAN_1
  6
CONTINUOUS
 10
-1.116004
 20
2.922835
  0
VERTEX
  8
PLAN_1
  6
CONTINUOUS
 10
-1.130181
 20
2.927839
  0
VERTEX
  8
PLAN_1
  6
CONTINUOUS
 10
-1.145197
 20
2.932008
  0
VERTEX
  8
PLAN_1
  6
CONTINUOUS
 10
-1.160209
 20
2.935343
  0
VERTEX
  8
PLAN_1
  6
CONTINUOUS
 10
-1.175220
 20
2.938264
  0
VERTEX
  8
PLAN_1
  6
CONTINUOUS
 10
-1.191067
 20
2.939929
  0
VERTEX
  8
PLAN_1
  6
CONTINUOUS
 10
-1.206909
 20
2.941181
  0
VERTEX
  8
PLAN_1
  6
CONTINUOUS
 10
-1.222756
 20
2.941598
  0
VERTEX
  8
PLAN_1
  6
CONTINUOUS
 10
-1.238602
 20
2.941181
  0
VERTEX
  8
PLAN_1
  6
CONTINUOUS
 10
-1.254449
 20
2.939929
  0
VERTEX
  8
PLAN_1
  6
CONTINUOUS
 10
-1.269878
 20
2.938264
  0
VERTEX
  8
PLAN_1
  6
CONTINUOUS
 10
-1.285307
 20
2.935343
  0
VERTEX
  8
PLAN_1
  6
CONTINUOUS
 10
-1.300319
 20
2.932008
  0
VERTEX
  8
PLAN_1
  6
CONTINUOUS
 10
-1.315331
 20
2.927839
  0
VERTEX
  8
PLAN_1
  6
CONTINUOUS
 10
-1.329508
 20
2.922835
  0
VERTEX
  8
PLAN_1
  6
CONTINUOUS
 10
-1.343685
 20
2.917413
  0
VERTEX
  8
PLAN_1
  6
CONTINUOUS
 10
-1.357449
 20
2.911157
  0
VERTEX
  8
PLAN_1
  6
CONTINUOUS
 10
-1.370791
 20
2.904071
  0
VERTEX
  8
PLAN_1
  6
CONTINUOUS
 10
-1.383720
 20
2.896563
  0
VERTEX
  8
PLAN_1
  6
CONTINUOUS
 10
-1.396646
 20
2.888642
  0
VERTEX
  8
PLAN_1
  6
CONTINUOUS
 10
-1.408740
 20
2.879882
  0
VERTEX
  8
PLAN_1
  6
CONTINUOUS
 10
-1.420413
 20
2.870709
  0
VERTEX
  8
PLAN_1
  6
CONTINUOUS
 10
-1.431673
 20
2.861118
  0
VERTEX
  8
PLAN_1
  6
CONTINUOUS
 10
-1.442516
 20
2.850693
  0
VERTEX
  8
PLAN_1
  6
CONTINUOUS
 10
-1.452941
 20
2.839850
  0
VERTEX
  8
PLAN_1
  6
CONTINUOUS
 10
-1.462531
 20
2.828591
  0
VERTEX
  8
PLAN_1
  6
CONTINUOUS
 10
-1.471705
 20
2.816917
  0
VERTEX
  8
PLAN_1
  6
CONTINUOUS
 10
-1.480465
 20
2.804823
  0
VERTEX
  8
PLAN_1
  6
CONTINUOUS
 10
-1.488386
 20
2.791898
  0
VERTEX
  8
PLAN_1
  6
CONTINUOUS
 10
-1.495894
 20
2.778969
  0
VERTEX
  8
PLAN_1
  6
CONTINUOUS
 10
-1.502980
 20
2.765626
  0
VERTEX
  8
PLAN_1
  6
CONTINUOUS
 10
-1.509236
 20
2.751862
  0
VERTEX
  8
PLAN_1
  6
CONTINUOUS
 10
-1.514657
 20
2.737685
  0
VERTEX
  8
PLAN_1
  6
CONTINUOUS
 10
-1.519661
 20
2.723091
  0
VERTEX
  8
PLAN_1
  6
CONTINUOUS
 10
-1.523831
 20
2.708496
  0
VERTEX
  8
PLAN_1
  6
CONTINUOUS
 10
-1.527165
 20
2.693484
  0
VERTEX
  8
PLAN_1
  6
CONTINUOUS
 10
-1.530087
 20
2.678055
  0
VERTEX
  8
PLAN_1
  6
CONTINUOUS
 10
-1.531756
 20
2.662626
  0
VERTEX
  8
PLAN_1
  6
CONTINUOUS
 10
-1.533004
 20
2.646780
  0
VERTEX
  8
PLAN_1
  6
CONTINUOUS
 10
-1.533421
 20
2.630933
  0
VERTEX
  8
PLAN_1
  6
CONTINUOUS
 10
-1.533004
 20
2.615087
  0
VERTEX
  8
PLAN_1
  6
CONTINUOUS
 10
-1.531756
 20
2.599240
  0
VERTEX
  8
PLAN_1
  6
CONTINUOUS
 10
-1.530087
 20
2.583398
  0
VERTEX
  8
PLAN_1
  6
CONTINUOUS
 10
-1.527165
 20
2.568386
  0
VERTEX
  8
PLAN_1
  6
CONTINUOUS
 10
-1.523831
 20
2.553370
  0
VERTEX
  8
PLAN_1
  6
CONTINUOUS
 10
-1.519661
 20
2.538358
  0
VERTEX
  8
PLAN_1
  6
CONTINUOUS
 10
-1.514657
 20
2.524181
  0
VERTEX
  8
PLAN_1
  6
CONTINUOUS
 10
-1.509236
 20
2.510004
  0
VERTEX
  8
PLAN_1
  6
CONTINUOUS
 10
-1.502980
 20
2.496244
  0
VERTEX
  8
PLAN_1
  6
CONTINUOUS
 10
-1.495894
 20
2.482898
  0
VERTEX
  8
PLAN_1
  6
CONTINUOUS
 10
-1.488386
 20
2.469555
  0
VERTEX
  8
PLAN_1
  6
CONTINUOUS
 10
-1.480465
 20
2.457043
  0
VERTEX
  8
PLAN_1
  6
CONTINUOUS
 10
-1.471705
 20
2.444953
  0
VERTEX
  8
PLAN_1
  6
CONTINUOUS
 10
-1.462531
 20
2.433276
  0
VERTEX
  8
PLAN_1
  6
CONTINUOUS
 10
-1.452941
 20
2.422016
  0
VERTEX
  8
PLAN_1
  6
CONTINUOUS
 10
-1.442516
 20
2.411173
  0
VERTEX
  8
PLAN_1
  6
CONTINUOUS
 10
-1.431673
 20
2.400752
  0
VERTEX
  8
PLAN_1
  6
CONTINUOUS
 10
-1.420413
 20
2.391157
  0
VERTEX
  8
PLAN_1
  6
CONTINUOUS
 10
-1.408740
 20
2.381984
  0
VERTEX
  8
PLAN_1
  6
CONTINUOUS
 10
-1.396646
 20
2.373228
  0
VERTEX
  8
PLAN_1
  6
CONTINUOUS
 10
-1.383720
 20
2.364890
  0
VERTEX
  8
PLAN_1
  6
CONTINUOUS
 10
-1.370791
 20
2.357799
  0
VERTEX
  8
PLAN_1
  6
CONTINUOUS
 10
-1.357449
 20
2.350709
  0
VERTEX
  8
PLAN_1
  6
CONTINUOUS
 10
-1.343685
 20
2.344457
  0
VERTEX
  8
PLAN_1
  6
CONTINUOUS
 10
-1.329508
 20
2.339035
  0
VERTEX
  8
PLAN_1
  6
CONTINUOUS
 10
-1.315331
 20
2.334031
  0
VERTEX
  8
PLAN_1
  6
CONTINUOUS
 10
-1.300319
 20
2.329858
  0
VERTEX
  8
PLAN_1
  6
CONTINUOUS
 10
-1.285307
 20
2.326524
  0
VERTEX
  8
PLAN_1
  6
CONTINUOUS
 10
-1.269878
 20
2.323606
  0
VERTEX
  8
PLAN_1
  6
CONTINUOUS
 10
-1.254449
 20
2.321520
  0
VERTEX
  8
PLAN_1
  6
CONTINUOUS
 10
-1.238602
 20
2.320685
  0
VERTEX
  8
PLAN_1
  6
CONTINUOUS
 10
-1.222756
 20
2.320268
  0
SEQEND
  8
0
  0
POLYLINE
  8
PLAN_1
  6
CONTINUOUS
 66
     1
 40
0.008339
 41
0.008339
  0
VERTEX
  8
PLAN_1
  6
CONTINUOUS
 10
-1.221921
 20
2.422850
  0
VERTEX
  8
PLAN_1
  6
CONTINUOUS
 10
-1.211083
 20
2.422850
  0
VERTEX
  8
PLAN_1
  6
CONTINUOUS
 10
-1.200657
 20
2.423685
  0
VERTEX
  8
PLAN_1
  6
CONTINUOUS
 10
-1.190232
 20
2.425354
  0
VERTEX
  8
PLAN_1
  6
CONTINUOUS
 10
-1.180224
 20
2.427020
  0
VERTEX
  8
PLAN_1
  6
CONTINUOUS
 10
-1.170217
 20
2.429106
  0
VERTEX
  8
PLAN_1
  6
CONTINUOUS
 10
-1.160209
 20
2.432024
  0
VERTEX
  8
PLAN_1
  6
CONTINUOUS
 10
-1.150614
 20
2.435362
  0
VERTEX
  8
PLAN_1
  6
CONTINUOUS
 10
-1.141024
 20
2.439114
  0
VERTEX
  8
PLAN_1
  6
CONTINUOUS
 10
-1.131850
 20
2.443283
  0
VERTEX
  8
PLAN_1
  6
CONTINUOUS
 10
-1.123094
 20
2.447870
  0
VERTEX
  8
PLAN_1
  6
CONTINUOUS
 10
-1.114339
 20
2.452874
  0
VERTEX
  8
PLAN_1
  6
CONTINUOUS
 10
-1.105996
 20
2.458295
  0
VERTEX
  8
PLAN_1
  6
CONTINUOUS
 10
-1.097657
 20
2.464134
  0
VERTEX
  8
PLAN_1
  6
CONTINUOUS
 10
-1.090150
 20
2.469972
  0
VERTEX
  8
PLAN_1
  6
CONTINUOUS
 10
-1.082646
 20
2.476646
  0
VERTEX
  8
PLAN_1
  6
CONTINUOUS
 10
-1.075138
 20
2.483315
  0
VERTEX
  8
PLAN_1
  6
CONTINUOUS
 10
-1.068469
 20
2.490823
  0
VERTEX
  8
PLAN_1
  6
CONTINUOUS
 10
-1.061795
 20
2.498327
  0
VERTEX
  8
PLAN_1
  6
CONTINUOUS
 10
-1.055957
 20
2.505835
  0
VERTEX
  8
PLAN_1
  6
CONTINUOUS
 10
-1.050118
 20
2.514173
  0
VERTEX
  8
PLAN_1
  6
CONTINUOUS
 10
-1.044697
 20
2.522516
  0
VERTEX
  8
PLAN_1
  6
CONTINUOUS
 10
-1.039693
 20
2.531272
  0
VERTEX
  8
PLAN_1
  6
CONTINUOUS
 10
-1.035106
 20
2.540028
  0
VERTEX
  8
PLAN_1
  6
CONTINUOUS
 10
-1.030937
 20
2.549201
  0
VERTEX
  8
PLAN_1
  6
CONTINUOUS
 10
-1.027185
 20
2.558791
  0
VERTEX
  8
PLAN_1
  6
CONTINUOUS
 10
-1.023846
 20
2.568386
  0
VERTEX
  8
PLAN_1
  6
CONTINUOUS
 10
-1.020929
 20
2.577976
  0
VERTEX
  8
PLAN_1
  6
CONTINUOUS
 10
-1.018843
 20
2.588402
  0
VERTEX
  8
PLAN_1
  6
CONTINUOUS
 10
-1.017177
 20
2.598409
  0
VERTEX
  8
PLAN_1
  6
CONTINUOUS
 10
-1.015508
 20
2.608835
  0
VERTEX
  8
PLAN_1
  6
CONTINUOUS
 10
-1.014673
 20
2.619260
  0
VERTEX
  8
PLAN_1
  6
CONTINUOUS
 10
-1.014673
 20
2.630098
  0
VERTEX
  8
PLAN_1
  6
CONTINUOUS
 10
-1.014673
 20
2.640524
  0
VERTEX
  8
PLAN_1
  6
CONTINUOUS
 10
-1.015508
 20
2.650949
  0
VERTEX
  8
PLAN_1
  6
CONTINUOUS
 10
-1.017177
 20
2.661374
  0
VERTEX
  8
PLAN_1
  6
CONTINUOUS
 10
-1.018843
 20
2.671799
  0
VERTEX
  8
PLAN_1
  6
CONTINUOUS
 10
-1.020929
 20
2.681807
  0
VERTEX
  8
PLAN_1
  6
CONTINUOUS
 10
-1.023846
 20
2.691398
  0
VERTEX
  8
PLAN_1
  6
CONTINUOUS
 10
-1.027185
 20
2.700988
  0
VERTEX
  8
PLAN_1
  6
CONTINUOUS
 10
-1.030937
 20
2.710583
  0
VERTEX
  8
PLAN_1
  6
CONTINUOUS
 10
-1.035106
 20
2.719756
  0
VERTEX
  8
PLAN_1
  6
CONTINUOUS
 10
-1.039693
 20
2.728512
  0
VERTEX
  8
PLAN_1
  6
CONTINUOUS
 10
-1.044697
 20
2.737268
  0
VERTEX
  8
PLAN_1
  6
CONTINUOUS
 10
-1.050118
 20
2.745610
  0
VERTEX
  8
PLAN_1
  6
CONTINUOUS
 10
-1.055957
 20
2.753949
  0
VERTEX
  8
PLAN_1
  6
CONTINUOUS
 10
-1.061795
 20
2.761870
  0
VERTEX
  8
PLAN_1
  6
CONTINUOUS
 10
-1.068469
 20
2.769378
  0
VERTEX
  8
PLAN_1
  6
CONTINUOUS
 10
-1.075138
 20
2.776469
  0
VERTEX
  8
PLAN_1
  6
CONTINUOUS
 10
-1.082646
 20
2.783138
  0
VERTEX
  8
PLAN_1
  6
CONTINUOUS
 10
-1.090150
 20
2.789811
  0
VERTEX
  8
PLAN_1
  6
CONTINUOUS
 10
-1.097657
 20
2.796067
  0
VERTEX
  8
PLAN_1
  6
CONTINUOUS
 10
-1.105996
 20
2.801906
  0
VERTEX
  8
PLAN_1
  6
CONTINUOUS
 10
-1.114339
 20
2.807327
  0
VERTEX
  8
PLAN_1
  6
CONTINUOUS
 10
-1.123094
 20
2.812331
  0
VERTEX
  8
PLAN_1
  6
CONTINUOUS
 10
-1.131850
 20
2.816917
  0
VERTEX
  8
PLAN_1
  6
CONTINUOUS
 10
-1.141024
 20
2.820669
  0
VERTEX
  8
PLAN_1
  6
CONTINUOUS
 10
-1.150614
 20
2.824421
  0
VERTEX
  8
PLAN_1
  6
CONTINUOUS
 10
-1.160209
 20
2.827760
  0
VERTEX
  8
PLAN_1
  6
CONTINUOUS
 10
-1.170217
 20
2.830677
  0
VERTEX
  8
PLAN_1
  6
CONTINUOUS
 10
-1.180224
 20
2.832764
  0
VERTEX
  8
PLAN_1
  6
CONTINUOUS
 10
-1.190232
 20
2.834846
  0
VERTEX
  8
PLAN_1
  6
CONTINUOUS
 10
-1.200657
 20
2.836098
  0
VERTEX
  8
PLAN_1
  6
CONTINUOUS
 10
-1.211083
 20
2.836933
  0
VERTEX
  8
PLAN_1
  6
CONTINUOUS
 10
-1.221921
 20
2.837350
  0
VERTEX
  8
PLAN_1
  6
CONTINUOUS
 10
-1.232346
 20
2.836933
  0
VERTEX
  8
PLAN_1
  6
CONTINUOUS
 10
-1.242772
 20
2.836098
  0
VERTEX
  8
PLAN_1
  6
CONTINUOUS
 10
-1.253197
 20
2.834846
  0
VERTEX
  8
PLAN_1
  6
CONTINUOUS
 10
-1.263622
 20
2.832764
  0
VERTEX
  8
PLAN_1
  6
CONTINUOUS
 10
-1.273630
 20
2.830677
  0
VERTEX
  8
PLAN_1
  6
CONTINUOUS
 10
-1.283220
 20
2.827760
  0
VERTEX
  8
PLAN_1
  6
CONTINUOUS
 10
-1.293228
 20
2.824421
  0
VERTEX
  8
PLAN_1
  6
CONTINUOUS
 10
-1.302406
 20
2.820669
  0
VERTEX
  8
PLAN_1
  6
CONTINUOUS
 10
-1.311579
 20
2.816917
  0
VERTEX
  8
PLAN_1
  6
CONTINUOUS
 10
-1.320752
 20
2.812331
  0
VERTEX
  8
PLAN_1
  6
CONTINUOUS
 10
-1.329091
 20
2.807327
  0
VERTEX
  8
PLAN_1
  6
CONTINUOUS
 10
-1.337433
 20
2.801906
  0
VERTEX
  8
PLAN_1
  6
CONTINUOUS
 10
-1.345772
 20
2.796067
  0
VERTEX
  8
PLAN_1
  6
CONTINUOUS
 10
-1.353697
 20
2.789811
  0
VERTEX
  8
PLAN_1
  6
CONTINUOUS
 10
-1.361201
 20
2.783138
  0
VERTEX
  8
PLAN_1
  6
CONTINUOUS
 10
-1.368291
 20
2.776469
  0
VERTEX
  8
PLAN_1
  6
CONTINUOUS
 10
-1.374961
 20
2.769378
  0
VERTEX
  8
PLAN_1
  6
CONTINUOUS
 10
-1.381634
 20
2.761870
  0
VERTEX
  8
PLAN_1
  6
CONTINUOUS
 10
-1.387890
 20
2.753949
  0
VERTEX
  8
PLAN_1
  6
CONTINUOUS
 10
-1.393728
 20
2.745610
  0
VERTEX
  8
PLAN_1
  6
CONTINUOUS
 10
-1.399150
 20
2.737268
  0
VERTEX
  8
PLAN_1
  6
CONTINUOUS
 10
-1.404154
 20
2.728512
  0
VERTEX
  8
PLAN_1
  6
CONTINUOUS
 10
-1.408740
 20
2.719756
  0
VERTEX
  8
PLAN_1
  6
CONTINUOUS
 10
-1.412909
 20
2.710583
  0
VERTEX
  8
PLAN_1
  6
CONTINUOUS
 10
-1.416244
 20
2.700988
  0
VERTEX
  8
PLAN_1
  6
CONTINUOUS
 10
-1.419583
 20
2.691398
  0
VERTEX
  8
PLAN_1
  6
CONTINUOUS
 10
-1.422500
 20
2.681807
  0
VERTEX
  8
PLAN_1
  6
CONTINUOUS
 10
-1.424587
 20
2.671799
  0
VERTEX
  8
PLAN_1
  6
CONTINUOUS
 10
-1.426669
 20
2.661374
  0
VERTEX
  8
PLAN_1
  6
CONTINUOUS
 10
-1.427921
 20
2.650949
  0
VERTEX
  8
PLAN_1
  6
CONTINUOUS
 10
-1.428756
 20
2.640524
  0
VERTEX
  8
PLAN_1
  6
CONTINUOUS
 10
-1.429173
 20
2.630098
  0
VERTEX
  8
PLAN_1
  6
CONTINUOUS
 10
-1.428756
 20
2.619260
  0
VERTEX
  8
PLAN_1
  6
CONTINUOUS
 10
-1.427921
 20
2.608835
  0
VERTEX
  8
PLAN_1
  6
CONTINUOUS
 10
-1.426669
 20
2.598409
  0
VERTEX
  8
PLAN_1
  6
CONTINUOUS
 10
-1.424587
 20
2.588402
  0
VERTEX
  8
PLAN_1
  6
CONTINUOUS
 10
-1.422500
 20
2.577976
  0
VERTEX
  8
PLAN_1
  6
CONTINUOUS
 10
-1.419583
 20
2.568386
  0
VERTEX
  8
PLAN_1
  6
CONTINUOUS
 10
-1.416244
 20
2.558791
  0
VERTEX
  8
PLAN_1
  6
CONTINUOUS
 10
-1.412909
 20
2.549201
  0
VERTEX
  8
PLAN_1
  6
CONTINUOUS
 10
-1.408740
 20
2.540028
  0
VERTEX
  8
PLAN_1
  6
CONTINUOUS
 10
-1.404154
 20
2.531272
  0
VERTEX
  8
PLAN_1
  6
CONTINUOUS
 10
-1.399150
 20
2.522516
  0
VERTEX
  8
PLAN_1
  6
CONTINUOUS
 10
-1.393728
 20
2.514173
  0
VERTEX
  8
PLAN_1
  6
CONTINUOUS
 10
-1.387890
 20
2.505835
  0
VERTEX
  8
PLAN_1
  6
CONTINUOUS
 10
-1.381634
 20
2.498327
  0
VERTEX
  8
PLAN_1
  6
CONTINUOUS
 10
-1.374961
 20
2.490823
  0
VERTEX
  8
PLAN_1
  6
CONTINUOUS
 10
-1.368291
 20
2.483315
  0
VERTEX
  8
PLAN_1
  6
CONTINUOUS
 10
-1.361201
 20
2.476646
  0
VERTEX
  8
PLAN_1
  6
CONTINUOUS
 10
-1.353697
 20
2.469972
  0
VERTEX
  8
PLAN_1
  6
CONTINUOUS
 10
-1.345772
 20
2.464134
  0
VERTEX
  8
PLAN_1
  6
CONTINUOUS
 10
-1.337433
 20
2.458295
  0
VERTEX
  8
PLAN_1
  6
CONTINUOUS
 10
-1.329091
 20
2.452874
  0
VERTEX
  8
PLAN_1
  6
CONTINUOUS
 10
-1.320752
 20
2.447870
  0
VERTEX
  8
PLAN_1
  6
CONTINUOUS
 10
-1.311579
 20
2.443283
  0
VERTEX
  8
PLAN_1
  6
CONTINUOUS
 10
-1.302406
 20
2.439114
  0
VERTEX
  8
PLAN_1
  6
CONTINUOUS
 10
-1.293228
 20
2.435362
  0
VERTEX
  8
PLAN_1
  6
CONTINUOUS
 10
-1.283220
 20
2.432024
  0
VERTEX
  8
PLAN_1
  6
CONTINUOUS
 10
-1.273630
 20
2.429106
  0
VERTEX
  8
PLAN_1
  6
CONTINUOUS
 10
-1.263622
 20
2.427020
  0
VERTEX
  8
PLAN_1
  6
CONTINUOUS
 10
-1.253197
 20
2.425354
  0
VERTEX
  8
PLAN_1
  6
CONTINUOUS
 10
-1.242772
 20
2.423685
  0
VERTEX
  8
PLAN_1
  6
CONTINUOUS
 10
-1.232346
 20
2.422850
  0
VERTEX
  8
PLAN_1
  6
CONTINUOUS
 10
-1.221921
 20
2.422850
  0
SEQEND
  8
0
  0
POLYLINE
  8
PLAN_1
  6
CONTINUOUS
 66
     1
 40
0.008339
 41
0.008339
  0
VERTEX
  8
PLAN_1
  6
CONTINUOUS
 10
-1.117673
 20
2.876965
  0
VERTEX
  8
PLAN_1
  6
CONTINUOUS
 10
-1.324921
 20
2.876965
  0
VERTEX
  8
PLAN_1
  6
CONTINUOUS
 10
-1.324921
 20
2.379484
  0
VERTEX
  8
PLAN_1
  6
CONTINUOUS
 10
-1.117673
 20
2.379484
  0
VERTEX
  8
PLAN_1
  6
CONTINUOUS
 10
-1.117673
 20
2.876965
  0
SEQEND
  8
0
  0
POLYLINE
  8
PLAN_1
 62
     2
  6
CONTINUOUS
 66
     1
 40
0.004169
 41
0.004169
  0
VERTEX
  8
PLAN_1
 62
     2
  6
CONTINUOUS
 10
-0.208197
 20
1.848642
  0
VERTEX
  8
PLAN_1
 62
     2
  6
CONTINUOUS
 10
-0.368740
 20
1.848642
  0
SEQEND
  8
0
  0
POLYLINE
  8
PLAN_1
 62
     2
  6
CONTINUOUS
 66
     1
 40
0.004169
 41
0.004169
  0
VERTEX
  8
PLAN_1
 62
     2
  6
CONTINUOUS
 10
-0.213618
 20
2.634272
  0
VERTEX
  8
PLAN_1
 62
     2
  6
CONTINUOUS
 10
-0.953791
 20
2.634272
  0
SEQEND
  8
0
  0
POLYLINE
  8
PLAN_1
 62
     2
  6
CONTINUOUS
 66
     1
 40
0.004169
 41
0.004169
  0
VERTEX
  8
PLAN_1
 62
     2
  6
CONTINUOUS
 10
-0.231965
 20
1.877413
  0
VERTEX
  8
PLAN_1
 62
     2
  6
CONTINUOUS
 10
-0.231965
 20
2.604661
  0
SEQEND
  8
0
  0
SOLID
  8
PLAN_1
 62
     2
 10
-0.231965
 20
2.634272
 11
-0.247811
 21
2.575472
 12
-0.231965
 22
2.634272
 13
-0.216118
 23
2.575472
  0
POLYLINE
  8
PLAN_1
 62
     2
  6
CONTINUOUS
 66
     1
 40
0.003000
 41
0.003000
  0
VERTEX
  8
PLAN_1
 62
     2
  6
CONTINUOUS
 10
-0.231965
 20
2.634272
  0
VERTEX
  8
PLAN_1
 62
     2
  6
CONTINUOUS
 10
-0.247811
 20
2.575472
  0
VERTEX
  8
PLAN_1
 62
     2
  6
CONTINUOUS
 10
-0.216118
 20
2.575472
  0
VERTEX
  8
PLAN_1
 62
     2
  6
CONTINUOUS
 10
-0.231965
 20
2.634272
  0
SEQEND
  8
0
  0
SOLID
  8
PLAN_1
 62
     2
 10
-0.231965
 20
1.848224
 11
-0.247811
 21
1.907024
 12
-0.231965
 22
1.848224
 13
-0.216118
 23
1.907024
  0
POLYLINE
  8
PLAN_1
 62
     2
  6
CONTINUOUS
 66
     1
 40
0.003000
 41
0.003000
  0
VERTEX
  8
PLAN_1
 62
     2
  6
CONTINUOUS
 10
-0.231965
 20
1.848224
  0
VERTEX
  8
PLAN_1
 62
     2
  6
CONTINUOUS
 10
-0.247811
 20
1.907024
  0
VERTEX
  8
PLAN_1
 62
     2
  6
CONTINUOUS
 10
-0.216118
 20
1.907024
  0
VERTEX
  8
PLAN_1
 62
     2
  6
CONTINUOUS
 10
-0.231965
 20
1.848224
  0
SEQEND
  8
0
  0
POLYLINE
  8
PLAN_1
 62
     2
  6
CONTINUOUS
 66
     1
 40
0.003000
 41
0.003000
  0
VERTEX
  8
PLAN_1
 62
     2
  6
CONTINUOUS
 10
-0.302437
 20
2.188079
  0
VERTEX
  8
PLAN_1
 62
     2
  6
CONTINUOUS
 10
-0.306606
 20
2.188079
  0
VERTEX
  8
PLAN_1
 62
     2
  6
CONTINUOUS
 10
-0.310362
 20
2.188496
  0
VERTEX
  8
PLAN_1
 62
     2
  6
CONTINUOUS
 10
-0.313697
 20
2.189331
  0
VERTEX
  8
PLAN_1
 62
     2
  6
CONTINUOUS
 10
-0.316614
 20
2.190583
  0
VERTEX
  8
PLAN_1
 62
     2
  6
CONTINUOUS
 10
-0.319118
 20
2.192252
  0
VERTEX
  8
PLAN_1
 62
     2
  6
CONTINUOUS
 10
-0.321205
 20
2.193917
  0
VERTEX
  8
PLAN_1
 62
     2
  6
CONTINUOUS
 10
-0.323287
 20
2.195587
  0
VERTEX
  8
PLAN_1
 62
     2
  6
CONTINUOUS
 10
-0.324539
 20
2.197669
  0
VERTEX
  8
PLAN_1
 62
     2
  6
CONTINUOUS
 10
-0.325791
 20
2.199756
  0
VERTEX
  8
PLAN_1
 62
     2
  6
CONTINUOUS
 10
-0.326622
 20
2.201843
  0
VERTEX
  8
PLAN_1
 62
     2
  6
CONTINUOUS
 10
-0.327457
 20
2.203925
  0
VERTEX
  8
PLAN_1
 62
     2
  6
CONTINUOUS
 10
-0.327874
 20
2.206012
  0
VERTEX
  8
PLAN_1
 62
     2
  6
CONTINUOUS
 10
-0.328709
 20
2.209764
  0
VERTEX
  8
PLAN_1
 62
     2
  6
CONTINUOUS
 10
-0.328709
 20
2.213098
  0
VERTEX
  8
PLAN_1
 62
     2
  6
CONTINUOUS
 10
-0.328291
 20
2.217685
  0
VERTEX
  8
PLAN_1
 62
     2
  6
CONTINUOUS
 10
-0.327457
 20
2.222276
  0
VERTEX
  8
PLAN_1
 62
     2
  6
CONTINUOUS
 10
-0.326622
 20
2.223941
  0
VERTEX
  8
PLAN_1
 62
     2
  6
CONTINUOUS
 10
-0.325374
 20
2.226028
  0
VERTEX
  8
PLAN_1
 62
     2
  6
CONTINUOUS
 10
-0.324122
 20
2.227697
  0
VERTEX
  8
PLAN_1
 62
     2
  6
CONTINUOUS
 10
-0.322870
 20
2.229362
  0
VERTEX
  8
PLAN_1
 62
     2
  6
CONTINUOUS
 10
-0.321618
 20
2.231031
  0
VERTEX
  8
PLAN_1
 62
     2
  6
CONTINUOUS
 10
-0.319953
 20
2.232283
  0
VERTEX
  8
PLAN_1
 62
     2
  6
CONTINUOUS
 10
-0.317866
 20
2.233114
  0
VERTEX
  8
PLAN_1
 62
     2
  6
CONTINUOUS
 10
-0.316201
 20
2.234366
  0
VERTEX
  8
PLAN_1
 62
     2
  6
CONTINUOUS
 10
-0.314114
 20
2.235201
  0
VERTEX
  8
PLAN_1
 62
     2
  6
CONTINUOUS
 10
-0.311610
 20
2.235618
  0
VERTEX
  8
PLAN_1
 62
     2
  6
CONTINUOUS
 10
-0.309528
 20
2.236035
  0
VERTEX
  8
PLAN_1
 62
     2
  6
CONTINUOUS
 10
-0.307024
 20
2.236035
  0
VERTEX
  8
PLAN_1
 62
     2
  6
CONTINUOUS
 10
-0.302437
 20
2.235618
  0
VERTEX
  8
PLAN_1
 62
     2
  6
CONTINUOUS
 10
-0.298268
 20
2.234366
  0
VERTEX
  8
PLAN_1
 62
     2
  6
CONTINUOUS
 10
-0.294933
 20
2.232701
  0
VERTEX
  8
PLAN_1
 62
     2
  6
CONTINUOUS
 10
-0.292012
 20
2.230197
  0
VERTEX
  8
PLAN_1
 62
     2
  6
CONTINUOUS
 10
-0.289512
 20
2.227280
  0
VERTEX
  8
PLAN_1
 62
     2
  6
CONTINUOUS
 10
-0.287008
 20
2.224358
  0
VERTEX
  8
PLAN_1
 62
     2
  6
CONTINUOUS
 10
-0.284508
 20
2.220606
  0
VERTEX
  8
PLAN_1
 62
     2
  6
CONTINUOUS
 10
-0.282421
 20
2.216437
  0
VERTEX
  8
PLAN_1
 62
     2
  6
CONTINUOUS
 10
-0.278252
 20
2.208929
  0
VERTEX
  8
PLAN_1
 62
     2
  6
CONTINUOUS
 10
-0.276165
 20
2.205594
  0
VERTEX
  8
PLAN_1
 62
     2
  6
CONTINUOUS
 10
-0.274083
 20
2.202673
  0
VERTEX
  8
PLAN_1
 62
     2
  6
CONTINUOUS
 10
-0.271996
 20
2.200591
  0
VERTEX
  8
PLAN_1
 62
     2
  6
CONTINUOUS
 10
-0.270331
 20
2.198921
  0
VERTEX
  8
PLAN_1
 62
     2
  6
CONTINUOUS
 10
-0.268661
 20
2.197669
  0
VERTEX
  8
PLAN_1
 62
     2
  6
CONTINUOUS
 10
-0.266992
 20
2.196839
  0
VERTEX
  8
PLAN_1
 62
     2
  6
CONTINUOUS
 10
-0.265327
 20
2.196421
  0
VERTEX
  8
PLAN_1
 62
     2
  6
CONTINUOUS
 10
-0.264075
 20
2.196421
  0
VERTEX
  8
PLAN_1
 62
     2
  6
CONTINUOUS
 10
-0.264075
 20
2.236035
  0
VERTEX
  8
PLAN_1
 62
     2
  6
CONTINUOUS
 10
-0.255732
 20
2.236035
  0
VERTEX
  8
PLAN_1
 62
     2
  6
CONTINUOUS
 10
-0.255732
 20
2.185996
  0
VERTEX
  8
PLAN_1
 62
     2
  6
CONTINUOUS
 10
-0.261154
 20
2.186413
  0
VERTEX
  8
PLAN_1
 62
     2
  6
CONTINUOUS
 10
-0.265740
 20
2.187661
  0
VERTEX
  8
PLAN_1
 62
     2
  6
CONTINUOUS
 10
-0.269913
 20
2.188913
  0
VERTEX
  8
PLAN_1
 62
     2
  6
CONTINUOUS
 10
-0.273665
 20
2.191000
  0
VERTEX
  8
PLAN_1
 62
     2
  6
CONTINUOUS
 10
-0.277000
 20
2.193500
  0
VERTEX
  8
PLAN_1
 62
     2
  6
CONTINUOUS
 10
-0.279921
 20
2.196421
  0
VERTEX
  8
PLAN_1
 62
     2
  6
CONTINUOUS
 10
-0.282421
 20
2.199756
  0
VERTEX
  8
PLAN_1
 62
     2
  6
CONTINUOUS
 10
-0.284508
 20
2.203091
  0
VERTEX
  8
PLAN_1
 62
     2
  6
CONTINUOUS
 10
-0.290346
 20
2.212681
  0
VERTEX
  8
PLAN_1
 62
     2
  6
CONTINUOUS
 10
-0.292012
 20
2.215602
  0
VERTEX
  8
PLAN_1
 62
     2
  6
CONTINUOUS
 10
-0.293681
 20
2.218102
  0
VERTEX
  8
PLAN_1
 62
     2
  6
CONTINUOUS
 10
-0.294933
 20
2.220606
  0
VERTEX
  8
PLAN_1
 62
     2
  6
CONTINUOUS
 10
-0.297016
 20
2.222693
  0
VERTEX
  8
PLAN_1
 62
     2
  6
CONTINUOUS
 10
-0.299102
 20
2.223941
  0
VERTEX
  8
PLAN_1
 62
     2
  6
CONTINUOUS
 10
-0.301189
 20
2.225193
  0
VERTEX
  8
PLAN_1
 62
     2
  6
CONTINUOUS
 10
-0.304106
 20
2.226028
  0
VERTEX
  8
PLAN_1
 62
     2
  6
CONTINUOUS
 10
-0.307441
 20
2.226445
  0
VERTEX
  8
PLAN_1
 62
     2
  6
CONTINUOUS
 10
-0.309528
 20
2.226028
  0
VERTEX
  8
PLAN_1
 62
     2
  6
CONTINUOUS
 10
-0.312028
 20
2.225610
  0
VERTEX
  8
PLAN_1
 62
     2
  6
CONTINUOUS
 10
-0.314114
 20
2.224358
  0
VERTEX
  8
PLAN_1
 62
     2
  6
CONTINUOUS
 10
-0.316201
 20
2.223106
  0
VERTEX
  8
PLAN_1
 62
     2
  6
CONTINUOUS
 10
-0.317866
 20
2.221024
  0
VERTEX
  8
PLAN_1
 62
     2
  6
CONTINUOUS
 10
-0.319118
 20
2.218520
  0
VERTEX
  8
PLAN_1
 62
     2
  6
CONTINUOUS
 10
-0.320370
 20
2.215602
  0
VERTEX
  8
PLAN_1
 62
     2
  6
CONTINUOUS
 10
-0.320370
 20
2.211850
  0
VERTEX
  8
PLAN_1
 62
     2
  6
CONTINUOUS
 10
-0.320370
 20
2.209346
  0
VERTEX
  8
PLAN_1
 62
     2
  6
CONTINUOUS
 10
-0.319953
 20
2.207264
  0
VERTEX
  8
PLAN_1
 62
     2
  6
CONTINUOUS
 10
-0.319535
 20
2.205177
  0
VERTEX
  8
PLAN_1
 62
     2
  6
CONTINUOUS
 10
-0.318283
 20
2.203508
  0
VERTEX
  8
PLAN_1
 62
     2
  6
CONTINUOUS
 10
-0.317449
 20
2.202260
  0
VERTEX
  8
PLAN_1
 62
     2
  6
CONTINUOUS
 10
-0.316201
 20
2.201008
  0
VERTEX
  8
PLAN_1
 62
     2
  6
CONTINUOUS
 10
-0.314949
 20
2.200173
  0
VERTEX
  8
PLAN_1
 62
     2
  6
CONTINUOUS
 10
-0.313280
 20
2.199339
  0
VERTEX
  8
PLAN_1
 62
     2
  6
CONTINUOUS
 10
-0.310362
 20
2.198087
  0
VERTEX
  8
PLAN_1
 62
     2
  6
CONTINUOUS
 10
-0.307441
 20
2.197669
  0
VERTEX
  8
PLAN_1
 62
     2
  6
CONTINUOUS
 10
-0.304941
 20
2.197256
  0
VERTEX
  8
PLAN_1
 62
     2
  6
CONTINUOUS
 10
-0.302437
 20
2.196839
  0
VERTEX
  8
PLAN_1
 62
     2
  6
CONTINUOUS
 10
-0.302437
 20
2.188079
  0
SEQEND
  8
0
  0
POLYLINE
  8
PLAN_1
 62
     2
  6
CONTINUOUS
 66
     1
 40
0.003000
 41
0.003000
  0
VERTEX
  8
PLAN_1
 62
     2
  6
CONTINUOUS
 10
-0.253650
 20
2.270228
  0
VERTEX
  8
PLAN_1
 62
     2
  6
CONTINUOUS
 10
-0.254067
 20
2.266476
  0
VERTEX
  8
PLAN_1
 62
     2
  6
CONTINUOUS
 10
-0.254484
 20
2.263142
  0
VERTEX
  8
PLAN_1
 62
     2
  6
CONTINUOUS
 10
-0.255732
 20
2.259803
  0
VERTEX
  8
PLAN_1
 62
     2
  6
CONTINUOUS
 10
-0.257402
 20
2.257303
  0
VERTEX
  8
PLAN_1
 62
     2
  6
CONTINUOUS
 10
-0.259488
 20
2.254799
  0
VERTEX
  8
PLAN_1
 62
     2
  6
CONTINUOUS
 10
-0.261571
 20
2.253134
  0
VERTEX
  8
PLAN_1
 62
     2
  6
CONTINUOUS
 10
-0.264075
 20
2.251047
  0
VERTEX
  8
PLAN_1
 62
     2
  6
CONTINUOUS
 10
-0.266575
 20
2.249795
  0
VERTEX
  8
PLAN_1
 62
     2
  6
CONTINUOUS
 10
-0.269496
 20
2.248543
  0
VERTEX
  8
PLAN_1
 62
     2
  6
CONTINUOUS
 10
-0.272831
 20
2.247295
  0
VERTEX
  8
PLAN_1
 62
     2
  6
CONTINUOUS
 10
-0.275752
 20
2.246461
  0
VERTEX
  8
PLAN_1
 62
     2
  6
CONTINUOUS
 10
-0.279087
 20
2.246043
  0
VERTEX
  8
PLAN_1
 62
     2
  6
CONTINUOUS
 10
-0.285343
 20
2.245209
  0
VERTEX
  8
PLAN_1
 62
     2
  6
CONTINUOUS
 10
-0.291177
 20
2.245209
  0
VERTEX
  8
PLAN_1
 62
     2
  6
CONTINUOUS
 10
-0.297016
 20
2.245209
  0
VERTEX
  8
PLAN_1
 62
     2
  6
CONTINUOUS
 10
-0.303689
 20
2.246043
  0
VERTEX
  8
PLAN_1
 62
     2
  6
CONTINUOUS
 10
-0.306606
 20
2.246461
  0
VERTEX
  8
PLAN_1
 62
     2
  6
CONTINUOUS
 10
-0.309945
 20
2.247295
  0
VERTEX
  8
PLAN_1
 62
     2
  6
CONTINUOUS
 10
-0.312862
 20
2.248543
  0
VERTEX
  8
PLAN_1
 62
     2
  6
CONTINUOUS
 10
-0.315783
 20
2.249795
  0
VERTEX
  8
PLAN_1
 62
     2
  6
CONTINUOUS
 10
-0.318283
 20
2.251047
  0
VERTEX
  8
PLAN_1
 62
     2
  6
CONTINUOUS
 10
-0.320787
 20
2.253134
  0
VERTEX
  8
PLAN_1
 62
     2
  6
CONTINUOUS
 10
-0.323287
 20
2.254799
  0
VERTEX
  8
PLAN_1
 62
     2
  6
CONTINUOUS
 10
-0.324957
 20
2.257303
  0
VERTEX
  8
PLAN_1
 62
     2
  6
CONTINUOUS
 10
-0.326622
 20
2.259803
  0
VERTEX
  8
PLAN_1
 62
     2
  6
CONTINUOUS
 10
-0.327874
 20
2.263142
  0
VERTEX
  8
PLAN_1
 62
     2
  6
CONTINUOUS
 10
-0.328709
 20
2.266476
  0
VERTEX
  8
PLAN_1
 62
     2
  6
CONTINUOUS
 10
-0.328709
 20
2.270228
  0
VERTEX
  8
PLAN_1
 62
     2
  6
CONTINUOUS
 10
-0.328709
 20
2.273980
  0
VERTEX
  8
PLAN_1
 62
     2
  6
CONTINUOUS
 10
-0.327874
 20
2.277319
  0
VERTEX
  8
PLAN_1
 62
     2
  6
CONTINUOUS
 10
-0.326622
 20
2.280236
  0
VERTEX
  8
PLAN_1
 62
     2
  6
CONTINUOUS
 10
-0.324957
 20
2.282740
  0
VERTEX
  8
PLAN_1
 62
     2
  6
CONTINUOUS
 10
-0.323287
 20
2.285240
  0
VERTEX
  8
PLAN_1
 62
     2
  6
CONTINUOUS
 10
-0.320787
 20
2.287327
  0
VERTEX
  8
PLAN_1
 62
     2
  6
CONTINUOUS
 10
-0.318283
 20
2.288992
  0
VERTEX
  8
PLAN_1
 62
     2
  6
CONTINUOUS
 10
-0.315783
 20
2.290661
  0
VERTEX
  8
PLAN_1
 62
     2
  6
CONTINUOUS
 10
-0.312862
 20
2.291913
  0
VERTEX
  8
PLAN_1
 62
     2
  6
CONTINUOUS
 10
-0.309945
 20
2.292748
  0
VERTEX
  8
PLAN_1
 62
     2
  6
CONTINUOUS
 10
-0.306606
 20
2.293583
  0
VERTEX
  8
PLAN_1
 62
     2
  6
CONTINUOUS
 10
-0.303689
 20
2.294413
  0
VERTEX
  8
PLAN_1
 62
     2
  6
CONTINUOUS
 10
-0.297016
 20
2.294831
  0
VERTEX
  8
PLAN_1
 62
     2
  6
CONTINUOUS
 10
-0.291177
 20
2.295248
  0
VERTEX
  8
PLAN_1
 62
     2
  6
CONTINUOUS
 10
-0.285343
 20
2.294831
  0
VERTEX
  8
PLAN_1
 62
     2
  6
CONTINUOUS
 10
-0.279087
 20
2.294413
  0
VERTEX
  8
PLAN_1
 62
     2
  6
CONTINUOUS
 10
-0.275752
 20
2.293583
  0
VERTEX
  8
PLAN_1
 62
     2
  6
CONTINUOUS
 10
-0.272831
 20
2.292748
  0
VERTEX
  8
PLAN_1
 62
     2
  6
CONTINUOUS
 10
-0.269496
 20
2.291913
  0
VERTEX
  8
PLAN_1
 62
     2
  6
CONTINUOUS
 10
-0.266575
 20
2.290661
  0
VERTEX
  8
PLAN_1
 62
     2
  6
CONTINUOUS
 10
-0.264075
 20
2.288992
  0
VERTEX
  8
PLAN_1
 62
     2
  6
CONTINUOUS
 10
-0.261571
 20
2.287327
  0
VERTEX
  8
PLAN_1
 62
     2
  6
CONTINUOUS
 10
-0.259488
 20
2.285240
  0
VERTEX
  8
PLAN_1
 62
     2
  6
CONTINUOUS
 10
-0.257402
 20
2.282740
  0
VERTEX
  8
PLAN_1
 62
     2
  6
CONTINUOUS
 10
-0.255732
 20
2.280236
  0
VERTEX
  8
PLAN_1
 62
     2
  6
CONTINUOUS
 10
-0.254484
 20
2.277319
  0
VERTEX
  8
PLAN_1
 62
     2
  6
CONTINUOUS
 10
-0.254067
 20
2.273980
  0
VERTEX
  8
PLAN_1
 62
     2
  6
CONTINUOUS
 10
-0.253650
 20
2.270228
  0
SEQEND
  8
0
  0
POLYLINE
  8
PLAN_1
 62
     2
  6
CONTINUOUS
 66
     1
 40
0.003000
 41
0.003000
  0
VERTEX
  8
PLAN_1
 62
     2
  6
CONTINUOUS
 10
-0.320370
 20
2.270228
  0
VERTEX
  8
PLAN_1
 62
     2
  6
CONTINUOUS
 10
-0.320370
 20
2.268146
  0
VERTEX
  8
PLAN_1
 62
     2
  6
CONTINUOUS
 10
-0.319953
 20
2.266476
  0
VERTEX
  8
PLAN_1
 62
     2
  6
CONTINUOUS
 10
-0.319535
 20
2.264807
  0
VERTEX
  8
PLAN_1
 62
     2
  6
CONTINUOUS
 10
-0.318701
 20
2.263142
  0
VERTEX
  8
PLAN_1
 62
     2
  6
CONTINUOUS
 10
-0.317449
 20
2.261890
  0
VERTEX
  8
PLAN_1
 62
     2
  6
CONTINUOUS
 10
-0.316201
 20
2.260638
  0
VERTEX
  8
PLAN_1
 62
     2
  6
CONTINUOUS
 10
-0.314531
 20
2.259386
  0
VERTEX
  8
PLAN_1
 62
     2
  6
CONTINUOUS
 10
-0.312862
 20
2.258551
  0
VERTEX
  8
PLAN_1
 62
     2
  6
CONTINUOUS
 10
-0.308693
 20
2.256886
  0
VERTEX
  8
PLAN_1
 62
     2
  6
CONTINUOUS
 10
-0.303689
 20
2.255634
  0
VERTEX
  8
PLAN_1
 62
     2
  6
CONTINUOUS
 10
-0.297850
 20
2.255217
  0
VERTEX
  8
PLAN_1
 62
     2
  6
CONTINUOUS
 10
-0.291177
 20
2.254799
  0
VERTEX
  8
PLAN_1
 62
     2
  6
CONTINUOUS
 10
-0.284508
 20
2.255217
  0
VERTEX
  8
PLAN_1
 62
     2
  6
CONTINUOUS
 10
-0.279087
 20
2.255634
  0
VERTEX
  8
PLAN_1
 62
     2
  6
CONTINUOUS
 10
-0.274083
 20
2.256886
  0
VERTEX
  8
PLAN_1
 62
     2
  6
CONTINUOUS
 10
-0.269496
 20
2.258551
  0
VERTEX
  8
PLAN_1
 62
     2
  6
CONTINUOUS
 10
-0.267827
 20
2.259386
  0
VERTEX
  8
PLAN_1
 62
     2
  6
CONTINUOUS
 10
-0.266157
 20
2.260638
  0
VERTEX
  8
PLAN_1
 62
     2
  6
CONTINUOUS
 10
-0.264909
 20
2.261890
  0
VERTEX
  8
PLAN_1
 62
     2
  6
CONTINUOUS
 10
-0.264075
 20
2.263142
  0
VERTEX
  8
PLAN_1
 62
     2
  6
CONTINUOUS
 10
-0.262823
 20
2.264807
  0
VERTEX
  8
PLAN_1
 62
     2
  6
CONTINUOUS
 10
-0.262406
 20
2.266476
  0
VERTEX
  8
PLAN_1
 62
     2
  6
CONTINUOUS
 10
-0.261988
 20
2.268146
  0
VERTEX
  8
PLAN_1
 62
     2
  6
CONTINUOUS
 10
-0.261988
 20
2.270228
  0
VERTEX
  8
PLAN_1
 62
     2
  6
CONTINUOUS
 10
-0.261988
 20
2.271898
  0
VERTEX
  8
PLAN_1
 62
     2
  6
CONTINUOUS
 10
-0.262406
 20
2.273980
  0
VERTEX
  8
PLAN_1
 62
     2
  6
CONTINUOUS
 10
-0.262823
 20
2.275232
  0
VERTEX
  8
PLAN_1
 62
     2
  6
CONTINUOUS
 10
-0.264075
 20
2.276902
  0
VERTEX
  8
PLAN_1
 62
     2
  6
CONTINUOUS
 10
-0.264909
 20
2.278154
  0
VERTEX
  8
PLAN_1
 62
     2
  6
CONTINUOUS
 10
-0.266157
 20
2.279402
  0
VERTEX
  8
PLAN_1
 62
     2
  6
CONTINUOUS
 10
-0.267827
 20
2.280654
  0
VERTEX
  8
PLAN_1
 62
     2
  6
CONTINUOUS
 10
-0.269496
 20
2.281906
  0
VERTEX
  8
PLAN_1
 62
     2
  6
CONTINUOUS
 10
-0.274083
 20
2.283157
  0
VERTEX
  8
PLAN_1
 62
     2
  6
CONTINUOUS
 10
-0.279087
 20
2.284406
  0
VERTEX
  8
PLAN_1
 62
     2
  6
CONTINUOUS
 10
-0.284508
 20
2.285240
  0
VERTEX
  8
PLAN_1
 62
     2
  6
CONTINUOUS
 10
-0.291177
 20
2.285240
  0
VERTEX
  8
PLAN_1
 62
     2
  6
CONTINUOUS
 10
-0.297850
 20
2.285240
  0
VERTEX
  8
PLAN_1
 62
     2
  6
CONTINUOUS
 10
-0.303689
 20
2.284406
  0
VERTEX
  8
PLAN_1
 62
     2
  6
CONTINUOUS
 10
-0.308693
 20
2.283157
  0
VERTEX
  8
PLAN_1
 62
     2
  6
CONTINUOUS
 10
-0.312862
 20
2.281906
  0
VERTEX
  8
PLAN_1
 62
     2
  6
CONTINUOUS
 10
-0.314531
 20
2.280654
  0
VERTEX
  8
PLAN_1
 62
     2
  6
CONTINUOUS
 10
-0.316201
 20
2.279402
  0
VERTEX
  8
PLAN_1
 62
     2
  6
CONTINUOUS
 10
-0.317449
 20
2.278154
  0
VERTEX
  8
PLAN_1
 62
     2
  6
CONTINUOUS
 10
-0.318701
 20
2.276902
  0
VERTEX
  8
PLAN_1
 62
     2
  6
CONTINUOUS
 10
-0.319535
 20
2.275232
  0
VERTEX
  8
PLAN_1
 62
     2
  6
CONTINUOUS
 10
-0.319953
 20
2.273980
  0
VERTEX
  8
PLAN_1
 62
     2
  6
CONTINUOUS
 10
-0.320370
 20
2.271898
  0
VERTEX
  8
PLAN_1
 62
     2
  6
CONTINUOUS
 10
-0.320370
 20
2.270228
  0
SEQEND
  8
0
  0
POLYLINE
  8
PLAN_1
 62
     2
  6
CONTINUOUS
 66
     1
 40
0.004169
 41
0.004169
  0
VERTEX
  8
PLAN_1
 62
     2
  6
CONTINUOUS
 10
-0.231965
 20
2.663878
  0
VERTEX
  8
PLAN_1
 62
     2
  6
CONTINUOUS
 10
-0.231965
 20
3.050854
  0
SEQEND
  8
0
  0
SOLID
  8
PLAN_1
 62
     2
 10
-0.231965
 20
3.080461
 11
-0.247811
 21
3.021661
 12
-0.231965
 22
3.080461
 13
-0.216118
 23
3.021661
  0
POLYLINE
  8
PLAN_1
 62
     2
  6
CONTINUOUS
 66
     1
 40
0.003000
 41
0.003000
  0
VERTEX
  8
PLAN_1
 62
     2
  6
CONTINUOUS
 10
-0.231965
 20
3.080461
  0
VERTEX
  8
PLAN_1
 62
     2
  6
CONTINUOUS
 10
-0.247811
 20
3.021661
  0
VERTEX
  8
PLAN_1
 62
     2
  6
CONTINUOUS
 10
-0.216118
 20
3.021661
  0
VERTEX
  8
PLAN_1
 62
     2
  6
CONTINUOUS
 10
-0.231965
 20
3.080461
  0
SEQEND
  8
0
  0
SOLID
  8
PLAN_1
 62
     2
 10
-0.231965
 20
2.634272
 11
-0.247811
 21
2.693484
 12
-0.231965
 22
2.634272
 13
-0.216118
 23
2.693484
  0
POLYLINE
  8
PLAN_1
 62
     2
  6
CONTINUOUS
 66
     1
 40
0.003000
 41
0.003000
  0
VERTEX
  8
PLAN_1
 62
     2
  6
CONTINUOUS
 10
-0.231965
 20
2.634272
  0
VERTEX
  8
PLAN_1
 62
     2
  6
CONTINUOUS
 10
-0.247811
 20
2.693484
  0
VERTEX
  8
PLAN_1
 62
     2
  6
CONTINUOUS
 10
-0.216118
 20
2.693484
  0
VERTEX
  8
PLAN_1
 62
     2
  6
CONTINUOUS
 10
-0.231965
 20
2.634272
  0
SEQEND
  8
0
  0
POLYLINE
  8
PLAN_1
 62
     2
  6
CONTINUOUS
 66
     1
 40
0.003000
 41
0.003000
  0
VERTEX
  8
PLAN_1
 62
     2
  6
CONTINUOUS
 10
-0.255732
 20
2.836933
  0
VERTEX
  8
PLAN_1
 62
     2
  6
CONTINUOUS
 10
-0.255732
 20
2.826925
  0
VERTEX
  8
PLAN_1
 62
     2
  6
CONTINUOUS
 10
-0.307441
 20
2.826925
  0
VERTEX
  8
PLAN_1
 62
     2
  6
CONTINUOUS
 10
-0.307441
 20
2.810244
  0
VERTEX
  8
PLAN_1
 62
     2
  6
CONTINUOUS
 10
-0.314949
 20
2.810244
  0
VERTEX
  8
PLAN_1
 62
     2
  6
CONTINUOUS
 10
-0.315366
 20
2.813996
  0
VERTEX
  8
PLAN_1
 62
     2
  6
CONTINUOUS
 10
-0.315783
 20
2.817752
  0
VERTEX
  8
PLAN_1
 62
     2
  6
CONTINUOUS
 10
-0.316614
 20
2.820669
  0
VERTEX
  8
PLAN_1
 62
     2
  6
CONTINUOUS
 10
-0.317449
 20
2.823169
  0
VERTEX
  8
PLAN_1
 62
     2
  6
CONTINUOUS
 10
-0.319535
 20
2.825256
  0
VERTEX
  8
PLAN_1
 62
     2
  6
CONTINUOUS
 10
-0.321618
 20
2.826925
  0
VERTEX
  8
PLAN_1
 62
     2
  6
CONTINUOUS
 10
-0.324957
 20
2.828591
  0
VERTEX
  8
PLAN_1
 62
     2
  6
CONTINUOUS
 10
-0.328709
 20
2.829843
  0
VERTEX
  8
PLAN_1
 62
     2
  6
CONTINUOUS
 10
-0.328709
 20
2.836933
  0
VERTEX
  8
PLAN_1
 62
     2
  6
CONTINUOUS
 10
-0.255732
 20
2.836933
  0
SEQEND
  8
0
  0
POLYLINE
  8
PLAN_1
 62
     2
  6
CONTINUOUS
 66
     1
 40
0.003000
 41
0.003000
  0
VERTEX
  8
PLAN_1
 62
     2
  6
CONTINUOUS
 10
-0.253650
 20
2.886555
  0
VERTEX
  8
PLAN_1
 62
     2
  6
CONTINUOUS
 10
-0.254067
 20
2.882803
  0
VERTEX
  8
PLAN_1
 62
     2
  6
CONTINUOUS
 10
-0.254484
 20
2.879465
  0
VERTEX
  8
PLAN_1
 62
     2
  6
CONTINUOUS
 10
-0.255732
 20
2.876130
  0
VERTEX
  8
PLAN_1
 62
     2
  6
CONTINUOUS
 10
-0.257402
 20
2.873630
  0
VERTEX
  8
PLAN_1
 62
     2
  6
CONTINUOUS
 10
-0.259488
 20
2.871126
  0
VERTEX
  8
PLAN_1
 62
     2
  6
CONTINUOUS
 10
-0.261571
 20
2.869039
  0
VERTEX
  8
PLAN_1
 62
     2
  6
CONTINUOUS
 10
-0.264075
 20
2.867374
  0
VERTEX
  8
PLAN_1
 62
     2
  6
CONTINUOUS
 10
-0.266575
 20
2.866122
  0
VERTEX
  8
PLAN_1
 62
     2
  6
CONTINUOUS
 10
-0.269496
 20
2.864870
  0
VERTEX
  8
PLAN_1
 62
     2
  6
CONTINUOUS
 10
-0.272831
 20
2.863618
  0
VERTEX
  8
PLAN_1
 62
     2
  6
CONTINUOUS
 10
-0.275752
 20
2.862787
  0
VERTEX
  8
PLAN_1
 62
     2
  6
CONTINUOUS
 10
-0.279087
 20
2.862370
  0
VERTEX
  8
PLAN_1
 62
     2
  6
CONTINUOUS
 10
-0.285343
 20
2.861535
  0
VERTEX
  8
PLAN_1
 62
     2
  6
CONTINUOUS
 10
-0.291177
 20
2.861118
  0
VERTEX
  8
PLAN_1
 62
     2
  6
CONTINUOUS
 10
-0.297016
 20
2.861535
  0
VERTEX
  8
PLAN_1
 62
     2
  6
CONTINUOUS
 10
-0.303689
 20
2.862370
  0
VERTEX
  8
PLAN_1
 62
     2
  6
CONTINUOUS
 10
-0.306606
 20
2.862787
  0
VERTEX
  8
PLAN_1
 62
     2
  6
CONTINUOUS
 10
-0.309945
 20
2.863618
  0
VERTEX
  8
PLAN_1
 62
     2
  6
CONTINUOUS
 10
-0.312862
 20
2.864870
  0
VERTEX
  8
PLAN_1
 62
     2
  6
CONTINUOUS
 10
-0.315783
 20
2.866122
  0
VERTEX
  8
PLAN_1
 62
     2
  6
CONTINUOUS
 10
-0.318283
 20
2.867374
  0
VERTEX
  8
PLAN_1
 62
     2
  6
CONTINUOUS
 10
-0.320787
 20
2.869039
  0
VERTEX
  8
PLAN_1
 62
     2
  6
CONTINUOUS
 10
-0.323287
 20
2.871126
  0
VERTEX
  8
PLAN_1
 62
     2
  6
CONTINUOUS
 10
-0.324957
 20
2.873630
  0
VERTEX
  8
PLAN_1
 62
     2
  6
CONTINUOUS
 10
-0.326622
 20
2.876130
  0
VERTEX
  8
PLAN_1
 62
     2
  6
CONTINUOUS
 10
-0.327874
 20
2.879465
  0
VERTEX
  8
PLAN_1
 62
     2
  6
CONTINUOUS
 10
-0.328709
 20
2.882803
  0
VERTEX
  8
PLAN_1
 62
     2
  6
CONTINUOUS
 10
-0.328709
 20
2.886555
  0
VERTEX
  8
PLAN_1
 62
     2
  6
CONTINUOUS
 10
-0.328709
 20
2.890307
  0
VERTEX
  8
PLAN_1
 62
     2
  6
CONTINUOUS
 10
-0.327874
 20
2.893646
  0
VERTEX
  8
PLAN_1
 62
     2
  6
CONTINUOUS
 10
-0.326622
 20
2.896563
  0
VERTEX
  8
PLAN_1
 62
     2
  6
CONTINUOUS
 10
-0.324957
 20
2.899067
  0
VERTEX
  8
PLAN_1
 62
     2
  6
CONTINUOUS
 10
-0.323287
 20
2.901567
  0
VERTEX
  8
PLAN_1
 62
     2
  6
CONTINUOUS
 10
-0.320787
 20
2.903654
  0
VERTEX
  8
PLAN_1
 62
     2
  6
CONTINUOUS
 10
-0.318283
 20
2.905319
  0
VERTEX
  8
PLAN_1
 62
     2
  6
CONTINUOUS
 10
-0.315783
 20
2.906988
  0
VERTEX
  8
PLAN_1
 62
     2
  6
CONTINUOUS
 10
-0.312862
 20
2.908240
  0
VERTEX
  8
PLAN_1
 62
     2
  6
CONTINUOUS
 10
-0.309945
 20
2.909075
  0
VERTEX
  8
PLAN_1
 62
     2
  6
CONTINUOUS
 10
-0.306606
 20
2.909906
  0
VERTEX
  8
PLAN_1
 62
     2
  6
CONTINUOUS
 10
-0.303689
 20
2.910323
  0
VERTEX
  8
PLAN_1
 62
     2
  6
CONTINUOUS
 10
-0.297016
 20
2.911157
  0
VERTEX
  8
PLAN_1
 62
     2
  6
CONTINUOUS
 10
-0.291177
 20
2.911575
  0
VERTEX
  8
PLAN_1
 62
     2
  6
CONTINUOUS
 10
-0.285343
 20
2.911157
  0
VERTEX
  8
PLAN_1
 62
     2
  6
CONTINUOUS
 10
-0.279087
 20
2.910323
  0
VERTEX
  8
PLAN_1
 62
     2
  6
CONTINUOUS
 10
-0.275752
 20
2.909906
  0
VERTEX
  8
PLAN_1
 62
     2
  6
CONTINUOUS
 10
-0.272831
 20
2.909075
  0
VERTEX
  8
PLAN_1
 62
     2
  6
CONTINUOUS
 10
-0.269496
 20
2.908240
  0
VERTEX
  8
PLAN_1
 62
     2
  6
CONTINUOUS
 10
-0.266575
 20
2.906988
  0
VERTEX
  8
PLAN_1
 62
     2
  6
CONTINUOUS
 10
-0.264075
 20
2.905319
  0
VERTEX
  8
PLAN_1
 62
     2
  6
CONTINUOUS
 10
-0.261571
 20
2.903654
  0
VERTEX
  8
PLAN_1
 62
     2
  6
CONTINUOUS
 10
-0.259488
 20
2.901567
  0
VERTEX
  8
PLAN_1
 62
     2
  6
CONTINUOUS
 10
-0.257402
 20
2.899067
  0
VERTEX
  8
PLAN_1
 62
     2
  6
CONTINUOUS
 10
-0.255732
 20
2.896563
  0
VERTEX
  8
PLAN_1
 62
     2
  6
CONTINUOUS
 10
-0.254484
 20
2.893646
  0
VERTEX
  8
PLAN_1
 62
     2
  6
CONTINUOUS
 10
-0.254067
 20
2.890307
  0
VERTEX
  8
PLAN_1
 62
     2
  6
CONTINUOUS
 10
-0.253650
 20
2.886555
  0
SEQEND
  8
0
  0
POLYLINE
  8
PLAN_1
 62
     2
  6
CONTINUOUS
 66
     1
 40
0.003000
 41
0.003000
  0
VERTEX
  8
PLAN_1
 62
     2
  6
CONTINUOUS
 10
-0.320370
 20
2.886555
  0
VERTEX
  8
PLAN_1
 62
     2
  6
CONTINUOUS
 10
-0.320370
 20
2.884469
  0
VERTEX
  8
PLAN_1
 62
     2
  6
CONTINUOUS
 10
-0.319953
 20
2.882803
  0
VERTEX
  8
PLAN_1
 62
     2
  6
CONTINUOUS
 10
-0.319535
 20
2.881134
  0
VERTEX
  8
PLAN_1
 62
     2
  6
CONTINUOUS
 10
-0.318701
 20
2.879465
  0
VERTEX
  8
PLAN_1
 62
     2
  6
CONTINUOUS
 10
-0.317449
 20
2.878217
  0
VERTEX
  8
PLAN_1
 62
     2
  6
CONTINUOUS
 10
-0.316201
 20
2.876965
  0
VERTEX
  8
PLAN_1
 62
     2
  6
CONTINUOUS
 10
-0.314531
 20
2.875713
  0
VERTEX
  8
PLAN_1
 62
     2
  6
CONTINUOUS
 10
-0.312862
 20
2.874878
  0
VERTEX
  8
PLAN_1
 62
     2
  6
CONTINUOUS
 10
-0.308693
 20
2.873213
  0
VERTEX
  8
PLAN_1
 62
     2
  6
CONTINUOUS
 10
-0.303689
 20
2.871961
  0
VERTEX
  8
PLAN_1
 62
     2
  6
CONTINUOUS
 10
-0.297850
 20
2.871126
  0
VERTEX
  8
PLAN_1
 62
     2
  6
CONTINUOUS
 10
-0.291177
 20
2.871126
  0
VERTEX
  8
PLAN_1
 62
     2
  6
CONTINUOUS
 10
-0.284508
 20
2.871126
  0
VERTEX
  8
PLAN_1
 62
     2
  6
CONTINUOUS
 10
-0.279087
 20
2.871961
  0
VERTEX
  8
PLAN_1
 62
     2
  6
CONTINUOUS
 10
-0.274083
 20
2.873213
  0
VERTEX
  8
PLAN_1
 62
     2
  6
CONTINUOUS
 10
-0.269496
 20
2.874878
  0
VERTEX
  8
PLAN_1
 62
     2
  6
CONTINUOUS
 10
-0.267827
 20
2.875713
  0
VERTEX
  8
PLAN_1
 62
     2
  6
CONTINUOUS
 10
-0.266157
 20
2.876965
  0
VERTEX
  8
PLAN_1
 62
     2
  6
CONTINUOUS
 10
-0.264909
 20
2.878217
  0
VERTEX
  8
PLAN_1
 62
     2
  6
CONTINUOUS
 10
-0.264075
 20
2.879465
  0
VERTEX
  8
PLAN_1
 62
     2
  6
CONTINUOUS
 10
-0.262823
 20
2.881134
  0
VERTEX
  8
PLAN_1
 62
     2
  6
CONTINUOUS
 10
-0.262406
 20
2.882803
  0
VERTEX
  8
PLAN_1
 62
     2
  6
CONTINUOUS
 10
-0.261988
 20
2.884469
  0
VERTEX
  8
PLAN_1
 62
     2
  6
CONTINUOUS
 10
-0.261988
 20
2.886555
  0
VERTEX
  8
PLAN_1
 62
     2
  6
CONTINUOUS
 10
-0.261988
 20
2.888224
  0
VERTEX
  8
PLAN_1
 62
     2
  6
CONTINUOUS
 10
-0.262406
 20
2.889890
  0
VERTEX
  8
PLAN_1
 62
     2
  6
CONTINUOUS
 10
-0.262823
 20
2.891559
  0
VERTEX
  8
PLAN_1
 62
     2
  6
CONTINUOUS
 10
-0.264075
 20
2.893228
  0
VERTEX
  8
PLAN_1
 62
     2
  6
CONTINUOUS
 10
-0.264909
 20
2.894476
  0
VERTEX
  8
PLAN_1
 62
     2
  6
CONTINUOUS
 10
-0.266157
 20
2.895728
  0
VERTEX
  8
PLAN_1
 62
     2
  6
CONTINUOUS
 10
-0.267827
 20
2.896980
  0
VERTEX
  8
PLAN_1
 62
     2
  6
CONTINUOUS
 10
-0.269496
 20
2.897815
  0
VERTEX
  8
PLAN_1
 62
     2
  6
CONTINUOUS
 10
-0.274083
 20
2.899480
  0
VERTEX
  8
PLAN_1
 62
     2
  6
CONTINUOUS
 10
-0.279087
 20
2.900732
  0
VERTEX
  8
PLAN_1
 62
     2
  6
CONTINUOUS
 10
-0.284508
 20
2.901567
  0
VERTEX
  8
PLAN_1
 62
     2
  6
CONTINUOUS
 10
-0.291177
 20
2.901567
  0
VERTEX
  8
PLAN_1
 62
     2
  6
CONTINUOUS
 10
-0.297850
 20
2.901567
  0
VERTEX
  8
PLAN_1
 62
     2
  6
CONTINUOUS
 10
-0.303689
 20
2.900732
  0
VERTEX
  8
PLAN_1
 62
     2
  6
CONTINUOUS
 10
-0.308693
 20
2.899480
  0
VERTEX
  8
PLAN_1
 62
     2
  6
CONTINUOUS
 10
-0.312862
 20
2.897815
  0
VERTEX
  8
PLAN_1
 62
     2
  6
CONTINUOUS
 10
-0.314531
 20
2.896980
  0
VERTEX
  8
PLAN_1
 62
     2
  6
CONTINUOUS
 10
-0.316201
 20
2.895728
  0
VERTEX
  8
PLAN_1
 62
     2
  6
CONTINUOUS
 10
-0.317449
 20
2.894476
  0
VERTEX
  8
PLAN_1
 62
     2
  6
CONTINUOUS
 10
-0.318701
 20
2.893228
  0
VERTEX
  8
PLAN_1
 62
     2
  6
CONTINUOUS
 10
-0.319535
 20
2.891559
  0
VERTEX
  8
PLAN_1
 62
     2
  6
CONTINUOUS
 10
-0.319953
 20
2.889890
  0
VERTEX
  8
PLAN_1
 62
     2
  6
CONTINUOUS
 10
-0.320370
 20
2.888224
  0
VERTEX
  8
PLAN_1
 62
     2
  6
CONTINUOUS
 10
-0.320370
 20
2.886555
  0
SEQEND
  8
0
  0
POLYLINE
  8
PLAN_1
 62
     2
  6
CONTINUOUS
 66
     1
 40
0.004169
 41
0.004169
  0
VERTEX
  8
PLAN_1
 62
     2
  6
CONTINUOUS
 10
-0.208197
 20
3.080461
  0
VERTEX
  8
PLAN_1
 62
     2
  6
CONTINUOUS
 10
-0.516358
 20
3.080461
  0
SEQEND
  8
0
  0
POLYLINE
  8
PLAN_1
 62
     2
  6
CONTINUOUS
 66
     1
 40
0.004169
 41
0.004169
  0
VERTEX
  8
PLAN_1
 62
     2
  6
CONTINUOUS
 10
-1.327843
 20
2.933677
  0
VERTEX
  8
PLAN_1
 62
     2
  6
CONTINUOUS
 10
-1.327843
 20
3.263524
  0
SEQEND
  8
0
  0
POLYLINE
  8
PLAN_1
 62
     2
  6
CONTINUOUS
 66
     1
 40
0.004169
 41
0.004169
  0
VERTEX
  8
PLAN_1
 62
     2
  6
CONTINUOUS
 10
-1.120173
 20
2.933677
  0
VERTEX
  8
PLAN_1
 62
     2
  6
CONTINUOUS
 10
-1.120173
 20
3.267276
  0
SEQEND
  8
0
  0
POLYLINE
  8
PLAN_1
 62
     2
  6
CONTINUOUS
 66
     1
 40
0.004169
 41
0.004169
  0
VERTEX
  8
PLAN_1
 62
     2
  6
CONTINUOUS
 10
-1.357449
 20
3.240169
  0
VERTEX
  8
PLAN_1
 62
     2
  6
CONTINUOUS
 10
-0.939614
 20
3.240169
  0
SEQEND
  8
0
  0
SOLID
  8
PLAN_1
 62
     2
 10
-1.327843
 20
3.240169
 11
-1.386638
 21
3.256016
 12
-1.327843
 22
3.240169
 13
-1.386638
 23
3.224327
  0
POLYLINE
  8
PLAN_1
 62
     2
  6
CONTINUOUS
 66
     1
 40
0.003000
 41
0.003000
  0
VERTEX
  8
PLAN_1
 62
     2
  6
CONTINUOUS
 10
-1.327843
 20
3.240169
  0
VERTEX
  8
PLAN_1
 62
     2
  6
CONTINUOUS
 10
-1.386638
 20
3.256016
  0
VERTEX
  8
PLAN_1
 62
     2
  6
CONTINUOUS
 10
-1.386638
 20
3.224327
  0
VERTEX
  8
PLAN_1
 62
     2
  6
CONTINUOUS
 10
-1.327843
 20
3.240169
  0
SEQEND
  8
0
  0
SOLID
  8
PLAN_1
 62
     2
 10
-1.120173
 20
3.240169
 11
-1.060961
 21
3.256016
 12
-1.120173
 22
3.240169
 13
-1.060961
 23
3.224327
  0
POLYLINE
  8
PLAN_1
 62
     2
  6
CONTINUOUS
 66
     1
 40
0.003000
 41
0.003000
  0
VERTEX
  8
PLAN_1
 62
     2
  6
CONTINUOUS
 10
-1.120173
 20
3.240169
  0
VERTEX
  8
PLAN_1
 62
     2
  6
CONTINUOUS
 10
-1.060961
 20
3.256016
  0
VERTEX
  8
PLAN_1
 62
     2
  6
CONTINUOUS
 10
-1.060961
 20
3.224327
  0
VERTEX
  8
PLAN_1
 62
     2
  6
CONTINUOUS
 10
-1.120173
 20
3.240169
  0
SEQEND
  8
0
  0
POLYLINE
  8
PLAN_1
 62
     2
  6
CONTINUOUS
 66
     1
 40
0.003000
 41
0.003000
  0
VERTEX
  8
PLAN_1
 62
     2
  6
CONTINUOUS
 10
-0.999661
 20
3.309811
  0
VERTEX
  8
PLAN_1
 62
     2
  6
CONTINUOUS
 10
-0.998409
 20
3.311059
  0
VERTEX
  8
PLAN_1
 62
     2
  6
CONTINUOUS
 10
-0.997161
 20
3.311894
  0
VERTEX
  8
PLAN_1
 62
     2
  6
CONTINUOUS
 10
-0.995492
 20
3.312311
  0
VERTEX
  8
PLAN_1
 62
     2
  6
CONTINUOUS
 10
-0.993823
 20
3.313146
  0
VERTEX
  8
PLAN_1
 62
     2
  6
CONTINUOUS
 10
-0.992157
 20
3.313563
  0
VERTEX
  8
PLAN_1
 62
     2
  6
CONTINUOUS
 10
-0.990071
 20
3.313980
  0
VERTEX
  8
PLAN_1
 62
     2
  6
CONTINUOUS
 10
-0.987984
 20
3.314398
  0
VERTEX
  8
PLAN_1
 62
     2
  6
CONTINUOUS
 10
-0.985484
 20
3.314398
  0
VERTEX
  8
PLAN_1
 62
     2
  6
CONTINUOUS
 10
-0.981315
 20
3.313980
  0
VERTEX
  8
PLAN_1
 62
     2
  6
CONTINUOUS
 10
-0.976728
 20
3.313146
  0
VERTEX
  8
PLAN_1
 62
     2
  6
CONTINUOUS
 10
-0.972555
 20
3.311059
  0
VERTEX
  8
PLAN_1
 62
     2
  6
CONTINUOUS
 10
-0.969220
 20
3.308559
  0
VERTEX
  8
PLAN_1
 62
     2
  6
CONTINUOUS
 10
-0.967551
 20
3.306890
  0
VERTEX
  8
PLAN_1
 62
     2
  6
CONTINUOUS
 10
-0.965886
 20
3.305224
  0
VERTEX
  8
PLAN_1
 62
     2
  6
CONTINUOUS
 10
-0.964634
 20
3.303138
  0
VERTEX
  8
PLAN_1
 62
     2
  6
CONTINUOUS
 10
-0.963799
 20
3.301051
  0
VERTEX
  8
PLAN_1
 62
     2
  6
CONTINUOUS
 10
-0.962547
 20
3.298969
  0
VERTEX
  8
PLAN_1
 62
     2
  6
CONTINUOUS
 10
-0.962134
 20
3.296465
  0
VERTEX
  8
PLAN_1
 62
     2
  6
CONTINUOUS
 10
-0.961717
 20
3.293965
  0
VERTEX
  8
PLAN_1
 62
     2
  6
CONTINUOUS
 10
-0.961717
 20
3.291043
  0
VERTEX
  8
PLAN_1
 62
     2
  6
CONTINUOUS
 10
-0.961717
 20
3.287709
  0
VERTEX
  8
PLAN_1
 62
     2
  6
CONTINUOUS
 10
-0.962547
 20
3.283539
  0
VERTEX
  8
PLAN_1
 62
     2
  6
CONTINUOUS
 10
-0.963799
 20
3.279370
  0
VERTEX
  8
PLAN_1
 62
     2
  6
CONTINUOUS
 10
-0.966303
 20
3.275201
  0
VERTEX
  8
PLAN_1
 62
     2
  6
CONTINUOUS
 10
-0.967969
 20
3.273114
  0
VERTEX
  8
PLAN_1
 62
     2
  6
CONTINUOUS
 10
-0.969638
 20
3.271445
  0
VERTEX
  8
PLAN_1
 62
     2
  6
CONTINUOUS
 10
-0.971724
 20
3.269780
  0
VERTEX
  8
PLAN_1
 62
     2
  6
CONTINUOUS
 10
-0.974224
 20
3.268110
  0
VERTEX
  8
PLAN_1
 62
     2
  6
CONTINUOUS
 10
-0.977146
 20
3.267276
  0
VERTEX
  8
PLAN_1
 62
     2
  6
CONTINUOUS
 10
-0.980480
 20
3.266024
  0
VERTEX
  8
PLAN_1
 62
     2
  6
CONTINUOUS
 10
-0.983815
 20
3.265606
  0
VERTEX
  8
PLAN_1
 62
     2
  6
CONTINUOUS
 10
-0.987984
 20
3.265606
  0
VERTEX
  8
PLAN_1
 62
     2
  6
CONTINUOUS
 10
-0.991740
 20
3.265606
  0
VERTEX
  8
PLAN_1
 62
     2
  6
CONTINUOUS
 10
-0.995492
 20
3.266441
  0
VERTEX
  8
PLAN_1
 62
     2
  6
CONTINUOUS
 10
-0.999244
 20
3.267693
  0
VERTEX
  8
PLAN_1
 62
     2
  6
CONTINUOUS
 10
-1.002583
 20
3.269362
  0
VERTEX
  8
PLAN_1
 62
     2
  6
CONTINUOUS
 10
-1.004248
 20
3.270610
  0
VERTEX
  8
PLAN_1
 62
     2
  6
CONTINUOUS
 10
-1.005917
 20
3.271862
  0
VERTEX
  8
PLAN_1
 62
     2
  6
CONTINUOUS
 10
-1.007169
 20
3.273531
  0
VERTEX
  8
PLAN_1
 62
     2
  6
CONTINUOUS
 10
-1.008417
 20
3.275614
  0
VERTEX
  8
PLAN_1
 62
     2
  6
CONTINUOUS
 10
-1.009669
 20
3.277701
  0
VERTEX
  8
PLAN_1
 62
     2
  6
CONTINUOUS
 10
-1.010504
 20
3.280205
  0
VERTEX
  8
PLAN_1
 62
     2
  6
CONTINUOUS
 10
-1.011339
 20
3.282705
  0
VERTEX
  8
PLAN_1
 62
     2
  6
CONTINUOUS
 10
-1.011756
 20
3.285622
  0
VERTEX
  8
PLAN_1
 62
     2
  6
CONTINUOUS
 10
-1.002165
 20
3.285622
  0
VERTEX
  8
PLAN_1
 62
     2
  6
CONTINUOUS
 10
-1.001748
 20
3.282705
  0
VERTEX
  8
PLAN_1
 62
     2
  6
CONTINUOUS
 10
-1.000496
 20
3.280205
  0
VERTEX
  8
PLAN_1
 62
     2
  6
CONTINUOUS
 10
-0.999244
 20
3.278118
  0
VERTEX
  8
PLAN_1
 62
     2
  6
CONTINUOUS
 10
-0.997161
 20
3.276449
  0
VERTEX
  8
PLAN_1
 62
     2
  6
CONTINUOUS
 10
-0.995075
 20
3.274783
  0
VERTEX
  8
PLAN_1
 62
     2
  6
CONTINUOUS
 10
-0.992575
 20
3.273949
  0
VERTEX
  8
PLAN_1
 62
     2
  6
CONTINUOUS
 10
-0.989654
 20
3.273531
  0
VERTEX
  8
PLAN_1
 62
     2
  6
CONTINUOUS
 10
-0.986736
 20
3.273531
  0
VERTEX
  8
PLAN_1
 62
     2
  6
CONTINUOUS
 10
-0.983398
 20
3.273531
  0
VERTEX
  8
PLAN_1
 62
     2
  6
CONTINUOUS
 10
-0.980480
 20
3.274783
  0
VERTEX
  8
PLAN_1
 62
     2
  6
CONTINUOUS
 10
-0.977559
 20
3.276031
  0
VERTEX
  8
PLAN_1
 62
     2
  6
CONTINUOUS
 10
-0.975476
 20
3.278118
  0
VERTEX
  8
PLAN_1
 62
     2
  6
CONTINUOUS
 10
-0.973807
 20
3.280618
  0
VERTEX
  8
PLAN_1
 62
     2
  6
CONTINUOUS
 10
-0.972555
 20
3.283539
  0
VERTEX
  8
PLAN_1
 62
     2
  6
CONTINUOUS
 10
-0.971724
 20
3.286874
  0
VERTEX
  8
PLAN_1
 62
     2
  6
CONTINUOUS
 10
-0.971307
 20
3.290213
  0
VERTEX
  8
PLAN_1
 62
     2
  6
CONTINUOUS
 10
-0.971724
 20
3.293965
  0
VERTEX
  8
PLAN_1
 62
     2
  6
CONTINUOUS
 10
-0.972555
 20
3.296882
  0
VERTEX
  8
PLAN_1
 62
     2
  6
CONTINUOUS
 10
-0.974224
 20
3.299803
  0
VERTEX
  8
PLAN_1
 62
     2
  6
CONTINUOUS
 10
-0.975894
 20
3.302303
  0
VERTEX
  8
PLAN_1
 62
     2
  6
CONTINUOUS
 10
-0.978394
 20
3.303972
  0
VERTEX
  8
PLAN_1
 62
     2
  6
CONTINUOUS
 10
-0.981315
 20
3.305224
  0
VERTEX
  8
PLAN_1
 62
     2
  6
CONTINUOUS
 10
-0.984232
 20
3.306055
  0
VERTEX
  8
PLAN_1
 62
     2
  6
CONTINUOUS
 10
-0.987571
 20
3.306472
  0
VERTEX
  8
PLAN_1
 62
     2
  6
CONTINUOUS
 10
-0.989654
 20
3.306055
  0
VERTEX
  8
PLAN_1
 62
     2
  6
CONTINUOUS
 10
-0.991323
 20
3.306055
  0
VERTEX
  8
PLAN_1
 62
     2
  6
CONTINUOUS
 10
-0.993406
 20
3.305224
  0
VERTEX
  8
PLAN_1
 62
     2
  6
CONTINUOUS
 10
-0.995075
 20
3.304390
  0
VERTEX
  8
PLAN_1
 62
     2
  6
CONTINUOUS
 10
-0.996744
 20
3.303555
  0
VERTEX
  8
PLAN_1
 62
     2
  6
CONTINUOUS
 10
-0.998409
 20
3.302303
  0
VERTEX
  8
PLAN_1
 62
     2
  6
CONTINUOUS
 10
-0.999661
 20
3.301051
  0
VERTEX
  8
PLAN_1
 62
     2
  6
CONTINUOUS
 10
-1.000913
 20
3.299386
  0
VERTEX
  8
PLAN_1
 62
     2
  6
CONTINUOUS
 10
-1.008835
 20
3.299803
  0
VERTEX
  8
PLAN_1
 62
     2
  6
CONTINUOUS
 10
-1.003413
 20
3.339000
  0
VERTEX
  8
PLAN_1
 62
     2
  6
CONTINUOUS
 10
-0.965469
 20
3.339000
  0
VERTEX
  8
PLAN_1
 62
     2
  6
CONTINUOUS
 10
-0.965469
 20
3.330244
  0
VERTEX
  8
PLAN_1
 62
     2
  6
CONTINUOUS
 10
-0.996744
 20
3.330244
  0
VERTEX
  8
PLAN_1
 62
     2
  6
CONTINUOUS
 10
-0.999661
 20
3.309811
  0
SEQEND
  8
0
  0
ENDSEC
  0
EOF
