  0
SECTION
  2
HEADER
  9
$ACADVER
  1
AC1006
  9
$EXTMIN
 10
-2.338280
 20
-4.497791
  9
$EXTMAX
 10
2.337000
 20
4.498000
  9
$LTSCALE
 40
0.000394
  9
$PDMODE
 70
    35
  9
$PDSIZE
 40
0.000315
  0
ENDSEC
  0
SECTION
  2
TABLES
  0
TABLE
  2
LTYPE
 70
     9
  0
LTYPE
  2
CONTINUOUS
 70
    64
  3
Solid line
 72
    65
 73
     0
 40
0.000000
  0
LTYPE
  2
DASHED
 70
    64
  3
__ __ __ __ __ __ __ __ __ __ __ __ __ __ __
 72
    65
 73
     2
 40
0.000003
 49
0.000002
 49
-0.000001
  0
LTYPE
  2
HIDDEN
 70
    64
  3
 _ _ _ _ _ _ _ _ _ _ _ _ _ _ _ _ _ _ _ _ _ _
 72
    65
 73
     2
 40
0.000001
 49
0.000001
 49
-0.000000
  0
LTYPE
  2
CENTER
 70
    64
  3
____ _ ____ _ ____ _ ____ _ ____ _ ____ _ ____
 72
    65
 73
     4
 40
0.000008
 49
0.000005
 49
-0.000001
 49
0.000001
 49
-0.000001
  0
LTYPE
  2
PHANTOM
 70
    64
  3
_____ _ _ _____ _ _ _____ _ _ _____ _ _ ____
 72
    65
 73
     6
 40
0.000010
 49
0.000005
 49
-0.000001
 49
0.000001
 49
-0.000001
 49
0.000001
 49
-0.000001
  0
LTYPE
  2
DOT
 70
    64
  3
...............................................
 72
    65
 73
     2
 40
0.000001
 49
0.000000
 49
-0.000001
  0
LTYPE
  2
DASHDOT
 70
    64
  3
__ . __ . __ . __ . __ . __ . __ . __ . __ . __
 72
    65
 73
     4
 40
0.000004
 49
0.000002
 49
-0.000001
 49
0.000000
 49
-0.000001
  0
LTYPE
  2
BORDER
 70
    64
  3
__ __ . __ __ . __ __ . __ __ . __ __ . __ __
 72
    65
 73
     6
 40
0.000007
 49
0.000002
 49
-0.000001
 49
0.000002
 49
-0.000001
 49
0.000000
 49
-0.000001
  0
LTYPE
  2
DIVIDE
 70
    64
  3
__ . . __ . . __ . . __ . . __ . . __ . . __
 72
    65
 73
     6
 40
0.000005
 49
0.000002
 49
-0.000001
 49
0.000000
 49
-0.000001
 49
0.000000
 49
-0.000001
  0
LTYPE
  2
DOTDOT
 70
    64
  3
 . .  . .  . .  . .  . .  . . 
 72
    65
 73
     5
 40
0.000002
 49
-0.000001
 49
0.000000
 49
-0.000001
 49
0.000000
 49
-0.000001
  0
ENDTAB
  0
TABLE
  2
STYLE
 70
     0
  0
ENDTAB
  0
TABLE
  2
LAYER
 70
     3
  0
LAYER
  2
FOREGROUND
 70
    64
 62
     7
  6
CONTINUOUS
  0
LAYER
  2
BACKGROUND
 70
    65
 62
    -7
  6
CONTINUOUS
  0
LAYER
  2
PLAN_1
 70
    64
 62
     7
  6
CONTINUOUS
  0
ENDTAB
  0
ENDSEC
  0
SECTION
  2
ENTITIES
  0
POLYLINE
  8
PLAN_1
  6
CONTINUOUS
 66
     1
 40
0.003000
 41
0.003000
  0
VERTEX
  8
PLAN_1
  6
CONTINUOUS
 10
0.396157
 20
-4.492732
  0
VERTEX
  8
PLAN_1
  6
CONTINUOUS
 10
0.362984
 20
-4.492732
  0
VERTEX
  8
PLAN_1
  6
CONTINUOUS
 10
0.309012
 20
-4.410646
  0
VERTEX
  8
PLAN_1
  6
CONTINUOUS
 10
0.253913
 20
-4.492732
  0
VERTEX
  8
PLAN_1
  6
CONTINUOUS
 10
0.221303
 20
-4.492732
  0
VERTEX
  8
PLAN_1
  6
CONTINUOUS
 10
0.292705
 20
-4.390402
  0
VERTEX
  8
PLAN_1
  6
CONTINUOUS
 10
0.225799
 20
-4.293138
  0
VERTEX
  8
PLAN_1
  6
CONTINUOUS
 10
0.259535
 20
-4.293138
  0
VERTEX
  8
PLAN_1
  6
CONTINUOUS
 10
0.310138
 20
-4.369602
  0
VERTEX
  8
PLAN_1
  6
CONTINUOUS
 10
0.360736
 20
-4.293138
  0
VERTEX
  8
PLAN_1
  6
CONTINUOUS
 10
0.392783
 20
-4.293138
  0
VERTEX
  8
PLAN_1
  6
CONTINUOUS
 10
0.325878
 20
-4.390402
  0
VERTEX
  8
PLAN_1
  6
CONTINUOUS
 10
0.396157
 20
-4.492732
  0
SEQEND
  8
0
  0
POLYLINE
  8
PLAN_1
  6
CONTINUOUS
 66
     1
 40
0.003000
 41
0.003000
  0
VERTEX
  8
PLAN_1
  6
CONTINUOUS
 10
0.562579
 20
-4.353295
  0
VERTEX
  8
PLAN_1
  6
CONTINUOUS
 10
0.560894
 20
-4.347110
  0
VERTEX
  8
PLAN_1
  6
CONTINUOUS
 10
0.558646
 20
-4.341488
  0
VERTEX
  8
PLAN_1
  6
CONTINUOUS
 10
0.555835
 20
-4.336429
  0
VERTEX
  8
PLAN_1
  6
CONTINUOUS
 10
0.553024
 20
-4.331929
  0
VERTEX
  8
PLAN_1
  6
CONTINUOUS
 10
0.550213
 20
-4.327996
  0
VERTEX
  8
PLAN_1
  6
CONTINUOUS
 10
0.546276
 20
-4.324622
  0
VERTEX
  8
PLAN_1
  6
CONTINUOUS
 10
0.542902
 20
-4.321811
  0
VERTEX
  8
PLAN_1
  6
CONTINUOUS
 10
0.538965
 20
-4.319563
  0
VERTEX
  8
PLAN_1
  6
CONTINUOUS
 10
0.535031
 20
-4.317311
  0
VERTEX
  8
PLAN_1
  6
CONTINUOUS
 10
0.530531
 20
-4.315626
  0
VERTEX
  8
PLAN_1
  6
CONTINUOUS
 10
0.526598
 20
-4.314500
  0
VERTEX
  8
PLAN_1
  6
CONTINUOUS
 10
0.522098
 20
-4.313378
  0
VERTEX
  8
PLAN_1
  6
CONTINUOUS
 10
0.514228
 20
-4.312252
  0
VERTEX
  8
PLAN_1
  6
CONTINUOUS
 10
0.506358
 20
-4.311689
  0
VERTEX
  8
PLAN_1
  6
CONTINUOUS
 10
0.500173
 20
-4.312252
  0
VERTEX
  8
PLAN_1
  6
CONTINUOUS
 10
0.493425
 20
-4.312815
  0
VERTEX
  8
PLAN_1
  6
CONTINUOUS
 10
0.487240
 20
-4.314500
  0
VERTEX
  8
PLAN_1
  6
CONTINUOUS
 10
0.481055
 20
-4.316752
  0
VERTEX
  8
PLAN_1
  6
CONTINUOUS
 10
0.475433
 20
-4.319563
  0
VERTEX
  8
PLAN_1
  6
CONTINUOUS
 10
0.469811
 20
-4.322937
  0
VERTEX
  8
PLAN_1
  6
CONTINUOUS
 10
0.465315
 20
-4.326870
  0
VERTEX
  8
PLAN_1
  6
CONTINUOUS
 10
0.460252
 20
-4.331929
  0
VERTEX
  8
PLAN_1
  6
CONTINUOUS
 10
0.456319
 20
-4.336992
  0
VERTEX
  8
PLAN_1
  6
CONTINUOUS
 10
0.452382
 20
-4.342614
  0
VERTEX
  8
PLAN_1
  6
CONTINUOUS
 10
0.449008
 20
-4.349358
  0
VERTEX
  8
PLAN_1
  6
CONTINUOUS
 10
0.446760
 20
-4.356669
  0
VERTEX
  8
PLAN_1
  6
CONTINUOUS
 10
0.444512
 20
-4.363980
  0
VERTEX
  8
PLAN_1
  6
CONTINUOUS
 10
0.442823
 20
-4.372413
  0
VERTEX
  8
PLAN_1
  6
CONTINUOUS
 10
0.441701
 20
-4.381409
  0
VERTEX
  8
PLAN_1
  6
CONTINUOUS
 10
0.441138
 20
-4.390965
  0
VERTEX
  8
PLAN_1
  6
CONTINUOUS
 10
0.441701
 20
-4.399398
  0
VERTEX
  8
PLAN_1
  6
CONTINUOUS
 10
0.442260
 20
-4.407835
  0
VERTEX
  8
PLAN_1
  6
CONTINUOUS
 10
0.443386
 20
-4.416268
  0
VERTEX
  8
PLAN_1
  6
CONTINUOUS
 10
0.444512
 20
-4.423575
  0
VERTEX
  8
PLAN_1
  6
CONTINUOUS
 10
0.446760
 20
-4.430886
  0
VERTEX
  8
PLAN_1
  6
CONTINUOUS
 10
0.449008
 20
-4.437630
  0
VERTEX
  8
PLAN_1
  6
CONTINUOUS
 10
0.452382
 20
-4.444378
  0
VERTEX
  8
PLAN_1
  6
CONTINUOUS
 10
0.455756
 20
-4.450000
  0
VERTEX
  8
PLAN_1
  6
CONTINUOUS
 10
0.460252
 20
-4.455059
  0
VERTEX
  8
PLAN_1
  6
CONTINUOUS
 10
0.464752
 20
-4.460122
  0
VERTEX
  8
PLAN_1
  6
CONTINUOUS
 10
0.470374
 20
-4.464055
  0
VERTEX
  8
PLAN_1
  6
CONTINUOUS
 10
0.475996
 20
-4.467429
  0
VERTEX
  8
PLAN_1
  6
CONTINUOUS
 10
0.482744
 20
-4.470240
  0
VERTEX
  8
PLAN_1
  6
CONTINUOUS
 10
0.490614
 20
-4.472488
  0
VERTEX
  8
PLAN_1
  6
CONTINUOUS
 10
0.498484
 20
-4.473614
  0
VERTEX
  8
PLAN_1
  6
CONTINUOUS
 10
0.507480
 20
-4.474177
  0
VERTEX
  8
PLAN_1
  6
CONTINUOUS
 10
0.514791
 20
-4.473614
  0
VERTEX
  8
PLAN_1
  6
CONTINUOUS
 10
0.522661
 20
-4.471929
  0
VERTEX
  8
PLAN_1
  6
CONTINUOUS
 10
0.526598
 20
-4.470803
  0
VERTEX
  8
PLAN_1
  6
CONTINUOUS
 10
0.530531
 20
-4.469118
  0
VERTEX
  8
PLAN_1
  6
CONTINUOUS
 10
0.535031
 20
-4.466866
  0
VERTEX
  8
PLAN_1
  6
CONTINUOUS
 10
0.538965
 20
-4.464055
  0
VERTEX
  8
PLAN_1
  6
CONTINUOUS
 10
0.542902
 20
-4.460685
  0
VERTEX
  8
PLAN_1
  6
CONTINUOUS
 10
0.546839
 20
-4.456748
  0
VERTEX
  8
PLAN_1
  6
CONTINUOUS
 10
0.550772
 20
-4.452248
  0
VERTEX
  8
PLAN_1
  6
CONTINUOUS
 10
0.554146
 20
-4.447189
  0
VERTEX
  8
PLAN_1
  6
CONTINUOUS
 10
0.556957
 20
-4.441567
  0
VERTEX
  8
PLAN_1
  6
CONTINUOUS
 10
0.559768
 20
-4.434819
  0
VERTEX
  8
PLAN_1
  6
CONTINUOUS
 10
0.562579
 20
-4.427512
  0
VERTEX
  8
PLAN_1
  6
CONTINUOUS
 10
0.564268
 20
-4.419079
  0
VERTEX
  8
PLAN_1
  6
CONTINUOUS
 10
0.590693
 20
-4.419079
  0
VERTEX
  8
PLAN_1
  6
CONTINUOUS
 10
0.589004
 20
-4.425823
  0
VERTEX
  8
PLAN_1
  6
CONTINUOUS
 10
0.587882
 20
-4.432571
  0
VERTEX
  8
PLAN_1
  6
CONTINUOUS
 10
0.586193
 20
-4.438756
  0
VERTEX
  8
PLAN_1
  6
CONTINUOUS
 10
0.583945
 20
-4.444378
  0
VERTEX
  8
PLAN_1
  6
CONTINUOUS
 10
0.581697
 20
-4.449437
  0
VERTEX
  8
PLAN_1
  6
CONTINUOUS
 10
0.579449
 20
-4.454500
  0
VERTEX
  8
PLAN_1
  6
CONTINUOUS
 10
0.577197
 20
-4.458996
  0
VERTEX
  8
PLAN_1
  6
CONTINUOUS
 10
0.574386
 20
-4.463496
  0
VERTEX
  8
PLAN_1
  6
CONTINUOUS
 10
0.571575
 20
-4.467429
  0
VERTEX
  8
PLAN_1
  6
CONTINUOUS
 10
0.568201
 20
-4.470803
  0
VERTEX
  8
PLAN_1
  6
CONTINUOUS
 10
0.565390
 20
-4.474177
  0
VERTEX
  8
PLAN_1
  6
CONTINUOUS
 10
0.562020
 20
-4.476988
  0
VERTEX
  8
PLAN_1
  6
CONTINUOUS
 10
0.555272
 20
-4.482610
  0
VERTEX
  8
PLAN_1
  6
CONTINUOUS
 10
0.548524
 20
-4.486547
  0
VERTEX
  8
PLAN_1
  6
CONTINUOUS
 10
0.541217
 20
-4.489921
  0
VERTEX
  8
PLAN_1
  6
CONTINUOUS
 10
0.534469
 20
-4.492732
  0
VERTEX
  8
PLAN_1
  6
CONTINUOUS
 10
0.527720
 20
-4.494980
  0
VERTEX
  8
PLAN_1
  6
CONTINUOUS
 10
0.521535
 20
-4.496102
  0
VERTEX
  8
PLAN_1
  6
CONTINUOUS
 10
0.510854
 20
-4.497228
  0
VERTEX
  8
PLAN_1
  6
CONTINUOUS
 10
0.503547
 20
-4.497791
  0
VERTEX
  8
PLAN_1
  6
CONTINUOUS
 10
0.494551
 20
-4.497228
  0
VERTEX
  8
PLAN_1
  6
CONTINUOUS
 10
0.486677
 20
-4.496102
  0
VERTEX
  8
PLAN_1
  6
CONTINUOUS
 10
0.478244
 20
-4.494417
  0
VERTEX
  8
PLAN_1
  6
CONTINUOUS
 10
0.470374
 20
-4.492169
  0
VERTEX
  8
PLAN_1
  6
CONTINUOUS
 10
0.462504
 20
-4.488795
  0
VERTEX
  8
PLAN_1
  6
CONTINUOUS
 10
0.455193
 20
-4.484295
  0
VERTEX
  8
PLAN_1
  6
CONTINUOUS
 10
0.447886
 20
-4.479236
  0
VERTEX
  8
PLAN_1
  6
CONTINUOUS
 10
0.441701
 20
-4.473614
  0
VERTEX
  8
PLAN_1
  6
CONTINUOUS
 10
0.435516
 20
-4.466866
  0
VERTEX
  8
PLAN_1
  6
CONTINUOUS
 10
0.429894
 20
-4.458996
  0
VERTEX
  8
PLAN_1
  6
CONTINUOUS
 10
0.425394
 20
-4.450563
  0
VERTEX
  8
PLAN_1
  6
CONTINUOUS
 10
0.421461
 20
-4.440441
  0
VERTEX
  8
PLAN_1
  6
CONTINUOUS
 10
0.418087
 20
-4.429760
  0
VERTEX
  8
PLAN_1
  6
CONTINUOUS
 10
0.415835
 20
-4.418516
  0
VERTEX
  8
PLAN_1
  6
CONTINUOUS
 10
0.414150
 20
-4.405583
  0
VERTEX
  8
PLAN_1
  6
CONTINUOUS
 10
0.413587
 20
-4.391528
  0
VERTEX
  8
PLAN_1
  6
CONTINUOUS
 10
0.414150
 20
-4.380283
  0
VERTEX
  8
PLAN_1
  6
CONTINUOUS
 10
0.415276
 20
-4.369602
  0
VERTEX
  8
PLAN_1
  6
CONTINUOUS
 10
0.416961
 20
-4.359480
  0
VERTEX
  8
PLAN_1
  6
CONTINUOUS
 10
0.419772
 20
-4.349921
  0
VERTEX
  8
PLAN_1
  6
CONTINUOUS
 10
0.423709
 20
-4.340366
  0
VERTEX
  8
PLAN_1
  6
CONTINUOUS
 10
0.427642
 20
-4.331929
  0
VERTEX
  8
PLAN_1
  6
CONTINUOUS
 10
0.432705
 20
-4.324059
  0
VERTEX
  8
PLAN_1
  6
CONTINUOUS
 10
0.438327
 20
-4.316752
  0
VERTEX
  8
PLAN_1
  6
CONTINUOUS
 10
0.444512
 20
-4.310567
  0
VERTEX
  8
PLAN_1
  6
CONTINUOUS
 10
0.451819
 20
-4.304382
  0
VERTEX
  8
PLAN_1
  6
CONTINUOUS
 10
0.459130
 20
-4.299882
  0
VERTEX
  8
PLAN_1
  6
CONTINUOUS
 10
0.467563
 20
-4.295386
  0
VERTEX
  8
PLAN_1
  6
CONTINUOUS
 10
0.476559
 20
-4.292012
  0
VERTEX
  8
PLAN_1
  6
CONTINUOUS
 10
0.486114
 20
-4.289764
  0
VERTEX
  8
PLAN_1
  6
CONTINUOUS
 10
0.496236
 20
-4.288638
  0
VERTEX
  8
PLAN_1
  6
CONTINUOUS
 10
0.506358
 20
-4.288075
  0
VERTEX
  8
PLAN_1
  6
CONTINUOUS
 10
0.515913
 20
-4.288075
  0
VERTEX
  8
PLAN_1
  6
CONTINUOUS
 10
0.524909
 20
-4.289201
  0
VERTEX
  8
PLAN_1
  6
CONTINUOUS
 10
0.532783
 20
-4.290886
  0
VERTEX
  8
PLAN_1
  6
CONTINUOUS
 10
0.540654
 20
-4.293697
  0
VERTEX
  8
PLAN_1
  6
CONTINUOUS
 10
0.547402
 20
-4.296512
  0
VERTEX
  8
PLAN_1
  6
CONTINUOUS
 10
0.554146
 20
-4.299882
  0
VERTEX
  8
PLAN_1
  6
CONTINUOUS
 10
0.559768
 20
-4.303819
  0
VERTEX
  8
PLAN_1
  6
CONTINUOUS
 10
0.565390
 20
-4.308315
  0
VERTEX
  8
PLAN_1
  6
CONTINUOUS
 10
0.569890
 20
-4.312815
  0
VERTEX
  8
PLAN_1
  6
CONTINUOUS
 10
0.574386
 20
-4.317874
  0
VERTEX
  8
PLAN_1
  6
CONTINUOUS
 10
0.578323
 20
-4.323496
  0
VERTEX
  8
PLAN_1
  6
CONTINUOUS
 10
0.581134
 20
-4.329118
  0
VERTEX
  8
PLAN_1
  6
CONTINUOUS
 10
0.583945
 20
-4.334740
  0
VERTEX
  8
PLAN_1
  6
CONTINUOUS
 10
0.586193
 20
-4.340925
  0
VERTEX
  8
PLAN_1
  6
CONTINUOUS
 10
0.587319
 20
-4.347110
  0
VERTEX
  8
PLAN_1
  6
CONTINUOUS
 10
0.588445
 20
-4.353295
  0
VERTEX
  8
PLAN_1
  6
CONTINUOUS
 10
0.562579
 20
-4.353295
  0
SEQEND
  8
0
  0
POLYLINE
  8
PLAN_1
  6
CONTINUOUS
 66
     1
 40
0.003000
 41
0.003000
  0
VERTEX
  8
PLAN_1
  6
CONTINUOUS
 10
0.649728
 20
-4.492732
  0
VERTEX
  8
PLAN_1
  6
CONTINUOUS
 10
0.622740
 20
-4.492732
  0
VERTEX
  8
PLAN_1
  6
CONTINUOUS
 10
0.622740
 20
-4.293138
  0
VERTEX
  8
PLAN_1
  6
CONTINUOUS
 10
0.649728
 20
-4.293138
  0
VERTEX
  8
PLAN_1
  6
CONTINUOUS
 10
0.649728
 20
-4.389843
  0
VERTEX
  8
PLAN_1
  6
CONTINUOUS
 10
0.746433
 20
-4.293138
  0
VERTEX
  8
PLAN_1
  6
CONTINUOUS
 10
0.783539
 20
-4.293138
  0
VERTEX
  8
PLAN_1
  6
CONTINUOUS
 10
0.700890
 20
-4.373535
  0
VERTEX
  8
PLAN_1
  6
CONTINUOUS
 10
0.785787
 20
-4.492732
  0
VERTEX
  8
PLAN_1
  6
CONTINUOUS
 10
0.750929
 20
-4.492732
  0
VERTEX
  8
PLAN_1
  6
CONTINUOUS
 10
0.681213
 20
-4.392654
  0
VERTEX
  8
PLAN_1
  6
CONTINUOUS
 10
0.649728
 20
-4.422453
  0
VERTEX
  8
PLAN_1
  6
CONTINUOUS
 10
0.649728
 20
-4.492732
  0
SEQEND
  8
0
  0
POLYLINE
  8
PLAN_1
  6
CONTINUOUS
 66
     1
 40
0.003000
 41
0.003000
  0
VERTEX
  8
PLAN_1
  6
CONTINUOUS
 10
0.817272
 20
-4.428634
  0
VERTEX
  8
PLAN_1
  6
CONTINUOUS
 10
0.817272
 20
-4.442130
  0
VERTEX
  8
PLAN_1
  6
CONTINUOUS
 10
0.817272
 20
-4.446626
  0
VERTEX
  8
PLAN_1
  6
CONTINUOUS
 10
0.817835
 20
-4.450563
  0
VERTEX
  8
PLAN_1
  6
CONTINUOUS
 10
0.818398
 20
-4.453937
  0
VERTEX
  8
PLAN_1
  6
CONTINUOUS
 10
0.818961
 20
-4.457311
  0
VERTEX
  8
PLAN_1
  6
CONTINUOUS
 10
0.820087
 20
-4.460122
  0
VERTEX
  8
PLAN_1
  6
CONTINUOUS
 10
0.821772
 20
-4.462933
  0
VERTEX
  8
PLAN_1
  6
CONTINUOUS
 10
0.823457
 20
-4.465181
  0
VERTEX
  8
PLAN_1
  6
CONTINUOUS
 10
0.825146
 20
-4.467429
  0
VERTEX
  8
PLAN_1
  6
CONTINUOUS
 10
0.827394
 20
-4.469118
  0
VERTEX
  8
PLAN_1
  6
CONTINUOUS
 10
0.829642
 20
-4.470803
  0
VERTEX
  8
PLAN_1
  6
CONTINUOUS
 10
0.831894
 20
-4.471929
  0
VERTEX
  8
PLAN_1
  6
CONTINUOUS
 10
0.834705
 20
-4.473051
  0
VERTEX
  8
PLAN_1
  6
CONTINUOUS
 10
0.840327
 20
-4.474177
  0
VERTEX
  8
PLAN_1
  6
CONTINUOUS
 10
0.847071
 20
-4.474740
  0
VERTEX
  8
PLAN_1
  6
CONTINUOUS
 10
0.851571
 20
-4.474740
  0
VERTEX
  8
PLAN_1
  6
CONTINUOUS
 10
0.855504
 20
-4.474177
  0
VERTEX
  8
PLAN_1
  6
CONTINUOUS
 10
0.859441
 20
-4.473051
  0
VERTEX
  8
PLAN_1
  6
CONTINUOUS
 10
0.862815
 20
-4.471929
  0
VERTEX
  8
PLAN_1
  6
CONTINUOUS
 10
0.865626
 20
-4.470803
  0
VERTEX
  8
PLAN_1
  6
CONTINUOUS
 10
0.868437
 20
-4.469118
  0
VERTEX
  8
PLAN_1
  6
CONTINUOUS
 10
0.870685
 20
-4.466866
  0
VERTEX
  8
PLAN_1
  6
CONTINUOUS
 10
0.872374
 20
-4.464618
  0
VERTEX
  8
PLAN_1
  6
CONTINUOUS
 10
0.874059
 20
-4.462370
  0
VERTEX
  8
PLAN_1
  6
CONTINUOUS
 10
0.875748
 20
-4.459559
  0
VERTEX
  8
PLAN_1
  6
CONTINUOUS
 10
0.876870
 20
-4.456748
  0
VERTEX
  8
PLAN_1
  6
CONTINUOUS
 10
0.877433
 20
-4.453937
  0
VERTEX
  8
PLAN_1
  6
CONTINUOUS
 10
0.878559
 20
-4.447189
  0
VERTEX
  8
PLAN_1
  6
CONTINUOUS
 10
0.879118
 20
-4.440441
  0
VERTEX
  8
PLAN_1
  6
CONTINUOUS
 10
0.879118
 20
-4.293138
  0
VERTEX
  8
PLAN_1
  6
CONTINUOUS
 10
0.906106
 20
-4.293138
  0
VERTEX
  8
PLAN_1
  6
CONTINUOUS
 10
0.906106
 20
-4.438756
  0
VERTEX
  8
PLAN_1
  6
CONTINUOUS
 10
0.905543
 20
-4.447189
  0
VERTEX
  8
PLAN_1
  6
CONTINUOUS
 10
0.904421
 20
-4.454500
  0
VERTEX
  8
PLAN_1
  6
CONTINUOUS
 10
0.902732
 20
-4.461244
  0
VERTEX
  8
PLAN_1
  6
CONTINUOUS
 10
0.901047
 20
-4.467429
  0
VERTEX
  8
PLAN_1
  6
CONTINUOUS
 10
0.898236
 20
-4.473051
  0
VERTEX
  8
PLAN_1
  6
CONTINUOUS
 10
0.894862
 20
-4.478114
  0
VERTEX
  8
PLAN_1
  6
CONTINUOUS
 10
0.891488
 20
-4.482047
  0
VERTEX
  8
PLAN_1
  6
CONTINUOUS
 10
0.887555
 20
-4.485984
  0
VERTEX
  8
PLAN_1
  6
CONTINUOUS
 10
0.883055
 20
-4.488795
  0
VERTEX
  8
PLAN_1
  6
CONTINUOUS
 10
0.878559
 20
-4.491606
  0
VERTEX
  8
PLAN_1
  6
CONTINUOUS
 10
0.873496
 20
-4.493291
  0
VERTEX
  8
PLAN_1
  6
CONTINUOUS
 10
0.869000
 20
-4.494980
  0
VERTEX
  8
PLAN_1
  6
CONTINUOUS
 10
0.863941
 20
-4.496102
  0
VERTEX
  8
PLAN_1
  6
CONTINUOUS
 10
0.858878
 20
-4.497228
  0
VERTEX
  8
PLAN_1
  6
CONTINUOUS
 10
0.853819
 20
-4.497791
  0
VERTEX
  8
PLAN_1
  6
CONTINUOUS
 10
0.848760
 20
-4.497791
  0
VERTEX
  8
PLAN_1
  6
CONTINUOUS
 10
0.840327
 20
-4.497228
  0
VERTEX
  8
PLAN_1
  6
CONTINUOUS
 10
0.833016
 20
-4.496665
  0
VERTEX
  8
PLAN_1
  6
CONTINUOUS
 10
0.826268
 20
-4.494980
  0
VERTEX
  8
PLAN_1
  6
CONTINUOUS
 10
0.820087
 20
-4.492732
  0
VERTEX
  8
PLAN_1
  6
CONTINUOUS
 10
0.815024
 20
-4.489921
  0
VERTEX
  8
PLAN_1
  6
CONTINUOUS
 10
0.809965
 20
-4.487106
  0
VERTEX
  8
PLAN_1
  6
CONTINUOUS
 10
0.806028
 20
-4.483736
  0
VERTEX
  8
PLAN_1
  6
CONTINUOUS
 10
0.802654
 20
-4.479799
  0
VERTEX
  8
PLAN_1
  6
CONTINUOUS
 10
0.799843
 20
-4.475862
  0
VERTEX
  8
PLAN_1
  6
CONTINUOUS
 10
0.797594
 20
-4.471929
  0
VERTEX
  8
PLAN_1
  6
CONTINUOUS
 10
0.795909
 20
-4.467992
  0
VERTEX
  8
PLAN_1
  6
CONTINUOUS
 10
0.794220
 20
-4.463496
  0
VERTEX
  8
PLAN_1
  6
CONTINUOUS
 10
0.793098
 20
-4.459559
  0
VERTEX
  8
PLAN_1
  6
CONTINUOUS
 10
0.792535
 20
-4.455622
  0
VERTEX
  8
PLAN_1
  6
CONTINUOUS
 10
0.791972
 20
-4.451689
  0
VERTEX
  8
PLAN_1
  6
CONTINUOUS
 10
0.791972
 20
-4.448315
  0
VERTEX
  8
PLAN_1
  6
CONTINUOUS
 10
0.791972
 20
-4.428634
  0
VERTEX
  8
PLAN_1
  6
CONTINUOUS
 10
0.817272
 20
-4.428634
  0
SEQEND
  8
0
  0
POLYLINE
  8
PLAN_1
  6
CONTINUOUS
 66
     1
 40
0.003000
 41
0.003000
  0
VERTEX
  8
PLAN_1
  6
CONTINUOUS
 10
1.025862
 20
-4.492732
  0
VERTEX
  8
PLAN_1
  6
CONTINUOUS
 10
0.999437
 20
-4.492732
  0
VERTEX
  8
PLAN_1
  6
CONTINUOUS
 10
0.999437
 20
-4.353858
  0
VERTEX
  8
PLAN_1
  6
CONTINUOUS
 10
0.953898
 20
-4.353858
  0
VERTEX
  8
PLAN_1
  6
CONTINUOUS
 10
0.953898
 20
-4.334740
  0
VERTEX
  8
PLAN_1
  6
CONTINUOUS
 10
0.965142
 20
-4.333618
  0
VERTEX
  8
PLAN_1
  6
CONTINUOUS
 10
0.974701
 20
-4.332492
  0
VERTEX
  8
PLAN_1
  6
CONTINUOUS
 10
0.978634
 20
-4.331370
  0
VERTEX
  8
PLAN_1
  6
CONTINUOUS
 10
0.982571
 20
-4.330244
  0
VERTEX
  8
PLAN_1
  6
CONTINUOUS
 10
0.985945
 20
-4.328559
  0
VERTEX
  8
PLAN_1
  6
CONTINUOUS
 10
0.989319
 20
-4.326870
  0
VERTEX
  8
PLAN_1
  6
CONTINUOUS
 10
0.992130
 20
-4.325185
  0
VERTEX
  8
PLAN_1
  6
CONTINUOUS
 10
0.994941
 20
-4.322374
  0
VERTEX
  8
PLAN_1
  6
CONTINUOUS
 10
0.997189
 20
-4.319563
  0
VERTEX
  8
PLAN_1
  6
CONTINUOUS
 10
0.999437
 20
-4.316189
  0
VERTEX
  8
PLAN_1
  6
CONTINUOUS
 10
1.001689
 20
-4.312252
  0
VERTEX
  8
PLAN_1
  6
CONTINUOUS
 10
1.003374
 20
-4.308315
  0
VERTEX
  8
PLAN_1
  6
CONTINUOUS
 10
1.005059
 20
-4.303256
  0
VERTEX
  8
PLAN_1
  6
CONTINUOUS
 10
1.006748
 20
-4.297634
  0
VERTEX
  8
PLAN_1
  6
CONTINUOUS
 10
1.025862
 20
-4.297634
  0
VERTEX
  8
PLAN_1
  6
CONTINUOUS
 10
1.025862
 20
-4.492732
  0
SEQEND
  8
0
  0
POLYLINE
  8
PLAN_1
  6
CONTINUOUS
 66
     1
 40
0.003000
 41
0.003000
  0
VERTEX
  8
PLAN_1
  6
CONTINUOUS
 10
1.264252
 20
-4.338114
  0
VERTEX
  8
PLAN_1
  6
CONTINUOUS
 10
1.282807
 20
-4.338114
  0
VERTEX
  8
PLAN_1
  6
CONTINUOUS
 10
1.278870
 20
-4.352732
  0
VERTEX
  8
PLAN_1
  6
CONTINUOUS
 10
1.274933
 20
-4.367913
  0
VERTEX
  8
PLAN_1
  6
CONTINUOUS
 10
1.270437
 20
-4.381969
  0
VERTEX
  8
PLAN_1
  6
CONTINUOUS
 10
1.266500
 20
-4.394902
  0
VERTEX
  8
PLAN_1
  6
CONTINUOUS
 10
1.263126
 20
-4.407272
  0
VERTEX
  8
PLAN_1
  6
CONTINUOUS
 10
1.260315
 20
-4.416827
  0
VERTEX
  8
PLAN_1
  6
CONTINUOUS
 10
1.258630
 20
-4.424138
  0
VERTEX
  8
PLAN_1
  6
CONTINUOUS
 10
1.258067
 20
-4.428634
  0
VERTEX
  8
PLAN_1
  6
CONTINUOUS
 10
1.258067
 20
-4.430323
  0
VERTEX
  8
PLAN_1
  6
CONTINUOUS
 10
1.258630
 20
-4.432008
  0
VERTEX
  8
PLAN_1
  6
CONTINUOUS
 10
1.258630
 20
-4.433697
  0
VERTEX
  8
PLAN_1
  6
CONTINUOUS
 10
1.259193
 20
-4.434819
  0
VERTEX
  8
PLAN_1
  6
CONTINUOUS
 10
1.260315
 20
-4.435382
  0
VERTEX
  8
PLAN_1
  6
CONTINUOUS
 10
1.260878
 20
-4.435945
  0
VERTEX
  8
PLAN_1
  6
CONTINUOUS
 10
1.262567
 20
-4.436508
  0
VERTEX
  8
PLAN_1
  6
CONTINUOUS
 10
1.263689
 20
-4.436508
  0
VERTEX
  8
PLAN_1
  6
CONTINUOUS
 10
1.267626
 20
-4.436508
  0
VERTEX
  8
PLAN_1
  6
CONTINUOUS
 10
1.271000
 20
-4.435382
  0
VERTEX
  8
PLAN_1
  6
CONTINUOUS
 10
1.274374
 20
-4.433697
  0
VERTEX
  8
PLAN_1
  6
CONTINUOUS
 10
1.278307
 20
-4.431445
  0
VERTEX
  8
PLAN_1
  6
CONTINUOUS
 10
1.281681
 20
-4.428634
  0
VERTEX
  8
PLAN_1
  6
CONTINUOUS
 10
1.284492
 20
-4.425823
  0
VERTEX
  8
PLAN_1
  6
CONTINUOUS
 10
1.287866
 20
-4.421890
  0
VERTEX
  8
PLAN_1
  6
CONTINUOUS
 10
1.290677
 20
-4.417953
  0
VERTEX
  8
PLAN_1
  6
CONTINUOUS
 10
1.293488
 20
-4.413457
  0
VERTEX
  8
PLAN_1
  6
CONTINUOUS
 10
1.295736
 20
-4.408957
  0
VERTEX
  8
PLAN_1
  6
CONTINUOUS
 10
1.297984
 20
-4.403898
  0
VERTEX
  8
PLAN_1
  6
CONTINUOUS
 10
1.299673
 20
-4.398839
  0
VERTEX
  8
PLAN_1
  6
CONTINUOUS
 10
1.301358
 20
-4.393217
  0
VERTEX
  8
PLAN_1
  6
CONTINUOUS
 10
1.302484
 20
-4.387591
  0
VERTEX
  8
PLAN_1
  6
CONTINUOUS
 10
1.303047
 20
-4.382531
  0
VERTEX
  8
PLAN_1
  6
CONTINUOUS
 10
1.303610
 20
-4.376909
  0
VERTEX
  8
PLAN_1
  6
CONTINUOUS
 10
1.303047
 20
-4.368476
  0
VERTEX
  8
PLAN_1
  6
CONTINUOUS
 10
1.301921
 20
-4.361165
  0
VERTEX
  8
PLAN_1
  6
CONTINUOUS
 10
1.299673
 20
-4.353858
  0
VERTEX
  8
PLAN_1
  6
CONTINUOUS
 10
1.296862
 20
-4.347110
  0
VERTEX
  8
PLAN_1
  6
CONTINUOUS
 10
1.294051
 20
-4.340366
  0
VERTEX
  8
PLAN_1
  6
CONTINUOUS
 10
1.290114
 20
-4.334740
  0
VERTEX
  8
PLAN_1
  6
CONTINUOUS
 10
1.285618
 20
-4.329118
  0
VERTEX
  8
PLAN_1
  6
CONTINUOUS
 10
1.280555
 20
-4.324059
  0
VERTEX
  8
PLAN_1
  6
CONTINUOUS
 10
1.274933
 20
-4.320122
  0
VERTEX
  8
PLAN_1
  6
CONTINUOUS
 10
1.268748
 20
-4.316189
  0
VERTEX
  8
PLAN_1
  6
CONTINUOUS
 10
1.262567
 20
-4.312815
  0
VERTEX
  8
PLAN_1
  6
CONTINUOUS
 10
1.255819
 20
-4.310004
  0
VERTEX
  8
PLAN_1
  6
CONTINUOUS
 10
1.248508
 20
-4.307756
  0
VERTEX
  8
PLAN_1
  6
CONTINUOUS
 10
1.241201
 20
-4.306630
  0
VERTEX
  8
PLAN_1
  6
CONTINUOUS
 10
1.233890
 20
-4.305504
  0
VERTEX
  8
PLAN_1
  6
CONTINUOUS
 10
1.226020
 20
-4.304945
  0
VERTEX
  8
PLAN_1
  6
CONTINUOUS
 10
1.217024
 20
-4.305504
  0
VERTEX
  8
PLAN_1
  6
CONTINUOUS
 10
1.208028
 20
-4.307193
  0
VERTEX
  8
PLAN_1
  6
CONTINUOUS
 10
1.199594
 20
-4.308878
  0
VERTEX
  8
PLAN_1
  6
CONTINUOUS
 10
1.191724
 20
-4.312252
  0
VERTEX
  8
PLAN_1
  6
CONTINUOUS
 10
1.184413
 20
-4.315626
  0
VERTEX
  8
PLAN_1
  6
CONTINUOUS
 10
1.177669
 20
-4.320122
  0
VERTEX
  8
PLAN_1
  6
CONTINUOUS
 10
1.170921
 20
-4.325185
  0
VERTEX
  8
PLAN_1
  6
CONTINUOUS
 10
1.165299
 20
-4.331370
  0
VERTEX
  8
PLAN_1
  6
CONTINUOUS
 10
1.159677
 20
-4.337555
  0
VERTEX
  8
PLAN_1
  6
CONTINUOUS
 10
1.155177
 20
-4.344299
  0
VERTEX
  8
PLAN_1
  6
CONTINUOUS
 10
1.151244
 20
-4.351610
  0
VERTEX
  8
PLAN_1
  6
CONTINUOUS
 10
1.147870
 20
-4.359480
  0
VERTEX
  8
PLAN_1
  6
CONTINUOUS
 10
1.145059
 20
-4.367350
  0
VERTEX
  8
PLAN_1
  6
CONTINUOUS
 10
1.143370
 20
-4.375783
  0
VERTEX
  8
PLAN_1
  6
CONTINUOUS
 10
1.141685
 20
-4.384780
  0
VERTEX
  8
PLAN_1
  6
CONTINUOUS
 10
1.141685
 20
-4.393776
  0
VERTEX
  8
PLAN_1
  6
CONTINUOUS
 10
1.141685
 20
-4.402772
  0
VERTEX
  8
PLAN_1
  6
CONTINUOUS
 10
1.143370
 20
-4.411768
  0
VERTEX
  8
PLAN_1
  6
CONTINUOUS
 10
1.145059
 20
-4.420201
  0
VERTEX
  8
PLAN_1
  6
CONTINUOUS
 10
1.148433
 20
-4.428075
  0
VERTEX
  8
PLAN_1
  6
CONTINUOUS
 10
1.151803
 20
-4.435945
  0
VERTEX
  8
PLAN_1
  6
CONTINUOUS
 10
1.155740
 20
-4.442693
  0
VERTEX
  8
PLAN_1
  6
CONTINUOUS
 10
1.160799
 20
-4.449437
  0
VERTEX
  8
PLAN_1
  6
CONTINUOUS
 10
1.166421
 20
-4.455622
  0
VERTEX
  8
PLAN_1
  6
CONTINUOUS
 10
1.172606
 20
-4.461244
  0
VERTEX
  8
PLAN_1
  6
CONTINUOUS
 10
1.179354
 20
-4.466307
  0
VERTEX
  8
PLAN_1
  6
CONTINUOUS
 10
1.186102
 20
-4.470240
  0
VERTEX
  8
PLAN_1
  6
CONTINUOUS
 10
1.193972
 20
-4.474177
  0
VERTEX
  8
PLAN_1
  6
CONTINUOUS
 10
1.201843
 20
-4.476988
  0
VERTEX
  8
PLAN_1
  6
CONTINUOUS
 10
1.210276
 20
-4.478673
  0
VERTEX
  8
PLAN_1
  6
CONTINUOUS
 10
1.218713
 20
-4.480362
  0
VERTEX
  8
PLAN_1
  6
CONTINUOUS
 10
1.227705
 20
-4.480362
  0
VERTEX
  8
PLAN_1
  6
CONTINUOUS
 10
1.237264
 20
-4.479799
  0
VERTEX
  8
PLAN_1
  6
CONTINUOUS
 10
1.246823
 20
-4.478114
  0
VERTEX
  8
PLAN_1
  6
CONTINUOUS
 10
1.256382
 20
-4.475862
  0
VERTEX
  8
PLAN_1
  6
CONTINUOUS
 10
1.265378
 20
-4.471929
  0
VERTEX
  8
PLAN_1
  6
CONTINUOUS
 10
1.273811
 20
-4.467429
  0
VERTEX
  8
PLAN_1
  6
CONTINUOUS
 10
1.281681
 20
-4.461807
  0
VERTEX
  8
PLAN_1
  6
CONTINUOUS
 10
1.288992
 20
-4.455622
  0
VERTEX
  8
PLAN_1
  6
CONTINUOUS
 10
1.295173
 20
-4.448878
  0
VERTEX
  8
PLAN_1
  6
CONTINUOUS
 10
1.313728
 20
-4.448878
  0
VERTEX
  8
PLAN_1
  6
CONTINUOUS
 10
1.310354
 20
-4.454500
  0
VERTEX
  8
PLAN_1
  6
CONTINUOUS
 10
1.306421
 20
-4.459559
  0
VERTEX
  8
PLAN_1
  6
CONTINUOUS
 10
1.302484
 20
-4.464618
  0
VERTEX
  8
PLAN_1
  6
CONTINUOUS
 10
1.297984
 20
-4.469118
  0
VERTEX
  8
PLAN_1
  6
CONTINUOUS
 10
1.292925
 20
-4.473614
  0
VERTEX
  8
PLAN_1
  6
CONTINUOUS
 10
1.287866
 20
-4.477551
  0
VERTEX
  8
PLAN_1
  6
CONTINUOUS
 10
1.282807
 20
-4.481484
  0
VERTEX
  8
PLAN_1
  6
CONTINUOUS
 10
1.277185
 20
-4.484858
  0
VERTEX
  8
PLAN_1
  6
CONTINUOUS
 10
1.271563
 20
-4.487669
  0
VERTEX
  8
PLAN_1
  6
CONTINUOUS
 10
1.265378
 20
-4.490480
  0
VERTEX
  8
PLAN_1
  6
CONTINUOUS
 10
1.259193
 20
-4.492732
  0
VERTEX
  8
PLAN_1
  6
CONTINUOUS
 10
1.253008
 20
-4.494417
  0
VERTEX
  8
PLAN_1
  6
CONTINUOUS
 10
1.246823
 20
-4.496102
  0
VERTEX
  8
PLAN_1
  6
CONTINUOUS
 10
1.240638
 20
-4.496665
  0
VERTEX
  8
PLAN_1
  6
CONTINUOUS
 10
1.233890
 20
-4.497791
  0
VERTEX
  8
PLAN_1
  6
CONTINUOUS
 10
1.227146
 20
-4.497791
  0
VERTEX
  8
PLAN_1
  6
CONTINUOUS
 10
1.216461
 20
-4.497228
  0
VERTEX
  8
PLAN_1
  6
CONTINUOUS
 10
1.205780
 20
-4.495543
  0
VERTEX
  8
PLAN_1
  6
CONTINUOUS
 10
1.195657
 20
-4.493291
  0
VERTEX
  8
PLAN_1
  6
CONTINUOUS
 10
1.185539
 20
-4.489358
  0
VERTEX
  8
PLAN_1
  6
CONTINUOUS
 10
1.176543
 20
-4.485421
  0
VERTEX
  8
PLAN_1
  6
CONTINUOUS
 10
1.167547
 20
-4.479799
  0
VERTEX
  8
PLAN_1
  6
CONTINUOUS
 10
1.159677
 20
-4.474177
  0
VERTEX
  8
PLAN_1
  6
CONTINUOUS
 10
1.151803
 20
-4.467429
  0
VERTEX
  8
PLAN_1
  6
CONTINUOUS
 10
1.145059
 20
-4.459559
  0
VERTEX
  8
PLAN_1
  6
CONTINUOUS
 10
1.138874
 20
-4.451689
  0
VERTEX
  8
PLAN_1
  6
CONTINUOUS
 10
1.133811
 20
-4.442693
  0
VERTEX
  8
PLAN_1
  6
CONTINUOUS
 10
1.129315
 20
-4.433697
  0
VERTEX
  8
PLAN_1
  6
CONTINUOUS
 10
1.125941
 20
-4.424138
  0
VERTEX
  8
PLAN_1
  6
CONTINUOUS
 10
1.123130
 20
-4.414016
  0
VERTEX
  8
PLAN_1
  6
CONTINUOUS
 10
1.122008
 20
-4.403335
  0
VERTEX
  8
PLAN_1
  6
CONTINUOUS
 10
1.121445
 20
-4.392091
  0
VERTEX
  8
PLAN_1
  6
CONTINUOUS
 10
1.122008
 20
-4.381409
  0
VERTEX
  8
PLAN_1
  6
CONTINUOUS
 10
1.123130
 20
-4.371287
  0
VERTEX
  8
PLAN_1
  6
CONTINUOUS
 10
1.125941
 20
-4.361165
  0
VERTEX
  8
PLAN_1
  6
CONTINUOUS
 10
1.129315
 20
-4.351610
  0
VERTEX
  8
PLAN_1
  6
CONTINUOUS
 10
1.133811
 20
-4.342614
  0
VERTEX
  8
PLAN_1
  6
CONTINUOUS
 10
1.139437
 20
-4.333618
  0
VERTEX
  8
PLAN_1
  6
CONTINUOUS
 10
1.145059
 20
-4.325748
  0
VERTEX
  8
PLAN_1
  6
CONTINUOUS
 10
1.152366
 20
-4.318437
  0
VERTEX
  8
PLAN_1
  6
CONTINUOUS
 10
1.159677
 20
-4.311689
  0
VERTEX
  8
PLAN_1
  6
CONTINUOUS
 10
1.167547
 20
-4.305504
  0
VERTEX
  8
PLAN_1
  6
CONTINUOUS
 10
1.176543
 20
-4.300445
  0
VERTEX
  8
PLAN_1
  6
CONTINUOUS
 10
1.185539
 20
-4.295949
  0
VERTEX
  8
PLAN_1
  6
CONTINUOUS
 10
1.195098
 20
-4.292575
  0
VERTEX
  8
PLAN_1
  6
CONTINUOUS
 10
1.205217
 20
-4.289764
  0
VERTEX
  8
PLAN_1
  6
CONTINUOUS
 10
1.215339
 20
-4.288638
  0
VERTEX
  8
PLAN_1
  6
CONTINUOUS
 10
1.226020
 20
-4.288075
  0
VERTEX
  8
PLAN_1
  6
CONTINUOUS
 10
1.235579
 20
-4.288075
  0
VERTEX
  8
PLAN_1
  6
CONTINUOUS
 10
1.244575
 20
-4.289764
  0
VERTEX
  8
PLAN_1
  6
CONTINUOUS
 10
1.253571
 20
-4.291449
  0
VERTEX
  8
PLAN_1
  6
CONTINUOUS
 10
1.262567
 20
-4.294260
  0
VERTEX
  8
PLAN_1
  6
CONTINUOUS
 10
1.271000
 20
-4.297634
  0
VERTEX
  8
PLAN_1
  6
CONTINUOUS
 10
1.278870
 20
-4.302134
  0
VERTEX
  8
PLAN_1
  6
CONTINUOUS
 10
1.286181
 20
-4.306630
  0
VERTEX
  8
PLAN_1
  6
CONTINUOUS
 10
1.292925
 20
-4.312252
  0
VERTEX
  8
PLAN_1
  6
CONTINUOUS
 10
1.299110
 20
-4.318437
  0
VERTEX
  8
PLAN_1
  6
CONTINUOUS
 10
1.304732
 20
-4.325185
  0
VERTEX
  8
PLAN_1
  6
CONTINUOUS
 10
1.309791
 20
-4.331929
  0
VERTEX
  8
PLAN_1
  6
CONTINUOUS
 10
1.313728
 20
-4.339803
  0
VERTEX
  8
PLAN_1
  6
CONTINUOUS
 10
1.317102
 20
-4.347673
  0
VERTEX
  8
PLAN_1
  6
CONTINUOUS
 10
1.319350
 20
-4.356106
  0
VERTEX
  8
PLAN_1
  6
CONTINUOUS
 10
1.321039
 20
-4.365102
  0
VERTEX
  8
PLAN_1
  6
CONTINUOUS
 10
1.321598
 20
-4.374661
  0
VERTEX
  8
PLAN_1
  6
CONTINUOUS
 10
1.321039
 20
-4.383657
  0
VERTEX
  8
PLAN_1
  6
CONTINUOUS
 10
1.319350
 20
-4.392654
  0
VERTEX
  8
PLAN_1
  6
CONTINUOUS
 10
1.317102
 20
-4.400524
  0
VERTEX
  8
PLAN_1
  6
CONTINUOUS
 10
1.314291
 20
-4.408394
  0
VERTEX
  8
PLAN_1
  6
CONTINUOUS
 10
1.310917
 20
-4.415142
  0
VERTEX
  8
PLAN_1
  6
CONTINUOUS
 10
1.306980
 20
-4.421890
  0
VERTEX
  8
PLAN_1
  6
CONTINUOUS
 10
1.302484
 20
-4.428075
  0
VERTEX
  8
PLAN_1
  6
CONTINUOUS
 10
1.297425
 20
-4.433697
  0
VERTEX
  8
PLAN_1
  6
CONTINUOUS
 10
1.292362
 20
-4.438193
  0
VERTEX
  8
PLAN_1
  6
CONTINUOUS
 10
1.286740
 20
-4.442693
  0
VERTEX
  8
PLAN_1
  6
CONTINUOUS
 10
1.281118
 20
-4.446063
  0
VERTEX
  8
PLAN_1
  6
CONTINUOUS
 10
1.276059
 20
-4.449437
  0
VERTEX
  8
PLAN_1
  6
CONTINUOUS
 10
1.270437
 20
-4.451689
  0
VERTEX
  8
PLAN_1
  6
CONTINUOUS
 10
1.264815
 20
-4.453374
  0
VERTEX
  8
PLAN_1
  6
CONTINUOUS
 10
1.259756
 20
-4.454500
  0
VERTEX
  8
PLAN_1
  6
CONTINUOUS
 10
1.255256
 20
-4.454500
  0
VERTEX
  8
PLAN_1
  6
CONTINUOUS
 10
1.251319
 20
-4.454500
  0
VERTEX
  8
PLAN_1
  6
CONTINUOUS
 10
1.248508
 20
-4.453937
  0
VERTEX
  8
PLAN_1
  6
CONTINUOUS
 10
1.245138
 20
-4.452248
  0
VERTEX
  8
PLAN_1
  6
CONTINUOUS
 10
1.242886
 20
-4.450563
  0
VERTEX
  8
PLAN_1
  6
CONTINUOUS
 10
1.240638
 20
-4.448315
  0
VERTEX
  8
PLAN_1
  6
CONTINUOUS
 10
1.238953
 20
-4.444941
  0
VERTEX
  8
PLAN_1
  6
CONTINUOUS
 10
1.237827
 20
-4.441567
  0
VERTEX
  8
PLAN_1
  6
CONTINUOUS
 10
1.237264
 20
-4.437071
  0
VERTEX
  8
PLAN_1
  6
CONTINUOUS
 10
1.236701
 20
-4.437630
  0
VERTEX
  8
PLAN_1
  6
CONTINUOUS
 10
1.233331
 20
-4.441004
  0
VERTEX
  8
PLAN_1
  6
CONTINUOUS
 10
1.229957
 20
-4.443815
  0
VERTEX
  8
PLAN_1
  6
CONTINUOUS
 10
1.226020
 20
-4.446626
  0
VERTEX
  8
PLAN_1
  6
CONTINUOUS
 10
1.222083
 20
-4.449437
  0
VERTEX
  8
PLAN_1
  6
CONTINUOUS
 10
1.217587
 20
-4.451689
  0
VERTEX
  8
PLAN_1
  6
CONTINUOUS
 10
1.213087
 20
-4.453374
  0
VERTEX
  8
PLAN_1
  6
CONTINUOUS
 10
1.208028
 20
-4.454500
  0
VERTEX
  8
PLAN_1
  6
CONTINUOUS
 10
1.203531
 20
-4.454500
  0
VERTEX
  8
PLAN_1
  6
CONTINUOUS
 10
1.199031
 20
-4.454500
  0
VERTEX
  8
PLAN_1
  6
CONTINUOUS
 10
1.194535
 20
-4.453937
  0
VERTEX
  8
PLAN_1
  6
CONTINUOUS
 10
1.190598
 20
-4.452811
  0
VERTEX
  8
PLAN_1
  6
CONTINUOUS
 10
1.187224
 20
-4.451126
  0
VERTEX
  8
PLAN_1
  6
CONTINUOUS
 10
1.183291
 20
-4.449437
  0
VERTEX
  8
PLAN_1
  6
CONTINUOUS
 10
1.179917
 20
-4.447189
  0
VERTEX
  8
PLAN_1
  6
CONTINUOUS
 10
1.177106
 20
-4.444378
  0
VERTEX
  8
PLAN_1
  6
CONTINUOUS
 10
1.174295
 20
-4.441567
  0
VERTEX
  8
PLAN_1
  6
CONTINUOUS
 10
1.171484
 20
-4.438193
  0
VERTEX
  8
PLAN_1
  6
CONTINUOUS
 10
1.169232
 20
-4.434819
  0
VERTEX
  8
PLAN_1
  6
CONTINUOUS
 10
1.166984
 20
-4.431445
  0
VERTEX
  8
PLAN_1
  6
CONTINUOUS
 10
1.165862
 20
-4.427512
  0
VERTEX
  8
PLAN_1
  6
CONTINUOUS
 10
1.164173
 20
-4.423575
  0
VERTEX
  8
PLAN_1
  6
CONTINUOUS
 10
1.163610
 20
-4.419079
  0
VERTEX
  8
PLAN_1
  6
CONTINUOUS
 10
1.163051
 20
-4.414579
  0
VERTEX
  8
PLAN_1
  6
CONTINUOUS
 10
1.162488
 20
-4.410083
  0
VERTEX
  8
PLAN_1
  6
CONTINUOUS
 10
1.163051
 20
-4.403335
  0
VERTEX
  8
PLAN_1
  6
CONTINUOUS
 10
1.163610
 20
-4.396028
  0
VERTEX
  8
PLAN_1
  6
CONTINUOUS
 10
1.165299
 20
-4.389280
  0
VERTEX
  8
PLAN_1
  6
CONTINUOUS
 10
1.166984
 20
-4.382531
  0
VERTEX
  8
PLAN_1
  6
CONTINUOUS
 10
1.169795
 20
-4.375783
  0
VERTEX
  8
PLAN_1
  6
CONTINUOUS
 10
1.172606
 20
-4.369602
  0
VERTEX
  8
PLAN_1
  6
CONTINUOUS
 10
1.175980
 20
-4.363417
  0
VERTEX
  8
PLAN_1
  6
CONTINUOUS
 10
1.179917
 20
-4.357795
  0
VERTEX
  8
PLAN_1
  6
CONTINUOUS
 10
1.184413
 20
-4.352732
  0
VERTEX
  8
PLAN_1
  6
CONTINUOUS
 10
1.189476
 20
-4.348236
  0
VERTEX
  8
PLAN_1
  6
CONTINUOUS
 10
1.194535
 20
-4.343736
  0
VERTEX
  8
PLAN_1
  6
CONTINUOUS
 10
1.200157
 20
-4.340366
  0
VERTEX
  8
PLAN_1
  6
CONTINUOUS
 10
1.206343
 20
-4.337555
  0
VERTEX
  8
PLAN_1
  6
CONTINUOUS
 10
1.213087
 20
-4.335303
  0
VERTEX
  8
PLAN_1
  6
CONTINUOUS
 10
1.219835
 20
-4.334181
  0
VERTEX
  8
PLAN_1
  6
CONTINUOUS
 10
1.226583
 20
-4.333618
  0
VERTEX
  8
PLAN_1
  6
CONTINUOUS
 10
1.231642
 20
-4.334181
  0
VERTEX
  8
PLAN_1
  6
CONTINUOUS
 10
1.236142
 20
-4.334740
  0
VERTEX
  8
PLAN_1
  6
CONTINUOUS
 10
1.240638
 20
-4.336429
  0
VERTEX
  8
PLAN_1
  6
CONTINUOUS
 10
1.245138
 20
-4.338677
  0
VERTEX
  8
PLAN_1
  6
CONTINUOUS
 10
1.249071
 20
-4.341488
  0
VERTEX
  8
PLAN_1
  6
CONTINUOUS
 10
1.252445
 20
-4.345425
  0
VERTEX
  8
PLAN_1
  6
CONTINUOUS
 10
1.255819
 20
-4.349921
  0
VERTEX
  8
PLAN_1
  6
CONTINUOUS
 10
1.258630
 20
-4.355543
  0
VERTEX
  8
PLAN_1
  6
CONTINUOUS
 10
1.264252
 20
-4.338114
  0
SEQEND
  8
0
  0
POLYLINE
  8
PLAN_1
  6
CONTINUOUS
 66
     1
 40
0.003000
 41
0.003000
  0
VERTEX
  8
PLAN_1
  6
CONTINUOUS
 10
1.227146
 20
-4.353858
  0
VERTEX
  8
PLAN_1
  6
CONTINUOUS
 10
1.222646
 20
-4.353858
  0
VERTEX
  8
PLAN_1
  6
CONTINUOUS
 10
1.218150
 20
-4.354984
  0
VERTEX
  8
PLAN_1
  6
CONTINUOUS
 10
1.214213
 20
-4.356669
  0
VERTEX
  8
PLAN_1
  6
CONTINUOUS
 10
1.210276
 20
-4.358917
  0
VERTEX
  8
PLAN_1
  6
CONTINUOUS
 10
1.206343
 20
-4.361728
  0
VERTEX
  8
PLAN_1
  6
CONTINUOUS
 10
1.202969
 20
-4.364539
  0
VERTEX
  8
PLAN_1
  6
CONTINUOUS
 10
1.200157
 20
-4.368476
  0
VERTEX
  8
PLAN_1
  6
CONTINUOUS
 10
1.196783
 20
-4.372413
  0
VERTEX
  8
PLAN_1
  6
CONTINUOUS
 10
1.194535
 20
-4.376346
  0
VERTEX
  8
PLAN_1
  6
CONTINUOUS
 10
1.192287
 20
-4.380846
  0
VERTEX
  8
PLAN_1
  6
CONTINUOUS
 10
1.190035
 20
-4.385343
  0
VERTEX
  8
PLAN_1
  6
CONTINUOUS
 10
1.188350
 20
-4.389843
  0
VERTEX
  8
PLAN_1
  6
CONTINUOUS
 10
1.187224
 20
-4.394339
  0
VERTEX
  8
PLAN_1
  6
CONTINUOUS
 10
1.186102
 20
-4.398839
  0
VERTEX
  8
PLAN_1
  6
CONTINUOUS
 10
1.185539
 20
-4.403335
  0
VERTEX
  8
PLAN_1
  6
CONTINUOUS
 10
1.185539
 20
-4.407835
  0
VERTEX
  8
PLAN_1
  6
CONTINUOUS
 10
1.185539
 20
-4.413457
  0
VERTEX
  8
PLAN_1
  6
CONTINUOUS
 10
1.187224
 20
-4.418516
  0
VERTEX
  8
PLAN_1
  6
CONTINUOUS
 10
1.188913
 20
-4.423575
  0
VERTEX
  8
PLAN_1
  6
CONTINUOUS
 10
1.191724
 20
-4.427512
  0
VERTEX
  8
PLAN_1
  6
CONTINUOUS
 10
1.195098
 20
-4.430323
  0
VERTEX
  8
PLAN_1
  6
CONTINUOUS
 10
1.199031
 20
-4.432571
  0
VERTEX
  8
PLAN_1
  6
CONTINUOUS
 10
1.203531
 20
-4.434260
  0
VERTEX
  8
PLAN_1
  6
CONTINUOUS
 10
1.208591
 20
-4.434819
  0
VERTEX
  8
PLAN_1
  6
CONTINUOUS
 10
1.213087
 20
-4.434260
  0
VERTEX
  8
PLAN_1
  6
CONTINUOUS
 10
1.217024
 20
-4.433134
  0
VERTEX
  8
PLAN_1
  6
CONTINUOUS
 10
1.221524
 20
-4.431445
  0
VERTEX
  8
PLAN_1
  6
CONTINUOUS
 10
1.224894
 20
-4.429197
  0
VERTEX
  8
PLAN_1
  6
CONTINUOUS
 10
1.228831
 20
-4.426386
  0
VERTEX
  8
PLAN_1
  6
CONTINUOUS
 10
1.232205
 20
-4.423012
  0
VERTEX
  8
PLAN_1
  6
CONTINUOUS
 10
1.235016
 20
-4.419642
  0
VERTEX
  8
PLAN_1
  6
CONTINUOUS
 10
1.238390
 20
-4.415142
  0
VERTEX
  8
PLAN_1
  6
CONTINUOUS
 10
1.240638
 20
-4.411205
  0
VERTEX
  8
PLAN_1
  6
CONTINUOUS
 10
1.243449
 20
-4.406709
  0
VERTEX
  8
PLAN_1
  6
CONTINUOUS
 10
1.245138
 20
-4.402209
  0
VERTEX
  8
PLAN_1
  6
CONTINUOUS
 10
1.246823
 20
-4.397150
  0
VERTEX
  8
PLAN_1
  6
CONTINUOUS
 10
1.248508
 20
-4.392654
  0
VERTEX
  8
PLAN_1
  6
CONTINUOUS
 10
1.249071
 20
-4.388154
  0
VERTEX
  8
PLAN_1
  6
CONTINUOUS
 10
1.249634
 20
-4.383657
  0
VERTEX
  8
PLAN_1
  6
CONTINUOUS
 10
1.250197
 20
-4.379157
  0
VERTEX
  8
PLAN_1
  6
CONTINUOUS
 10
1.249634
 20
-4.374098
  0
VERTEX
  8
PLAN_1
  6
CONTINUOUS
 10
1.247949
 20
-4.369602
  0
VERTEX
  8
PLAN_1
  6
CONTINUOUS
 10
1.246260
 20
-4.365102
  0
VERTEX
  8
PLAN_1
  6
CONTINUOUS
 10
1.243449
 20
-4.361165
  0
VERTEX
  8
PLAN_1
  6
CONTINUOUS
 10
1.240075
 20
-4.358354
  0
VERTEX
  8
PLAN_1
  6
CONTINUOUS
 10
1.236142
 20
-4.355543
  0
VERTEX
  8
PLAN_1
  6
CONTINUOUS
 10
1.231642
 20
-4.354421
  0
VERTEX
  8
PLAN_1
  6
CONTINUOUS
 10
1.227146
 20
-4.353858
  0
SEQEND
  8
0
  0
POLYLINE
  8
PLAN_1
  6
CONTINUOUS
 66
     1
 40
0.003000
 41
0.003000
  0
VERTEX
  8
PLAN_1
  6
CONTINUOUS
 10
1.462157
 20
-4.492732
  0
VERTEX
  8
PLAN_1
  6
CONTINUOUS
 10
1.435732
 20
-4.492732
  0
VERTEX
  8
PLAN_1
  6
CONTINUOUS
 10
1.435732
 20
-4.353858
  0
VERTEX
  8
PLAN_1
  6
CONTINUOUS
 10
1.390193
 20
-4.353858
  0
VERTEX
  8
PLAN_1
  6
CONTINUOUS
 10
1.390193
 20
-4.334740
  0
VERTEX
  8
PLAN_1
  6
CONTINUOUS
 10
1.401437
 20
-4.333618
  0
VERTEX
  8
PLAN_1
  6
CONTINUOUS
 10
1.410996
 20
-4.332492
  0
VERTEX
  8
PLAN_1
  6
CONTINUOUS
 10
1.414933
 20
-4.331370
  0
VERTEX
  8
PLAN_1
  6
CONTINUOUS
 10
1.418866
 20
-4.330244
  0
VERTEX
  8
PLAN_1
  6
CONTINUOUS
 10
1.422240
 20
-4.328559
  0
VERTEX
  8
PLAN_1
  6
CONTINUOUS
 10
1.425614
 20
-4.326870
  0
VERTEX
  8
PLAN_1
  6
CONTINUOUS
 10
1.428425
 20
-4.325185
  0
VERTEX
  8
PLAN_1
  6
CONTINUOUS
 10
1.431236
 20
-4.322374
  0
VERTEX
  8
PLAN_1
  6
CONTINUOUS
 10
1.433484
 20
-4.319563
  0
VERTEX
  8
PLAN_1
  6
CONTINUOUS
 10
1.435732
 20
-4.316189
  0
VERTEX
  8
PLAN_1
  6
CONTINUOUS
 10
1.437984
 20
-4.312252
  0
VERTEX
  8
PLAN_1
  6
CONTINUOUS
 10
1.439669
 20
-4.308315
  0
VERTEX
  8
PLAN_1
  6
CONTINUOUS
 10
1.441358
 20
-4.303256
  0
VERTEX
  8
PLAN_1
  6
CONTINUOUS
 10
1.443043
 20
-4.297634
  0
VERTEX
  8
PLAN_1
  6
CONTINUOUS
 10
1.462157
 20
-4.297634
  0
VERTEX
  8
PLAN_1
  6
CONTINUOUS
 10
1.462157
 20
-4.492732
  0
SEQEND
  8
0
  0
POLYLINE
  8
PLAN_1
  6
CONTINUOUS
 66
     1
 40
0.003000
 41
0.003000
  0
VERTEX
  8
PLAN_1
  6
CONTINUOUS
 10
1.567858
 20
-4.492732
  0
VERTEX
  8
PLAN_1
  6
CONTINUOUS
 10
1.540874
 20
-4.492732
  0
VERTEX
  8
PLAN_1
  6
CONTINUOUS
 10
1.540874
 20
-4.293138
  0
VERTEX
  8
PLAN_1
  6
CONTINUOUS
 10
1.633079
 20
-4.293138
  0
VERTEX
  8
PLAN_1
  6
CONTINUOUS
 10
1.639264
 20
-4.293138
  0
VERTEX
  8
PLAN_1
  6
CONTINUOUS
 10
1.645449
 20
-4.293697
  0
VERTEX
  8
PLAN_1
  6
CONTINUOUS
 10
1.651634
 20
-4.294260
  0
VERTEX
  8
PLAN_1
  6
CONTINUOUS
 10
1.657256
 20
-4.295386
  0
VERTEX
  8
PLAN_1
  6
CONTINUOUS
 10
1.662878
 20
-4.297071
  0
VERTEX
  8
PLAN_1
  6
CONTINUOUS
 10
1.668500
 20
-4.298760
  0
VERTEX
  8
PLAN_1
  6
CONTINUOUS
 10
1.673559
 20
-4.301571
  0
VERTEX
  8
PLAN_1
  6
CONTINUOUS
 10
1.678059
 20
-4.304382
  0
VERTEX
  8
PLAN_1
  6
CONTINUOUS
 10
1.682555
 20
-4.307193
  0
VERTEX
  8
PLAN_1
  6
CONTINUOUS
 10
1.686492
 20
-4.311130
  0
VERTEX
  8
PLAN_1
  6
CONTINUOUS
 10
1.690429
 20
-4.315626
  0
VERTEX
  8
PLAN_1
  6
CONTINUOUS
 10
1.693240
 20
-4.320685
  0
VERTEX
  8
PLAN_1
  6
CONTINUOUS
 10
1.695488
 20
-4.326307
  0
VERTEX
  8
PLAN_1
  6
CONTINUOUS
 10
1.697173
 20
-4.332492
  0
VERTEX
  8
PLAN_1
  6
CONTINUOUS
 10
1.698299
 20
-4.339240
  0
VERTEX
  8
PLAN_1
  6
CONTINUOUS
 10
1.698862
 20
-4.346547
  0
VERTEX
  8
PLAN_1
  6
CONTINUOUS
 10
1.698862
 20
-4.352173
  0
VERTEX
  8
PLAN_1
  6
CONTINUOUS
 10
1.698299
 20
-4.357232
  0
VERTEX
  8
PLAN_1
  6
CONTINUOUS
 10
1.697173
 20
-4.361728
  0
VERTEX
  8
PLAN_1
  6
CONTINUOUS
 10
1.696051
 20
-4.365665
  0
VERTEX
  8
PLAN_1
  6
CONTINUOUS
 10
1.694925
 20
-4.369602
  0
VERTEX
  8
PLAN_1
  6
CONTINUOUS
 10
1.693240
 20
-4.372972
  0
VERTEX
  8
PLAN_1
  6
CONTINUOUS
 10
1.691551
 20
-4.375783
  0
VERTEX
  8
PLAN_1
  6
CONTINUOUS
 10
1.689866
 20
-4.378598
  0
VERTEX
  8
PLAN_1
  6
CONTINUOUS
 10
1.685366
 20
-4.383657
  0
VERTEX
  8
PLAN_1
  6
CONTINUOUS
 10
1.680870
 20
-4.388154
  0
VERTEX
  8
PLAN_1
  6
CONTINUOUS
 10
1.675811
 20
-4.391528
  0
VERTEX
  8
PLAN_1
  6
CONTINUOUS
 10
1.671311
 20
-4.394339
  0
VERTEX
  8
PLAN_1
  6
CONTINUOUS
 10
1.675248
 20
-4.396587
  0
VERTEX
  8
PLAN_1
  6
CONTINUOUS
 10
1.679181
 20
-4.398276
  0
VERTEX
  8
PLAN_1
  6
CONTINUOUS
 10
1.683118
 20
-4.401087
  0
VERTEX
  8
PLAN_1
  6
CONTINUOUS
 10
1.687055
 20
-4.404461
  0
VERTEX
  8
PLAN_1
  6
CONTINUOUS
 10
1.688177
 20
-4.406709
  0
VERTEX
  8
PLAN_1
  6
CONTINUOUS
 10
1.689866
 20
-4.408957
  0
VERTEX
  8
PLAN_1
  6
CONTINUOUS
 10
1.690988
 20
-4.411768
  0
VERTEX
  8
PLAN_1
  6
CONTINUOUS
 10
1.692114
 20
-4.415142
  0
VERTEX
  8
PLAN_1
  6
CONTINUOUS
 10
1.693799
 20
-4.422453
  0
VERTEX
  8
PLAN_1
  6
CONTINUOUS
 10
1.694925
 20
-4.432008
  0
VERTEX
  8
PLAN_1
  6
CONTINUOUS
 10
1.696610
 20
-4.467992
  0
VERTEX
  8
PLAN_1
  6
CONTINUOUS
 10
1.696610
 20
-4.471929
  0
VERTEX
  8
PLAN_1
  6
CONTINUOUS
 10
1.697173
 20
-4.475303
  0
VERTEX
  8
PLAN_1
  6
CONTINUOUS
 10
1.697736
 20
-4.478114
  0
VERTEX
  8
PLAN_1
  6
CONTINUOUS
 10
1.698299
 20
-4.480362
  0
VERTEX
  8
PLAN_1
  6
CONTINUOUS
 10
1.699984
 20
-4.482610
  0
VERTEX
  8
PLAN_1
  6
CONTINUOUS
 10
1.701673
 20
-4.484295
  0
VERTEX
  8
PLAN_1
  6
CONTINUOUS
 10
1.703921
 20
-4.486547
  0
VERTEX
  8
PLAN_1
  6
CONTINUOUS
 10
1.706732
 20
-4.488232
  0
VERTEX
  8
PLAN_1
  6
CONTINUOUS
 10
1.706732
 20
-4.492732
  0
VERTEX
  8
PLAN_1
  6
CONTINUOUS
 10
1.673559
 20
-4.492732
  0
VERTEX
  8
PLAN_1
  6
CONTINUOUS
 10
1.672437
 20
-4.487106
  0
VERTEX
  8
PLAN_1
  6
CONTINUOUS
 10
1.671311
 20
-4.480362
  0
VERTEX
  8
PLAN_1
  6
CONTINUOUS
 10
1.670189
 20
-4.473051
  0
VERTEX
  8
PLAN_1
  6
CONTINUOUS
 10
1.669626
 20
-4.465744
  0
VERTEX
  8
PLAN_1
  6
CONTINUOUS
 10
1.669063
 20
-4.458433
  0
VERTEX
  8
PLAN_1
  6
CONTINUOUS
 10
1.669063
 20
-4.451689
  0
VERTEX
  8
PLAN_1
  6
CONTINUOUS
 10
1.669063
 20
-4.446626
  0
VERTEX
  8
PLAN_1
  6
CONTINUOUS
 10
1.669063
 20
-4.442693
  0
VERTEX
  8
PLAN_1
  6
CONTINUOUS
 10
1.668500
 20
-4.436508
  0
VERTEX
  8
PLAN_1
  6
CONTINUOUS
 10
1.667937
 20
-4.430323
  0
VERTEX
  8
PLAN_1
  6
CONTINUOUS
 10
1.666815
 20
-4.426949
  0
VERTEX
  8
PLAN_1
  6
CONTINUOUS
 10
1.666252
 20
-4.424138
  0
VERTEX
  8
PLAN_1
  6
CONTINUOUS
 10
1.664563
 20
-4.421327
  0
VERTEX
  8
PLAN_1
  6
CONTINUOUS
 10
1.662878
 20
-4.418516
  0
VERTEX
  8
PLAN_1
  6
CONTINUOUS
 10
1.661193
 20
-4.416268
  0
VERTEX
  8
PLAN_1
  6
CONTINUOUS
 10
1.658941
 20
-4.414016
  0
VERTEX
  8
PLAN_1
  6
CONTINUOUS
 10
1.655567
 20
-4.411768
  0
VERTEX
  8
PLAN_1
  6
CONTINUOUS
 10
1.652197
 20
-4.410083
  0
VERTEX
  8
PLAN_1
  6
CONTINUOUS
 10
1.648260
 20
-4.408957
  0
VERTEX
  8
PLAN_1
  6
CONTINUOUS
 10
1.644323
 20
-4.407835
  0
VERTEX
  8
PLAN_1
  6
CONTINUOUS
 10
1.639264
 20
-4.407272
  0
VERTEX
  8
PLAN_1
  6
CONTINUOUS
 10
1.633079
 20
-4.407272
  0
VERTEX
  8
PLAN_1
  6
CONTINUOUS
 10
1.567858
 20
-4.407272
  0
VERTEX
  8
PLAN_1
  6
CONTINUOUS
 10
1.567858
 20
-4.492732
  0
SEQEND
  8
0
  0
POLYLINE
  8
PLAN_1
  6
CONTINUOUS
 66
     1
 40
0.003000
 41
0.003000
  0
VERTEX
  8
PLAN_1
  6
CONTINUOUS
 10
1.567858
 20
-4.384220
  0
VERTEX
  8
PLAN_1
  6
CONTINUOUS
 10
1.630268
 20
-4.384220
  0
VERTEX
  8
PLAN_1
  6
CONTINUOUS
 10
1.638138
 20
-4.383657
  0
VERTEX
  8
PLAN_1
  6
CONTINUOUS
 10
1.645449
 20
-4.382531
  0
VERTEX
  8
PLAN_1
  6
CONTINUOUS
 10
1.648823
 20
-4.381969
  0
VERTEX
  8
PLAN_1
  6
CONTINUOUS
 10
1.652197
 20
-4.380846
  0
VERTEX
  8
PLAN_1
  6
CONTINUOUS
 10
1.655008
 20
-4.379720
  0
VERTEX
  8
PLAN_1
  6
CONTINUOUS
 10
1.658382
 20
-4.378035
  0
VERTEX
  8
PLAN_1
  6
CONTINUOUS
 10
1.661193
 20
-4.375783
  0
VERTEX
  8
PLAN_1
  6
CONTINUOUS
 10
1.663441
 20
-4.373535
  0
VERTEX
  8
PLAN_1
  6
CONTINUOUS
 10
1.665689
 20
-4.370724
  0
VERTEX
  8
PLAN_1
  6
CONTINUOUS
 10
1.667374
 20
-4.367350
  0
VERTEX
  8
PLAN_1
  6
CONTINUOUS
 10
1.669063
 20
-4.363417
  0
VERTEX
  8
PLAN_1
  6
CONTINUOUS
 10
1.670189
 20
-4.359480
  0
VERTEX
  8
PLAN_1
  6
CONTINUOUS
 10
1.670748
 20
-4.354984
  0
VERTEX
  8
PLAN_1
  6
CONTINUOUS
 10
1.671311
 20
-4.349358
  0
VERTEX
  8
PLAN_1
  6
CONTINUOUS
 10
1.670748
 20
-4.344299
  0
VERTEX
  8
PLAN_1
  6
CONTINUOUS
 10
1.670189
 20
-4.339240
  0
VERTEX
  8
PLAN_1
  6
CONTINUOUS
 10
1.669063
 20
-4.335303
  0
VERTEX
  8
PLAN_1
  6
CONTINUOUS
 10
1.667374
 20
-4.331370
  0
VERTEX
  8
PLAN_1
  6
CONTINUOUS
 10
1.665689
 20
-4.327996
  0
VERTEX
  8
PLAN_1
  6
CONTINUOUS
 10
1.663441
 20
-4.325748
  0
VERTEX
  8
PLAN_1
  6
CONTINUOUS
 10
1.660630
 20
-4.322937
  0
VERTEX
  8
PLAN_1
  6
CONTINUOUS
 10
1.658382
 20
-4.321248
  0
VERTEX
  8
PLAN_1
  6
CONTINUOUS
 10
1.655567
 20
-4.319563
  0
VERTEX
  8
PLAN_1
  6
CONTINUOUS
 10
1.652197
 20
-4.318437
  0
VERTEX
  8
PLAN_1
  6
CONTINUOUS
 10
1.649386
 20
-4.317874
  0
VERTEX
  8
PLAN_1
  6
CONTINUOUS
 10
1.646575
 20
-4.317311
  0
VERTEX
  8
PLAN_1
  6
CONTINUOUS
 10
1.640390
 20
-4.316189
  0
VERTEX
  8
PLAN_1
  6
CONTINUOUS
 10
1.635327
 20
-4.316189
  0
VERTEX
  8
PLAN_1
  6
CONTINUOUS
 10
1.567858
 20
-4.316189
  0
VERTEX
  8
PLAN_1
  6
CONTINUOUS
 10
1.567858
 20
-4.384220
  0
SEQEND
  8
0
  0
SOLID
  8
PLAN_1
 10
1.770264
 20
-4.492732
 11
1.741591
 21
-4.492732
 12
1.770264
 22
-4.462933
 13
1.741591
 23
-4.462933
  0
POLYLINE
  8
PLAN_1
  6
CONTINUOUS
 66
     1
 40
0.003000
 41
0.003000
  0
VERTEX
  8
PLAN_1
  6
CONTINUOUS
 10
1.770264
 20
-4.492732
  0
VERTEX
  8
PLAN_1
  6
CONTINUOUS
 10
1.741591
 20
-4.492732
  0
VERTEX
  8
PLAN_1
  6
CONTINUOUS
 10
1.741591
 20
-4.462933
  0
VERTEX
  8
PLAN_1
  6
CONTINUOUS
 10
1.770264
 20
-4.462933
  0
VERTEX
  8
PLAN_1
  6
CONTINUOUS
 10
1.770264
 20
-4.492732
  0
SEQEND
  8
0
  0
POLYLINE
  8
PLAN_1
  6
CONTINUOUS
 66
     1
 40
0.003000
 41
0.003000
  0
VERTEX
  8
PLAN_1
  6
CONTINUOUS
 10
1.965362
 20
-4.492732
  0
VERTEX
  8
PLAN_1
  6
CONTINUOUS
 10
1.818055
 20
-4.492732
  0
VERTEX
  8
PLAN_1
  6
CONTINUOUS
 10
1.818055
 20
-4.293138
  0
VERTEX
  8
PLAN_1
  6
CONTINUOUS
 10
1.963673
 20
-4.293138
  0
VERTEX
  8
PLAN_1
  6
CONTINUOUS
 10
1.963673
 20
-4.317311
  0
VERTEX
  8
PLAN_1
  6
CONTINUOUS
 10
1.845043
 20
-4.317311
  0
VERTEX
  8
PLAN_1
  6
CONTINUOUS
 10
1.845043
 20
-4.378035
  0
VERTEX
  8
PLAN_1
  6
CONTINUOUS
 10
1.954118
 20
-4.378035
  0
VERTEX
  8
PLAN_1
  6
CONTINUOUS
 10
1.954118
 20
-4.402209
  0
VERTEX
  8
PLAN_1
  6
CONTINUOUS
 10
1.845043
 20
-4.402209
  0
VERTEX
  8
PLAN_1
  6
CONTINUOUS
 10
1.845043
 20
-4.468555
  0
VERTEX
  8
PLAN_1
  6
CONTINUOUS
 10
1.965362
 20
-4.468555
  0
VERTEX
  8
PLAN_1
  6
CONTINUOUS
 10
1.965362
 20
-4.492732
  0
SEQEND
  8
0
  0
POLYLINE
  8
PLAN_1
  6
CONTINUOUS
 66
     1
 40
0.003000
 41
0.003000
  0
VERTEX
  8
PLAN_1
  6
CONTINUOUS
 10
2.030583
 20
-4.492732
  0
VERTEX
  8
PLAN_1
  6
CONTINUOUS
 10
2.003594
 20
-4.492732
  0
VERTEX
  8
PLAN_1
  6
CONTINUOUS
 10
2.003594
 20
-4.293138
  0
VERTEX
  8
PLAN_1
  6
CONTINUOUS
 10
2.092988
 20
-4.293138
  0
VERTEX
  8
PLAN_1
  6
CONTINUOUS
 10
2.099736
 20
-4.293697
  0
VERTEX
  8
PLAN_1
  6
CONTINUOUS
 10
2.106484
 20
-4.294260
  0
VERTEX
  8
PLAN_1
  6
CONTINUOUS
 10
2.112106
 20
-4.295386
  0
VERTEX
  8
PLAN_1
  6
CONTINUOUS
 10
2.117728
 20
-4.297634
  0
VERTEX
  8
PLAN_1
  6
CONTINUOUS
 10
2.123350
 20
-4.299882
  0
VERTEX
  8
PLAN_1
  6
CONTINUOUS
 10
2.127846
 20
-4.302693
  0
VERTEX
  8
PLAN_1
  6
CONTINUOUS
 10
2.132346
 20
-4.305504
  0
VERTEX
  8
PLAN_1
  6
CONTINUOUS
 10
2.136843
 20
-4.308878
  0
VERTEX
  8
PLAN_1
  6
CONTINUOUS
 10
2.140217
 20
-4.313378
  0
VERTEX
  8
PLAN_1
  6
CONTINUOUS
 10
2.143591
 20
-4.317311
  0
VERTEX
  8
PLAN_1
  6
CONTINUOUS
 10
2.145839
 20
-4.321811
  0
VERTEX
  8
PLAN_1
  6
CONTINUOUS
 10
2.148087
 20
-4.326870
  0
VERTEX
  8
PLAN_1
  6
CONTINUOUS
 10
2.149776
 20
-4.331929
  0
VERTEX
  8
PLAN_1
  6
CONTINUOUS
 10
2.151461
 20
-4.337555
  0
VERTEX
  8
PLAN_1
  6
CONTINUOUS
 10
2.152024
 20
-4.343177
  0
VERTEX
  8
PLAN_1
  6
CONTINUOUS
 10
2.152587
 20
-4.349358
  0
VERTEX
  8
PLAN_1
  6
CONTINUOUS
 10
2.152024
 20
-4.354421
  0
VERTEX
  8
PLAN_1
  6
CONTINUOUS
 10
2.151461
 20
-4.360043
  0
VERTEX
  8
PLAN_1
  6
CONTINUOUS
 10
2.150339
 20
-4.365102
  0
VERTEX
  8
PLAN_1
  6
CONTINUOUS
 10
2.149213
 20
-4.370161
  0
VERTEX
  8
PLAN_1
  6
CONTINUOUS
 10
2.147528
 20
-4.375224
  0
VERTEX
  8
PLAN_1
  6
CONTINUOUS
 10
2.145276
 20
-4.380283
  0
VERTEX
  8
PLAN_1
  6
CONTINUOUS
 10
2.142465
 20
-4.384780
  0
VERTEX
  8
PLAN_1
  6
CONTINUOUS
 10
2.139094
 20
-4.389280
  0
VERTEX
  8
PLAN_1
  6
CONTINUOUS
 10
2.135157
 20
-4.393217
  0
VERTEX
  8
PLAN_1
  6
CONTINUOUS
 10
2.130657
 20
-4.397150
  0
VERTEX
  8
PLAN_1
  6
CONTINUOUS
 10
2.126161
 20
-4.400524
  0
VERTEX
  8
PLAN_1
  6
CONTINUOUS
 10
2.120539
 20
-4.403335
  0
VERTEX
  8
PLAN_1
  6
CONTINUOUS
 10
2.114917
 20
-4.405583
  0
VERTEX
  8
PLAN_1
  6
CONTINUOUS
 10
2.108169
 20
-4.407272
  0
VERTEX
  8
PLAN_1
  6
CONTINUOUS
 10
2.100862
 20
-4.407835
  0
VERTEX
  8
PLAN_1
  6
CONTINUOUS
 10
2.092988
 20
-4.408394
  0
VERTEX
  8
PLAN_1
  6
CONTINUOUS
 10
2.030583
 20
-4.408394
  0
VERTEX
  8
PLAN_1
  6
CONTINUOUS
 10
2.030583
 20
-4.492732
  0
SEQEND
  8
0
  0
POLYLINE
  8
PLAN_1
  6
CONTINUOUS
 66
     1
 40
0.003000
 41
0.003000
  0
VERTEX
  8
PLAN_1
  6
CONTINUOUS
 10
2.030583
 20
-4.385343
  0
VERTEX
  8
PLAN_1
  6
CONTINUOUS
 10
2.083992
 20
-4.385343
  0
VERTEX
  8
PLAN_1
  6
CONTINUOUS
 10
2.092425
 20
-4.384780
  0
VERTEX
  8
PLAN_1
  6
CONTINUOUS
 10
2.100299
 20
-4.383657
  0
VERTEX
  8
PLAN_1
  6
CONTINUOUS
 10
2.104232
 20
-4.382531
  0
VERTEX
  8
PLAN_1
  6
CONTINUOUS
 10
2.107606
 20
-4.381409
  0
VERTEX
  8
PLAN_1
  6
CONTINUOUS
 10
2.110417
 20
-4.379720
  0
VERTEX
  8
PLAN_1
  6
CONTINUOUS
 10
2.113228
 20
-4.377472
  0
VERTEX
  8
PLAN_1
  6
CONTINUOUS
 10
2.116039
 20
-4.375224
  0
VERTEX
  8
PLAN_1
  6
CONTINUOUS
 10
2.118291
 20
-4.372972
  0
VERTEX
  8
PLAN_1
  6
CONTINUOUS
 10
2.119976
 20
-4.369602
  0
VERTEX
  8
PLAN_1
  6
CONTINUOUS
 10
2.121661
 20
-4.366228
  0
VERTEX
  8
PLAN_1
  6
CONTINUOUS
 10
2.122787
 20
-4.362854
  0
VERTEX
  8
PLAN_1
  6
CONTINUOUS
 10
2.123913
 20
-4.358917
  0
VERTEX
  8
PLAN_1
  6
CONTINUOUS
 10
2.124476
 20
-4.354421
  0
VERTEX
  8
PLAN_1
  6
CONTINUOUS
 10
2.124476
 20
-4.349358
  0
VERTEX
  8
PLAN_1
  6
CONTINUOUS
 10
2.124476
 20
-4.344862
  0
VERTEX
  8
PLAN_1
  6
CONTINUOUS
 10
2.123913
 20
-4.340925
  0
VERTEX
  8
PLAN_1
  6
CONTINUOUS
 10
2.122787
 20
-4.336992
  0
VERTEX
  8
PLAN_1
  6
CONTINUOUS
 10
2.121661
 20
-4.333618
  0
VERTEX
  8
PLAN_1
  6
CONTINUOUS
 10
2.119976
 20
-4.330807
  0
VERTEX
  8
PLAN_1
  6
CONTINUOUS
 10
2.117728
 20
-4.327996
  0
VERTEX
  8
PLAN_1
  6
CONTINUOUS
 10
2.115480
 20
-4.325748
  0
VERTEX
  8
PLAN_1
  6
CONTINUOUS
 10
2.113228
 20
-4.323496
  0
VERTEX
  8
PLAN_1
  6
CONTINUOUS
 10
2.110417
 20
-4.321811
  0
VERTEX
  8
PLAN_1
  6
CONTINUOUS
 10
2.107606
 20
-4.320122
  0
VERTEX
  8
PLAN_1
  6
CONTINUOUS
 10
2.104232
 20
-4.319000
  0
VERTEX
  8
PLAN_1
  6
CONTINUOUS
 10
2.100862
 20
-4.317874
  0
VERTEX
  8
PLAN_1
  6
CONTINUOUS
 10
2.092988
 20
-4.316752
  0
VERTEX
  8
PLAN_1
  6
CONTINUOUS
 10
2.085118
 20
-4.316189
  0
VERTEX
  8
PLAN_1
  6
CONTINUOUS
 10
2.030583
 20
-4.316189
  0
VERTEX
  8
PLAN_1
  6
CONTINUOUS
 10
2.030583
 20
-4.385343
  0
SEQEND
  8
0
  0
POLYLINE
  8
PLAN_1
  6
CONTINUOUS
 66
     1
 40
0.003000
 41
0.003000
  0
VERTEX
  8
PLAN_1
  6
CONTINUOUS
 10
2.306079
 20
-4.351610
  0
VERTEX
  8
PLAN_1
  6
CONTINUOUS
 10
2.305516
 20
-4.345988
  0
VERTEX
  8
PLAN_1
  6
CONTINUOUS
 10
2.304390
 20
-4.340925
  0
VERTEX
  8
PLAN_1
  6
CONTINUOUS
 10
2.303268
 20
-4.336429
  0
VERTEX
  8
PLAN_1
  6
CONTINUOUS
 10
2.301016
 20
-4.331929
  0
VERTEX
  8
PLAN_1
  6
CONTINUOUS
 10
2.298768
 20
-4.328559
  0
VERTEX
  8
PLAN_1
  6
CONTINUOUS
 10
2.295957
 20
-4.325185
  0
VERTEX
  8
PLAN_1
  6
CONTINUOUS
 10
2.292583
 20
-4.322374
  0
VERTEX
  8
PLAN_1
  6
CONTINUOUS
 10
2.289209
 20
-4.319563
  0
VERTEX
  8
PLAN_1
  6
CONTINUOUS
 10
2.285835
 20
-4.317311
  0
VERTEX
  8
PLAN_1
  6
CONTINUOUS
 10
2.281902
 20
-4.315626
  0
VERTEX
  8
PLAN_1
  6
CONTINUOUS
 10
2.277965
 20
-4.313941
  0
VERTEX
  8
PLAN_1
  6
CONTINUOUS
 10
2.274028
 20
-4.312815
  0
VERTEX
  8
PLAN_1
  6
CONTINUOUS
 10
2.265035
 20
-4.311689
  0
VERTEX
  8
PLAN_1
  6
CONTINUOUS
 10
2.256598
 20
-4.311130
  0
VERTEX
  8
PLAN_1
  6
CONTINUOUS
 10
2.249854
 20
-4.311130
  0
VERTEX
  8
PLAN_1
  6
CONTINUOUS
 10
2.242543
 20
-4.312252
  0
VERTEX
  8
PLAN_1
  6
CONTINUOUS
 10
2.238610
 20
-4.312815
  0
VERTEX
  8
PLAN_1
  6
CONTINUOUS
 10
2.234673
 20
-4.313941
  0
VERTEX
  8
PLAN_1
  6
CONTINUOUS
 10
2.231299
 20
-4.315626
  0
VERTEX
  8
PLAN_1
  6
CONTINUOUS
 10
2.227925
 20
-4.317311
  0
VERTEX
  8
PLAN_1
  6
CONTINUOUS
 10
2.224551
 20
-4.319000
  0
VERTEX
  8
PLAN_1
  6
CONTINUOUS
 10
2.221181
 20
-4.321811
  0
VERTEX
  8
PLAN_1
  6
CONTINUOUS
 10
2.218366
 20
-4.324622
  0
VERTEX
  8
PLAN_1
  6
CONTINUOUS
 10
2.216118
 20
-4.327433
  0
VERTEX
  8
PLAN_1
  6
CONTINUOUS
 10
2.213870
 20
-4.331370
  0
VERTEX
  8
PLAN_1
  6
CONTINUOUS
 10
2.212744
 20
-4.335866
  0
VERTEX
  8
PLAN_1
  6
CONTINUOUS
 10
2.211622
 20
-4.340366
  0
VERTEX
  8
PLAN_1
  6
CONTINUOUS
 10
2.211059
 20
-4.345988
  0
VERTEX
  8
PLAN_1
  6
CONTINUOUS
 10
2.211622
 20
-4.348799
  0
VERTEX
  8
PLAN_1
  6
CONTINUOUS
 10
2.211622
 20
-4.351610
  0
VERTEX
  8
PLAN_1
  6
CONTINUOUS
 10
2.212185
 20
-4.354421
  0
VERTEX
  8
PLAN_1
  6
CONTINUOUS
 10
2.213307
 20
-4.356669
  0
VERTEX
  8
PLAN_1
  6
CONTINUOUS
 10
2.215555
 20
-4.360606
  0
VERTEX
  8
PLAN_1
  6
CONTINUOUS
 10
2.218929
 20
-4.363980
  0
VERTEX
  8
PLAN_1
  6
CONTINUOUS
 10
2.222303
 20
-4.366228
  0
VERTEX
  8
PLAN_1
  6
CONTINUOUS
 10
2.226240
 20
-4.368476
  0
VERTEX
  8
PLAN_1
  6
CONTINUOUS
 10
2.230736
 20
-4.370161
  0
VERTEX
  8
PLAN_1
  6
CONTINUOUS
 10
2.234673
 20
-4.371287
  0
VERTEX
  8
PLAN_1
  6
CONTINUOUS
 10
2.292020
 20
-4.384220
  0
VERTEX
  8
PLAN_1
  6
CONTINUOUS
 10
2.296520
 20
-4.385343
  0
VERTEX
  8
PLAN_1
  6
CONTINUOUS
 10
2.301016
 20
-4.387031
  0
VERTEX
  8
PLAN_1
  6
CONTINUOUS
 10
2.305516
 20
-4.388717
  0
VERTEX
  8
PLAN_1
  6
CONTINUOUS
 10
2.309449
 20
-4.390965
  0
VERTEX
  8
PLAN_1
  6
CONTINUOUS
 10
2.313949
 20
-4.393217
  0
VERTEX
  8
PLAN_1
  6
CONTINUOUS
 10
2.317323
 20
-4.395465
  0
VERTEX
  8
PLAN_1
  6
CONTINUOUS
 10
2.320697
 20
-4.398276
  0
VERTEX
  8
PLAN_1
  6
CONTINUOUS
 10
2.324067
 20
-4.401087
  0
VERTEX
  8
PLAN_1
  6
CONTINUOUS
 10
2.326878
 20
-4.404461
  0
VERTEX
  8
PLAN_1
  6
CONTINUOUS
 10
2.329689
 20
-4.408394
  0
VERTEX
  8
PLAN_1
  6
CONTINUOUS
 10
2.331941
 20
-4.412331
  0
VERTEX
  8
PLAN_1
  6
CONTINUOUS
 10
2.333626
 20
-4.416827
  0
VERTEX
  8
PLAN_1
  6
CONTINUOUS
 10
2.334752
 20
-4.421327
  0
VERTEX
  8
PLAN_1
  6
CONTINUOUS
 10
2.335874
 20
-4.426386
  0
VERTEX
  8
PLAN_1
  6
CONTINUOUS
 10
2.337000
 20
-4.432008
  0
VERTEX
  8
PLAN_1
  6
CONTINUOUS
 10
2.337000
 20
-4.437630
  0
VERTEX
  8
PLAN_1
  6
CONTINUOUS
 10
2.336437
 20
-4.446063
  0
VERTEX
  8
PLAN_1
  6
CONTINUOUS
 10
2.335315
 20
-4.453937
  0
VERTEX
  8
PLAN_1
  6
CONTINUOUS
 10
2.332504
 20
-4.460685
  0
VERTEX
  8
PLAN_1
  6
CONTINUOUS
 10
2.329689
 20
-4.466866
  0
VERTEX
  8
PLAN_1
  6
CONTINUOUS
 10
2.325756
 20
-4.472488
  0
VERTEX
  8
PLAN_1
  6
CONTINUOUS
 10
2.321256
 20
-4.477551
  0
VERTEX
  8
PLAN_1
  6
CONTINUOUS
 10
2.316197
 20
-4.481484
  0
VERTEX
  8
PLAN_1
  6
CONTINUOUS
 10
2.310575
 20
-4.485421
  0
VERTEX
  8
PLAN_1
  6
CONTINUOUS
 10
2.304953
 20
-4.488795
  0
VERTEX
  8
PLAN_1
  6
CONTINUOUS
 10
2.298768
 20
-4.491043
  0
VERTEX
  8
PLAN_1
  6
CONTINUOUS
 10
2.292020
 20
-4.493291
  0
VERTEX
  8
PLAN_1
  6
CONTINUOUS
 10
2.285835
 20
-4.494980
  0
VERTEX
  8
PLAN_1
  6
CONTINUOUS
 10
2.279091
 20
-4.496102
  0
VERTEX
  8
PLAN_1
  6
CONTINUOUS
 10
2.272343
 20
-4.497228
  0
VERTEX
  8
PLAN_1
  6
CONTINUOUS
 10
2.265594
 20
-4.497791
  0
VERTEX
  8
PLAN_1
  6
CONTINUOUS
 10
2.258850
 20
-4.497791
  0
VERTEX
  8
PLAN_1
  6
CONTINUOUS
 10
2.245917
 20
-4.497228
  0
VERTEX
  8
PLAN_1
  6
CONTINUOUS
 10
2.235236
 20
-4.496102
  0
VERTEX
  8
PLAN_1
  6
CONTINUOUS
 10
2.226240
 20
-4.493854
  0
VERTEX
  8
PLAN_1
  6
CONTINUOUS
 10
2.218366
 20
-4.491043
  0
VERTEX
  8
PLAN_1
  6
CONTINUOUS
 10
2.212185
 20
-4.488232
  0
VERTEX
  8
PLAN_1
  6
CONTINUOUS
 10
2.206563
 20
-4.484858
  0
VERTEX
  8
PLAN_1
  6
CONTINUOUS
 10
2.202626
 20
-4.482047
  0
VERTEX
  8
PLAN_1
  6
CONTINUOUS
 10
2.198689
 20
-4.478673
  0
VERTEX
  8
PLAN_1
  6
CONTINUOUS
 10
2.193067
 20
-4.473051
  0
VERTEX
  8
PLAN_1
  6
CONTINUOUS
 10
2.188571
 20
-4.466866
  0
VERTEX
  8
PLAN_1
  6
CONTINUOUS
 10
2.184634
 20
-4.460685
  0
VERTEX
  8
PLAN_1
  6
CONTINUOUS
 10
2.182386
 20
-4.454500
  0
VERTEX
  8
PLAN_1
  6
CONTINUOUS
 10
2.180697
 20
-4.448315
  0
VERTEX
  8
PLAN_1
  6
CONTINUOUS
 10
2.179012
 20
-4.441567
  0
VERTEX
  8
PLAN_1
  6
CONTINUOUS
 10
2.178449
 20
-4.434819
  0
VERTEX
  8
PLAN_1
  6
CONTINUOUS
 10
2.178449
 20
-4.428075
  0
VERTEX
  8
PLAN_1
  6
CONTINUOUS
 10
2.203748
 20
-4.428075
  0
VERTEX
  8
PLAN_1
  6
CONTINUOUS
 10
2.204311
 20
-4.434819
  0
VERTEX
  8
PLAN_1
  6
CONTINUOUS
 10
2.204874
 20
-4.440441
  0
VERTEX
  8
PLAN_1
  6
CONTINUOUS
 10
2.206563
 20
-4.446063
  0
VERTEX
  8
PLAN_1
  6
CONTINUOUS
 10
2.208811
 20
-4.450563
  0
VERTEX
  8
PLAN_1
  6
CONTINUOUS
 10
2.211622
 20
-4.455059
  0
VERTEX
  8
PLAN_1
  6
CONTINUOUS
 10
2.214433
 20
-4.458996
  0
VERTEX
  8
PLAN_1
  6
CONTINUOUS
 10
2.217807
 20
-4.461807
  0
VERTEX
  8
PLAN_1
  6
CONTINUOUS
 10
2.221740
 20
-4.465181
  0
VERTEX
  8
PLAN_1
  6
CONTINUOUS
 10
2.225677
 20
-4.467429
  0
VERTEX
  8
PLAN_1
  6
CONTINUOUS
 10
2.230173
 20
-4.469677
  0
VERTEX
  8
PLAN_1
  6
CONTINUOUS
 10
2.234673
 20
-4.471366
  0
VERTEX
  8
PLAN_1
  6
CONTINUOUS
 10
2.239169
 20
-4.472488
  0
VERTEX
  8
PLAN_1
  6
CONTINUOUS
 10
2.244232
 20
-4.473614
  0
VERTEX
  8
PLAN_1
  6
CONTINUOUS
 10
2.249291
 20
-4.474177
  0
VERTEX
  8
PLAN_1
  6
CONTINUOUS
 10
2.253787
 20
-4.474740
  0
VERTEX
  8
PLAN_1
  6
CONTINUOUS
 10
2.258850
 20
-4.474740
  0
VERTEX
  8
PLAN_1
  6
CONTINUOUS
 10
2.266720
 20
-4.474740
  0
VERTEX
  8
PLAN_1
  6
CONTINUOUS
 10
2.275154
 20
-4.473614
  0
VERTEX
  8
PLAN_1
  6
CONTINUOUS
 10
2.279654
 20
-4.472488
  0
VERTEX
  8
PLAN_1
  6
CONTINUOUS
 10
2.283587
 20
-4.471929
  0
VERTEX
  8
PLAN_1
  6
CONTINUOUS
 10
2.288087
 20
-4.470240
  0
VERTEX
  8
PLAN_1
  6
CONTINUOUS
 10
2.292020
 20
-4.468555
  0
VERTEX
  8
PLAN_1
  6
CONTINUOUS
 10
2.295957
 20
-4.466866
  0
VERTEX
  8
PLAN_1
  6
CONTINUOUS
 10
2.299331
 20
-4.464618
  0
VERTEX
  8
PLAN_1
  6
CONTINUOUS
 10
2.302705
 20
-4.461807
  0
VERTEX
  8
PLAN_1
  6
CONTINUOUS
 10
2.305516
 20
-4.458433
  0
VERTEX
  8
PLAN_1
  6
CONTINUOUS
 10
2.307764
 20
-4.455059
  0
VERTEX
  8
PLAN_1
  6
CONTINUOUS
 10
2.309449
 20
-4.450563
  0
VERTEX
  8
PLAN_1
  6
CONTINUOUS
 10
2.310575
 20
-4.446063
  0
VERTEX
  8
PLAN_1
  6
CONTINUOUS
 10
2.311138
 20
-4.441004
  0
VERTEX
  8
PLAN_1
  6
CONTINUOUS
 10
2.310575
 20
-4.437630
  0
VERTEX
  8
PLAN_1
  6
CONTINUOUS
 10
2.310575
 20
-4.434260
  0
VERTEX
  8
PLAN_1
  6
CONTINUOUS
 10
2.310012
 20
-4.430886
  0
VERTEX
  8
PLAN_1
  6
CONTINUOUS
 10
2.308890
 20
-4.428075
  0
VERTEX
  8
PLAN_1
  6
CONTINUOUS
 10
2.307764
 20
-4.425264
  0
VERTEX
  8
PLAN_1
  6
CONTINUOUS
 10
2.306079
 20
-4.423012
  0
VERTEX
  8
PLAN_1
  6
CONTINUOUS
 10
2.304390
 20
-4.420764
  0
VERTEX
  8
PLAN_1
  6
CONTINUOUS
 10
2.302142
 20
-4.418516
  0
VERTEX
  8
PLAN_1
  6
CONTINUOUS
 10
2.299331
 20
-4.416827
  0
VERTEX
  8
PLAN_1
  6
CONTINUOUS
 10
2.296520
 20
-4.415142
  0
VERTEX
  8
PLAN_1
  6
CONTINUOUS
 10
2.292583
 20
-4.413457
  0
VERTEX
  8
PLAN_1
  6
CONTINUOUS
 10
2.288646
 20
-4.411768
  0
VERTEX
  8
PLAN_1
  6
CONTINUOUS
 10
2.279654
 20
-4.408957
  0
VERTEX
  8
PLAN_1
  6
CONTINUOUS
 10
2.268406
 20
-4.406146
  0
VERTEX
  8
PLAN_1
  6
CONTINUOUS
 10
2.227362
 20
-4.396587
  0
VERTEX
  8
PLAN_1
  6
CONTINUOUS
 10
2.222303
 20
-4.394902
  0
VERTEX
  8
PLAN_1
  6
CONTINUOUS
 10
2.215555
 20
-4.392654
  0
VERTEX
  8
PLAN_1
  6
CONTINUOUS
 10
2.212185
 20
-4.390965
  0
VERTEX
  8
PLAN_1
  6
CONTINUOUS
 10
2.208248
 20
-4.389280
  0
VERTEX
  8
PLAN_1
  6
CONTINUOUS
 10
2.204874
 20
-4.387591
  0
VERTEX
  8
PLAN_1
  6
CONTINUOUS
 10
2.201500
 20
-4.384780
  0
VERTEX
  8
PLAN_1
  6
CONTINUOUS
 10
2.198126
 20
-4.381969
  0
VERTEX
  8
PLAN_1
  6
CONTINUOUS
 10
2.195315
 20
-4.378598
  0
VERTEX
  8
PLAN_1
  6
CONTINUOUS
 10
2.192504
 20
-4.375224
  0
VERTEX
  8
PLAN_1
  6
CONTINUOUS
 10
2.189693
 20
-4.371287
  0
VERTEX
  8
PLAN_1
  6
CONTINUOUS
 10
2.188008
 20
-4.366228
  0
VERTEX
  8
PLAN_1
  6
CONTINUOUS
 10
2.186319
 20
-4.361165
  0
VERTEX
  8
PLAN_1
  6
CONTINUOUS
 10
2.185760
 20
-4.355543
  0
VERTEX
  8
PLAN_1
  6
CONTINUOUS
 10
2.185197
 20
-4.349358
  0
VERTEX
  8
PLAN_1
  6
CONTINUOUS
 10
2.185197
 20
-4.343736
  0
VERTEX
  8
PLAN_1
  6
CONTINUOUS
 10
2.186319
 20
-4.338114
  0
VERTEX
  8
PLAN_1
  6
CONTINUOUS
 10
2.187445
 20
-4.332492
  0
VERTEX
  8
PLAN_1
  6
CONTINUOUS
 10
2.189130
 20
-4.326870
  0
VERTEX
  8
PLAN_1
  6
CONTINUOUS
 10
2.191382
 20
-4.321248
  0
VERTEX
  8
PLAN_1
  6
CONTINUOUS
 10
2.194193
 20
-4.316189
  0
VERTEX
  8
PLAN_1
  6
CONTINUOUS
 10
2.197567
 20
-4.311689
  0
VERTEX
  8
PLAN_1
  6
CONTINUOUS
 10
2.201500
 20
-4.307193
  0
VERTEX
  8
PLAN_1
  6
CONTINUOUS
 10
2.206000
 20
-4.302693
  0
VERTEX
  8
PLAN_1
  6
CONTINUOUS
 10
2.211059
 20
-4.299323
  0
VERTEX
  8
PLAN_1
  6
CONTINUOUS
 10
2.216681
 20
-4.295949
  0
VERTEX
  8
PLAN_1
  6
CONTINUOUS
 10
2.222866
 20
-4.293138
  0
VERTEX
  8
PLAN_1
  6
CONTINUOUS
 10
2.229614
 20
-4.290886
  0
VERTEX
  8
PLAN_1
  6
CONTINUOUS
 10
2.236921
 20
-4.289201
  0
VERTEX
  8
PLAN_1
  6
CONTINUOUS
 10
2.244791
 20
-4.288075
  0
VERTEX
  8
PLAN_1
  6
CONTINUOUS
 10
2.253787
 20
-4.288075
  0
VERTEX
  8
PLAN_1
  6
CONTINUOUS
 10
2.266157
 20
-4.288638
  0
VERTEX
  8
PLAN_1
  6
CONTINUOUS
 10
2.276843
 20
-4.289764
  0
VERTEX
  8
PLAN_1
  6
CONTINUOUS
 10
2.286398
 20
-4.292012
  0
VERTEX
  8
PLAN_1
  6
CONTINUOUS
 10
2.294831
 20
-4.294823
  0
VERTEX
  8
PLAN_1
  6
CONTINUOUS
 10
2.302142
 20
-4.298197
  0
VERTEX
  8
PLAN_1
  6
CONTINUOUS
 10
2.308890
 20
-4.302134
  0
VERTEX
  8
PLAN_1
  6
CONTINUOUS
 10
2.313949
 20
-4.306630
  0
VERTEX
  8
PLAN_1
  6
CONTINUOUS
 10
2.318445
 20
-4.311689
  0
VERTEX
  8
PLAN_1
  6
CONTINUOUS
 10
2.321819
 20
-4.316752
  0
VERTEX
  8
PLAN_1
  6
CONTINUOUS
 10
2.324630
 20
-4.321811
  0
VERTEX
  8
PLAN_1
  6
CONTINUOUS
 10
2.326878
 20
-4.326870
  0
VERTEX
  8
PLAN_1
  6
CONTINUOUS
 10
2.328567
 20
-4.332492
  0
VERTEX
  8
PLAN_1
  6
CONTINUOUS
 10
2.330815
 20
-4.342614
  0
VERTEX
  8
PLAN_1
  6
CONTINUOUS
 10
2.331378
 20
-4.351610
  0
VERTEX
  8
PLAN_1
  6
CONTINUOUS
 10
2.306079
 20
-4.351610
  0
SEQEND
  8
0
  0
POLYLINE
  8
PLAN_1
  6
CONTINUOUS
 66
     1
 40
0.008433
 41
0.008433
  0
VERTEX
  8
PLAN_1
  6
CONTINUOUS
 10
0.263469
 20
1.104902
  0
VERTEX
  8
PLAN_1
  6
CONTINUOUS
 10
0.301142
 20
1.104902
  0
VERTEX
  8
PLAN_1
  6
CONTINUOUS
 10
0.301142
 20
1.615409
  0
VERTEX
  8
PLAN_1
  6
CONTINUOUS
 10
0.262909
 20
1.615409
  0
SEQEND
  8
0
  0
POLYLINE
  8
PLAN_1
  6
CONTINUOUS
 66
     1
 40
0.008433
 41
0.008433
  0
VERTEX
  8
PLAN_1
  6
CONTINUOUS
 10
0.263469
 20
-1.302598
  0
VERTEX
  8
PLAN_1
  6
CONTINUOUS
 10
0.301142
 20
-1.302598
  0
VERTEX
  8
PLAN_1
  6
CONTINUOUS
 10
0.301142
 20
-0.933772
  0
VERTEX
  8
PLAN_1
  6
CONTINUOUS
 10
0.263469
 20
-0.933772
  0
SEQEND
  8
0
  0
POLYLINE
  8
PLAN_1
  6
CONTINUOUS
 66
     1
 40
0.008433
 41
0.008433
  0
VERTEX
  8
PLAN_1
  6
CONTINUOUS
 10
-1.149992
 20
1.211724
  0
VERTEX
  8
PLAN_1
  6
CONTINUOUS
 10
-1.273685
 20
1.212287
  0
VERTEX
  8
PLAN_1
  6
CONTINUOUS
 10
-1.273685
 20
-1.883953
  0
VERTEX
  8
PLAN_1
  6
CONTINUOUS
 10
0.262909
 20
-1.883953
  0
SEQEND
  8
0
  0
POLYLINE
  8
PLAN_1
  6
CONTINUOUS
 66
     1
 40
0.008433
 41
0.008433
  0
VERTEX
  8
PLAN_1
  6
CONTINUOUS
 10
0.262909
 20
-1.883953
  0
VERTEX
  8
PLAN_1
  6
CONTINUOUS
 10
0.262909
 20
-1.733272
  0
VERTEX
  8
PLAN_1
  6
CONTINUOUS
 10
0.262909
 20
-1.336331
  0
VERTEX
  8
PLAN_1
  6
CONTINUOUS
 10
0.262909
 20
-0.775783
  0
VERTEX
  8
PLAN_1
  6
CONTINUOUS
 10
0.262909
 20
-0.133709
  0
VERTEX
  8
PLAN_1
  6
CONTINUOUS
 10
0.262909
 20
0.508366
  0
VERTEX
  8
PLAN_1
  6
CONTINUOUS
 10
0.262909
 20
1.068917
  0
VERTEX
  8
PLAN_1
  6
CONTINUOUS
 10
0.262909
 20
1.464732
  0
VERTEX
  8
PLAN_1
  6
CONTINUOUS
 10
0.262909
 20
1.615409
  0
SEQEND
  8
0
  0
POLYLINE
  8
PLAN_1
  6
CONTINUOUS
 66
     1
 40
0.008433
 41
0.008433
  0
VERTEX
  8
PLAN_1
  6
CONTINUOUS
 10
0.262909
 20
1.615409
  0
VERTEX
  8
PLAN_1
  6
CONTINUOUS
 10
-1.149992
 20
1.615409
  0
VERTEX
  8
PLAN_1
  6
CONTINUOUS
 10
-1.149992
 20
1.211724
  0
SEQEND
  8
0
  0
POLYLINE
  8
PLAN_1
  6
CONTINUOUS
 66
     1
 40
0.008433
 41
0.008433
  0
VERTEX
  8
PLAN_1
  6
CONTINUOUS
 10
-1.108390
 20
-0.951201
  0
VERTEX
  8
PLAN_1
  6
CONTINUOUS
 10
-1.247260
 20
-0.951201
  0
VERTEX
  8
PLAN_1
  6
CONTINUOUS
 10
-1.247260
 20
-1.311594
  0
VERTEX
  8
PLAN_1
  6
CONTINUOUS
 10
-1.108390
 20
-1.311594
  0
SEQEND
  8
0
  0
POLYLINE
  8
PLAN_1
  6
CONTINUOUS
 66
     1
 40
0.008433
 41
0.008433
  0
VERTEX
  8
PLAN_1
  6
CONTINUOUS
 10
-1.247260
 20
-1.276736
  0
VERTEX
  8
PLAN_1
  6
CONTINUOUS
 10
-1.174169
 20
-1.276736
  0
VERTEX
  8
PLAN_1
  6
CONTINUOUS
 10
-1.174169
 20
-1.246937
  0
VERTEX
  8
PLAN_1
  6
CONTINUOUS
 10
-1.247260
 20
-1.246937
  0
SEQEND
  8
0
  0
POLYLINE
  8
PLAN_1
  6
CONTINUOUS
 66
     1
 40
0.008433
 41
0.008433
  0
VERTEX
  8
PLAN_1
  6
CONTINUOUS
 10
-1.273122
 20
-1.338583
  0
VERTEX
  8
PLAN_1
  6
CONTINUOUS
 10
-1.107827
 20
-1.338583
  0
VERTEX
  8
PLAN_1
  6
CONTINUOUS
 10
-1.107827
 20
-0.921402
  0
VERTEX
  8
PLAN_1
  6
CONTINUOUS
 10
-1.273122
 20
-0.921402
  0
SEQEND
  8
0
  0
POLYLINE
  8
PLAN_1
  6
CONTINUOUS
 66
     1
 40
0.008433
 41
0.008433
  0
VERTEX
  8
PLAN_1
  6
CONTINUOUS
 10
-0.377480
 20
-1.086701
  0
VERTEX
  8
PLAN_1
  6
CONTINUOUS
 10
-0.422461
 20
-1.086701
  0
VERTEX
  8
PLAN_1
  6
CONTINUOUS
 10
-0.422461
 20
1.208350
  0
SEQEND
  8
0
  0
POLYLINE
  8
PLAN_1
  6
CONTINUOUS
 66
     1
 40
0.008433
 41
0.008433
  0
VERTEX
  8
PLAN_1
  6
CONTINUOUS
 10
-0.376917
 20
-1.882827
  0
VERTEX
  8
PLAN_1
  6
CONTINUOUS
 10
-0.376917
 20
1.212287
  0
VERTEX
  8
PLAN_1
  6
CONTINUOUS
 10
-1.149992
 20
1.212287
  0
SEQEND
  8
0
  0
POLYLINE
  8
PLAN_1
  6
CONTINUOUS
 66
     1
 40
0.008433
 41
0.008433
  0
VERTEX
  8
PLAN_1
  6
CONTINUOUS
 10
-0.722693
 20
1.211724
  0
VERTEX
  8
PLAN_1
  6
CONTINUOUS
 10
-0.722693
 20
1.615409
  0
SEQEND
  8
0
  0
POLYLINE
  8
PLAN_1
  6
CONTINUOUS
 66
     1
 40
0.008433
 41
0.008433
  0
VERTEX
  8
PLAN_1
  6
CONTINUOUS
 10
-1.150555
 20
1.851551
  0
VERTEX
  8
PLAN_1
  6
CONTINUOUS
 10
-1.261315
 20
1.851551
  0
VERTEX
  8
PLAN_1
  6
CONTINUOUS
 10
-1.525567
 20
1.908339
  0
VERTEX
  8
PLAN_1
  6
CONTINUOUS
 10
-1.525567
 20
2.701654
  0
VERTEX
  8
PLAN_1
  6
CONTINUOUS
 10
-1.270874
 20
2.745508
  0
VERTEX
  8
PLAN_1
  6
CONTINUOUS
 10
0.269654
 20
2.746071
  0
VERTEX
  8
PLAN_1
  6
CONTINUOUS
 10
0.269654
 20
1.615409
  0
VERTEX
  8
PLAN_1
  6
CONTINUOUS
 10
-1.150555
 20
1.615409
  0
VERTEX
  8
PLAN_1
  6
CONTINUOUS
 10
-1.150555
 20
1.851551
  0
SEQEND
  8
0
  0
POLYLINE
  8
PLAN_1
  6
CONTINUOUS
 66
     1
 40
0.008433
 41
0.008433
  0
VERTEX
  8
PLAN_1
  6
CONTINUOUS
 10
-1.150555
 20
2.746071
  0
VERTEX
  8
PLAN_1
  6
CONTINUOUS
 10
-1.150555
 20
1.852677
  0
SEQEND
  8
0
  0
POLYLINE
  8
PLAN_1
  6
CONTINUOUS
 66
     1
 40
0.008433
 41
0.008433
  0
VERTEX
  8
PLAN_1
  6
CONTINUOUS
 10
-1.260193
 20
2.745508
  0
VERTEX
  8
PLAN_1
  6
CONTINUOUS
 10
-1.260193
 20
1.859984
  0
SEQEND
  8
0
  0
POLYLINE
  8
PLAN_1
  6
CONTINUOUS
 66
     1
 40
0.008433
 41
0.008433
  0
VERTEX
  8
PLAN_1
  6
CONTINUOUS
 10
-1.994472
 20
3.112650
  0
VERTEX
  8
PLAN_1
  6
CONTINUOUS
 10
-1.994472
 20
4.066764
  0
VERTEX
  8
PLAN_1
  6
CONTINUOUS
 10
-2.207563
 20
4.066764
  0
VERTEX
  8
PLAN_1
  6
CONTINUOUS
 10
-2.207563
 20
3.112650
  0
VERTEX
  8
PLAN_1
  6
CONTINUOUS
 10
-1.994472
 20
3.112650
  0
SEQEND
  8
0
  0
POLYLINE
  8
PLAN_1
  6
CONTINUOUS
 66
     1
 40
0.008433
 41
0.008433
  0
VERTEX
  8
PLAN_1
  6
CONTINUOUS
 10
-1.994472
 20
3.365094
  0
VERTEX
  8
PLAN_1
  6
CONTINUOUS
 10
-1.994472
 20
3.815445
  0
VERTEX
  8
PLAN_1
  6
CONTINUOUS
 10
-1.911264
 20
3.815445
  0
VERTEX
  8
PLAN_1
  6
CONTINUOUS
 10
-1.911264
 20
3.365094
  0
VERTEX
  8
PLAN_1
  6
CONTINUOUS
 10
-1.994472
 20
3.365094
  0
SEQEND
  8
0
  0
POLYLINE
  8
PLAN_1
  6
CONTINUOUS
 66
     1
 40
0.008433
 41
0.008433
  0
VERTEX
  8
PLAN_1
  6
CONTINUOUS
 10
-2.207563
 20
3.322362
  0
VERTEX
  8
PLAN_1
  6
CONTINUOUS
 10
-2.207563
 20
3.855925
  0
VERTEX
  8
PLAN_1
  6
CONTINUOUS
 10
-2.334063
 20
3.855925
  0
VERTEX
  8
PLAN_1
  6
CONTINUOUS
 10
-2.334063
 20
3.322362
  0
VERTEX
  8
PLAN_1
  6
CONTINUOUS
 10
-2.207563
 20
3.322362
  0
SEQEND
  8
0
  0
POLYLINE
  8
PLAN_1
  6
CONTINUOUS
 66
     1
 40
0.006744
 41
0.006744
  0
VERTEX
  8
PLAN_1
  6
CONTINUOUS
 10
-2.332941
 20
3.719303
  0
VERTEX
  8
PLAN_1
  6
CONTINUOUS
 10
-2.210933
 20
3.719303
  0
SEQEND
  8
0
  0
POLYLINE
  8
PLAN_1
  6
CONTINUOUS
 66
     1
 40
0.006744
 41
0.006744
  0
VERTEX
  8
PLAN_1
  6
CONTINUOUS
 10
-2.332941
 20
3.458425
  0
VERTEX
  8
PLAN_1
  6
CONTINUOUS
 10
-2.210933
 20
3.458425
  0
SEQEND
  8
0
  0
POLYLINE
  8
PLAN_1
  6
CONTINUOUS
 66
     1
 40
0.006744
 41
0.006744
  0
VERTEX
  8
PLAN_1
  6
CONTINUOUS
 10
-2.318886
 20
3.855362
  0
VERTEX
  8
PLAN_1
  6
CONTINUOUS
 10
-2.320008
 20
3.852551
  0
VERTEX
  8
PLAN_1
  6
CONTINUOUS
 10
-2.323382
 20
3.843555
  0
VERTEX
  8
PLAN_1
  6
CONTINUOUS
 10
-2.325630
 20
3.837370
  0
VERTEX
  8
PLAN_1
  6
CONTINUOUS
 10
-2.327878
 20
3.830063
  0
VERTEX
  8
PLAN_1
  6
CONTINUOUS
 10
-2.330130
 20
3.821630
  0
VERTEX
  8
PLAN_1
  6
CONTINUOUS
 10
-2.331815
 20
3.812634
  0
VERTEX
  8
PLAN_1
  6
CONTINUOUS
 10
-2.332941
 20
3.802512
  0
VERTEX
  8
PLAN_1
  6
CONTINUOUS
 10
-2.333504
 20
3.791831
  0
VERTEX
  8
PLAN_1
  6
CONTINUOUS
 10
-2.333504
 20
3.780587
  0
VERTEX
  8
PLAN_1
  6
CONTINUOUS
 10
-2.332378
 20
3.768780
  0
VERTEX
  8
PLAN_1
  6
CONTINUOUS
 10
-2.331815
 20
3.762594
  0
VERTEX
  8
PLAN_1
  6
CONTINUOUS
 10
-2.330689
 20
3.756972
  0
VERTEX
  8
PLAN_1
  6
CONTINUOUS
 10
-2.329004
 20
3.750787
  0
VERTEX
  8
PLAN_1
  6
CONTINUOUS
 10
-2.327319
 20
3.744602
  0
VERTEX
  8
PLAN_1
  6
CONTINUOUS
 10
-2.325067
 20
3.737854
  0
VERTEX
  8
PLAN_1
  6
CONTINUOUS
 10
-2.322256
 20
3.731669
  0
VERTEX
  8
PLAN_1
  6
CONTINUOUS
 10
-2.319445
 20
3.725488
  0
VERTEX
  8
PLAN_1
  6
CONTINUOUS
 10
-2.316071
 20
3.719303
  0
VERTEX
  8
PLAN_1
  6
CONTINUOUS
 10
-2.317197
 20
3.714240
  0
VERTEX
  8
PLAN_1
  6
CONTINUOUS
 10
-2.321134
 20
3.700185
  0
VERTEX
  8
PLAN_1
  6
CONTINUOUS
 10
-2.323382
 20
3.690067
  0
VERTEX
  8
PLAN_1
  6
CONTINUOUS
 10
-2.326193
 20
3.677697
  0
VERTEX
  8
PLAN_1
  6
CONTINUOUS
 10
-2.328441
 20
3.663642
  0
VERTEX
  8
PLAN_1
  6
CONTINUOUS
 10
-2.330689
 20
3.647335
  0
VERTEX
  8
PLAN_1
  6
CONTINUOUS
 10
-2.332378
 20
3.629343
  0
VERTEX
  8
PLAN_1
  6
CONTINUOUS
 10
-2.333504
 20
3.609102
  0
VERTEX
  8
PLAN_1
  6
CONTINUOUS
 10
-2.334063
 20
3.587740
  0
VERTEX
  8
PLAN_1
  6
CONTINUOUS
 10
-2.333504
 20
3.564685
  0
VERTEX
  8
PLAN_1
  6
CONTINUOUS
 10
-2.331815
 20
3.539949
  0
VERTEX
  8
PLAN_1
  6
CONTINUOUS
 10
-2.329004
 20
3.514087
  0
VERTEX
  8
PLAN_1
  6
CONTINUOUS
 10
-2.327319
 20
3.500591
  0
VERTEX
  8
PLAN_1
  6
CONTINUOUS
 10
-2.325067
 20
3.486535
  0
VERTEX
  8
PLAN_1
  6
CONTINUOUS
 10
-2.322256
 20
3.472480
  0
VERTEX
  8
PLAN_1
  6
CONTINUOUS
 10
-2.318886
 20
3.457862
  0
VERTEX
  8
PLAN_1
  6
CONTINUOUS
 10
-2.320571
 20
3.455051
  0
VERTEX
  8
PLAN_1
  6
CONTINUOUS
 10
-2.323945
 20
3.446618
  0
VERTEX
  8
PLAN_1
  6
CONTINUOUS
 10
-2.326193
 20
3.440433
  0
VERTEX
  8
PLAN_1
  6
CONTINUOUS
 10
-2.328441
 20
3.433122
  0
VERTEX
  8
PLAN_1
  6
CONTINUOUS
 10
-2.330689
 20
3.425252
  0
VERTEX
  8
PLAN_1
  6
CONTINUOUS
 10
-2.332378
 20
3.416256
  0
VERTEX
  8
PLAN_1
  6
CONTINUOUS
 10
-2.333504
 20
3.406138
  0
VERTEX
  8
PLAN_1
  6
CONTINUOUS
 10
-2.334063
 20
3.395453
  0
VERTEX
  8
PLAN_1
  6
CONTINUOUS
 10
-2.334063
 20
3.384772
  0
VERTEX
  8
PLAN_1
  6
CONTINUOUS
 10
-2.332941
 20
3.372965
  0
VERTEX
  8
PLAN_1
  6
CONTINUOUS
 10
-2.332378
 20
3.367343
  0
VERTEX
  8
PLAN_1
  6
CONTINUOUS
 10
-2.330689
 20
3.361157
  0
VERTEX
  8
PLAN_1
  6
CONTINUOUS
 10
-2.329567
 20
3.354972
  0
VERTEX
  8
PLAN_1
  6
CONTINUOUS
 10
-2.327319
 20
3.348787
  0
VERTEX
  8
PLAN_1
  6
CONTINUOUS
 10
-2.325067
 20
3.342602
  0
VERTEX
  8
PLAN_1
  6
CONTINUOUS
 10
-2.322819
 20
3.336417
  0
VERTEX
  8
PLAN_1
  6
CONTINUOUS
 10
-2.319445
 20
3.330232
  0
VERTEX
  8
PLAN_1
  6
CONTINUOUS
 10
-2.316071
 20
3.323488
  0
SEQEND
  8
0
  0
POLYLINE
  8
PLAN_1
 62
     5
  6
CONTINUOUS
 66
     1
 40
0.003000
 41
0.003000
  0
VERTEX
  8
PLAN_1
 62
     5
  6
CONTINUOUS
 10
-1.275933
 20
3.311118
  0
VERTEX
  8
PLAN_1
 62
     5
  6
CONTINUOUS
 10
-1.267500
 20
3.311118
  0
SEQEND
  8
0
  0
POLYLINE
  8
PLAN_1
 62
     5
  6
CONTINUOUS
 66
     1
 40
0.003000
 41
0.003000
  0
VERTEX
  8
PLAN_1
 62
     5
  6
CONTINUOUS
 10
-1.259067
 20
3.311118
  0
VERTEX
  8
PLAN_1
 62
     5
  6
CONTINUOUS
 10
-1.250634
 20
3.311118
  0
SEQEND
  8
0
  0
POLYLINE
  8
PLAN_1
 62
     5
  6
CONTINUOUS
 66
     1
 40
0.003000
 41
0.003000
  0
VERTEX
  8
PLAN_1
 62
     5
  6
CONTINUOUS
 10
-1.242201
 20
3.311118
  0
VERTEX
  8
PLAN_1
 62
     5
  6
CONTINUOUS
 10
-1.234331
 20
3.311118
  0
SEQEND
  8
0
  0
POLYLINE
  8
PLAN_1
 62
     5
  6
CONTINUOUS
 66
     1
 40
0.003000
 41
0.003000
  0
VERTEX
  8
PLAN_1
 62
     5
  6
CONTINUOUS
 10
-1.225894
 20
3.311118
  0
VERTEX
  8
PLAN_1
 62
     5
  6
CONTINUOUS
 10
-1.217461
 20
3.311118
  0
SEQEND
  8
0
  0
POLYLINE
  8
PLAN_1
 62
     5
  6
CONTINUOUS
 66
     1
 40
0.003000
 41
0.003000
  0
VERTEX
  8
PLAN_1
 62
     5
  6
CONTINUOUS
 10
-1.209028
 20
3.311118
  0
VERTEX
  8
PLAN_1
 62
     5
  6
CONTINUOUS
 10
-1.200594
 20
3.311118
  0
SEQEND
  8
0
  0
POLYLINE
  8
PLAN_1
 62
     5
  6
CONTINUOUS
 66
     1
 40
0.003000
 41
0.003000
  0
VERTEX
  8
PLAN_1
 62
     5
  6
CONTINUOUS
 10
-1.192161
 20
3.311118
  0
VERTEX
  8
PLAN_1
 62
     5
  6
CONTINUOUS
 10
-1.184291
 20
3.311118
  0
SEQEND
  8
0
  0
POLYLINE
  8
PLAN_1
 62
     5
  6
CONTINUOUS
 66
     1
 40
0.003000
 41
0.003000
  0
VERTEX
  8
PLAN_1
 62
     5
  6
CONTINUOUS
 10
-1.175854
 20
3.311118
  0
VERTEX
  8
PLAN_1
 62
     5
  6
CONTINUOUS
 10
-1.167421
 20
3.311118
  0
SEQEND
  8
0
  0
POLYLINE
  8
PLAN_1
 62
     5
  6
CONTINUOUS
 66
     1
 40
0.003000
 41
0.003000
  0
VERTEX
  8
PLAN_1
 62
     5
  6
CONTINUOUS
 10
-1.158988
 20
3.311118
  0
VERTEX
  8
PLAN_1
 62
     5
  6
CONTINUOUS
 10
-1.150555
 20
3.311118
  0
SEQEND
  8
0
  0
POLYLINE
  8
PLAN_1
 62
     5
  6
CONTINUOUS
 66
     1
 40
0.003000
 41
0.003000
  0
VERTEX
  8
PLAN_1
 62
     5
  6
CONTINUOUS
 10
-1.149433
 20
3.317866
  0
VERTEX
  8
PLAN_1
 62
     5
  6
CONTINUOUS
 10
-1.149433
 20
3.326299
  0
SEQEND
  8
0
  0
POLYLINE
  8
PLAN_1
 62
     5
  6
CONTINUOUS
 66
     1
 40
0.003000
 41
0.003000
  0
VERTEX
  8
PLAN_1
 62
     5
  6
CONTINUOUS
 10
-1.149433
 20
3.334732
  0
VERTEX
  8
PLAN_1
 62
     5
  6
CONTINUOUS
 10
-1.149433
 20
3.343165
  0
SEQEND
  8
0
  0
POLYLINE
  8
PLAN_1
 62
     5
  6
CONTINUOUS
 66
     1
 40
0.003000
 41
0.003000
  0
VERTEX
  8
PLAN_1
 62
     5
  6
CONTINUOUS
 10
-1.149433
 20
3.351035
  0
VERTEX
  8
PLAN_1
 62
     5
  6
CONTINUOUS
 10
-1.149433
 20
3.359469
  0
SEQEND
  8
0
  0
POLYLINE
  8
PLAN_1
 62
     5
  6
CONTINUOUS
 66
     1
 40
0.003000
 41
0.003000
  0
VERTEX
  8
PLAN_1
 62
     5
  6
CONTINUOUS
 10
-1.149433
 20
3.367906
  0
VERTEX
  8
PLAN_1
 62
     5
  6
CONTINUOUS
 10
-1.149433
 20
3.376339
  0
SEQEND
  8
0
  0
POLYLINE
  8
PLAN_1
 62
     5
  6
CONTINUOUS
 66
     1
 40
0.003000
 41
0.003000
  0
VERTEX
  8
PLAN_1
 62
     5
  6
CONTINUOUS
 10
-1.149433
 20
3.384772
  0
VERTEX
  8
PLAN_1
 62
     5
  6
CONTINUOUS
 10
-1.149433
 20
3.392642
  0
SEQEND
  8
0
  0
POLYLINE
  8
PLAN_1
 62
     5
  6
CONTINUOUS
 66
     1
 40
0.003000
 41
0.003000
  0
VERTEX
  8
PLAN_1
 62
     5
  6
CONTINUOUS
 10
-1.149433
 20
3.401075
  0
VERTEX
  8
PLAN_1
 62
     5
  6
CONTINUOUS
 10
-1.149433
 20
3.409508
  0
SEQEND
  8
0
  0
POLYLINE
  8
PLAN_1
 62
     5
  6
CONTINUOUS
 66
     1
 40
0.003000
 41
0.003000
  0
VERTEX
  8
PLAN_1
 62
     5
  6
CONTINUOUS
 10
-1.149433
 20
3.417941
  0
VERTEX
  8
PLAN_1
 62
     5
  6
CONTINUOUS
 10
-1.149433
 20
3.426378
  0
SEQEND
  8
0
  0
POLYLINE
  8
PLAN_1
 62
     5
  6
CONTINUOUS
 66
     1
 40
0.003000
 41
0.003000
  0
VERTEX
  8
PLAN_1
 62
     5
  6
CONTINUOUS
 10
-1.149433
 20
3.434811
  0
VERTEX
  8
PLAN_1
 62
     5
  6
CONTINUOUS
 10
-1.149433
 20
3.442681
  0
SEQEND
  8
0
  0
POLYLINE
  8
PLAN_1
 62
     5
  6
CONTINUOUS
 66
     1
 40
0.003000
 41
0.003000
  0
VERTEX
  8
PLAN_1
 62
     5
  6
CONTINUOUS
 10
-1.149433
 20
3.451114
  0
VERTEX
  8
PLAN_1
 62
     5
  6
CONTINUOUS
 10
-1.149433
 20
3.459547
  0
SEQEND
  8
0
  0
POLYLINE
  8
PLAN_1
 62
     5
  6
CONTINUOUS
 66
     1
 40
0.003000
 41
0.003000
  0
VERTEX
  8
PLAN_1
 62
     5
  6
CONTINUOUS
 10
-1.149433
 20
3.467980
  0
VERTEX
  8
PLAN_1
 62
     5
  6
CONTINUOUS
 10
-1.149433
 20
3.476417
  0
SEQEND
  8
0
  0
POLYLINE
  8
PLAN_1
 62
     5
  6
CONTINUOUS
 66
     1
 40
0.003000
 41
0.003000
  0
VERTEX
  8
PLAN_1
 62
     5
  6
CONTINUOUS
 10
-1.149433
 20
3.484287
  0
VERTEX
  8
PLAN_1
 62
     5
  6
CONTINUOUS
 10
-1.149433
 20
3.492720
  0
SEQEND
  8
0
  0
POLYLINE
  8
PLAN_1
 62
     5
  6
CONTINUOUS
 66
     1
 40
0.003000
 41
0.003000
  0
VERTEX
  8
PLAN_1
 62
     5
  6
CONTINUOUS
 10
-1.149433
 20
3.501154
  0
VERTEX
  8
PLAN_1
 62
     5
  6
CONTINUOUS
 10
-1.149433
 20
3.509587
  0
SEQEND
  8
0
  0
POLYLINE
  8
PLAN_1
 62
     5
  6
CONTINUOUS
 66
     1
 40
0.003000
 41
0.003000
  0
VERTEX
  8
PLAN_1
 62
     5
  6
CONTINUOUS
 10
-1.149433
 20
3.518020
  0
VERTEX
  8
PLAN_1
 62
     5
  6
CONTINUOUS
 10
-1.149433
 20
3.526453
  0
SEQEND
  8
0
  0
POLYLINE
  8
PLAN_1
 62
     5
  6
CONTINUOUS
 66
     1
 40
0.003000
 41
0.003000
  0
VERTEX
  8
PLAN_1
 62
     5
  6
CONTINUOUS
 10
-1.149433
 20
3.534327
  0
VERTEX
  8
PLAN_1
 62
     5
  6
CONTINUOUS
 10
-1.149433
 20
3.542760
  0
SEQEND
  8
0
  0
POLYLINE
  8
PLAN_1
 62
     5
  6
CONTINUOUS
 66
     1
 40
0.003000
 41
0.003000
  0
VERTEX
  8
PLAN_1
 62
     5
  6
CONTINUOUS
 10
-1.149433
 20
3.551193
  0
VERTEX
  8
PLAN_1
 62
     5
  6
CONTINUOUS
 10
-1.149433
 20
3.559626
  0
SEQEND
  8
0
  0
POLYLINE
  8
PLAN_1
 62
     5
  6
CONTINUOUS
 66
     1
 40
0.003000
 41
0.003000
  0
VERTEX
  8
PLAN_1
 62
     5
  6
CONTINUOUS
 10
-1.149433
 20
3.568059
  0
VERTEX
  8
PLAN_1
 62
     5
  6
CONTINUOUS
 10
-1.149433
 20
3.575933
  0
SEQEND
  8
0
  0
POLYLINE
  8
PLAN_1
 62
     5
  6
CONTINUOUS
 66
     1
 40
0.003000
 41
0.003000
  0
VERTEX
  8
PLAN_1
 62
     5
  6
CONTINUOUS
 10
-1.149433
 20
3.584366
  0
VERTEX
  8
PLAN_1
 62
     5
  6
CONTINUOUS
 10
-1.149433
 20
3.592799
  0
SEQEND
  8
0
  0
POLYLINE
  8
PLAN_1
 62
     5
  6
CONTINUOUS
 66
     1
 40
0.003000
 41
0.003000
  0
VERTEX
  8
PLAN_1
 62
     5
  6
CONTINUOUS
 10
-1.149433
 20
3.601232
  0
VERTEX
  8
PLAN_1
 62
     5
  6
CONTINUOUS
 10
-1.149433
 20
3.609665
  0
SEQEND
  8
0
  0
POLYLINE
  8
PLAN_1
 62
     5
  6
CONTINUOUS
 66
     1
 40
0.003000
 41
0.003000
  0
VERTEX
  8
PLAN_1
 62
     5
  6
CONTINUOUS
 10
-1.149433
 20
3.618098
  0
VERTEX
  8
PLAN_1
 62
     5
  6
CONTINUOUS
 10
-1.149433
 20
3.625972
  0
SEQEND
  8
0
  0
POLYLINE
  8
PLAN_1
 62
     5
  6
CONTINUOUS
 66
     1
 40
0.003000
 41
0.003000
  0
VERTEX
  8
PLAN_1
 62
     5
  6
CONTINUOUS
 10
-1.149433
 20
3.634406
  0
VERTEX
  8
PLAN_1
 62
     5
  6
CONTINUOUS
 10
-1.149433
 20
3.642839
  0
SEQEND
  8
0
  0
POLYLINE
  8
PLAN_1
 62
     5
  6
CONTINUOUS
 66
     1
 40
0.003000
 41
0.003000
  0
VERTEX
  8
PLAN_1
 62
     5
  6
CONTINUOUS
 10
-1.149433
 20
3.651272
  0
VERTEX
  8
PLAN_1
 62
     5
  6
CONTINUOUS
 10
-1.149433
 20
3.659705
  0
SEQEND
  8
0
  0
POLYLINE
  8
PLAN_1
 62
     5
  6
CONTINUOUS
 66
     1
 40
0.003000
 41
0.003000
  0
VERTEX
  8
PLAN_1
 62
     5
  6
CONTINUOUS
 10
-1.149433
 20
3.667575
  0
VERTEX
  8
PLAN_1
 62
     5
  6
CONTINUOUS
 10
-1.149433
 20
3.676008
  0
SEQEND
  8
0
  0
POLYLINE
  8
PLAN_1
 62
     5
  6
CONTINUOUS
 66
     1
 40
0.003000
 41
0.003000
  0
VERTEX
  8
PLAN_1
 62
     5
  6
CONTINUOUS
 10
-1.149433
 20
3.684445
  0
VERTEX
  8
PLAN_1
 62
     5
  6
CONTINUOUS
 10
-1.149433
 20
3.692878
  0
SEQEND
  8
0
  0
POLYLINE
  8
PLAN_1
 62
     5
  6
CONTINUOUS
 66
     1
 40
0.003000
 41
0.003000
  0
VERTEX
  8
PLAN_1
 62
     5
  6
CONTINUOUS
 10
-1.149433
 20
3.701311
  0
VERTEX
  8
PLAN_1
 62
     5
  6
CONTINUOUS
 10
-1.149433
 20
3.709181
  0
SEQEND
  8
0
  0
POLYLINE
  8
PLAN_1
 62
     5
  6
CONTINUOUS
 66
     1
 40
0.003000
 41
0.003000
  0
VERTEX
  8
PLAN_1
 62
     5
  6
CONTINUOUS
 10
-1.149433
 20
3.717614
  0
VERTEX
  8
PLAN_1
 62
     5
  6
CONTINUOUS
 10
-1.149433
 20
3.726047
  0
SEQEND
  8
0
  0
POLYLINE
  8
PLAN_1
 62
     5
  6
CONTINUOUS
 66
     1
 40
0.003000
 41
0.003000
  0
VERTEX
  8
PLAN_1
 62
     5
  6
CONTINUOUS
 10
-1.149433
 20
3.734480
  0
VERTEX
  8
PLAN_1
 62
     5
  6
CONTINUOUS
 10
-1.149433
 20
3.742917
  0
SEQEND
  8
0
  0
POLYLINE
  8
PLAN_1
 62
     5
  6
CONTINUOUS
 66
     1
 40
0.003000
 41
0.003000
  0
VERTEX
  8
PLAN_1
 62
     5
  6
CONTINUOUS
 10
-1.149433
 20
3.751350
  0
VERTEX
  8
PLAN_1
 62
     5
  6
CONTINUOUS
 10
-1.149433
 20
3.759220
  0
SEQEND
  8
0
  0
POLYLINE
  8
PLAN_1
 62
     5
  6
CONTINUOUS
 66
     1
 40
0.003000
 41
0.003000
  0
VERTEX
  8
PLAN_1
 62
     5
  6
CONTINUOUS
 10
-1.149433
 20
3.767654
  0
VERTEX
  8
PLAN_1
 62
     5
  6
CONTINUOUS
 10
-1.149433
 20
3.776087
  0
SEQEND
  8
0
  0
POLYLINE
  8
PLAN_1
 62
     5
  6
CONTINUOUS
 66
     1
 40
0.003000
 41
0.003000
  0
VERTEX
  8
PLAN_1
 62
     5
  6
CONTINUOUS
 10
-1.149433
 20
3.784520
  0
VERTEX
  8
PLAN_1
 62
     5
  6
CONTINUOUS
 10
-1.149433
 20
3.792957
  0
SEQEND
  8
0
  0
POLYLINE
  8
PLAN_1
 62
     5
  6
CONTINUOUS
 66
     1
 40
0.003000
 41
0.003000
  0
VERTEX
  8
PLAN_1
 62
     5
  6
CONTINUOUS
 10
-1.149433
 20
3.800827
  0
VERTEX
  8
PLAN_1
 62
     5
  6
CONTINUOUS
 10
-1.149433
 20
3.809260
  0
SEQEND
  8
0
  0
POLYLINE
  8
PLAN_1
 62
     5
  6
CONTINUOUS
 66
     1
 40
0.003000
 41
0.003000
  0
VERTEX
  8
PLAN_1
 62
     5
  6
CONTINUOUS
 10
-1.149433
 20
3.817693
  0
VERTEX
  8
PLAN_1
 62
     5
  6
CONTINUOUS
 10
-1.149433
 20
3.826126
  0
SEQEND
  8
0
  0
POLYLINE
  8
PLAN_1
 62
     5
  6
CONTINUOUS
 66
     1
 40
0.003000
 41
0.003000
  0
VERTEX
  8
PLAN_1
 62
     5
  6
CONTINUOUS
 10
-1.149433
 20
3.834559
  0
VERTEX
  8
PLAN_1
 62
     5
  6
CONTINUOUS
 10
-1.149433
 20
3.842992
  0
SEQEND
  8
0
  0
POLYLINE
  8
PLAN_1
 62
     5
  6
CONTINUOUS
 66
     1
 40
0.003000
 41
0.003000
  0
VERTEX
  8
PLAN_1
 62
     5
  6
CONTINUOUS
 10
-1.156177
 20
3.844681
  0
VERTEX
  8
PLAN_1
 62
     5
  6
CONTINUOUS
 10
-1.164610
 20
3.844681
  0
SEQEND
  8
0
  0
POLYLINE
  8
PLAN_1
 62
     5
  6
CONTINUOUS
 66
     1
 40
0.003000
 41
0.003000
  0
VERTEX
  8
PLAN_1
 62
     5
  6
CONTINUOUS
 10
-1.172484
 20
3.844681
  0
VERTEX
  8
PLAN_1
 62
     5
  6
CONTINUOUS
 10
-1.180917
 20
3.844681
  0
SEQEND
  8
0
  0
POLYLINE
  8
PLAN_1
 62
     5
  6
CONTINUOUS
 66
     1
 40
0.003000
 41
0.003000
  0
VERTEX
  8
PLAN_1
 62
     5
  6
CONTINUOUS
 10
-1.189350
 20
3.844681
  0
VERTEX
  8
PLAN_1
 62
     5
  6
CONTINUOUS
 10
-1.197783
 20
3.844681
  0
SEQEND
  8
0
  0
POLYLINE
  8
PLAN_1
 62
     5
  6
CONTINUOUS
 66
     1
 40
0.003000
 41
0.003000
  0
VERTEX
  8
PLAN_1
 62
     5
  6
CONTINUOUS
 10
-1.206217
 20
3.844681
  0
VERTEX
  8
PLAN_1
 62
     5
  6
CONTINUOUS
 10
-1.214650
 20
3.844681
  0
SEQEND
  8
0
  0
POLYLINE
  8
PLAN_1
 62
     5
  6
CONTINUOUS
 66
     1
 40
0.003000
 41
0.003000
  0
VERTEX
  8
PLAN_1
 62
     5
  6
CONTINUOUS
 10
-1.222524
 20
3.844681
  0
VERTEX
  8
PLAN_1
 62
     5
  6
CONTINUOUS
 10
-1.230957
 20
3.844681
  0
SEQEND
  8
0
  0
POLYLINE
  8
PLAN_1
 62
     5
  6
CONTINUOUS
 66
     1
 40
0.003000
 41
0.003000
  0
VERTEX
  8
PLAN_1
 62
     5
  6
CONTINUOUS
 10
-1.239390
 20
3.844681
  0
VERTEX
  8
PLAN_1
 62
     5
  6
CONTINUOUS
 10
-1.247823
 20
3.844681
  0
SEQEND
  8
0
  0
POLYLINE
  8
PLAN_1
 62
     5
  6
CONTINUOUS
 66
     1
 40
0.003000
 41
0.003000
  0
VERTEX
  8
PLAN_1
 62
     5
  6
CONTINUOUS
 10
-1.256256
 20
3.844681
  0
VERTEX
  8
PLAN_1
 62
     5
  6
CONTINUOUS
 10
-1.264126
 20
3.844681
  0
SEQEND
  8
0
  0
POLYLINE
  8
PLAN_1
 62
     5
  6
CONTINUOUS
 66
     1
 40
0.003000
 41
0.003000
  0
VERTEX
  8
PLAN_1
 62
     5
  6
CONTINUOUS
 10
-1.272563
 20
3.844681
  0
VERTEX
  8
PLAN_1
 62
     5
  6
CONTINUOUS
 10
-1.275933
 20
3.844681
  0
VERTEX
  8
PLAN_1
 62
     5
  6
CONTINUOUS
 10
-1.275933
 20
3.839059
  0
SEQEND
  8
0
  0
POLYLINE
  8
PLAN_1
 62
     5
  6
CONTINUOUS
 66
     1
 40
0.003000
 41
0.003000
  0
VERTEX
  8
PLAN_1
 62
     5
  6
CONTINUOUS
 10
-1.275933
 20
3.830626
  0
VERTEX
  8
PLAN_1
 62
     5
  6
CONTINUOUS
 10
-1.275933
 20
3.822752
  0
SEQEND
  8
0
  0
POLYLINE
  8
PLAN_1
 62
     5
  6
CONTINUOUS
 66
     1
 40
0.003000
 41
0.003000
  0
VERTEX
  8
PLAN_1
 62
     5
  6
CONTINUOUS
 10
-1.275933
 20
3.814319
  0
VERTEX
  8
PLAN_1
 62
     5
  6
CONTINUOUS
 10
-1.275933
 20
3.805886
  0
SEQEND
  8
0
  0
POLYLINE
  8
PLAN_1
 62
     5
  6
CONTINUOUS
 66
     1
 40
0.003000
 41
0.003000
  0
VERTEX
  8
PLAN_1
 62
     5
  6
CONTINUOUS
 10
-1.282118
 20
3.803075
  0
VERTEX
  8
PLAN_1
 62
     5
  6
CONTINUOUS
 10
-1.290551
 20
3.803075
  0
SEQEND
  8
0
  0
POLYLINE
  8
PLAN_1
 62
     5
  6
CONTINUOUS
 66
     1
 40
0.003000
 41
0.003000
  0
VERTEX
  8
PLAN_1
 62
     5
  6
CONTINUOUS
 10
-1.298984
 20
3.803075
  0
VERTEX
  8
PLAN_1
 62
     5
  6
CONTINUOUS
 10
-1.307421
 20
3.802512
  0
SEQEND
  8
0
  0
POLYLINE
  8
PLAN_1
 62
     5
  6
CONTINUOUS
 66
     1
 40
0.003000
 41
0.003000
  0
VERTEX
  8
PLAN_1
 62
     5
  6
CONTINUOUS
 10
-1.313043
 20
3.805323
  0
VERTEX
  8
PLAN_1
 62
     5
  6
CONTINUOUS
 10
-1.313043
 20
3.813197
  0
SEQEND
  8
0
  0
POLYLINE
  8
PLAN_1
 62
     5
  6
CONTINUOUS
 66
     1
 40
0.003000
 41
0.003000
  0
VERTEX
  8
PLAN_1
 62
     5
  6
CONTINUOUS
 10
-1.313043
 20
3.821630
  0
VERTEX
  8
PLAN_1
 62
     5
  6
CONTINUOUS
 10
-1.313043
 20
3.830063
  0
SEQEND
  8
0
  0
POLYLINE
  8
PLAN_1
 62
     5
  6
CONTINUOUS
 66
     1
 40
0.003000
 41
0.003000
  0
VERTEX
  8
PLAN_1
 62
     5
  6
CONTINUOUS
 10
-1.313043
 20
3.838496
  0
VERTEX
  8
PLAN_1
 62
     5
  6
CONTINUOUS
 10
-1.313043
 20
3.846929
  0
SEQEND
  8
0
  0
POLYLINE
  8
PLAN_1
 62
     5
  6
CONTINUOUS
 66
     1
 40
0.003000
 41
0.003000
  0
VERTEX
  8
PLAN_1
 62
     5
  6
CONTINUOUS
 10
-1.313043
 20
3.854799
  0
VERTEX
  8
PLAN_1
 62
     5
  6
CONTINUOUS
 10
-1.313043
 20
3.863236
  0
SEQEND
  8
0
  0
POLYLINE
  8
PLAN_1
 62
     5
  6
CONTINUOUS
 66
     1
 40
0.003000
 41
0.003000
  0
VERTEX
  8
PLAN_1
 62
     5
  6
CONTINUOUS
 10
-1.313043
 20
3.871669
  0
VERTEX
  8
PLAN_1
 62
     5
  6
CONTINUOUS
 10
-1.313043
 20
3.880102
  0
SEQEND
  8
0
  0
POLYLINE
  8
PLAN_1
 62
     5
  6
CONTINUOUS
 66
     1
 40
0.003000
 41
0.003000
  0
VERTEX
  8
PLAN_1
 62
     5
  6
CONTINUOUS
 10
-1.313043
 20
3.888535
  0
VERTEX
  8
PLAN_1
 62
     5
  6
CONTINUOUS
 10
-1.313043
 20
3.896406
  0
SEQEND
  8
0
  0
POLYLINE
  8
PLAN_1
 62
     5
  6
CONTINUOUS
 66
     1
 40
0.003000
 41
0.003000
  0
VERTEX
  8
PLAN_1
 62
     5
  6
CONTINUOUS
 10
-1.313043
 20
3.904839
  0
VERTEX
  8
PLAN_1
 62
     5
  6
CONTINUOUS
 10
-1.313043
 20
3.913272
  0
SEQEND
  8
0
  0
POLYLINE
  8
PLAN_1
 62
     5
  6
CONTINUOUS
 66
     1
 40
0.003000
 41
0.003000
  0
VERTEX
  8
PLAN_1
 62
     5
  6
CONTINUOUS
 10
-1.313043
 20
3.921709
  0
VERTEX
  8
PLAN_1
 62
     5
  6
CONTINUOUS
 10
-1.313043
 20
3.930142
  0
SEQEND
  8
0
  0
POLYLINE
  8
PLAN_1
 62
     5
  6
CONTINUOUS
 66
     1
 40
0.003000
 41
0.003000
  0
VERTEX
  8
PLAN_1
 62
     5
  6
CONTINUOUS
 10
-1.313043
 20
3.938575
  0
VERTEX
  8
PLAN_1
 62
     5
  6
CONTINUOUS
 10
-1.313043
 20
3.946445
  0
SEQEND
  8
0
  0
POLYLINE
  8
PLAN_1
 62
     5
  6
CONTINUOUS
 66
     1
 40
0.003000
 41
0.003000
  0
VERTEX
  8
PLAN_1
 62
     5
  6
CONTINUOUS
 10
-1.313043
 20
3.954878
  0
VERTEX
  8
PLAN_1
 62
     5
  6
CONTINUOUS
 10
-1.313043
 20
3.963311
  0
SEQEND
  8
0
  0
POLYLINE
  8
PLAN_1
 62
     5
  6
CONTINUOUS
 66
     1
 40
0.003000
 41
0.003000
  0
VERTEX
  8
PLAN_1
 62
     5
  6
CONTINUOUS
 10
-1.313043
 20
3.971748
  0
VERTEX
  8
PLAN_1
 62
     5
  6
CONTINUOUS
 10
-1.313043
 20
3.980181
  0
SEQEND
  8
0
  0
POLYLINE
  8
PLAN_1
 62
     5
  6
CONTINUOUS
 66
     1
 40
0.003000
 41
0.003000
  0
VERTEX
  8
PLAN_1
 62
     5
  6
CONTINUOUS
 10
-1.313043
 20
3.988051
  0
VERTEX
  8
PLAN_1
 62
     5
  6
CONTINUOUS
 10
-1.313043
 20
3.996484
  0
SEQEND
  8
0
  0
POLYLINE
  8
PLAN_1
 62
     5
  6
CONTINUOUS
 66
     1
 40
0.003000
 41
0.003000
  0
VERTEX
  8
PLAN_1
 62
     5
  6
CONTINUOUS
 10
-1.313043
 20
4.004917
  0
VERTEX
  8
PLAN_1
 62
     5
  6
CONTINUOUS
 10
-1.313043
 20
4.013350
  0
SEQEND
  8
0
  0
POLYLINE
  8
PLAN_1
 62
     5
  6
CONTINUOUS
 66
     1
 40
0.003000
 41
0.003000
  0
VERTEX
  8
PLAN_1
 62
     5
  6
CONTINUOUS
 10
-1.313043
 20
4.021783
  0
VERTEX
  8
PLAN_1
 62
     5
  6
CONTINUOUS
 10
-1.313043
 20
4.030220
  0
SEQEND
  8
0
  0
POLYLINE
  8
PLAN_1
 62
     5
  6
CONTINUOUS
 66
     1
 40
0.003000
 41
0.003000
  0
VERTEX
  8
PLAN_1
 62
     5
  6
CONTINUOUS
 10
-1.313043
 20
4.038091
  0
VERTEX
  8
PLAN_1
 62
     5
  6
CONTINUOUS
 10
-1.313043
 20
4.046524
  0
SEQEND
  8
0
  0
POLYLINE
  8
PLAN_1
 62
     5
  6
CONTINUOUS
 66
     1
 40
0.003000
 41
0.003000
  0
VERTEX
  8
PLAN_1
 62
     5
  6
CONTINUOUS
 10
-1.313043
 20
4.054957
  0
VERTEX
  8
PLAN_1
 62
     5
  6
CONTINUOUS
 10
-1.313043
 20
4.063390
  0
SEQEND
  8
0
  0
POLYLINE
  8
PLAN_1
 62
     5
  6
CONTINUOUS
 66
     1
 40
0.003000
 41
0.003000
  0
VERTEX
  8
PLAN_1
 62
     5
  6
CONTINUOUS
 10
-1.317539
 20
4.066764
  0
VERTEX
  8
PLAN_1
 62
     5
  6
CONTINUOUS
 10
-1.325972
 20
4.066764
  0
SEQEND
  8
0
  0
POLYLINE
  8
PLAN_1
 62
     5
  6
CONTINUOUS
 66
     1
 40
0.003000
 41
0.003000
  0
VERTEX
  8
PLAN_1
 62
     5
  6
CONTINUOUS
 10
-1.334406
 20
4.066764
  0
VERTEX
  8
PLAN_1
 62
     5
  6
CONTINUOUS
 10
-1.342843
 20
4.066764
  0
SEQEND
  8
0
  0
POLYLINE
  8
PLAN_1
 62
     5
  6
CONTINUOUS
 66
     1
 40
0.003000
 41
0.003000
  0
VERTEX
  8
PLAN_1
 62
     5
  6
CONTINUOUS
 10
-1.351276
 20
4.066764
  0
VERTEX
  8
PLAN_1
 62
     5
  6
CONTINUOUS
 10
-1.359146
 20
4.066764
  0
SEQEND
  8
0
  0
POLYLINE
  8
PLAN_1
 62
     5
  6
CONTINUOUS
 66
     1
 40
0.003000
 41
0.003000
  0
VERTEX
  8
PLAN_1
 62
     5
  6
CONTINUOUS
 10
-1.367579
 20
4.066764
  0
VERTEX
  8
PLAN_1
 62
     5
  6
CONTINUOUS
 10
-1.376012
 20
4.066764
  0
SEQEND
  8
0
  0
POLYLINE
  8
PLAN_1
 62
     5
  6
CONTINUOUS
 66
     1
 40
0.003000
 41
0.003000
  0
VERTEX
  8
PLAN_1
 62
     5
  6
CONTINUOUS
 10
-1.384445
 20
4.066764
  0
VERTEX
  8
PLAN_1
 62
     5
  6
CONTINUOUS
 10
-1.392878
 20
4.066764
  0
SEQEND
  8
0
  0
POLYLINE
  8
PLAN_1
 62
     5
  6
CONTINUOUS
 66
     1
 40
0.003000
 41
0.003000
  0
VERTEX
  8
PLAN_1
 62
     5
  6
CONTINUOUS
 10
-1.401315
 20
4.066764
  0
VERTEX
  8
PLAN_1
 62
     5
  6
CONTINUOUS
 10
-1.409185
 20
4.066764
  0
SEQEND
  8
0
  0
POLYLINE
  8
PLAN_1
 62
     5
  6
CONTINUOUS
 66
     1
 40
0.003000
 41
0.003000
  0
VERTEX
  8
PLAN_1
 62
     5
  6
CONTINUOUS
 10
-1.417618
 20
4.066764
  0
VERTEX
  8
PLAN_1
 62
     5
  6
CONTINUOUS
 10
-1.426051
 20
4.066764
  0
SEQEND
  8
0
  0
POLYLINE
  8
PLAN_1
 62
     5
  6
CONTINUOUS
 66
     1
 40
0.003000
 41
0.003000
  0
VERTEX
  8
PLAN_1
 62
     5
  6
CONTINUOUS
 10
-1.434484
 20
4.066764
  0
VERTEX
  8
PLAN_1
 62
     5
  6
CONTINUOUS
 10
-1.442917
 20
4.066764
  0
SEQEND
  8
0
  0
POLYLINE
  8
PLAN_1
 62
     5
  6
CONTINUOUS
 66
     1
 40
0.003000
 41
0.003000
  0
VERTEX
  8
PLAN_1
 62
     5
  6
CONTINUOUS
 10
-1.450791
 20
4.066764
  0
VERTEX
  8
PLAN_1
 62
     5
  6
CONTINUOUS
 10
-1.459224
 20
4.066764
  0
SEQEND
  8
0
  0
POLYLINE
  8
PLAN_1
 62
     5
  6
CONTINUOUS
 66
     1
 40
0.003000
 41
0.003000
  0
VERTEX
  8
PLAN_1
 62
     5
  6
CONTINUOUS
 10
-1.467657
 20
4.066764
  0
VERTEX
  8
PLAN_1
 62
     5
  6
CONTINUOUS
 10
-1.476091
 20
4.066764
  0
SEQEND
  8
0
  0
POLYLINE
  8
PLAN_1
 62
     5
  6
CONTINUOUS
 66
     1
 40
0.003000
 41
0.003000
  0
VERTEX
  8
PLAN_1
 62
     5
  6
CONTINUOUS
 10
-1.484524
 20
4.066764
  0
VERTEX
  8
PLAN_1
 62
     5
  6
CONTINUOUS
 10
-1.492957
 20
4.066764
  0
SEQEND
  8
0
  0
POLYLINE
  8
PLAN_1
 62
     5
  6
CONTINUOUS
 66
     1
 40
0.003000
 41
0.003000
  0
VERTEX
  8
PLAN_1
 62
     5
  6
CONTINUOUS
 10
-1.500831
 20
4.066764
  0
VERTEX
  8
PLAN_1
 62
     5
  6
CONTINUOUS
 10
-1.509264
 20
4.066764
  0
SEQEND
  8
0
  0
POLYLINE
  8
PLAN_1
 62
     5
  6
CONTINUOUS
 66
     1
 40
0.003000
 41
0.003000
  0
VERTEX
  8
PLAN_1
 62
     5
  6
CONTINUOUS
 10
-1.517697
 20
4.066764
  0
VERTEX
  8
PLAN_1
 62
     5
  6
CONTINUOUS
 10
-1.526130
 20
4.066764
  0
SEQEND
  8
0
  0
POLYLINE
  8
PLAN_1
 62
     5
  6
CONTINUOUS
 66
     1
 40
0.003000
 41
0.003000
  0
VERTEX
  8
PLAN_1
 62
     5
  6
CONTINUOUS
 10
-1.527815
 20
4.060579
  0
VERTEX
  8
PLAN_1
 62
     5
  6
CONTINUOUS
 10
-1.527815
 20
4.052146
  0
SEQEND
  8
0
  0
POLYLINE
  8
PLAN_1
 62
     5
  6
CONTINUOUS
 66
     1
 40
0.003000
 41
0.003000
  0
VERTEX
  8
PLAN_1
 62
     5
  6
CONTINUOUS
 10
-1.527815
 20
4.043713
  0
VERTEX
  8
PLAN_1
 62
     5
  6
CONTINUOUS
 10
-1.527815
 20
4.035280
  0
SEQEND
  8
0
  0
POLYLINE
  8
PLAN_1
 62
     5
  6
CONTINUOUS
 66
     1
 40
0.003000
 41
0.003000
  0
VERTEX
  8
PLAN_1
 62
     5
  6
CONTINUOUS
 10
-1.527815
 20
4.026846
  0
VERTEX
  8
PLAN_1
 62
     5
  6
CONTINUOUS
 10
-1.527815
 20
4.018972
  0
SEQEND
  8
0
  0
POLYLINE
  8
PLAN_1
 62
     5
  6
CONTINUOUS
 66
     1
 40
0.003000
 41
0.003000
  0
VERTEX
  8
PLAN_1
 62
     5
  6
CONTINUOUS
 10
-1.527815
 20
4.010539
  0
VERTEX
  8
PLAN_1
 62
     5
  6
CONTINUOUS
 10
-1.527815
 20
4.002106
  0
SEQEND
  8
0
  0
POLYLINE
  8
PLAN_1
 62
     5
  6
CONTINUOUS
 66
     1
 40
0.003000
 41
0.003000
  0
VERTEX
  8
PLAN_1
 62
     5
  6
CONTINUOUS
 10
-1.527815
 20
3.993673
  0
VERTEX
  8
PLAN_1
 62
     5
  6
CONTINUOUS
 10
-1.527815
 20
3.985240
  0
SEQEND
  8
0
  0
POLYLINE
  8
PLAN_1
 62
     5
  6
CONTINUOUS
 66
     1
 40
0.003000
 41
0.003000
  0
VERTEX
  8
PLAN_1
 62
     5
  6
CONTINUOUS
 10
-1.527815
 20
3.976807
  0
VERTEX
  8
PLAN_1
 62
     5
  6
CONTINUOUS
 10
-1.527815
 20
3.968937
  0
SEQEND
  8
0
  0
POLYLINE
  8
PLAN_1
 62
     5
  6
CONTINUOUS
 66
     1
 40
0.003000
 41
0.003000
  0
VERTEX
  8
PLAN_1
 62
     5
  6
CONTINUOUS
 10
-1.527815
 20
3.960500
  0
VERTEX
  8
PLAN_1
 62
     5
  6
CONTINUOUS
 10
-1.527815
 20
3.952067
  0
SEQEND
  8
0
  0
POLYLINE
  8
PLAN_1
 62
     5
  6
CONTINUOUS
 66
     1
 40
0.003000
 41
0.003000
  0
VERTEX
  8
PLAN_1
 62
     5
  6
CONTINUOUS
 10
-1.527815
 20
3.943634
  0
VERTEX
  8
PLAN_1
 62
     5
  6
CONTINUOUS
 10
-1.527815
 20
3.935201
  0
SEQEND
  8
0
  0
POLYLINE
  8
PLAN_1
 62
     5
  6
CONTINUOUS
 66
     1
 40
0.003000
 41
0.003000
  0
VERTEX
  8
PLAN_1
 62
     5
  6
CONTINUOUS
 10
-1.527815
 20
3.927331
  0
VERTEX
  8
PLAN_1
 62
     5
  6
CONTINUOUS
 10
-1.527815
 20
3.918898
  0
SEQEND
  8
0
  0
POLYLINE
  8
PLAN_1
 62
     5
  6
CONTINUOUS
 66
     1
 40
0.003000
 41
0.003000
  0
VERTEX
  8
PLAN_1
 62
     5
  6
CONTINUOUS
 10
-1.527815
 20
3.910461
  0
VERTEX
  8
PLAN_1
 62
     5
  6
CONTINUOUS
 10
-1.527815
 20
3.902028
  0
SEQEND
  8
0
  0
POLYLINE
  8
PLAN_1
 62
     5
  6
CONTINUOUS
 66
     1
 40
0.003000
 41
0.003000
  0
VERTEX
  8
PLAN_1
 62
     5
  6
CONTINUOUS
 10
-1.527815
 20
3.893594
  0
VERTEX
  8
PLAN_1
 62
     5
  6
CONTINUOUS
 10
-1.527815
 20
3.885161
  0
SEQEND
  8
0
  0
POLYLINE
  8
PLAN_1
 62
     5
  6
CONTINUOUS
 66
     1
 40
0.003000
 41
0.003000
  0
VERTEX
  8
PLAN_1
 62
     5
  6
CONTINUOUS
 10
-1.527815
 20
3.877291
  0
VERTEX
  8
PLAN_1
 62
     5
  6
CONTINUOUS
 10
-1.527815
 20
3.868858
  0
SEQEND
  8
0
  0
POLYLINE
  8
PLAN_1
 62
     5
  6
CONTINUOUS
 66
     1
 40
0.003000
 41
0.003000
  0
VERTEX
  8
PLAN_1
 62
     5
  6
CONTINUOUS
 10
-1.527815
 20
3.860425
  0
VERTEX
  8
PLAN_1
 62
     5
  6
CONTINUOUS
 10
-1.527815
 20
3.851988
  0
SEQEND
  8
0
  0
POLYLINE
  8
PLAN_1
 62
     5
  6
CONTINUOUS
 66
     1
 40
0.003000
 41
0.003000
  0
VERTEX
  8
PLAN_1
 62
     5
  6
CONTINUOUS
 10
-1.527815
 20
3.843555
  0
VERTEX
  8
PLAN_1
 62
     5
  6
CONTINUOUS
 10
-1.527815
 20
3.835685
  0
SEQEND
  8
0
  0
POLYLINE
  8
PLAN_1
 62
     5
  6
CONTINUOUS
 66
     1
 40
0.003000
 41
0.003000
  0
VERTEX
  8
PLAN_1
 62
     5
  6
CONTINUOUS
 10
-1.527815
 20
3.827252
  0
VERTEX
  8
PLAN_1
 62
     5
  6
CONTINUOUS
 10
-1.527815
 20
3.818819
  0
SEQEND
  8
0
  0
POLYLINE
  8
PLAN_1
 62
     5
  6
CONTINUOUS
 66
     1
 40
0.003000
 41
0.003000
  0
VERTEX
  8
PLAN_1
 62
     5
  6
CONTINUOUS
 10
-1.527815
 20
3.810386
  0
VERTEX
  8
PLAN_1
 62
     5
  6
CONTINUOUS
 10
-1.527815
 20
3.801949
  0
SEQEND
  8
0
  0
POLYLINE
  8
PLAN_1
 62
     5
  6
CONTINUOUS
 66
     1
 40
0.003000
 41
0.003000
  0
VERTEX
  8
PLAN_1
 62
     5
  6
CONTINUOUS
 10
-1.527815
 20
3.794079
  0
VERTEX
  8
PLAN_1
 62
     5
  6
CONTINUOUS
 10
-1.527815
 20
3.785646
  0
SEQEND
  8
0
  0
POLYLINE
  8
PLAN_1
 62
     5
  6
CONTINUOUS
 66
     1
 40
0.003000
 41
0.003000
  0
VERTEX
  8
PLAN_1
 62
     5
  6
CONTINUOUS
 10
-1.527815
 20
3.777213
  0
VERTEX
  8
PLAN_1
 62
     5
  6
CONTINUOUS
 10
-1.527815
 20
3.768780
  0
SEQEND
  8
0
  0
POLYLINE
  8
PLAN_1
 62
     5
  6
CONTINUOUS
 66
     1
 40
0.003000
 41
0.003000
  0
VERTEX
  8
PLAN_1
 62
     5
  6
CONTINUOUS
 10
-1.527815
 20
3.760346
  0
VERTEX
  8
PLAN_1
 62
     5
  6
CONTINUOUS
 10
-1.527815
 20
3.751913
  0
SEQEND
  8
0
  0
POLYLINE
  8
PLAN_1
 62
     5
  6
CONTINUOUS
 66
     1
 40
0.003000
 41
0.003000
  0
VERTEX
  8
PLAN_1
 62
     5
  6
CONTINUOUS
 10
-1.527815
 20
3.744039
  0
VERTEX
  8
PLAN_1
 62
     5
  6
CONTINUOUS
 10
-1.527815
 20
3.735606
  0
SEQEND
  8
0
  0
POLYLINE
  8
PLAN_1
 62
     5
  6
CONTINUOUS
 66
     1
 40
0.003000
 41
0.003000
  0
VERTEX
  8
PLAN_1
 62
     5
  6
CONTINUOUS
 10
-1.527815
 20
3.727173
  0
VERTEX
  8
PLAN_1
 62
     5
  6
CONTINUOUS
 10
-1.527815
 20
3.718740
  0
SEQEND
  8
0
  0
POLYLINE
  8
PLAN_1
 62
     5
  6
CONTINUOUS
 66
     1
 40
0.003000
 41
0.003000
  0
VERTEX
  8
PLAN_1
 62
     5
  6
CONTINUOUS
 10
-1.527815
 20
3.710307
  0
VERTEX
  8
PLAN_1
 62
     5
  6
CONTINUOUS
 10
-1.527815
 20
3.702433
  0
SEQEND
  8
0
  0
POLYLINE
  8
PLAN_1
 62
     5
  6
CONTINUOUS
 66
     1
 40
0.003000
 41
0.003000
  0
VERTEX
  8
PLAN_1
 62
     5
  6
CONTINUOUS
 10
-1.527815
 20
3.694000
  0
VERTEX
  8
PLAN_1
 62
     5
  6
CONTINUOUS
 10
-1.527815
 20
3.685567
  0
SEQEND
  8
0
  0
POLYLINE
  8
PLAN_1
 62
     5
  6
CONTINUOUS
 66
     1
 40
0.003000
 41
0.003000
  0
VERTEX
  8
PLAN_1
 62
     5
  6
CONTINUOUS
 10
-1.527815
 20
3.677134
  0
VERTEX
  8
PLAN_1
 62
     5
  6
CONTINUOUS
 10
-1.527815
 20
3.668701
  0
SEQEND
  8
0
  0
POLYLINE
  8
PLAN_1
 62
     5
  6
CONTINUOUS
 66
     1
 40
0.003000
 41
0.003000
  0
VERTEX
  8
PLAN_1
 62
     5
  6
CONTINUOUS
 10
-1.527815
 20
3.660268
  0
VERTEX
  8
PLAN_1
 62
     5
  6
CONTINUOUS
 10
-1.527815
 20
3.652398
  0
SEQEND
  8
0
  0
POLYLINE
  8
PLAN_1
 62
     5
  6
CONTINUOUS
 66
     1
 40
0.003000
 41
0.003000
  0
VERTEX
  8
PLAN_1
 62
     5
  6
CONTINUOUS
 10
-1.527815
 20
3.643961
  0
VERTEX
  8
PLAN_1
 62
     5
  6
CONTINUOUS
 10
-1.527815
 20
3.635528
  0
SEQEND
  8
0
  0
POLYLINE
  8
PLAN_1
 62
     5
  6
CONTINUOUS
 66
     1
 40
0.003000
 41
0.003000
  0
VERTEX
  8
PLAN_1
 62
     5
  6
CONTINUOUS
 10
-1.527815
 20
3.627094
  0
VERTEX
  8
PLAN_1
 62
     5
  6
CONTINUOUS
 10
-1.527815
 20
3.618661
  0
SEQEND
  8
0
  0
POLYLINE
  8
PLAN_1
 62
     5
  6
CONTINUOUS
 66
     1
 40
0.003000
 41
0.003000
  0
VERTEX
  8
PLAN_1
 62
     5
  6
CONTINUOUS
 10
-1.527815
 20
3.610791
  0
VERTEX
  8
PLAN_1
 62
     5
  6
CONTINUOUS
 10
-1.527815
 20
3.602358
  0
SEQEND
  8
0
  0
POLYLINE
  8
PLAN_1
 62
     5
  6
CONTINUOUS
 66
     1
 40
0.003000
 41
0.003000
  0
VERTEX
  8
PLAN_1
 62
     5
  6
CONTINUOUS
 10
-1.527815
 20
3.593921
  0
VERTEX
  8
PLAN_1
 62
     5
  6
CONTINUOUS
 10
-1.527815
 20
3.585488
  0
SEQEND
  8
0
  0
POLYLINE
  8
PLAN_1
 62
     5
  6
CONTINUOUS
 66
     1
 40
0.003000
 41
0.003000
  0
VERTEX
  8
PLAN_1
 62
     5
  6
CONTINUOUS
 10
-1.527815
 20
3.577055
  0
VERTEX
  8
PLAN_1
 62
     5
  6
CONTINUOUS
 10
-1.527815
 20
3.568622
  0
SEQEND
  8
0
  0
POLYLINE
  8
PLAN_1
 62
     5
  6
CONTINUOUS
 66
     1
 40
0.003000
 41
0.003000
  0
VERTEX
  8
PLAN_1
 62
     5
  6
CONTINUOUS
 10
-1.527815
 20
3.560752
  0
VERTEX
  8
PLAN_1
 62
     5
  6
CONTINUOUS
 10
-1.527815
 20
3.552319
  0
SEQEND
  8
0
  0
POLYLINE
  8
PLAN_1
 62
     5
  6
CONTINUOUS
 66
     1
 40
0.003000
 41
0.003000
  0
VERTEX
  8
PLAN_1
 62
     5
  6
CONTINUOUS
 10
-1.527815
 20
3.543886
  0
VERTEX
  8
PLAN_1
 62
     5
  6
CONTINUOUS
 10
-1.527815
 20
3.535449
  0
SEQEND
  8
0
  0
POLYLINE
  8
PLAN_1
 62
     5
  6
CONTINUOUS
 66
     1
 40
0.003000
 41
0.003000
  0
VERTEX
  8
PLAN_1
 62
     5
  6
CONTINUOUS
 10
-1.527815
 20
3.527016
  0
VERTEX
  8
PLAN_1
 62
     5
  6
CONTINUOUS
 10
-1.527815
 20
3.519146
  0
SEQEND
  8
0
  0
POLYLINE
  8
PLAN_1
 62
     5
  6
CONTINUOUS
 66
     1
 40
0.003000
 41
0.003000
  0
VERTEX
  8
PLAN_1
 62
     5
  6
CONTINUOUS
 10
-1.527815
 20
3.510713
  0
VERTEX
  8
PLAN_1
 62
     5
  6
CONTINUOUS
 10
-1.527815
 20
3.502280
  0
SEQEND
  8
0
  0
POLYLINE
  8
PLAN_1
 62
     5
  6
CONTINUOUS
 66
     1
 40
0.003000
 41
0.003000
  0
VERTEX
  8
PLAN_1
 62
     5
  6
CONTINUOUS
 10
-1.527815
 20
3.493846
  0
VERTEX
  8
PLAN_1
 62
     5
  6
CONTINUOUS
 10
-1.527815
 20
3.485409
  0
SEQEND
  8
0
  0
POLYLINE
  8
PLAN_1
 62
     5
  6
CONTINUOUS
 66
     1
 40
0.003000
 41
0.003000
  0
VERTEX
  8
PLAN_1
 62
     5
  6
CONTINUOUS
 10
-1.527815
 20
3.477539
  0
VERTEX
  8
PLAN_1
 62
     5
  6
CONTINUOUS
 10
-1.527815
 20
3.469106
  0
SEQEND
  8
0
  0
POLYLINE
  8
PLAN_1
 62
     5
  6
CONTINUOUS
 66
     1
 40
0.003000
 41
0.003000
  0
VERTEX
  8
PLAN_1
 62
     5
  6
CONTINUOUS
 10
-1.527815
 20
3.460673
  0
VERTEX
  8
PLAN_1
 62
     5
  6
CONTINUOUS
 10
-1.527815
 20
3.452240
  0
SEQEND
  8
0
  0
POLYLINE
  8
PLAN_1
 62
     5
  6
CONTINUOUS
 66
     1
 40
0.003000
 41
0.003000
  0
VERTEX
  8
PLAN_1
 62
     5
  6
CONTINUOUS
 10
-1.527815
 20
3.443807
  0
VERTEX
  8
PLAN_1
 62
     5
  6
CONTINUOUS
 10
-1.527815
 20
3.435374
  0
SEQEND
  8
0
  0
POLYLINE
  8
PLAN_1
 62
     5
  6
CONTINUOUS
 66
     1
 40
0.003000
 41
0.003000
  0
VERTEX
  8
PLAN_1
 62
     5
  6
CONTINUOUS
 10
-1.527815
 20
3.427500
  0
VERTEX
  8
PLAN_1
 62
     5
  6
CONTINUOUS
 10
-1.527815
 20
3.419067
  0
SEQEND
  8
0
  0
POLYLINE
  8
PLAN_1
 62
     5
  6
CONTINUOUS
 66
     1
 40
0.003000
 41
0.003000
  0
VERTEX
  8
PLAN_1
 62
     5
  6
CONTINUOUS
 10
-1.527815
 20
3.410634
  0
VERTEX
  8
PLAN_1
 62
     5
  6
CONTINUOUS
 10
-1.527815
 20
3.402201
  0
SEQEND
  8
0
  0
POLYLINE
  8
PLAN_1
 62
     5
  6
CONTINUOUS
 66
     1
 40
0.003000
 41
0.003000
  0
VERTEX
  8
PLAN_1
 62
     5
  6
CONTINUOUS
 10
-1.527815
 20
3.393768
  0
VERTEX
  8
PLAN_1
 62
     5
  6
CONTINUOUS
 10
-1.527815
 20
3.385894
  0
SEQEND
  8
0
  0
POLYLINE
  8
PLAN_1
 62
     5
  6
CONTINUOUS
 66
     1
 40
0.003000
 41
0.003000
  0
VERTEX
  8
PLAN_1
 62
     5
  6
CONTINUOUS
 10
-1.527815
 20
3.377461
  0
VERTEX
  8
PLAN_1
 62
     5
  6
CONTINUOUS
 10
-1.527815
 20
3.369028
  0
SEQEND
  8
0
  0
POLYLINE
  8
PLAN_1
 62
     5
  6
CONTINUOUS
 66
     1
 40
0.003000
 41
0.003000
  0
VERTEX
  8
PLAN_1
 62
     5
  6
CONTINUOUS
 10
-1.527815
 20
3.360594
  0
VERTEX
  8
PLAN_1
 62
     5
  6
CONTINUOUS
 10
-1.527815
 20
3.352161
  0
SEQEND
  8
0
  0
POLYLINE
  8
PLAN_1
 62
     5
  6
CONTINUOUS
 66
     1
 40
0.003000
 41
0.003000
  0
VERTEX
  8
PLAN_1
 62
     5
  6
CONTINUOUS
 10
-1.527815
 20
3.343728
  0
VERTEX
  8
PLAN_1
 62
     5
  6
CONTINUOUS
 10
-1.527815
 20
3.335854
  0
SEQEND
  8
0
  0
POLYLINE
  8
PLAN_1
 62
     5
  6
CONTINUOUS
 66
     1
 40
0.003000
 41
0.003000
  0
VERTEX
  8
PLAN_1
 62
     5
  6
CONTINUOUS
 10
-1.527815
 20
3.327421
  0
VERTEX
  8
PLAN_1
 62
     5
  6
CONTINUOUS
 10
-1.527815
 20
3.318988
  0
SEQEND
  8
0
  0
POLYLINE
  8
PLAN_1
 62
     5
  6
CONTINUOUS
 66
     1
 40
0.003000
 41
0.003000
  0
VERTEX
  8
PLAN_1
 62
     5
  6
CONTINUOUS
 10
-1.527815
 20
3.310555
  0
VERTEX
  8
PLAN_1
 62
     5
  6
CONTINUOUS
 10
-1.527815
 20
3.302122
  0
SEQEND
  8
0
  0
POLYLINE
  8
PLAN_1
 62
     5
  6
CONTINUOUS
 66
     1
 40
0.003000
 41
0.003000
  0
VERTEX
  8
PLAN_1
 62
     5
  6
CONTINUOUS
 10
-1.527815
 20
3.294252
  0
VERTEX
  8
PLAN_1
 62
     5
  6
CONTINUOUS
 10
-1.527815
 20
3.285819
  0
SEQEND
  8
0
  0
POLYLINE
  8
PLAN_1
 62
     5
  6
CONTINUOUS
 66
     1
 40
0.003000
 41
0.003000
  0
VERTEX
  8
PLAN_1
 62
     5
  6
CONTINUOUS
 10
-1.527815
 20
3.277382
  0
VERTEX
  8
PLAN_1
 62
     5
  6
CONTINUOUS
 10
-1.527815
 20
3.268949
  0
SEQEND
  8
0
  0
POLYLINE
  8
PLAN_1
 62
     5
  6
CONTINUOUS
 66
     1
 40
0.003000
 41
0.003000
  0
VERTEX
  8
PLAN_1
 62
     5
  6
CONTINUOUS
 10
-1.527815
 20
3.260516
  0
VERTEX
  8
PLAN_1
 62
     5
  6
CONTINUOUS
 10
-1.527815
 20
3.252083
  0
SEQEND
  8
0
  0
POLYLINE
  8
PLAN_1
 62
     5
  6
CONTINUOUS
 66
     1
 40
0.003000
 41
0.003000
  0
VERTEX
  8
PLAN_1
 62
     5
  6
CONTINUOUS
 10
-1.527815
 20
3.244213
  0
VERTEX
  8
PLAN_1
 62
     5
  6
CONTINUOUS
 10
-1.527815
 20
3.235780
  0
SEQEND
  8
0
  0
POLYLINE
  8
PLAN_1
 62
     5
  6
CONTINUOUS
 66
     1
 40
0.003000
 41
0.003000
  0
VERTEX
  8
PLAN_1
 62
     5
  6
CONTINUOUS
 10
-1.527815
 20
3.227346
  0
VERTEX
  8
PLAN_1
 62
     5
  6
CONTINUOUS
 10
-1.527815
 20
3.218909
  0
SEQEND
  8
0
  0
POLYLINE
  8
PLAN_1
 62
     5
  6
CONTINUOUS
 66
     1
 40
0.003000
 41
0.003000
  0
VERTEX
  8
PLAN_1
 62
     5
  6
CONTINUOUS
 10
-1.527815
 20
3.210476
  0
VERTEX
  8
PLAN_1
 62
     5
  6
CONTINUOUS
 10
-1.527815
 20
3.202606
  0
SEQEND
  8
0
  0
POLYLINE
  8
PLAN_1
 62
     5
  6
CONTINUOUS
 66
     1
 40
0.003000
 41
0.003000
  0
VERTEX
  8
PLAN_1
 62
     5
  6
CONTINUOUS
 10
-1.527815
 20
3.194173
  0
VERTEX
  8
PLAN_1
 62
     5
  6
CONTINUOUS
 10
-1.527815
 20
3.185740
  0
SEQEND
  8
0
  0
POLYLINE
  8
PLAN_1
 62
     5
  6
CONTINUOUS
 66
     1
 40
0.003000
 41
0.003000
  0
VERTEX
  8
PLAN_1
 62
     5
  6
CONTINUOUS
 10
-1.527815
 20
3.177307
  0
VERTEX
  8
PLAN_1
 62
     5
  6
CONTINUOUS
 10
-1.527815
 20
3.168870
  0
SEQEND
  8
0
  0
POLYLINE
  8
PLAN_1
 62
     5
  6
CONTINUOUS
 66
     1
 40
0.003000
 41
0.003000
  0
VERTEX
  8
PLAN_1
 62
     5
  6
CONTINUOUS
 10
-1.527815
 20
3.161000
  0
VERTEX
  8
PLAN_1
 62
     5
  6
CONTINUOUS
 10
-1.527815
 20
3.152567
  0
SEQEND
  8
0
  0
POLYLINE
  8
PLAN_1
 62
     5
  6
CONTINUOUS
 66
     1
 40
0.003000
 41
0.003000
  0
VERTEX
  8
PLAN_1
 62
     5
  6
CONTINUOUS
 10
-1.527815
 20
3.144134
  0
VERTEX
  8
PLAN_1
 62
     5
  6
CONTINUOUS
 10
-1.527815
 20
3.135701
  0
SEQEND
  8
0
  0
POLYLINE
  8
PLAN_1
 62
     5
  6
CONTINUOUS
 66
     1
 40
0.003000
 41
0.003000
  0
VERTEX
  8
PLAN_1
 62
     5
  6
CONTINUOUS
 10
-1.527815
 20
3.127268
  0
VERTEX
  8
PLAN_1
 62
     5
  6
CONTINUOUS
 10
-1.527815
 20
3.118835
  0
SEQEND
  8
0
  0
POLYLINE
  8
PLAN_1
 62
     5
  6
CONTINUOUS
 66
     1
 40
0.003000
 41
0.003000
  0
VERTEX
  8
PLAN_1
 62
     5
  6
CONTINUOUS
 10
-1.527815
 20
3.110961
  0
VERTEX
  8
PLAN_1
 62
     5
  6
CONTINUOUS
 10
-1.527815
 20
3.102528
  0
SEQEND
  8
0
  0
POLYLINE
  8
PLAN_1
 62
     5
  6
CONTINUOUS
 66
     1
 40
0.003000
 41
0.003000
  0
VERTEX
  8
PLAN_1
 62
     5
  6
CONTINUOUS
 10
-1.523319
 20
3.098591
  0
VERTEX
  8
PLAN_1
 62
     5
  6
CONTINUOUS
 10
-1.514886
 20
3.098591
  0
SEQEND
  8
0
  0
POLYLINE
  8
PLAN_1
 62
     5
  6
CONTINUOUS
 66
     1
 40
0.003000
 41
0.003000
  0
VERTEX
  8
PLAN_1
 62
     5
  6
CONTINUOUS
 10
-1.506453
 20
3.098591
  0
VERTEX
  8
PLAN_1
 62
     5
  6
CONTINUOUS
 10
-1.498579
 20
3.098591
  0
SEQEND
  8
0
  0
POLYLINE
  8
PLAN_1
 62
     5
  6
CONTINUOUS
 66
     1
 40
0.003000
 41
0.003000
  0
VERTEX
  8
PLAN_1
 62
     5
  6
CONTINUOUS
 10
-1.490146
 20
3.098591
  0
VERTEX
  8
PLAN_1
 62
     5
  6
CONTINUOUS
 10
-1.481713
 20
3.098591
  0
SEQEND
  8
0
  0
POLYLINE
  8
PLAN_1
 62
     5
  6
CONTINUOUS
 66
     1
 40
0.003000
 41
0.003000
  0
VERTEX
  8
PLAN_1
 62
     5
  6
CONTINUOUS
 10
-1.473280
 20
3.098591
  0
VERTEX
  8
PLAN_1
 62
     5
  6
CONTINUOUS
 10
-1.464846
 20
3.098591
  0
SEQEND
  8
0
  0
POLYLINE
  8
PLAN_1
 62
     5
  6
CONTINUOUS
 66
     1
 40
0.003000
 41
0.003000
  0
VERTEX
  8
PLAN_1
 62
     5
  6
CONTINUOUS
 10
-1.456413
 20
3.098591
  0
VERTEX
  8
PLAN_1
 62
     5
  6
CONTINUOUS
 10
-1.448539
 20
3.098591
  0
SEQEND
  8
0
  0
POLYLINE
  8
PLAN_1
 62
     5
  6
CONTINUOUS
 66
     1
 40
0.003000
 41
0.003000
  0
VERTEX
  8
PLAN_1
 62
     5
  6
CONTINUOUS
 10
-1.440106
 20
3.098591
  0
VERTEX
  8
PLAN_1
 62
     5
  6
CONTINUOUS
 10
-1.431673
 20
3.098591
  0
SEQEND
  8
0
  0
POLYLINE
  8
PLAN_1
 62
     5
  6
CONTINUOUS
 66
     1
 40
0.003000
 41
0.003000
  0
VERTEX
  8
PLAN_1
 62
     5
  6
CONTINUOUS
 10
-1.423240
 20
3.098591
  0
VERTEX
  8
PLAN_1
 62
     5
  6
CONTINUOUS
 10
-1.414807
 20
3.098591
  0
SEQEND
  8
0
  0
POLYLINE
  8
PLAN_1
 62
     5
  6
CONTINUOUS
 66
     1
 40
0.003000
 41
0.003000
  0
VERTEX
  8
PLAN_1
 62
     5
  6
CONTINUOUS
 10
-1.406937
 20
3.098591
  0
VERTEX
  8
PLAN_1
 62
     5
  6
CONTINUOUS
 10
-1.398504
 20
3.098591
  0
SEQEND
  8
0
  0
POLYLINE
  8
PLAN_1
 62
     5
  6
CONTINUOUS
 66
     1
 40
0.003000
 41
0.003000
  0
VERTEX
  8
PLAN_1
 62
     5
  6
CONTINUOUS
 10
-1.390067
 20
3.098591
  0
VERTEX
  8
PLAN_1
 62
     5
  6
CONTINUOUS
 10
-1.381634
 20
3.098591
  0
SEQEND
  8
0
  0
POLYLINE
  8
PLAN_1
 62
     5
  6
CONTINUOUS
 66
     1
 40
0.003000
 41
0.003000
  0
VERTEX
  8
PLAN_1
 62
     5
  6
CONTINUOUS
 10
-1.373201
 20
3.098591
  0
VERTEX
  8
PLAN_1
 62
     5
  6
CONTINUOUS
 10
-1.364768
 20
3.098591
  0
SEQEND
  8
0
  0
POLYLINE
  8
PLAN_1
 62
     5
  6
CONTINUOUS
 66
     1
 40
0.003000
 41
0.003000
  0
VERTEX
  8
PLAN_1
 62
     5
  6
CONTINUOUS
 10
-1.356898
 20
3.098591
  0
VERTEX
  8
PLAN_1
 62
     5
  6
CONTINUOUS
 10
-1.348465
 20
3.098591
  0
SEQEND
  8
0
  0
POLYLINE
  8
PLAN_1
 62
     5
  6
CONTINUOUS
 66
     1
 40
0.003000
 41
0.003000
  0
VERTEX
  8
PLAN_1
 62
     5
  6
CONTINUOUS
 10
-1.340028
 20
3.098591
  0
VERTEX
  8
PLAN_1
 62
     5
  6
CONTINUOUS
 10
-1.331594
 20
3.098591
  0
SEQEND
  8
0
  0
POLYLINE
  8
PLAN_1
 62
     5
  6
CONTINUOUS
 66
     1
 40
0.003000
 41
0.003000
  0
VERTEX
  8
PLAN_1
 62
     5
  6
CONTINUOUS
 10
-1.323161
 20
3.098591
  0
VERTEX
  8
PLAN_1
 62
     5
  6
CONTINUOUS
 10
-1.315291
 20
3.098591
  0
SEQEND
  8
0
  0
POLYLINE
  8
PLAN_1
 62
     5
  6
CONTINUOUS
 66
     1
 40
0.003000
 41
0.003000
  0
VERTEX
  8
PLAN_1
 62
     5
  6
CONTINUOUS
 10
-1.313043
 20
3.104776
  0
VERTEX
  8
PLAN_1
 62
     5
  6
CONTINUOUS
 10
-1.313043
 20
3.113209
  0
SEQEND
  8
0
  0
POLYLINE
  8
PLAN_1
 62
     5
  6
CONTINUOUS
 66
     1
 40
0.003000
 41
0.003000
  0
VERTEX
  8
PLAN_1
 62
     5
  6
CONTINUOUS
 10
-1.313043
 20
3.121646
  0
VERTEX
  8
PLAN_1
 62
     5
  6
CONTINUOUS
 10
-1.313043
 20
3.130079
  0
SEQEND
  8
0
  0
POLYLINE
  8
PLAN_1
 62
     5
  6
CONTINUOUS
 66
     1
 40
0.003000
 41
0.003000
  0
VERTEX
  8
PLAN_1
 62
     5
  6
CONTINUOUS
 10
-1.313043
 20
3.138512
  0
VERTEX
  8
PLAN_1
 62
     5
  6
CONTINUOUS
 10
-1.313043
 20
3.146382
  0
SEQEND
  8
0
  0
POLYLINE
  8
PLAN_1
 62
     5
  6
CONTINUOUS
 66
     1
 40
0.003000
 41
0.003000
  0
VERTEX
  8
PLAN_1
 62
     5
  6
CONTINUOUS
 10
-1.313043
 20
3.154815
  0
VERTEX
  8
PLAN_1
 62
     5
  6
CONTINUOUS
 10
-1.313043
 20
3.163248
  0
SEQEND
  8
0
  0
POLYLINE
  8
PLAN_1
 62
     5
  6
CONTINUOUS
 66
     1
 40
0.003000
 41
0.003000
  0
VERTEX
  8
PLAN_1
 62
     5
  6
CONTINUOUS
 10
-1.313043
 20
3.171685
  0
VERTEX
  8
PLAN_1
 62
     5
  6
CONTINUOUS
 10
-1.313043
 20
3.180118
  0
SEQEND
  8
0
  0
POLYLINE
  8
PLAN_1
 62
     5
  6
CONTINUOUS
 66
     1
 40
0.003000
 41
0.003000
  0
VERTEX
  8
PLAN_1
 62
     5
  6
CONTINUOUS
 10
-1.313043
 20
3.187988
  0
VERTEX
  8
PLAN_1
 62
     5
  6
CONTINUOUS
 10
-1.313043
 20
3.196421
  0
SEQEND
  8
0
  0
POLYLINE
  8
PLAN_1
 62
     5
  6
CONTINUOUS
 66
     1
 40
0.003000
 41
0.003000
  0
VERTEX
  8
PLAN_1
 62
     5
  6
CONTINUOUS
 10
-1.313043
 20
3.204854
  0
VERTEX
  8
PLAN_1
 62
     5
  6
CONTINUOUS
 10
-1.313043
 20
3.213287
  0
SEQEND
  8
0
  0
POLYLINE
  8
PLAN_1
 62
     5
  6
CONTINUOUS
 66
     1
 40
0.003000
 41
0.003000
  0
VERTEX
  8
PLAN_1
 62
     5
  6
CONTINUOUS
 10
-1.313043
 20
3.221720
  0
VERTEX
  8
PLAN_1
 62
     5
  6
CONTINUOUS
 10
-1.313043
 20
3.229594
  0
SEQEND
  8
0
  0
POLYLINE
  8
PLAN_1
 62
     5
  6
CONTINUOUS
 66
     1
 40
0.003000
 41
0.003000
  0
VERTEX
  8
PLAN_1
 62
     5
  6
CONTINUOUS
 10
-1.313043
 20
3.238028
  0
VERTEX
  8
PLAN_1
 62
     5
  6
CONTINUOUS
 10
-1.313043
 20
3.246461
  0
SEQEND
  8
0
  0
POLYLINE
  8
PLAN_1
 62
     5
  6
CONTINUOUS
 66
     1
 40
0.003000
 41
0.003000
  0
VERTEX
  8
PLAN_1
 62
     5
  6
CONTINUOUS
 10
-1.313043
 20
3.254894
  0
VERTEX
  8
PLAN_1
 62
     5
  6
CONTINUOUS
 10
-1.313043
 20
3.263327
  0
SEQEND
  8
0
  0
POLYLINE
  8
PLAN_1
 62
     5
  6
CONTINUOUS
 66
     1
 40
0.003000
 41
0.003000
  0
VERTEX
  8
PLAN_1
 62
     5
  6
CONTINUOUS
 10
-1.313043
 20
3.271760
  0
VERTEX
  8
PLAN_1
 62
     5
  6
CONTINUOUS
 10
-1.313043
 20
3.279634
  0
SEQEND
  8
0
  0
POLYLINE
  8
PLAN_1
 62
     5
  6
CONTINUOUS
 66
     1
 40
0.003000
 41
0.003000
  0
VERTEX
  8
PLAN_1
 62
     5
  6
CONTINUOUS
 10
-1.313043
 20
3.288067
  0
VERTEX
  8
PLAN_1
 62
     5
  6
CONTINUOUS
 10
-1.313043
 20
3.296500
  0
SEQEND
  8
0
  0
POLYLINE
  8
PLAN_1
 62
     5
  6
CONTINUOUS
 66
     1
 40
0.003000
 41
0.003000
  0
VERTEX
  8
PLAN_1
 62
     5
  6
CONTINUOUS
 10
-1.313043
 20
3.304933
  0
VERTEX
  8
PLAN_1
 62
     5
  6
CONTINUOUS
 10
-1.313043
 20
3.313366
  0
SEQEND
  8
0
  0
POLYLINE
  8
PLAN_1
 62
     5
  6
CONTINUOUS
 66
     1
 40
0.003000
 41
0.003000
  0
VERTEX
  8
PLAN_1
 62
     5
  6
CONTINUOUS
 10
-1.313043
 20
3.321236
  0
VERTEX
  8
PLAN_1
 62
     5
  6
CONTINUOUS
 10
-1.313043
 20
3.329673
  0
SEQEND
  8
0
  0
POLYLINE
  8
PLAN_1
 62
     5
  6
CONTINUOUS
 66
     1
 40
0.003000
 41
0.003000
  0
VERTEX
  8
PLAN_1
 62
     5
  6
CONTINUOUS
 10
-1.313043
 20
3.338106
  0
VERTEX
  8
PLAN_1
 62
     5
  6
CONTINUOUS
 10
-1.313043
 20
3.346539
  0
SEQEND
  8
0
  0
POLYLINE
  8
PLAN_1
 62
     5
  6
CONTINUOUS
 66
     1
 40
0.003000
 41
0.003000
  0
VERTEX
  8
PLAN_1
 62
     5
  6
CONTINUOUS
 10
-1.311354
 20
3.353287
  0
VERTEX
  8
PLAN_1
 62
     5
  6
CONTINUOUS
 10
-1.302921
 20
3.353287
  0
SEQEND
  8
0
  0
POLYLINE
  8
PLAN_1
 62
     5
  6
CONTINUOUS
 66
     1
 40
0.003000
 41
0.003000
  0
VERTEX
  8
PLAN_1
 62
     5
  6
CONTINUOUS
 10
-1.294488
 20
3.353287
  0
VERTEX
  8
PLAN_1
 62
     5
  6
CONTINUOUS
 10
-1.286055
 20
3.353287
  0
SEQEND
  8
0
  0
POLYLINE
  8
PLAN_1
 62
     5
  6
CONTINUOUS
 66
     1
 40
0.003000
 41
0.003000
  0
VERTEX
  8
PLAN_1
 62
     5
  6
CONTINUOUS
 10
-1.277622
 20
3.353287
  0
VERTEX
  8
PLAN_1
 62
     5
  6
CONTINUOUS
 10
-1.275933
 20
3.353287
  0
VERTEX
  8
PLAN_1
 62
     5
  6
CONTINUOUS
 10
-1.275933
 20
3.346539
  0
SEQEND
  8
0
  0
POLYLINE
  8
PLAN_1
 62
     5
  6
CONTINUOUS
 66
     1
 40
0.003000
 41
0.003000
  0
VERTEX
  8
PLAN_1
 62
     5
  6
CONTINUOUS
 10
-1.275933
 20
3.338106
  0
VERTEX
  8
PLAN_1
 62
     5
  6
CONTINUOUS
 10
-1.275933
 20
3.329673
  0
SEQEND
  8
0
  0
POLYLINE
  8
PLAN_1
 62
     5
  6
CONTINUOUS
 66
     1
 40
0.003000
 41
0.003000
  0
VERTEX
  8
PLAN_1
 62
     5
  6
CONTINUOUS
 10
-1.275933
 20
3.321236
  0
VERTEX
  8
PLAN_1
 62
     5
  6
CONTINUOUS
 10
-1.275933
 20
3.313366
  0
SEQEND
  8
0
  0
POLYLINE
  8
PLAN_1
  6
CONTINUOUS
 66
     1
 40
0.008433
 41
0.008433
  0
VERTEX
  8
PLAN_1
  6
CONTINUOUS
 10
-1.525567
 20
3.409508
  0
VERTEX
  8
PLAN_1
  6
CONTINUOUS
 10
-1.525567
 20
3.782835
  0
VERTEX
  8
PLAN_1
  6
CONTINUOUS
 10
-1.613276
 20
3.782835
  0
VERTEX
  8
PLAN_1
  6
CONTINUOUS
 10
-1.613276
 20
3.409508
  0
VERTEX
  8
PLAN_1
  6
CONTINUOUS
 10
-1.525567
 20
3.409508
  0
SEQEND
  8
0
  0
POLYLINE
  8
PLAN_1
  6
CONTINUOUS
 66
     1
 40
0.008433
 41
0.008433
  0
VERTEX
  8
PLAN_1
  6
CONTINUOUS
 10
-1.613276
 20
3.685567
  0
VERTEX
  8
PLAN_1
  6
CONTINUOUS
 10
-1.526130
 20
3.685567
  0
SEQEND
  8
0
  0
POLYLINE
  8
PLAN_1
  6
CONTINUOUS
 66
     1
 40
0.008433
 41
0.008433
  0
VERTEX
  8
PLAN_1
  6
CONTINUOUS
 10
-1.613276
 20
3.507902
  0
VERTEX
  8
PLAN_1
  6
CONTINUOUS
 10
-1.526130
 20
3.507902
  0
SEQEND
  8
0
  0
POLYLINE
  8
PLAN_1
  6
CONTINUOUS
 66
     1
 40
0.008433
 41
0.008433
  0
VERTEX
  8
PLAN_1
  6
CONTINUOUS
 10
-1.536811
 20
3.410634
  0
VERTEX
  8
PLAN_1
  6
CONTINUOUS
 10
-1.535689
 20
3.412882
  0
VERTEX
  8
PLAN_1
  6
CONTINUOUS
 10
-1.533437
 20
3.419067
  0
VERTEX
  8
PLAN_1
  6
CONTINUOUS
 10
-1.530626
 20
3.428626
  0
VERTEX
  8
PLAN_1
  6
CONTINUOUS
 10
-1.527815
 20
3.440996
  0
VERTEX
  8
PLAN_1
  6
CONTINUOUS
 10
-1.526693
 20
3.448303
  0
VERTEX
  8
PLAN_1
  6
CONTINUOUS
 10
-1.526130
 20
3.455614
  0
VERTEX
  8
PLAN_1
  6
CONTINUOUS
 10
-1.526130
 20
3.463484
  0
VERTEX
  8
PLAN_1
  6
CONTINUOUS
 10
-1.526693
 20
3.471917
  0
VERTEX
  8
PLAN_1
  6
CONTINUOUS
 10
-1.527815
 20
3.480350
  0
VERTEX
  8
PLAN_1
  6
CONTINUOUS
 10
-1.530067
 20
3.489346
  0
VERTEX
  8
PLAN_1
  6
CONTINUOUS
 10
-1.532878
 20
3.498343
  0
VERTEX
  8
PLAN_1
  6
CONTINUOUS
 10
-1.536811
 20
3.507339
  0
SEQEND
  8
0
  0
POLYLINE
  8
PLAN_1
 62
     5
  6
CONTINUOUS
 66
     1
 40
0.003000
 41
0.003000
  0
VERTEX
  8
PLAN_1
 62
     5
  6
CONTINUOUS
 10
-1.535689
 20
3.686130
  0
VERTEX
  8
PLAN_1
 62
     5
  6
CONTINUOUS
 10
-1.534563
 20
3.688378
  0
VERTEX
  8
PLAN_1
 62
     5
  6
CONTINUOUS
 10
-1.532315
 20
3.694000
  0
SEQEND
  8
0
  0
POLYLINE
  8
PLAN_1
 62
     5
  6
CONTINUOUS
 66
     1
 40
0.003000
 41
0.003000
  0
VERTEX
  8
PLAN_1
 62
     5
  6
CONTINUOUS
 10
-1.530067
 20
3.701874
  0
VERTEX
  8
PLAN_1
 62
     5
  6
CONTINUOUS
 10
-1.529504
 20
3.704122
  0
VERTEX
  8
PLAN_1
 62
     5
  6
CONTINUOUS
 10
-1.528378
 20
3.709744
  0
SEQEND
  8
0
  0
POLYLINE
  8
PLAN_1
 62
     5
  6
CONTINUOUS
 66
     1
 40
0.003000
 41
0.003000
  0
VERTEX
  8
PLAN_1
 62
     5
  6
CONTINUOUS
 10
-1.526693
 20
3.718177
  0
VERTEX
  8
PLAN_1
 62
     5
  6
CONTINUOUS
 10
-1.526130
 20
3.723236
  0
VERTEX
  8
PLAN_1
 62
     5
  6
CONTINUOUS
 10
-1.525567
 20
3.726047
  0
SEQEND
  8
0
  0
POLYLINE
  8
PLAN_1
 62
     5
  6
CONTINUOUS
 66
     1
 40
0.003000
 41
0.003000
  0
VERTEX
  8
PLAN_1
 62
     5
  6
CONTINUOUS
 10
-1.525567
 20
3.734480
  0
VERTEX
  8
PLAN_1
 62
     5
  6
CONTINUOUS
 10
-1.525004
 20
3.738980
  0
VERTEX
  8
PLAN_1
 62
     5
  6
CONTINUOUS
 10
-1.525567
 20
3.742917
  0
SEQEND
  8
0
  0
POLYLINE
  8
PLAN_1
 62
     5
  6
CONTINUOUS
 66
     1
 40
0.003000
 41
0.003000
  0
VERTEX
  8
PLAN_1
 62
     5
  6
CONTINUOUS
 10
-1.526130
 20
3.751350
  0
VERTEX
  8
PLAN_1
 62
     5
  6
CONTINUOUS
 10
-1.526693
 20
3.755846
  0
VERTEX
  8
PLAN_1
 62
     5
  6
CONTINUOUS
 10
-1.527815
 20
3.759220
  0
SEQEND
  8
0
  0
POLYLINE
  8
PLAN_1
 62
     5
  6
CONTINUOUS
 66
     1
 40
0.003000
 41
0.003000
  0
VERTEX
  8
PLAN_1
 62
     5
  6
CONTINUOUS
 10
-1.530067
 20
3.767654
  0
VERTEX
  8
PLAN_1
 62
     5
  6
CONTINUOUS
 10
-1.531752
 20
3.773839
  0
VERTEX
  8
PLAN_1
 62
     5
  6
CONTINUOUS
 10
-1.532315
 20
3.775524
  0
SEQEND
  8
0
  0
POLYLINE
  8
PLAN_1
 62
     5
  6
CONTINUOUS
 66
     1
 40
0.003000
 41
0.003000
  0
VERTEX
  8
PLAN_1
 62
     5
  6
CONTINUOUS
 10
-1.536252
 20
3.507339
  0
VERTEX
  8
PLAN_1
 62
     5
  6
CONTINUOUS
 10
-1.535126
 20
3.511276
  0
VERTEX
  8
PLAN_1
 62
     5
  6
CONTINUOUS
 10
-1.534000
 20
3.515209
  0
SEQEND
  8
0
  0
POLYLINE
  8
PLAN_1
 62
     5
  6
CONTINUOUS
 66
     1
 40
0.003000
 41
0.003000
  0
VERTEX
  8
PLAN_1
 62
     5
  6
CONTINUOUS
 10
-1.532315
 20
3.523642
  0
VERTEX
  8
PLAN_1
 62
     5
  6
CONTINUOUS
 10
-1.531189
 20
3.531516
  0
SEQEND
  8
0
  0
POLYLINE
  8
PLAN_1
 62
     5
  6
CONTINUOUS
 66
     1
 40
0.003000
 41
0.003000
  0
VERTEX
  8
PLAN_1
 62
     5
  6
CONTINUOUS
 10
-1.530067
 20
3.539949
  0
VERTEX
  8
PLAN_1
 62
     5
  6
CONTINUOUS
 10
-1.528941
 20
3.548382
  0
SEQEND
  8
0
  0
POLYLINE
  8
PLAN_1
 62
     5
  6
CONTINUOUS
 66
     1
 40
0.003000
 41
0.003000
  0
VERTEX
  8
PLAN_1
 62
     5
  6
CONTINUOUS
 10
-1.527815
 20
3.556252
  0
VERTEX
  8
PLAN_1
 62
     5
  6
CONTINUOUS
 10
-1.527256
 20
3.561315
  0
VERTEX
  8
PLAN_1
 62
     5
  6
CONTINUOUS
 10
-1.527256
 20
3.564685
  0
SEQEND
  8
0
  0
POLYLINE
  8
PLAN_1
 62
     5
  6
CONTINUOUS
 66
     1
 40
0.003000
 41
0.003000
  0
VERTEX
  8
PLAN_1
 62
     5
  6
CONTINUOUS
 10
-1.526693
 20
3.573122
  0
VERTEX
  8
PLAN_1
 62
     5
  6
CONTINUOUS
 10
-1.526693
 20
3.574244
  0
VERTEX
  8
PLAN_1
 62
     5
  6
CONTINUOUS
 10
-1.526130
 20
3.581555
  0
SEQEND
  8
0
  0
POLYLINE
  8
PLAN_1
 62
     5
  6
CONTINUOUS
 66
     1
 40
0.003000
 41
0.003000
  0
VERTEX
  8
PLAN_1
 62
     5
  6
CONTINUOUS
 10
-1.526130
 20
3.589988
  0
VERTEX
  8
PLAN_1
 62
     5
  6
CONTINUOUS
 10
-1.526130
 20
3.597858
  0
SEQEND
  8
0
  0
POLYLINE
  8
PLAN_1
 62
     5
  6
CONTINUOUS
 66
     1
 40
0.003000
 41
0.003000
  0
VERTEX
  8
PLAN_1
 62
     5
  6
CONTINUOUS
 10
-1.526130
 20
3.606291
  0
VERTEX
  8
PLAN_1
 62
     5
  6
CONTINUOUS
 10
-1.526130
 20
3.614724
  0
SEQEND
  8
0
  0
POLYLINE
  8
PLAN_1
 62
     5
  6
CONTINUOUS
 66
     1
 40
0.003000
 41
0.003000
  0
VERTEX
  8
PLAN_1
 62
     5
  6
CONTINUOUS
 10
-1.526693
 20
3.623157
  0
VERTEX
  8
PLAN_1
 62
     5
  6
CONTINUOUS
 10
-1.527256
 20
3.631594
  0
SEQEND
  8
0
  0
POLYLINE
  8
PLAN_1
 62
     5
  6
CONTINUOUS
 66
     1
 40
0.003000
 41
0.003000
  0
VERTEX
  8
PLAN_1
 62
     5
  6
CONTINUOUS
 10
-1.528378
 20
3.639465
  0
VERTEX
  8
PLAN_1
 62
     5
  6
CONTINUOUS
 10
-1.528941
 20
3.647898
  0
SEQEND
  8
0
  0
POLYLINE
  8
PLAN_1
 62
     5
  6
CONTINUOUS
 66
     1
 40
0.003000
 41
0.003000
  0
VERTEX
  8
PLAN_1
 62
     5
  6
CONTINUOUS
 10
-1.530626
 20
3.656331
  0
VERTEX
  8
PLAN_1
 62
     5
  6
CONTINUOUS
 10
-1.531752
 20
3.664201
  0
SEQEND
  8
0
  0
POLYLINE
  8
PLAN_1
 62
     5
  6
CONTINUOUS
 66
     1
 40
0.003000
 41
0.003000
  0
VERTEX
  8
PLAN_1
 62
     5
  6
CONTINUOUS
 10
-1.533437
 20
3.672638
  0
VERTEX
  8
PLAN_1
 62
     5
  6
CONTINUOUS
 10
-1.535126
 20
3.680508
  0
SEQEND
  8
0
  0
POLYLINE
  8
PLAN_1
  6
CONTINUOUS
 66
     1
 40
0.008433
 41
0.008433
  0
VERTEX
  8
PLAN_1
  6
CONTINUOUS
 10
-1.997846
 20
2.065764
  0
VERTEX
  8
PLAN_1
  6
CONTINUOUS
 10
-1.997846
 20
2.545913
  0
VERTEX
  8
PLAN_1
  6
CONTINUOUS
 10
-2.111980
 20
2.545913
  0
VERTEX
  8
PLAN_1
  6
CONTINUOUS
 10
-2.111980
 20
2.065764
  0
VERTEX
  8
PLAN_1
  6
CONTINUOUS
 10
-1.997846
 20
2.065764
  0
SEQEND
  8
0
  0
POLYLINE
  8
PLAN_1
  6
CONTINUOUS
 66
     1
 40
0.008433
 41
0.008433
  0
VERTEX
  8
PLAN_1
  6
CONTINUOUS
 10
-2.110854
 20
2.422783
  0
VERTEX
  8
PLAN_1
  6
CONTINUOUS
 10
-2.001220
 20
2.422783
  0
SEQEND
  8
0
  0
POLYLINE
  8
PLAN_1
  6
CONTINUOUS
 66
     1
 40
0.008433
 41
0.008433
  0
VERTEX
  8
PLAN_1
  6
CONTINUOUS
 10
-2.110854
 20
2.187768
  0
VERTEX
  8
PLAN_1
  6
CONTINUOUS
 10
-2.001220
 20
2.187768
  0
SEQEND
  8
0
  0
POLYLINE
  8
PLAN_1
  6
CONTINUOUS
 66
     1
 40
0.008433
 41
0.008433
  0
VERTEX
  8
PLAN_1
  6
CONTINUOUS
 10
-2.097925
 20
2.545350
  0
VERTEX
  8
PLAN_1
  6
CONTINUOUS
 10
-2.099610
 20
2.542539
  0
VERTEX
  8
PLAN_1
  6
CONTINUOUS
 10
-2.102421
 20
2.534669
  0
VERTEX
  8
PLAN_1
  6
CONTINUOUS
 10
-2.104673
 20
2.529047
  0
VERTEX
  8
PLAN_1
  6
CONTINUOUS
 10
-2.106358
 20
2.522299
  0
VERTEX
  8
PLAN_1
  6
CONTINUOUS
 10
-2.108043
 20
2.514992
  0
VERTEX
  8
PLAN_1
  6
CONTINUOUS
 10
-2.109732
 20
2.506555
  0
VERTEX
  8
PLAN_1
  6
CONTINUOUS
 10
-2.110854
 20
2.497563
  0
VERTEX
  8
PLAN_1
  6
CONTINUOUS
 10
-2.111417
 20
2.488004
  0
VERTEX
  8
PLAN_1
  6
CONTINUOUS
 10
-2.111417
 20
2.477882
  0
VERTEX
  8
PLAN_1
  6
CONTINUOUS
 10
-2.110854
 20
2.467201
  0
VERTEX
  8
PLAN_1
  6
CONTINUOUS
 10
-2.108606
 20
2.456520
  0
VERTEX
  8
PLAN_1
  6
CONTINUOUS
 10
-2.105795
 20
2.445272
  0
VERTEX
  8
PLAN_1
  6
CONTINUOUS
 10
-2.103547
 20
2.439650
  0
VERTEX
  8
PLAN_1
  6
CONTINUOUS
 10
-2.101299
 20
2.434028
  0
VERTEX
  8
PLAN_1
  6
CONTINUOUS
 10
-2.098488
 20
2.428406
  0
VERTEX
  8
PLAN_1
  6
CONTINUOUS
 10
-2.095677
 20
2.422783
  0
VERTEX
  8
PLAN_1
  6
CONTINUOUS
 10
-2.096799
 20
2.418287
  0
VERTEX
  8
PLAN_1
  6
CONTINUOUS
 10
-2.100173
 20
2.405917
  0
VERTEX
  8
PLAN_1
  6
CONTINUOUS
 10
-2.102421
 20
2.396358
  0
VERTEX
  8
PLAN_1
  6
CONTINUOUS
 10
-2.104673
 20
2.385677
  0
VERTEX
  8
PLAN_1
  6
CONTINUOUS
 10
-2.106921
 20
2.372744
  0
VERTEX
  8
PLAN_1
  6
CONTINUOUS
 10
-2.108606
 20
2.358126
  0
VERTEX
  8
PLAN_1
  6
CONTINUOUS
 10
-2.110295
 20
2.341823
  0
VERTEX
  8
PLAN_1
  6
CONTINUOUS
 10
-2.111417
 20
2.323831
  0
VERTEX
  8
PLAN_1
  6
CONTINUOUS
 10
-2.111980
 20
2.304713
  0
VERTEX
  8
PLAN_1
  6
CONTINUOUS
 10
-2.111417
 20
2.283909
  0
VERTEX
  8
PLAN_1
  6
CONTINUOUS
 10
-2.109732
 20
2.261421
  0
VERTEX
  8
PLAN_1
  6
CONTINUOUS
 10
-2.107484
 20
2.238370
  0
VERTEX
  8
PLAN_1
  6
CONTINUOUS
 10
-2.105795
 20
2.226000
  0
VERTEX
  8
PLAN_1
  6
CONTINUOUS
 10
-2.103547
 20
2.213630
  0
VERTEX
  8
PLAN_1
  6
CONTINUOUS
 10
-2.101299
 20
2.200701
  0
VERTEX
  8
PLAN_1
  6
CONTINUOUS
 10
-2.098488
 20
2.187768
  0
VERTEX
  8
PLAN_1
  6
CONTINUOUS
 10
-2.099610
 20
2.184957
  0
VERTEX
  8
PLAN_1
  6
CONTINUOUS
 10
-2.102984
 20
2.177650
  0
VERTEX
  8
PLAN_1
  6
CONTINUOUS
 10
-2.104673
 20
2.172028
  0
VERTEX
  8
PLAN_1
  6
CONTINUOUS
 10
-2.106921
 20
2.165280
  0
VERTEX
  8
PLAN_1
  6
CONTINUOUS
 10
-2.108606
 20
2.157969
  0
VERTEX
  8
PLAN_1
  6
CONTINUOUS
 10
-2.110295
 20
2.150098
  0
VERTEX
  8
PLAN_1
  6
CONTINUOUS
 10
-2.111417
 20
2.141102
  0
VERTEX
  8
PLAN_1
  6
CONTINUOUS
 10
-2.111980
 20
2.131543
  0
VERTEX
  8
PLAN_1
  6
CONTINUOUS
 10
-2.111980
 20
2.121425
  0
VERTEX
  8
PLAN_1
  6
CONTINUOUS
 10
-2.110854
 20
2.111303
  0
VERTEX
  8
PLAN_1
  6
CONTINUOUS
 10
-2.109169
 20
2.100622
  0
VERTEX
  8
PLAN_1
  6
CONTINUOUS
 10
-2.105795
 20
2.089378
  0
VERTEX
  8
PLAN_1
  6
CONTINUOUS
 10
-2.104110
 20
2.083756
  0
VERTEX
  8
PLAN_1
  6
CONTINUOUS
 10
-2.101862
 20
2.078134
  0
VERTEX
  8
PLAN_1
  6
CONTINUOUS
 10
-2.099051
 20
2.072512
  0
VERTEX
  8
PLAN_1
  6
CONTINUOUS
 10
-2.095677
 20
2.066886
  0
SEQEND
  8
0
  0
POLYLINE
  8
PLAN_1
  6
CONTINUOUS
 66
     1
 40
0.006744
 41
0.006744
  0
VERTEX
  8
PLAN_1
  6
CONTINUOUS
 10
-2.164831
 20
2.440213
  0
VERTEX
  8
PLAN_1
  6
CONTINUOUS
 10
-2.164831
 20
2.168091
  0
SEQEND
  8
0
  0
POLYLINE
  8
PLAN_1
  6
CONTINUOUS
 66
     1
 40
0.008433
 41
0.008433
  0
VERTEX
  8
PLAN_1
  6
CONTINUOUS
 10
-2.164831
 20
2.168091
  0
VERTEX
  8
PLAN_1
  6
CONTINUOUS
 10
-2.174390
 20
2.177650
  0
VERTEX
  8
PLAN_1
  6
CONTINUOUS
 10
-2.174390
 20
2.430094
  0
VERTEX
  8
PLAN_1
  6
CONTINUOUS
 10
-2.164831
 20
2.439650
  0
VERTEX
  8
PLAN_1
  6
CONTINUOUS
 10
-2.111980
 20
2.440213
  0
VERTEX
  8
PLAN_1
  6
CONTINUOUS
 10
-2.111980
 20
2.168091
  0
VERTEX
  8
PLAN_1
  6
CONTINUOUS
 10
-2.164831
 20
2.168091
  0
SEQEND
  8
0
  0
POLYLINE
  8
PLAN_1
  6
CONTINUOUS
 66
     1
 40
0.008433
 41
0.008433
  0
VERTEX
  8
PLAN_1
  6
CONTINUOUS
 10
-1.891583
 20
2.701091
  0
VERTEX
  8
PLAN_1
  6
CONTINUOUS
 10
-1.998409
 20
2.701091
  0
VERTEX
  8
PLAN_1
  6
CONTINUOUS
 10
-1.998409
 20
1.907776
  0
VERTEX
  8
PLAN_1
  6
CONTINUOUS
 10
-1.528941
 20
1.907776
  0
VERTEX
  8
PLAN_1
  6
CONTINUOUS
 10
-1.528941
 20
2.701091
  0
VERTEX
  8
PLAN_1
  6
CONTINUOUS
 10
-1.634079
 20
2.701091
  0
SEQEND
  8
0
  0
POLYLINE
  8
PLAN_1
  6
CONTINUOUS
 66
     1
 40
0.008433
 41
0.008433
  0
VERTEX
  8
PLAN_1
  6
CONTINUOUS
 10
-1.634079
 20
3.325736
  0
VERTEX
  8
PLAN_1
  6
CONTINUOUS
 10
-1.613276
 20
3.325736
  0
VERTEX
  8
PLAN_1
  6
CONTINUOUS
 10
-1.613276
 20
3.840744
  0
VERTEX
  8
PLAN_1
  6
CONTINUOUS
 10
-1.911264
 20
3.840744
  0
VERTEX
  8
PLAN_1
  6
CONTINUOUS
 10
-1.911264
 20
3.325736
  0
VERTEX
  8
PLAN_1
  6
CONTINUOUS
 10
-1.891583
 20
3.325736
  0
SEQEND
  8
0
  0
POLYLINE
  8
PLAN_1
  6
CONTINUOUS
 66
     1
 40
0.008433
 41
0.008433
  0
VERTEX
  8
PLAN_1
  6
CONTINUOUS
 10
-1.891583
 20
2.701091
  0
VERTEX
  8
PLAN_1
  6
CONTINUOUS
 10
-1.891583
 20
2.538043
  0
SEQEND
  8
0
  0
POLYLINE
  8
PLAN_1
  6
CONTINUOUS
 66
     1
 40
0.008433
 41
0.008433
  0
VERTEX
  8
PLAN_1
  6
CONTINUOUS
 10
-1.891583
 20
2.701091
  0
VERTEX
  8
PLAN_1
  6
CONTINUOUS
 10
-1.891583
 20
3.325736
  0
SEQEND
  8
0
  0
POLYLINE
  8
PLAN_1
  6
CONTINUOUS
 66
     1
 40
0.008433
 41
0.008433
  0
VERTEX
  8
PLAN_1
  6
CONTINUOUS
 10
-1.891583
 20
3.452240
  0
VERTEX
  8
PLAN_1
  6
CONTINUOUS
 10
-1.891583
 20
3.325736
  0
SEQEND
  8
0
  0
POLYLINE
  8
PLAN_1
  6
CONTINUOUS
 66
     1
 40
0.008433
 41
0.008433
  0
VERTEX
  8
PLAN_1
  6
CONTINUOUS
 10
-1.634079
 20
2.538043
  0
VERTEX
  8
PLAN_1
  6
CONTINUOUS
 10
-1.634079
 20
2.701091
  0
SEQEND
  8
0
  0
POLYLINE
  8
PLAN_1
  6
CONTINUOUS
 66
     1
 40
0.008433
 41
0.008433
  0
VERTEX
  8
PLAN_1
  6
CONTINUOUS
 10
-1.634079
 20
3.325736
  0
VERTEX
  8
PLAN_1
  6
CONTINUOUS
 10
-1.634079
 20
3.452240
  0
SEQEND
  8
0
  0
POLYLINE
  8
PLAN_1
  6
CONTINUOUS
 66
     1
 40
0.008433
 41
0.008433
  0
VERTEX
  8
PLAN_1
  6
CONTINUOUS
 10
-1.634079
 20
2.701091
  0
VERTEX
  8
PLAN_1
  6
CONTINUOUS
 10
-1.634079
 20
3.325736
  0
SEQEND
  8
0
  0
POLYLINE
  8
PLAN_1
  6
CONTINUOUS
 66
     1
 40
0.003933
 41
0.003933
  0
VERTEX
  8
PLAN_1
  6
CONTINUOUS
 10
-2.098488
 20
3.654646
  0
VERTEX
  8
PLAN_1
  6
CONTINUOUS
 10
-2.098488
 20
4.147728
  0
SEQEND
  8
0
  0
POLYLINE
  8
PLAN_1
 62
     2
  6
CONTINUOUS
 66
     1
 40
0.003933
 41
0.003933
  0
VERTEX
  8
PLAN_1
 62
     2
  6
CONTINUOUS
 10
-0.691209
 20
-2.039689
  0
VERTEX
  8
PLAN_1
 62
     2
  6
CONTINUOUS
 10
0.271906
 20
-2.039689
  0
SEQEND
  8
0
  0
SOLID
  8
PLAN_1
 62
     2
 10
0.301142
 20
-2.039689
 11
0.242106
 21
-2.023949
 12
0.301142
 22
-2.039689
 13
0.242106
 23
-2.055433
  0
POLYLINE
  8
PLAN_1
 62
     2
  6
CONTINUOUS
 66
     1
 40
0.003000
 41
0.003000
  0
VERTEX
  8
PLAN_1
 62
     2
  6
CONTINUOUS
 10
0.301142
 20
-2.039689
  0
VERTEX
  8
PLAN_1
 62
     2
  6
CONTINUOUS
 10
0.242106
 20
-2.023949
  0
VERTEX
  8
PLAN_1
 62
     2
  6
CONTINUOUS
 10
0.242106
 20
-2.055433
  0
VERTEX
  8
PLAN_1
 62
     2
  6
CONTINUOUS
 10
0.301142
 20
-2.039689
  0
SEQEND
  8
0
  0
SOLID
  8
PLAN_1
 62
     2
 10
-0.721008
 20
-2.039689
 11
-0.661972
 21
-2.023949
 12
-0.721008
 22
-2.039689
 13
-0.661972
 23
-2.055433
  0
POLYLINE
  8
PLAN_1
 62
     2
  6
CONTINUOUS
 66
     1
 40
0.003000
 41
0.003000
  0
VERTEX
  8
PLAN_1
 62
     2
  6
CONTINUOUS
 10
-0.721008
 20
-2.039689
  0
VERTEX
  8
PLAN_1
 62
     2
  6
CONTINUOUS
 10
-0.661972
 20
-2.023949
  0
VERTEX
  8
PLAN_1
 62
     2
  6
CONTINUOUS
 10
-0.661972
 20
-2.055433
  0
VERTEX
  8
PLAN_1
 62
     2
  6
CONTINUOUS
 10
-0.721008
 20
-2.039689
  0
SEQEND
  8
0
  0
POLYLINE
  8
PLAN_1
 62
     2
  6
CONTINUOUS
 66
     1
 40
0.003000
 41
0.003000
  0
VERTEX
  8
PLAN_1
 62
     2
  6
CONTINUOUS
 10
-0.281898
 20
-1.968850
  0
VERTEX
  8
PLAN_1
 62
     2
  6
CONTINUOUS
 10
-0.281898
 20
-1.964913
  0
VERTEX
  8
PLAN_1
 62
     2
  6
CONTINUOUS
 10
-0.281339
 20
-1.960976
  0
VERTEX
  8
PLAN_1
 62
     2
  6
CONTINUOUS
 10
-0.280776
 20
-1.957602
  0
VERTEX
  8
PLAN_1
 62
     2
  6
CONTINUOUS
 10
-0.279087
 20
-1.954791
  0
VERTEX
  8
PLAN_1
 62
     2
  6
CONTINUOUS
 10
-0.277965
 20
-1.952543
  0
VERTEX
  8
PLAN_1
 62
     2
  6
CONTINUOUS
 10
-0.276276
 20
-1.950295
  0
VERTEX
  8
PLAN_1
 62
     2
  6
CONTINUOUS
 10
-0.274591
 20
-1.948610
  0
VERTEX
  8
PLAN_1
 62
     2
  6
CONTINUOUS
 10
-0.272343
 20
-1.946921
  0
VERTEX
  8
PLAN_1
 62
     2
  6
CONTINUOUS
 10
-0.268406
 20
-1.944673
  0
VERTEX
  8
PLAN_1
 62
     2
  6
CONTINUOUS
 10
-0.263909
 20
-1.943547
  0
VERTEX
  8
PLAN_1
 62
     2
  6
CONTINUOUS
 10
-0.259972
 20
-1.942984
  0
VERTEX
  8
PLAN_1
 62
     2
  6
CONTINUOUS
 10
-0.257161
 20
-1.942984
  0
VERTEX
  8
PLAN_1
 62
     2
  6
CONTINUOUS
 10
-0.252102
 20
-1.942984
  0
VERTEX
  8
PLAN_1
 62
     2
  6
CONTINUOUS
 10
-0.248165
 20
-1.944110
  0
VERTEX
  8
PLAN_1
 62
     2
  6
CONTINUOUS
 10
-0.244228
 20
-1.946358
  0
VERTEX
  8
PLAN_1
 62
     2
  6
CONTINUOUS
 10
-0.240854
 20
-1.948610
  0
VERTEX
  8
PLAN_1
 62
     2
  6
CONTINUOUS
 10
-0.238043
 20
-1.951980
  0
VERTEX
  8
PLAN_1
 62
     2
  6
CONTINUOUS
 10
-0.235795
 20
-1.955354
  0
VERTEX
  8
PLAN_1
 62
     2
  6
CONTINUOUS
 10
-0.234673
 20
-1.959854
  0
VERTEX
  8
PLAN_1
 62
     2
  6
CONTINUOUS
 10
-0.234110
 20
-1.964350
  0
VERTEX
  8
PLAN_1
 62
     2
  6
CONTINUOUS
 10
-0.234110
 20
-1.969409
  0
VERTEX
  8
PLAN_1
 62
     2
  6
CONTINUOUS
 10
-0.235795
 20
-1.973346
  0
VERTEX
  8
PLAN_1
 62
     2
  6
CONTINUOUS
 10
-0.237484
 20
-1.976720
  0
VERTEX
  8
PLAN_1
 62
     2
  6
CONTINUOUS
 10
-0.239732
 20
-1.979531
  0
VERTEX
  8
PLAN_1
 62
     2
  6
CONTINUOUS
 10
-0.242543
 20
-1.982343
  0
VERTEX
  8
PLAN_1
 62
     2
  6
CONTINUOUS
 10
-0.245917
 20
-1.984591
  0
VERTEX
  8
PLAN_1
 62
     2
  6
CONTINUOUS
 10
-0.249850
 20
-1.986843
  0
VERTEX
  8
PLAN_1
 62
     2
  6
CONTINUOUS
 10
-0.253787
 20
-1.989091
  0
VERTEX
  8
PLAN_1
 62
     2
  6
CONTINUOUS
 10
-0.261098
 20
-1.993024
  0
VERTEX
  8
PLAN_1
 62
     2
  6
CONTINUOUS
 10
-0.264469
 20
-1.995276
  0
VERTEX
  8
PLAN_1
 62
     2
  6
CONTINUOUS
 10
-0.267280
 20
-1.997524
  0
VERTEX
  8
PLAN_1
 62
     2
  6
CONTINUOUS
 10
-0.269531
 20
-1.999209
  0
VERTEX
  8
PLAN_1
 62
     2
  6
CONTINUOUS
 10
-0.271217
 20
-2.001461
  0
VERTEX
  8
PLAN_1
 62
     2
  6
CONTINUOUS
 10
-0.272343
 20
-2.003146
  0
VERTEX
  8
PLAN_1
 62
     2
  6
CONTINUOUS
 10
-0.272906
 20
-2.004831
  0
VERTEX
  8
PLAN_1
 62
     2
  6
CONTINUOUS
 10
-0.273465
 20
-2.005957
  0
VERTEX
  8
PLAN_1
 62
     2
  6
CONTINUOUS
 10
-0.273465
 20
-2.007083
  0
VERTEX
  8
PLAN_1
 62
     2
  6
CONTINUOUS
 10
-0.234110
 20
-2.007083
  0
VERTEX
  8
PLAN_1
 62
     2
  6
CONTINUOUS
 10
-0.234110
 20
-2.016079
  0
VERTEX
  8
PLAN_1
 62
     2
  6
CONTINUOUS
 10
-0.284150
 20
-2.016079
  0
VERTEX
  8
PLAN_1
 62
     2
  6
CONTINUOUS
 10
-0.283587
 20
-2.010453
  0
VERTEX
  8
PLAN_1
 62
     2
  6
CONTINUOUS
 10
-0.282461
 20
-2.005957
  0
VERTEX
  8
PLAN_1
 62
     2
  6
CONTINUOUS
 10
-0.280776
 20
-2.001461
  0
VERTEX
  8
PLAN_1
 62
     2
  6
CONTINUOUS
 10
-0.279087
 20
-1.998087
  0
VERTEX
  8
PLAN_1
 62
     2
  6
CONTINUOUS
 10
-0.276276
 20
-1.994713
  0
VERTEX
  8
PLAN_1
 62
     2
  6
CONTINUOUS
 10
-0.273465
 20
-1.991902
  0
VERTEX
  8
PLAN_1
 62
     2
  6
CONTINUOUS
 10
-0.270654
 20
-1.989091
  0
VERTEX
  8
PLAN_1
 62
     2
  6
CONTINUOUS
 10
-0.266720
 20
-1.986843
  0
VERTEX
  8
PLAN_1
 62
     2
  6
CONTINUOUS
 10
-0.257161
 20
-1.981217
  0
VERTEX
  8
PLAN_1
 62
     2
  6
CONTINUOUS
 10
-0.254350
 20
-1.979531
  0
VERTEX
  8
PLAN_1
 62
     2
  6
CONTINUOUS
 10
-0.251539
 20
-1.977846
  0
VERTEX
  8
PLAN_1
 62
     2
  6
CONTINUOUS
 10
-0.249291
 20
-1.976157
  0
VERTEX
  8
PLAN_1
 62
     2
  6
CONTINUOUS
 10
-0.247602
 20
-1.974472
  0
VERTEX
  8
PLAN_1
 62
     2
  6
CONTINUOUS
 10
-0.245917
 20
-1.972783
  0
VERTEX
  8
PLAN_1
 62
     2
  6
CONTINUOUS
 10
-0.244791
 20
-1.970535
  0
VERTEX
  8
PLAN_1
 62
     2
  6
CONTINUOUS
 10
-0.244228
 20
-1.967724
  0
VERTEX
  8
PLAN_1
 62
     2
  6
CONTINUOUS
 10
-0.243669
 20
-1.964350
  0
VERTEX
  8
PLAN_1
 62
     2
  6
CONTINUOUS
 10
-0.244228
 20
-1.962102
  0
VERTEX
  8
PLAN_1
 62
     2
  6
CONTINUOUS
 10
-0.244791
 20
-1.959854
  0
VERTEX
  8
PLAN_1
 62
     2
  6
CONTINUOUS
 10
-0.245354
 20
-1.957602
  0
VERTEX
  8
PLAN_1
 62
     2
  6
CONTINUOUS
 10
-0.247039
 20
-1.955354
  0
VERTEX
  8
PLAN_1
 62
     2
  6
CONTINUOUS
 10
-0.248728
 20
-1.953669
  0
VERTEX
  8
PLAN_1
 62
     2
  6
CONTINUOUS
 10
-0.251539
 20
-1.951980
  0
VERTEX
  8
PLAN_1
 62
     2
  6
CONTINUOUS
 10
-0.254350
 20
-1.951421
  0
VERTEX
  8
PLAN_1
 62
     2
  6
CONTINUOUS
 10
-0.258287
 20
-1.950858
  0
VERTEX
  8
PLAN_1
 62
     2
  6
CONTINUOUS
 10
-0.260535
 20
-1.951421
  0
VERTEX
  8
PLAN_1
 62
     2
  6
CONTINUOUS
 10
-0.262783
 20
-1.951421
  0
VERTEX
  8
PLAN_1
 62
     2
  6
CONTINUOUS
 10
-0.264469
 20
-1.951980
  0
VERTEX
  8
PLAN_1
 62
     2
  6
CONTINUOUS
 10
-0.266157
 20
-1.953106
  0
VERTEX
  8
PLAN_1
 62
     2
  6
CONTINUOUS
 10
-0.268969
 20
-1.955354
  0
VERTEX
  8
PLAN_1
 62
     2
  6
CONTINUOUS
 10
-0.270654
 20
-1.958165
  0
VERTEX
  8
PLAN_1
 62
     2
  6
CONTINUOUS
 10
-0.271780
 20
-1.960976
  0
VERTEX
  8
PLAN_1
 62
     2
  6
CONTINUOUS
 10
-0.272343
 20
-1.963787
  0
VERTEX
  8
PLAN_1
 62
     2
  6
CONTINUOUS
 10
-0.272906
 20
-1.966598
  0
VERTEX
  8
PLAN_1
 62
     2
  6
CONTINUOUS
 10
-0.272906
 20
-1.968850
  0
VERTEX
  8
PLAN_1
 62
     2
  6
CONTINUOUS
 10
-0.281898
 20
-1.968850
  0
SEQEND
  8
0
  0
POLYLINE
  8
PLAN_1
 62
     2
  6
CONTINUOUS
 66
     1
 40
0.003000
 41
0.003000
  0
VERTEX
  8
PLAN_1
 62
     2
  6
CONTINUOUS
 10
-0.213307
 20
-1.973346
  0
VERTEX
  8
PLAN_1
 62
     2
  6
CONTINUOUS
 10
-0.212181
 20
-1.972224
  0
VERTEX
  8
PLAN_1
 62
     2
  6
CONTINUOUS
 10
-0.211059
 20
-1.971661
  0
VERTEX
  8
PLAN_1
 62
     2
  6
CONTINUOUS
 10
-0.209370
 20
-1.971098
  0
VERTEX
  8
PLAN_1
 62
     2
  6
CONTINUOUS
 10
-0.207685
 20
-1.969972
  0
VERTEX
  8
PLAN_1
 62
     2
  6
CONTINUOUS
 10
-0.205996
 20
-1.969409
  0
VERTEX
  8
PLAN_1
 62
     2
  6
CONTINUOUS
 10
-0.203748
 20
-1.969409
  0
VERTEX
  8
PLAN_1
 62
     2
  6
CONTINUOUS
 10
-0.201500
 20
-1.968850
  0
VERTEX
  8
PLAN_1
 62
     2
  6
CONTINUOUS
 10
-0.199252
 20
-1.968850
  0
VERTEX
  8
PLAN_1
 62
     2
  6
CONTINUOUS
 10
-0.194752
 20
-1.969409
  0
VERTEX
  8
PLAN_1
 62
     2
  6
CONTINUOUS
 10
-0.190819
 20
-1.970535
  0
VERTEX
  8
PLAN_1
 62
     2
  6
CONTINUOUS
 10
-0.186319
 20
-1.972224
  0
VERTEX
  8
PLAN_1
 62
     2
  6
CONTINUOUS
 10
-0.182945
 20
-1.975035
  0
VERTEX
  8
PLAN_1
 62
     2
  6
CONTINUOUS
 10
-0.179571
 20
-1.978406
  0
VERTEX
  8
PLAN_1
 62
     2
  6
CONTINUOUS
 10
-0.177323
 20
-1.982343
  0
VERTEX
  8
PLAN_1
 62
     2
  6
CONTINUOUS
 10
-0.175638
 20
-1.986843
  0
VERTEX
  8
PLAN_1
 62
     2
  6
CONTINUOUS
 10
-0.175638
 20
-1.992465
  0
VERTEX
  8
PLAN_1
 62
     2
  6
CONTINUOUS
 10
-0.175638
 20
-1.995835
  0
VERTEX
  8
PLAN_1
 62
     2
  6
CONTINUOUS
 10
-0.176201
 20
-1.999772
  0
VERTEX
  8
PLAN_1
 62
     2
  6
CONTINUOUS
 10
-0.177886
 20
-2.003709
  0
VERTEX
  8
PLAN_1
 62
     2
  6
CONTINUOUS
 10
-0.180134
 20
-2.008205
  0
VERTEX
  8
PLAN_1
 62
     2
  6
CONTINUOUS
 10
-0.181823
 20
-2.009894
  0
VERTEX
  8
PLAN_1
 62
     2
  6
CONTINUOUS
 10
-0.183508
 20
-2.012142
  0
VERTEX
  8
PLAN_1
 62
     2
  6
CONTINUOUS
 10
-0.185756
 20
-2.013827
  0
VERTEX
  8
PLAN_1
 62
     2
  6
CONTINUOUS
 10
-0.188008
 20
-2.014953
  0
VERTEX
  8
PLAN_1
 62
     2
  6
CONTINUOUS
 10
-0.190819
 20
-2.016079
  0
VERTEX
  8
PLAN_1
 62
     2
  6
CONTINUOUS
 10
-0.194189
 20
-2.017201
  0
VERTEX
  8
PLAN_1
 62
     2
  6
CONTINUOUS
 10
-0.197563
 20
-2.017764
  0
VERTEX
  8
PLAN_1
 62
     2
  6
CONTINUOUS
 10
-0.202063
 20
-2.017764
  0
VERTEX
  8
PLAN_1
 62
     2
  6
CONTINUOUS
 10
-0.205437
 20
-2.017764
  0
VERTEX
  8
PLAN_1
 62
     2
  6
CONTINUOUS
 10
-0.209370
 20
-2.017201
  0
VERTEX
  8
PLAN_1
 62
     2
  6
CONTINUOUS
 10
-0.213307
 20
-2.016079
  0
VERTEX
  8
PLAN_1
 62
     2
  6
CONTINUOUS
 10
-0.216681
 20
-2.013827
  0
VERTEX
  8
PLAN_1
 62
     2
  6
CONTINUOUS
 10
-0.220055
 20
-2.011016
  0
VERTEX
  8
PLAN_1
 62
     2
  6
CONTINUOUS
 10
-0.222303
 20
-2.007642
  0
VERTEX
  8
PLAN_1
 62
     2
  6
CONTINUOUS
 10
-0.224551
 20
-2.003146
  0
VERTEX
  8
PLAN_1
 62
     2
  6
CONTINUOUS
 10
-0.225677
 20
-1.997524
  0
VERTEX
  8
PLAN_1
 62
     2
  6
CONTINUOUS
 10
-0.216118
 20
-1.997524
  0
VERTEX
  8
PLAN_1
 62
     2
  6
CONTINUOUS
 10
-0.215555
 20
-2.000898
  0
VERTEX
  8
PLAN_1
 62
     2
  6
CONTINUOUS
 10
-0.214433
 20
-2.003146
  0
VERTEX
  8
PLAN_1
 62
     2
  6
CONTINUOUS
 10
-0.212744
 20
-2.005394
  0
VERTEX
  8
PLAN_1
 62
     2
  6
CONTINUOUS
 10
-0.211059
 20
-2.007083
  0
VERTEX
  8
PLAN_1
 62
     2
  6
CONTINUOUS
 10
-0.208807
 20
-2.008205
  0
VERTEX
  8
PLAN_1
 62
     2
  6
CONTINUOUS
 10
-0.206559
 20
-2.009331
  0
VERTEX
  8
PLAN_1
 62
     2
  6
CONTINUOUS
 10
-0.203748
 20
-2.009894
  0
VERTEX
  8
PLAN_1
 62
     2
  6
CONTINUOUS
 10
-0.200374
 20
-2.009894
  0
VERTEX
  8
PLAN_1
 62
     2
  6
CONTINUOUS
 10
-0.197000
 20
-2.009894
  0
VERTEX
  8
PLAN_1
 62
     2
  6
CONTINUOUS
 10
-0.194189
 20
-2.008768
  0
VERTEX
  8
PLAN_1
 62
     2
  6
CONTINUOUS
 10
-0.191378
 20
-2.007083
  0
VERTEX
  8
PLAN_1
 62
     2
  6
CONTINUOUS
 10
-0.189130
 20
-2.004831
  0
VERTEX
  8
PLAN_1
 62
     2
  6
CONTINUOUS
 10
-0.187445
 20
-2.002583
  0
VERTEX
  8
PLAN_1
 62
     2
  6
CONTINUOUS
 10
-0.186319
 20
-1.999772
  0
VERTEX
  8
PLAN_1
 62
     2
  6
CONTINUOUS
 10
-0.185193
 20
-1.996398
  0
VERTEX
  8
PLAN_1
 62
     2
  6
CONTINUOUS
 10
-0.185193
 20
-1.993024
  0
VERTEX
  8
PLAN_1
 62
     2
  6
CONTINUOUS
 10
-0.185193
 20
-1.989654
  0
VERTEX
  8
PLAN_1
 62
     2
  6
CONTINUOUS
 10
-0.186319
 20
-1.986280
  0
VERTEX
  8
PLAN_1
 62
     2
  6
CONTINUOUS
 10
-0.188008
 20
-1.983469
  0
VERTEX
  8
PLAN_1
 62
     2
  6
CONTINUOUS
 10
-0.189693
 20
-1.981217
  0
VERTEX
  8
PLAN_1
 62
     2
  6
CONTINUOUS
 10
-0.192504
 20
-1.979531
  0
VERTEX
  8
PLAN_1
 62
     2
  6
CONTINUOUS
 10
-0.194752
 20
-1.977846
  0
VERTEX
  8
PLAN_1
 62
     2
  6
CONTINUOUS
 10
-0.198126
 20
-1.977283
  0
VERTEX
  8
PLAN_1
 62
     2
  6
CONTINUOUS
 10
-0.201500
 20
-1.977283
  0
VERTEX
  8
PLAN_1
 62
     2
  6
CONTINUOUS
 10
-0.203185
 20
-1.977283
  0
VERTEX
  8
PLAN_1
 62
     2
  6
CONTINUOUS
 10
-0.205437
 20
-1.977283
  0
VERTEX
  8
PLAN_1
 62
     2
  6
CONTINUOUS
 10
-0.207122
 20
-1.977846
  0
VERTEX
  8
PLAN_1
 62
     2
  6
CONTINUOUS
 10
-0.208807
 20
-1.978969
  0
VERTEX
  8
PLAN_1
 62
     2
  6
CONTINUOUS
 10
-0.210496
 20
-1.979531
  0
VERTEX
  8
PLAN_1
 62
     2
  6
CONTINUOUS
 10
-0.212181
 20
-1.981217
  0
VERTEX
  8
PLAN_1
 62
     2
  6
CONTINUOUS
 10
-0.213307
 20
-1.982343
  0
VERTEX
  8
PLAN_1
 62
     2
  6
CONTINUOUS
 10
-0.214992
 20
-1.984028
  0
VERTEX
  8
PLAN_1
 62
     2
  6
CONTINUOUS
 10
-0.222866
 20
-1.983469
  0
VERTEX
  8
PLAN_1
 62
     2
  6
CONTINUOUS
 10
-0.217244
 20
-1.944110
  0
VERTEX
  8
PLAN_1
 62
     2
  6
CONTINUOUS
 10
-0.179571
 20
-1.944110
  0
VERTEX
  8
PLAN_1
 62
     2
  6
CONTINUOUS
 10
-0.179571
 20
-1.953106
  0
VERTEX
  8
PLAN_1
 62
     2
  6
CONTINUOUS
 10
-0.210496
 20
-1.953106
  0
VERTEX
  8
PLAN_1
 62
     2
  6
CONTINUOUS
 10
-0.213307
 20
-1.973346
  0
SEQEND
  8
0
  0
POLYLINE
  8
PLAN_1
 62
     2
  6
CONTINUOUS
 66
     1
 40
0.003933
 41
0.003933
  0
VERTEX
  8
PLAN_1
 62
     2
  6
CONTINUOUS
 10
-2.300894
 20
-2.197118
  0
VERTEX
  8
PLAN_1
 62
     2
  6
CONTINUOUS
 10
0.271906
 20
-2.197118
  0
SEQEND
  8
0
  0
SOLID
  8
PLAN_1
 62
     2
 10
0.301142
 20
-2.197118
 11
0.242106
 21
-2.181374
 12
0.301142
 22
-2.197118
 13
0.242106
 23
-2.212858
  0
POLYLINE
  8
PLAN_1
 62
     2
  6
CONTINUOUS
 66
     1
 40
0.003000
 41
0.003000
  0
VERTEX
  8
PLAN_1
 62
     2
  6
CONTINUOUS
 10
0.301142
 20
-2.197118
  0
VERTEX
  8
PLAN_1
 62
     2
  6
CONTINUOUS
 10
0.242106
 20
-2.181374
  0
VERTEX
  8
PLAN_1
 62
     2
  6
CONTINUOUS
 10
0.242106
 20
-2.212858
  0
VERTEX
  8
PLAN_1
 62
     2
  6
CONTINUOUS
 10
0.301142
 20
-2.197118
  0
SEQEND
  8
0
  0
SOLID
  8
PLAN_1
 62
     2
 10
-2.330689
 20
-2.197118
 11
-2.271657
 21
-2.181374
 12
-2.330689
 22
-2.197118
 13
-2.271657
 23
-2.212858
  0
POLYLINE
  8
PLAN_1
 62
     2
  6
CONTINUOUS
 66
     1
 40
0.003000
 41
0.003000
  0
VERTEX
  8
PLAN_1
 62
     2
  6
CONTINUOUS
 10
-2.330689
 20
-2.197118
  0
VERTEX
  8
PLAN_1
 62
     2
  6
CONTINUOUS
 10
-2.271657
 20
-2.181374
  0
VERTEX
  8
PLAN_1
 62
     2
  6
CONTINUOUS
 10
-2.271657
 20
-2.212858
  0
VERTEX
  8
PLAN_1
 62
     2
  6
CONTINUOUS
 10
-2.330689
 20
-2.197118
  0
SEQEND
  8
0
  0
POLYLINE
  8
PLAN_1
 62
     2
  6
CONTINUOUS
 66
     1
 40
0.003000
 41
0.003000
  0
VERTEX
  8
PLAN_1
 62
     2
  6
CONTINUOUS
 10
-1.048228
 20
-2.119528
  0
VERTEX
  8
PLAN_1
 62
     2
  6
CONTINUOUS
 10
-1.048791
 20
-2.117280
  0
VERTEX
  8
PLAN_1
 62
     2
  6
CONTINUOUS
 10
-1.049354
 20
-2.115031
  0
VERTEX
  8
PLAN_1
 62
     2
  6
CONTINUOUS
 10
-1.050476
 20
-2.113343
  0
VERTEX
  8
PLAN_1
 62
     2
  6
CONTINUOUS
 10
-1.052165
 20
-2.111657
  0
VERTEX
  8
PLAN_1
 62
     2
  6
CONTINUOUS
 10
-1.053850
 20
-2.110531
  0
VERTEX
  8
PLAN_1
 62
     2
  6
CONTINUOUS
 10
-1.055539
 20
-2.109409
  0
VERTEX
  8
PLAN_1
 62
     2
  6
CONTINUOUS
 10
-1.058350
 20
-2.108846
  0
VERTEX
  8
PLAN_1
 62
     2
  6
CONTINUOUS
 10
-1.061161
 20
-2.108283
  0
VERTEX
  8
PLAN_1
 62
     2
  6
CONTINUOUS
 10
-1.063409
 20
-2.108846
  0
VERTEX
  8
PLAN_1
 62
     2
  6
CONTINUOUS
 10
-1.065657
 20
-2.109409
  0
VERTEX
  8
PLAN_1
 62
     2
  6
CONTINUOUS
 10
-1.067906
 20
-2.110531
  0
VERTEX
  8
PLAN_1
 62
     2
  6
CONTINUOUS
 10
-1.069594
 20
-2.111657
  0
VERTEX
  8
PLAN_1
 62
     2
  6
CONTINUOUS
 10
-1.072969
 20
-2.115031
  0
VERTEX
  8
PLAN_1
 62
     2
  6
CONTINUOUS
 10
-1.075217
 20
-2.118965
  0
VERTEX
  8
PLAN_1
 62
     2
  6
CONTINUOUS
 10
-1.076339
 20
-2.123465
  0
VERTEX
  8
PLAN_1
 62
     2
  6
CONTINUOUS
 10
-1.077465
 20
-2.127961
  0
VERTEX
  8
PLAN_1
 62
     2
  6
CONTINUOUS
 10
-1.078028
 20
-2.131898
  0
VERTEX
  8
PLAN_1
 62
     2
  6
CONTINUOUS
 10
-1.078028
 20
-2.135272
  0
VERTEX
  8
PLAN_1
 62
     2
  6
CONTINUOUS
 10
-1.078028
 20
-2.135835
  0
VERTEX
  8
PLAN_1
 62
     2
  6
CONTINUOUS
 10
-1.076902
 20
-2.134146
  0
VERTEX
  8
PLAN_1
 62
     2
  6
CONTINUOUS
 10
-1.075780
 20
-2.132461
  0
VERTEX
  8
PLAN_1
 62
     2
  6
CONTINUOUS
 10
-1.074091
 20
-2.131335
  0
VERTEX
  8
PLAN_1
 62
     2
  6
CONTINUOUS
 10
-1.072406
 20
-2.129650
  0
VERTEX
  8
PLAN_1
 62
     2
  6
CONTINUOUS
 10
-1.070157
 20
-2.128524
  0
VERTEX
  8
PLAN_1
 62
     2
  6
CONTINUOUS
 10
-1.067346
 20
-2.127402
  0
VERTEX
  8
PLAN_1
 62
     2
  6
CONTINUOUS
 10
-1.063972
 20
-2.126839
  0
VERTEX
  8
PLAN_1
 62
     2
  6
CONTINUOUS
 10
-1.060598
 20
-2.126839
  0
VERTEX
  8
PLAN_1
 62
     2
  6
CONTINUOUS
 10
-1.057224
 20
-2.126839
  0
VERTEX
  8
PLAN_1
 62
     2
  6
CONTINUOUS
 10
-1.053287
 20
-2.127961
  0
VERTEX
  8
PLAN_1
 62
     2
  6
CONTINUOUS
 10
-1.049354
 20
-2.129650
  0
VERTEX
  8
PLAN_1
 62
     2
  6
CONTINUOUS
 10
-1.045980
 20
-2.131898
  0
VERTEX
  8
PLAN_1
 62
     2
  6
CONTINUOUS
 10
-1.042606
 20
-2.134709
  0
VERTEX
  8
PLAN_1
 62
     2
  6
CONTINUOUS
 10
-1.040358
 20
-2.139209
  0
VERTEX
  8
PLAN_1
 62
     2
  6
CONTINUOUS
 10
-1.039232
 20
-2.141457
  0
VERTEX
  8
PLAN_1
 62
     2
  6
CONTINUOUS
 10
-1.038669
 20
-2.143705
  0
VERTEX
  8
PLAN_1
 62
     2
  6
CONTINUOUS
 10
-1.038106
 20
-2.147079
  0
VERTEX
  8
PLAN_1
 62
     2
  6
CONTINUOUS
 10
-1.037547
 20
-2.149890
  0
VERTEX
  8
PLAN_1
 62
     2
  6
CONTINUOUS
 10
-1.038106
 20
-2.152701
  0
VERTEX
  8
PLAN_1
 62
     2
  6
CONTINUOUS
 10
-1.038106
 20
-2.155512
  0
VERTEX
  8
PLAN_1
 62
     2
  6
CONTINUOUS
 10
-1.038669
 20
-2.157760
  0
VERTEX
  8
PLAN_1
 62
     2
  6
CONTINUOUS
 10
-1.039232
 20
-2.160008
  0
VERTEX
  8
PLAN_1
 62
     2
  6
CONTINUOUS
 10
-1.040358
 20
-2.162260
  0
VERTEX
  8
PLAN_1
 62
     2
  6
CONTINUOUS
 10
-1.041480
 20
-2.163945
  0
VERTEX
  8
PLAN_1
 62
     2
  6
CONTINUOUS
 10
-1.043169
 20
-2.166193
  0
VERTEX
  8
PLAN_1
 62
     2
  6
CONTINUOUS
 10
-1.044854
 20
-2.168445
  0
VERTEX
  8
PLAN_1
 62
     2
  6
CONTINUOUS
 10
-1.045980
 20
-2.169567
  0
VERTEX
  8
PLAN_1
 62
     2
  6
CONTINUOUS
 10
-1.047665
 20
-2.171256
  0
VERTEX
  8
PLAN_1
 62
     2
  6
CONTINUOUS
 10
-1.049354
 20
-2.172378
  0
VERTEX
  8
PLAN_1
 62
     2
  6
CONTINUOUS
 10
-1.051602
 20
-2.173504
  0
VERTEX
  8
PLAN_1
 62
     2
  6
CONTINUOUS
 10
-1.053850
 20
-2.174067
  0
VERTEX
  8
PLAN_1
 62
     2
  6
CONTINUOUS
 10
-1.056661
 20
-2.174626
  0
VERTEX
  8
PLAN_1
 62
     2
  6
CONTINUOUS
 10
-1.059472
 20
-2.175189
  0
VERTEX
  8
PLAN_1
 62
     2
  6
CONTINUOUS
 10
-1.063409
 20
-2.175189
  0
VERTEX
  8
PLAN_1
 62
     2
  6
CONTINUOUS
 10
-1.065657
 20
-2.175189
  0
VERTEX
  8
PLAN_1
 62
     2
  6
CONTINUOUS
 10
-1.067906
 20
-2.174626
  0
VERTEX
  8
PLAN_1
 62
     2
  6
CONTINUOUS
 10
-1.070157
 20
-2.174067
  0
VERTEX
  8
PLAN_1
 62
     2
  6
CONTINUOUS
 10
-1.072969
 20
-2.172941
  0
VERTEX
  8
PLAN_1
 62
     2
  6
CONTINUOUS
 10
-1.075217
 20
-2.171815
  0
VERTEX
  8
PLAN_1
 62
     2
  6
CONTINUOUS
 10
-1.078028
 20
-2.169567
  0
VERTEX
  8
PLAN_1
 62
     2
  6
CONTINUOUS
 10
-1.080276
 20
-2.167319
  0
VERTEX
  8
PLAN_1
 62
     2
  6
CONTINUOUS
 10
-1.081965
 20
-2.164508
  0
VERTEX
  8
PLAN_1
 62
     2
  6
CONTINUOUS
 10
-1.083650
 20
-2.162260
  0
VERTEX
  8
PLAN_1
 62
     2
  6
CONTINUOUS
 10
-1.084776
 20
-2.159449
  0
VERTEX
  8
PLAN_1
 62
     2
  6
CONTINUOUS
 10
-1.085898
 20
-2.156075
  0
VERTEX
  8
PLAN_1
 62
     2
  6
CONTINUOUS
 10
-1.086461
 20
-2.153264
  0
VERTEX
  8
PLAN_1
 62
     2
  6
CONTINUOUS
 10
-1.087024
 20
-2.149890
  0
VERTEX
  8
PLAN_1
 62
     2
  6
CONTINUOUS
 10
-1.087587
 20
-2.146516
  0
VERTEX
  8
PLAN_1
 62
     2
  6
CONTINUOUS
 10
-1.087587
 20
-2.143142
  0
VERTEX
  8
PLAN_1
 62
     2
  6
CONTINUOUS
 10
-1.087587
 20
-2.139209
  0
VERTEX
  8
PLAN_1
 62
     2
  6
CONTINUOUS
 10
-1.087587
 20
-2.133024
  0
VERTEX
  8
PLAN_1
 62
     2
  6
CONTINUOUS
 10
-1.086461
 20
-2.126276
  0
VERTEX
  8
PLAN_1
 62
     2
  6
CONTINUOUS
 10
-1.084776
 20
-2.120091
  0
VERTEX
  8
PLAN_1
 62
     2
  6
CONTINUOUS
 10
-1.082524
 20
-2.113906
  0
VERTEX
  8
PLAN_1
 62
     2
  6
CONTINUOUS
 10
-1.080839
 20
-2.111094
  0
VERTEX
  8
PLAN_1
 62
     2
  6
CONTINUOUS
 10
-1.078591
 20
-2.108283
  0
VERTEX
  8
PLAN_1
 62
     2
  6
CONTINUOUS
 10
-1.076902
 20
-2.106035
  0
VERTEX
  8
PLAN_1
 62
     2
  6
CONTINUOUS
 10
-1.074091
 20
-2.104346
  0
VERTEX
  8
PLAN_1
 62
     2
  6
CONTINUOUS
 10
-1.071280
 20
-2.102661
  0
VERTEX
  8
PLAN_1
 62
     2
  6
CONTINUOUS
 10
-1.067906
 20
-2.101535
  0
VERTEX
  8
PLAN_1
 62
     2
  6
CONTINUOUS
 10
-1.064531
 20
-2.100413
  0
VERTEX
  8
PLAN_1
 62
     2
  6
CONTINUOUS
 10
-1.060598
 20
-2.100413
  0
VERTEX
  8
PLAN_1
 62
     2
  6
CONTINUOUS
 10
-1.057224
 20
-2.100413
  0
VERTEX
  8
PLAN_1
 62
     2
  6
CONTINUOUS
 10
-1.053850
 20
-2.100976
  0
VERTEX
  8
PLAN_1
 62
     2
  6
CONTINUOUS
 10
-1.050476
 20
-2.102661
  0
VERTEX
  8
PLAN_1
 62
     2
  6
CONTINUOUS
 10
-1.047102
 20
-2.104346
  0
VERTEX
  8
PLAN_1
 62
     2
  6
CONTINUOUS
 10
-1.044291
 20
-2.107157
  0
VERTEX
  8
PLAN_1
 62
     2
  6
CONTINUOUS
 10
-1.042043
 20
-2.110531
  0
VERTEX
  8
PLAN_1
 62
     2
  6
CONTINUOUS
 10
-1.040358
 20
-2.114469
  0
VERTEX
  8
PLAN_1
 62
     2
  6
CONTINUOUS
 10
-1.039232
 20
-2.119528
  0
VERTEX
  8
PLAN_1
 62
     2
  6
CONTINUOUS
 10
-1.048228
 20
-2.119528
  0
SEQEND
  8
0
  0
POLYLINE
  8
PLAN_1
 62
     2
  6
CONTINUOUS
 66
     1
 40
0.003000
 41
0.003000
  0
VERTEX
  8
PLAN_1
 62
     2
  6
CONTINUOUS
 10
-1.061720
 20
-2.167319
  0
VERTEX
  8
PLAN_1
 62
     2
  6
CONTINUOUS
 10
-1.058350
 20
-2.166756
  0
VERTEX
  8
PLAN_1
 62
     2
  6
CONTINUOUS
 10
-1.055539
 20
-2.166193
  0
VERTEX
  8
PLAN_1
 62
     2
  6
CONTINUOUS
 10
-1.053287
 20
-2.164508
  0
VERTEX
  8
PLAN_1
 62
     2
  6
CONTINUOUS
 10
-1.051039
 20
-2.162260
  0
VERTEX
  8
PLAN_1
 62
     2
  6
CONTINUOUS
 10
-1.049354
 20
-2.160008
  0
VERTEX
  8
PLAN_1
 62
     2
  6
CONTINUOUS
 10
-1.048228
 20
-2.157197
  0
VERTEX
  8
PLAN_1
 62
     2
  6
CONTINUOUS
 10
-1.047665
 20
-2.153827
  0
VERTEX
  8
PLAN_1
 62
     2
  6
CONTINUOUS
 10
-1.047102
 20
-2.150453
  0
VERTEX
  8
PLAN_1
 62
     2
  6
CONTINUOUS
 10
-1.047665
 20
-2.147642
  0
VERTEX
  8
PLAN_1
 62
     2
  6
CONTINUOUS
 10
-1.048228
 20
-2.145390
  0
VERTEX
  8
PLAN_1
 62
     2
  6
CONTINUOUS
 10
-1.048791
 20
-2.142579
  0
VERTEX
  8
PLAN_1
 62
     2
  6
CONTINUOUS
 10
-1.050476
 20
-2.140331
  0
VERTEX
  8
PLAN_1
 62
     2
  6
CONTINUOUS
 10
-1.052165
 20
-2.138083
  0
VERTEX
  8
PLAN_1
 62
     2
  6
CONTINUOUS
 10
-1.054976
 20
-2.136398
  0
VERTEX
  8
PLAN_1
 62
     2
  6
CONTINUOUS
 10
-1.058350
 20
-2.135272
  0
VERTEX
  8
PLAN_1
 62
     2
  6
CONTINUOUS
 10
-1.062283
 20
-2.135272
  0
VERTEX
  8
PLAN_1
 62
     2
  6
CONTINUOUS
 10
-1.065657
 20
-2.135272
  0
VERTEX
  8
PLAN_1
 62
     2
  6
CONTINUOUS
 10
-1.068469
 20
-2.136398
  0
VERTEX
  8
PLAN_1
 62
     2
  6
CONTINUOUS
 10
-1.071280
 20
-2.137520
  0
VERTEX
  8
PLAN_1
 62
     2
  6
CONTINUOUS
 10
-1.073528
 20
-2.139768
  0
VERTEX
  8
PLAN_1
 62
     2
  6
CONTINUOUS
 10
-1.074654
 20
-2.142020
  0
VERTEX
  8
PLAN_1
 62
     2
  6
CONTINUOUS
 10
-1.076339
 20
-2.144831
  0
VERTEX
  8
PLAN_1
 62
     2
  6
CONTINUOUS
 10
-1.076902
 20
-2.147642
  0
VERTEX
  8
PLAN_1
 62
     2
  6
CONTINUOUS
 10
-1.076902
 20
-2.151016
  0
VERTEX
  8
PLAN_1
 62
     2
  6
CONTINUOUS
 10
-1.076902
 20
-2.153827
  0
VERTEX
  8
PLAN_1
 62
     2
  6
CONTINUOUS
 10
-1.076339
 20
-2.156638
  0
VERTEX
  8
PLAN_1
 62
     2
  6
CONTINUOUS
 10
-1.075217
 20
-2.159449
  0
VERTEX
  8
PLAN_1
 62
     2
  6
CONTINUOUS
 10
-1.073528
 20
-2.161697
  0
VERTEX
  8
PLAN_1
 62
     2
  6
CONTINUOUS
 10
-1.071280
 20
-2.163945
  0
VERTEX
  8
PLAN_1
 62
     2
  6
CONTINUOUS
 10
-1.068469
 20
-2.165634
  0
VERTEX
  8
PLAN_1
 62
     2
  6
CONTINUOUS
 10
-1.065094
 20
-2.166756
  0
VERTEX
  8
PLAN_1
 62
     2
  6
CONTINUOUS
 10
-1.061720
 20
-2.167319
  0
SEQEND
  8
0
  0
POLYLINE
  8
PLAN_1
 62
     2
  6
CONTINUOUS
 66
     1
 40
0.003000
 41
0.003000
  0
VERTEX
  8
PLAN_1
 62
     2
  6
CONTINUOUS
 10
-1.029114
 20
-2.126276
  0
VERTEX
  8
PLAN_1
 62
     2
  6
CONTINUOUS
 10
-1.029114
 20
-2.122339
  0
VERTEX
  8
PLAN_1
 62
     2
  6
CONTINUOUS
 10
-1.028551
 20
-2.118406
  0
VERTEX
  8
PLAN_1
 62
     2
  6
CONTINUOUS
 10
-1.027425
 20
-2.115031
  0
VERTEX
  8
PLAN_1
 62
     2
  6
CONTINUOUS
 10
-1.026303
 20
-2.112220
  0
VERTEX
  8
PLAN_1
 62
     2
  6
CONTINUOUS
 10
-1.025177
 20
-2.109972
  0
VERTEX
  8
PLAN_1
 62
     2
  6
CONTINUOUS
 10
-1.023488
 20
-2.107720
  0
VERTEX
  8
PLAN_1
 62
     2
  6
CONTINUOUS
 10
-1.021240
 20
-2.106035
  0
VERTEX
  8
PLAN_1
 62
     2
  6
CONTINUOUS
 10
-1.019555
 20
-2.104346
  0
VERTEX
  8
PLAN_1
 62
     2
  6
CONTINUOUS
 10
-1.015618
 20
-2.102098
  0
VERTEX
  8
PLAN_1
 62
     2
  6
CONTINUOUS
 10
-1.011122
 20
-2.100976
  0
VERTEX
  8
PLAN_1
 62
     2
  6
CONTINUOUS
 10
-1.007185
 20
-2.100413
  0
VERTEX
  8
PLAN_1
 62
     2
  6
CONTINUOUS
 10
-1.003811
 20
-2.100413
  0
VERTEX
  8
PLAN_1
 62
     2
  6
CONTINUOUS
 10
-0.999315
 20
-2.100413
  0
VERTEX
  8
PLAN_1
 62
     2
  6
CONTINUOUS
 10
-0.994815
 20
-2.101535
  0
VERTEX
  8
PLAN_1
 62
     2
  6
CONTINUOUS
 10
-0.990882
 20
-2.103787
  0
VERTEX
  8
PLAN_1
 62
     2
  6
CONTINUOUS
 10
-0.987508
 20
-2.106035
  0
VERTEX
  8
PLAN_1
 62
     2
  6
CONTINUOUS
 10
-0.984697
 20
-2.109409
  0
VERTEX
  8
PLAN_1
 62
     2
  6
CONTINUOUS
 10
-0.983008
 20
-2.112783
  0
VERTEX
  8
PLAN_1
 62
     2
  6
CONTINUOUS
 10
-0.981323
 20
-2.117280
  0
VERTEX
  8
PLAN_1
 62
     2
  6
CONTINUOUS
 10
-0.980760
 20
-2.122339
  0
VERTEX
  8
PLAN_1
 62
     2
  6
CONTINUOUS
 10
-0.981323
 20
-2.126839
  0
VERTEX
  8
PLAN_1
 62
     2
  6
CONTINUOUS
 10
-0.982445
 20
-2.130772
  0
VERTEX
  8
PLAN_1
 62
     2
  6
CONTINUOUS
 10
-0.984134
 20
-2.134146
  0
VERTEX
  8
PLAN_1
 62
     2
  6
CONTINUOUS
 10
-0.986945
 20
-2.136957
  0
VERTEX
  8
PLAN_1
 62
     2
  6
CONTINUOUS
 10
-0.989756
 20
-2.139768
  0
VERTEX
  8
PLAN_1
 62
     2
  6
CONTINUOUS
 10
-0.993130
 20
-2.142020
  0
VERTEX
  8
PLAN_1
 62
     2
  6
CONTINUOUS
 10
-0.996504
 20
-2.144268
  0
VERTEX
  8
PLAN_1
 62
     2
  6
CONTINUOUS
 10
-1.000437
 20
-2.146516
  0
VERTEX
  8
PLAN_1
 62
     2
  6
CONTINUOUS
 10
-1.008311
 20
-2.150453
  0
VERTEX
  8
PLAN_1
 62
     2
  6
CONTINUOUS
 10
-1.011685
 20
-2.152701
  0
VERTEX
  8
PLAN_1
 62
     2
  6
CONTINUOUS
 10
-1.014496
 20
-2.154949
  0
VERTEX
  8
PLAN_1
 62
     2
  6
CONTINUOUS
 10
-1.016181
 20
-2.156638
  0
VERTEX
  8
PLAN_1
 62
     2
  6
CONTINUOUS
 10
-1.017866
 20
-2.158886
  0
VERTEX
  8
PLAN_1
 62
     2
  6
CONTINUOUS
 10
-1.018992
 20
-2.160571
  0
VERTEX
  8
PLAN_1
 62
     2
  6
CONTINUOUS
 10
-1.020118
 20
-2.162260
  0
VERTEX
  8
PLAN_1
 62
     2
  6
CONTINUOUS
 10
-1.020677
 20
-2.163382
  0
VERTEX
  8
PLAN_1
 62
     2
  6
CONTINUOUS
 10
-1.020677
 20
-2.164508
  0
VERTEX
  8
PLAN_1
 62
     2
  6
CONTINUOUS
 10
-0.980760
 20
-2.164508
  0
VERTEX
  8
PLAN_1
 62
     2
  6
CONTINUOUS
 10
-0.980760
 20
-2.173504
  0
VERTEX
  8
PLAN_1
 62
     2
  6
CONTINUOUS
 10
-1.030799
 20
-2.173504
  0
VERTEX
  8
PLAN_1
 62
     2
  6
CONTINUOUS
 10
-1.030799
 20
-2.167882
  0
VERTEX
  8
PLAN_1
 62
     2
  6
CONTINUOUS
 10
-1.029673
 20
-2.163382
  0
VERTEX
  8
PLAN_1
 62
     2
  6
CONTINUOUS
 10
-1.027988
 20
-2.158886
  0
VERTEX
  8
PLAN_1
 62
     2
  6
CONTINUOUS
 10
-1.025740
 20
-2.155512
  0
VERTEX
  8
PLAN_1
 62
     2
  6
CONTINUOUS
 10
-1.023488
 20
-2.152138
  0
VERTEX
  8
PLAN_1
 62
     2
  6
CONTINUOUS
 10
-1.020677
 20
-2.149327
  0
VERTEX
  8
PLAN_1
 62
     2
  6
CONTINUOUS
 10
-1.017307
 20
-2.146516
  0
VERTEX
  8
PLAN_1
 62
     2
  6
CONTINUOUS
 10
-1.013933
 20
-2.144268
  0
VERTEX
  8
PLAN_1
 62
     2
  6
CONTINUOUS
 10
-1.004374
 20
-2.138646
  0
VERTEX
  8
PLAN_1
 62
     2
  6
CONTINUOUS
 10
-1.001563
 20
-2.136957
  0
VERTEX
  8
PLAN_1
 62
     2
  6
CONTINUOUS
 10
-0.998752
 20
-2.135272
  0
VERTEX
  8
PLAN_1
 62
     2
  6
CONTINUOUS
 10
-0.996504
 20
-2.134146
  0
VERTEX
  8
PLAN_1
 62
     2
  6
CONTINUOUS
 10
-0.994815
 20
-2.131898
  0
VERTEX
  8
PLAN_1
 62
     2
  6
CONTINUOUS
 10
-0.993130
 20
-2.130213
  0
VERTEX
  8
PLAN_1
 62
     2
  6
CONTINUOUS
 10
-0.992004
 20
-2.127961
  0
VERTEX
  8
PLAN_1
 62
     2
  6
CONTINUOUS
 10
-0.990882
 20
-2.125150
  0
VERTEX
  8
PLAN_1
 62
     2
  6
CONTINUOUS
 10
-0.990882
 20
-2.121776
  0
VERTEX
  8
PLAN_1
 62
     2
  6
CONTINUOUS
 10
-0.990882
 20
-2.119528
  0
VERTEX
  8
PLAN_1
 62
     2
  6
CONTINUOUS
 10
-0.991441
 20
-2.117280
  0
VERTEX
  8
PLAN_1
 62
     2
  6
CONTINUOUS
 10
-0.992567
 20
-2.115031
  0
VERTEX
  8
PLAN_1
 62
     2
  6
CONTINUOUS
 10
-0.994252
 20
-2.112783
  0
VERTEX
  8
PLAN_1
 62
     2
  6
CONTINUOUS
 10
-0.995941
 20
-2.111094
  0
VERTEX
  8
PLAN_1
 62
     2
  6
CONTINUOUS
 10
-0.998752
 20
-2.109972
  0
VERTEX
  8
PLAN_1
 62
     2
  6
CONTINUOUS
 10
-1.001563
 20
-2.108846
  0
VERTEX
  8
PLAN_1
 62
     2
  6
CONTINUOUS
 10
-1.005500
 20
-2.108283
  0
VERTEX
  8
PLAN_1
 62
     2
  6
CONTINUOUS
 10
-1.007748
 20
-2.108846
  0
VERTEX
  8
PLAN_1
 62
     2
  6
CONTINUOUS
 10
-1.009996
 20
-2.108846
  0
VERTEX
  8
PLAN_1
 62
     2
  6
CONTINUOUS
 10
-1.011685
 20
-2.109972
  0
VERTEX
  8
PLAN_1
 62
     2
  6
CONTINUOUS
 10
-1.013370
 20
-2.110531
  0
VERTEX
  8
PLAN_1
 62
     2
  6
CONTINUOUS
 10
-1.016181
 20
-2.112783
  0
VERTEX
  8
PLAN_1
 62
     2
  6
CONTINUOUS
 10
-1.017866
 20
-2.115594
  0
VERTEX
  8
PLAN_1
 62
     2
  6
CONTINUOUS
 10
-1.018992
 20
-2.118406
  0
VERTEX
  8
PLAN_1
 62
     2
  6
CONTINUOUS
 10
-1.019555
 20
-2.121776
  0
VERTEX
  8
PLAN_1
 62
     2
  6
CONTINUOUS
 10
-1.020118
 20
-2.124028
  0
VERTEX
  8
PLAN_1
 62
     2
  6
CONTINUOUS
 10
-1.020118
 20
-2.126276
  0
VERTEX
  8
PLAN_1
 62
     2
  6
CONTINUOUS
 10
-1.029114
 20
-2.126276
  0
SEQEND
  8
0
  0
POLYLINE
  8
PLAN_1
 62
     2
  6
CONTINUOUS
 66
     1
 40
0.003933
 41
0.003933
  0
VERTEX
  8
PLAN_1
 62
     2
  6
CONTINUOUS
 10
-0.721008
 20
1.189799
  0
VERTEX
  8
PLAN_1
 62
     2
  6
CONTINUOUS
 10
-0.721008
 20
-2.063303
  0
SEQEND
  8
0
  0
POLYLINE
  8
PLAN_1
 62
     2
  6
CONTINUOUS
 66
     1
 40
0.003933
 41
0.003933
  0
VERTEX
  8
PLAN_1
 62
     2
  6
CONTINUOUS
 10
0.301142
 20
-1.326213
  0
VERTEX
  8
PLAN_1
 62
     2
  6
CONTINUOUS
 10
0.301142
 20
-2.220732
  0
SEQEND
  8
0
  0
POLYLINE
  8
PLAN_1
 62
     2
  6
CONTINUOUS
 66
     1
 40
0.003933
 41
0.003933
  0
VERTEX
  8
PLAN_1
 62
     2
  6
CONTINUOUS
 10
-2.330689
 20
3.298748
  0
VERTEX
  8
PLAN_1
 62
     2
  6
CONTINUOUS
 10
-2.330689
 20
-2.220732
  0
SEQEND
  8
0
  0
POLYLINE
  8
PLAN_1
 62
     2
  6
CONTINUOUS
 66
     1
 40
0.003933
 41
0.003933
  0
VERTEX
  8
PLAN_1
 62
     2
  6
CONTINUOUS
 10
0.333748
 20
-1.883953
  0
VERTEX
  8
PLAN_1
 62
     2
  6
CONTINUOUS
 10
0.493988
 20
-1.883953
  0
SEQEND
  8
0
  0
POLYLINE
  8
PLAN_1
 62
     2
  6
CONTINUOUS
 66
     1
 40
0.003933
 41
0.003933
  0
VERTEX
  8
PLAN_1
 62
     2
  6
CONTINUOUS
 10
0.470374
 20
-1.854717
  0
VERTEX
  8
PLAN_1
 62
     2
  6
CONTINUOUS
 10
0.470374
 20
4.032469
  0
SEQEND
  8
0
  0
SOLID
  8
PLAN_1
 62
     2
 10
0.470374
 20
4.061705
 11
0.454630
 21
4.002669
 12
0.470374
 22
4.061705
 13
0.486114
 23
4.002669
  0
POLYLINE
  8
PLAN_1
 62
     2
  6
CONTINUOUS
 66
     1
 40
0.003000
 41
0.003000
  0
VERTEX
  8
PLAN_1
 62
     2
  6
CONTINUOUS
 10
0.470374
 20
4.061705
  0
VERTEX
  8
PLAN_1
 62
     2
  6
CONTINUOUS
 10
0.454630
 20
4.002669
  0
VERTEX
  8
PLAN_1
 62
     2
  6
CONTINUOUS
 10
0.486114
 20
4.002669
  0
VERTEX
  8
PLAN_1
 62
     2
  6
CONTINUOUS
 10
0.470374
 20
4.061705
  0
SEQEND
  8
0
  0
SOLID
  8
PLAN_1
 62
     2
 10
0.470374
 20
-1.883953
 11
0.454630
 21
-1.824917
 12
0.470374
 22
-1.883953
 13
0.486114
 23
-1.824917
  0
POLYLINE
  8
PLAN_1
 62
     2
  6
CONTINUOUS
 66
     1
 40
0.003000
 41
0.003000
  0
VERTEX
  8
PLAN_1
 62
     2
  6
CONTINUOUS
 10
0.470374
 20
-1.883953
  0
VERTEX
  8
PLAN_1
 62
     2
  6
CONTINUOUS
 10
0.454630
 20
-1.824917
  0
VERTEX
  8
PLAN_1
 62
     2
  6
CONTINUOUS
 10
0.486114
 20
-1.824917
  0
VERTEX
  8
PLAN_1
 62
     2
  6
CONTINUOUS
 10
0.470374
 20
-1.883953
  0
SEQEND
  8
0
  0
POLYLINE
  8
PLAN_1
 62
     2
  6
CONTINUOUS
 66
     1
 40
0.003000
 41
0.003000
  0
VERTEX
  8
PLAN_1
 62
     2
  6
CONTINUOUS
 10
0.446760
 20
1.039681
  0
VERTEX
  8
PLAN_1
 62
     2
  6
CONTINUOUS
 10
0.446760
 20
1.029559
  0
VERTEX
  8
PLAN_1
 62
     2
  6
CONTINUOUS
 10
0.394472
 20
1.029559
  0
VERTEX
  8
PLAN_1
 62
     2
  6
CONTINUOUS
 10
0.394472
 20
1.012693
  0
VERTEX
  8
PLAN_1
 62
     2
  6
CONTINUOUS
 10
0.387161
 20
1.012693
  0
VERTEX
  8
PLAN_1
 62
     2
  6
CONTINUOUS
 10
0.387161
 20
1.016630
  0
VERTEX
  8
PLAN_1
 62
     2
  6
CONTINUOUS
 10
0.386598
 20
1.020004
  0
VERTEX
  8
PLAN_1
 62
     2
  6
CONTINUOUS
 10
0.385476
 20
1.023374
  0
VERTEX
  8
PLAN_1
 62
     2
  6
CONTINUOUS
 10
0.384350
 20
1.025626
  0
VERTEX
  8
PLAN_1
 62
     2
  6
CONTINUOUS
 10
0.382665
 20
1.027874
  0
VERTEX
  8
PLAN_1
 62
     2
  6
CONTINUOUS
 10
0.380417
 20
1.029559
  0
VERTEX
  8
PLAN_1
 62
     2
  6
CONTINUOUS
 10
0.377602
 20
1.031248
  0
VERTEX
  8
PLAN_1
 62
     2
  6
CONTINUOUS
 10
0.373106
 20
1.032370
  0
VERTEX
  8
PLAN_1
 62
     2
  6
CONTINUOUS
 10
0.373106
 20
1.039681
  0
VERTEX
  8
PLAN_1
 62
     2
  6
CONTINUOUS
 10
0.446760
 20
1.039681
  0
SEQEND
  8
0
  0
POLYLINE
  8
PLAN_1
 62
     2
  6
CONTINUOUS
 66
     1
 40
0.003000
 41
0.003000
  0
VERTEX
  8
PLAN_1
 62
     2
  6
CONTINUOUS
 10
0.428768
 20
1.103776
  0
VERTEX
  8
PLAN_1
 62
     2
  6
CONTINUOUS
 10
0.446760
 20
1.103776
  0
VERTEX
  8
PLAN_1
 62
     2
  6
CONTINUOUS
 10
0.446760
 20
1.094780
  0
VERTEX
  8
PLAN_1
 62
     2
  6
CONTINUOUS
 10
0.428768
 20
1.094780
  0
VERTEX
  8
PLAN_1
 62
     2
  6
CONTINUOUS
 10
0.428768
 20
1.062732
  0
VERTEX
  8
PLAN_1
 62
     2
  6
CONTINUOUS
 10
0.419772
 20
1.062732
  0
VERTEX
  8
PLAN_1
 62
     2
  6
CONTINUOUS
 10
0.373106
 20
1.095906
  0
VERTEX
  8
PLAN_1
 62
     2
  6
CONTINUOUS
 10
0.373106
 20
1.103776
  0
VERTEX
  8
PLAN_1
 62
     2
  6
CONTINUOUS
 10
0.420898
 20
1.103776
  0
VERTEX
  8
PLAN_1
 62
     2
  6
CONTINUOUS
 10
0.420898
 20
1.114457
  0
VERTEX
  8
PLAN_1
 62
     2
  6
CONTINUOUS
 10
0.428768
 20
1.114457
  0
VERTEX
  8
PLAN_1
 62
     2
  6
CONTINUOUS
 10
0.428768
 20
1.103776
  0
SEQEND
  8
0
  0
SOLID
  8
PLAN_1
 62
     2
 10
0.420898
 20
1.071165
 11
0.420898
 21
1.094780
 12
0.387724
 22
1.094217
 13
0.387724
 23
1.094780
  0
POLYLINE
  8
PLAN_1
 62
     2
  6
CONTINUOUS
 66
     1
 40
0.003000
 41
0.003000
  0
VERTEX
  8
PLAN_1
 62
     2
  6
CONTINUOUS
 10
0.420898
 20
1.071165
  0
VERTEX
  8
PLAN_1
 62
     2
  6
CONTINUOUS
 10
0.420898
 20
1.094780
  0
VERTEX
  8
PLAN_1
 62
     2
  6
CONTINUOUS
 10
0.387724
 20
1.094780
  0
VERTEX
  8
PLAN_1
 62
     2
  6
CONTINUOUS
 10
0.387724
 20
1.094217
  0
VERTEX
  8
PLAN_1
 62
     2
  6
CONTINUOUS
 10
0.420898
 20
1.071165
  0
SEQEND
  8
0
  0
POLYLINE
  8
PLAN_1
 62
     2
  6
CONTINUOUS
 66
     1
 40
0.003000
 41
0.003000
  0
VERTEX
  8
PLAN_1
 62
     2
  6
CONTINUOUS
 10
0.448445
 20
1.147067
  0
VERTEX
  8
PLAN_1
 62
     2
  6
CONTINUOUS
 10
0.448445
 20
1.143134
  0
VERTEX
  8
PLAN_1
 62
     2
  6
CONTINUOUS
 10
0.447323
 20
1.139760
  0
VERTEX
  8
PLAN_1
 62
     2
  6
CONTINUOUS
 10
0.446197
 20
1.136949
  0
VERTEX
  8
PLAN_1
 62
     2
  6
CONTINUOUS
 10
0.444512
 20
1.134138
  0
VERTEX
  8
PLAN_1
 62
     2
  6
CONTINUOUS
 10
0.442823
 20
1.131886
  0
VERTEX
  8
PLAN_1
 62
     2
  6
CONTINUOUS
 10
0.440575
 20
1.129638
  0
VERTEX
  8
PLAN_1
 62
     2
  6
CONTINUOUS
 10
0.438327
 20
1.127953
  0
VERTEX
  8
PLAN_1
 62
     2
  6
CONTINUOUS
 10
0.435516
 20
1.126264
  0
VERTEX
  8
PLAN_1
 62
     2
  6
CONTINUOUS
 10
0.429331
 20
1.124016
  0
VERTEX
  8
PLAN_1
 62
     2
  6
CONTINUOUS
 10
0.423146
 20
1.122894
  0
VERTEX
  8
PLAN_1
 62
     2
  6
CONTINUOUS
 10
0.416961
 20
1.121768
  0
VERTEX
  8
PLAN_1
 62
     2
  6
CONTINUOUS
 10
0.410776
 20
1.121768
  0
VERTEX
  8
PLAN_1
 62
     2
  6
CONTINUOUS
 10
0.405154
 20
1.121768
  0
VERTEX
  8
PLAN_1
 62
     2
  6
CONTINUOUS
 10
0.398406
 20
1.122894
  0
VERTEX
  8
PLAN_1
 62
     2
  6
CONTINUOUS
 10
0.392224
 20
1.124016
  0
VERTEX
  8
PLAN_1
 62
     2
  6
CONTINUOUS
 10
0.386598
 20
1.126264
  0
VERTEX
  8
PLAN_1
 62
     2
  6
CONTINUOUS
 10
0.383787
 20
1.127953
  0
VERTEX
  8
PLAN_1
 62
     2
  6
CONTINUOUS
 10
0.380976
 20
1.129638
  0
VERTEX
  8
PLAN_1
 62
     2
  6
CONTINUOUS
 10
0.378728
 20
1.131886
  0
VERTEX
  8
PLAN_1
 62
     2
  6
CONTINUOUS
 10
0.377043
 20
1.134138
  0
VERTEX
  8
PLAN_1
 62
     2
  6
CONTINUOUS
 10
0.375354
 20
1.136949
  0
VERTEX
  8
PLAN_1
 62
     2
  6
CONTINUOUS
 10
0.374232
 20
1.139760
  0
VERTEX
  8
PLAN_1
 62
     2
  6
CONTINUOUS
 10
0.373669
 20
1.143134
  0
VERTEX
  8
PLAN_1
 62
     2
  6
CONTINUOUS
 10
0.373106
 20
1.147067
  0
VERTEX
  8
PLAN_1
 62
     2
  6
CONTINUOUS
 10
0.373669
 20
1.150441
  0
VERTEX
  8
PLAN_1
 62
     2
  6
CONTINUOUS
 10
0.374232
 20
1.153815
  0
VERTEX
  8
PLAN_1
 62
     2
  6
CONTINUOUS
 10
0.375354
 20
1.157189
  0
VERTEX
  8
PLAN_1
 62
     2
  6
CONTINUOUS
 10
0.377043
 20
1.159437
  0
VERTEX
  8
PLAN_1
 62
     2
  6
CONTINUOUS
 10
0.378728
 20
1.161685
  0
VERTEX
  8
PLAN_1
 62
     2
  6
CONTINUOUS
 10
0.380976
 20
1.163937
  0
VERTEX
  8
PLAN_1
 62
     2
  6
CONTINUOUS
 10
0.383787
 20
1.165622
  0
VERTEX
  8
PLAN_1
 62
     2
  6
CONTINUOUS
 10
0.386598
 20
1.167307
  0
VERTEX
  8
PLAN_1
 62
     2
  6
CONTINUOUS
 10
0.392224
 20
1.169559
  0
VERTEX
  8
PLAN_1
 62
     2
  6
CONTINUOUS
 10
0.398406
 20
1.170681
  0
VERTEX
  8
PLAN_1
 62
     2
  6
CONTINUOUS
 10
0.405154
 20
1.171807
  0
VERTEX
  8
PLAN_1
 62
     2
  6
CONTINUOUS
 10
0.410776
 20
1.171807
  0
VERTEX
  8
PLAN_1
 62
     2
  6
CONTINUOUS
 10
0.416961
 20
1.171807
  0
VERTEX
  8
PLAN_1
 62
     2
  6
CONTINUOUS
 10
0.423146
 20
1.170681
  0
VERTEX
  8
PLAN_1
 62
     2
  6
CONTINUOUS
 10
0.429331
 20
1.169559
  0
VERTEX
  8
PLAN_1
 62
     2
  6
CONTINUOUS
 10
0.435516
 20
1.167307
  0
VERTEX
  8
PLAN_1
 62
     2
  6
CONTINUOUS
 10
0.438327
 20
1.165622
  0
VERTEX
  8
PLAN_1
 62
     2
  6
CONTINUOUS
 10
0.440575
 20
1.163937
  0
VERTEX
  8
PLAN_1
 62
     2
  6
CONTINUOUS
 10
0.442823
 20
1.161685
  0
VERTEX
  8
PLAN_1
 62
     2
  6
CONTINUOUS
 10
0.444512
 20
1.159437
  0
VERTEX
  8
PLAN_1
 62
     2
  6
CONTINUOUS
 10
0.446197
 20
1.157189
  0
VERTEX
  8
PLAN_1
 62
     2
  6
CONTINUOUS
 10
0.447323
 20
1.153815
  0
VERTEX
  8
PLAN_1
 62
     2
  6
CONTINUOUS
 10
0.448445
 20
1.150441
  0
VERTEX
  8
PLAN_1
 62
     2
  6
CONTINUOUS
 10
0.448445
 20
1.147067
  0
SEQEND
  8
0
  0
POLYLINE
  8
PLAN_1
 62
     2
  6
CONTINUOUS
 66
     1
 40
0.003000
 41
0.003000
  0
VERTEX
  8
PLAN_1
 62
     2
  6
CONTINUOUS
 10
0.381539
 20
1.147067
  0
VERTEX
  8
PLAN_1
 62
     2
  6
CONTINUOUS
 10
0.382102
 20
1.143134
  0
VERTEX
  8
PLAN_1
 62
     2
  6
CONTINUOUS
 10
0.383787
 20
1.139760
  0
VERTEX
  8
PLAN_1
 62
     2
  6
CONTINUOUS
 10
0.386039
 20
1.137512
  0
VERTEX
  8
PLAN_1
 62
     2
  6
CONTINUOUS
 10
0.389409
 20
1.135260
  0
VERTEX
  8
PLAN_1
 62
     2
  6
CONTINUOUS
 10
0.393346
 20
1.133575
  0
VERTEX
  8
PLAN_1
 62
     2
  6
CONTINUOUS
 10
0.398406
 20
1.132449
  0
VERTEX
  8
PLAN_1
 62
     2
  6
CONTINUOUS
 10
0.404591
 20
1.131886
  0
VERTEX
  8
PLAN_1
 62
     2
  6
CONTINUOUS
 10
0.410776
 20
1.131327
  0
VERTEX
  8
PLAN_1
 62
     2
  6
CONTINUOUS
 10
0.417524
 20
1.131886
  0
VERTEX
  8
PLAN_1
 62
     2
  6
CONTINUOUS
 10
0.423146
 20
1.132449
  0
VERTEX
  8
PLAN_1
 62
     2
  6
CONTINUOUS
 10
0.428205
 20
1.133575
  0
VERTEX
  8
PLAN_1
 62
     2
  6
CONTINUOUS
 10
0.432705
 20
1.135260
  0
VERTEX
  8
PLAN_1
 62
     2
  6
CONTINUOUS
 10
0.435516
 20
1.137512
  0
VERTEX
  8
PLAN_1
 62
     2
  6
CONTINUOUS
 10
0.438327
 20
1.139760
  0
VERTEX
  8
PLAN_1
 62
     2
  6
CONTINUOUS
 10
0.440012
 20
1.143134
  0
VERTEX
  8
PLAN_1
 62
     2
  6
CONTINUOUS
 10
0.440012
 20
1.147067
  0
VERTEX
  8
PLAN_1
 62
     2
  6
CONTINUOUS
 10
0.440012
 20
1.150441
  0
VERTEX
  8
PLAN_1
 62
     2
  6
CONTINUOUS
 10
0.438327
 20
1.153815
  0
VERTEX
  8
PLAN_1
 62
     2
  6
CONTINUOUS
 10
0.435516
 20
1.156063
  0
VERTEX
  8
PLAN_1
 62
     2
  6
CONTINUOUS
 10
0.432705
 20
1.158311
  0
VERTEX
  8
PLAN_1
 62
     2
  6
CONTINUOUS
 10
0.428205
 20
1.160000
  0
VERTEX
  8
PLAN_1
 62
     2
  6
CONTINUOUS
 10
0.423146
 20
1.161122
  0
VERTEX
  8
PLAN_1
 62
     2
  6
CONTINUOUS
 10
0.417524
 20
1.161685
  0
VERTEX
  8
PLAN_1
 62
     2
  6
CONTINUOUS
 10
0.410776
 20
1.162248
  0
VERTEX
  8
PLAN_1
 62
     2
  6
CONTINUOUS
 10
0.404591
 20
1.161685
  0
VERTEX
  8
PLAN_1
 62
     2
  6
CONTINUOUS
 10
0.398406
 20
1.161122
  0
VERTEX
  8
PLAN_1
 62
     2
  6
CONTINUOUS
 10
0.393346
 20
1.160000
  0
VERTEX
  8
PLAN_1
 62
     2
  6
CONTINUOUS
 10
0.389409
 20
1.158311
  0
VERTEX
  8
PLAN_1
 62
     2
  6
CONTINUOUS
 10
0.386039
 20
1.156063
  0
VERTEX
  8
PLAN_1
 62
     2
  6
CONTINUOUS
 10
0.383787
 20
1.153815
  0
VERTEX
  8
PLAN_1
 62
     2
  6
CONTINUOUS
 10
0.382102
 20
1.150441
  0
VERTEX
  8
PLAN_1
 62
     2
  6
CONTINUOUS
 10
0.381539
 20
1.147067
  0
SEQEND
  8
0
  0
POLYLINE
  8
PLAN_1
 62
     2
  6
CONTINUOUS
 66
     1
 40
0.003933
 41
0.003933
  0
VERTEX
  8
PLAN_1
 62
     2
  6
CONTINUOUS
 10
-1.390630
 20
4.221941
  0
VERTEX
  8
PLAN_1
 62
     2
  6
CONTINUOUS
 10
0.271906
 20
4.221941
  0
SEQEND
  8
0
  0
SOLID
  8
PLAN_1
 62
     2
 10
0.301142
 20
4.221941
 11
0.242106
 21
4.237685
 12
0.301142
 22
4.221941
 13
0.242106
 23
4.206201
  0
POLYLINE
  8
PLAN_1
 62
     2
  6
CONTINUOUS
 66
     1
 40
0.003000
 41
0.003000
  0
VERTEX
  8
PLAN_1
 62
     2
  6
CONTINUOUS
 10
0.301142
 20
4.221941
  0
VERTEX
  8
PLAN_1
 62
     2
  6
CONTINUOUS
 10
0.242106
 20
4.237685
  0
VERTEX
  8
PLAN_1
 62
     2
  6
CONTINUOUS
 10
0.242106
 20
4.206201
  0
VERTEX
  8
PLAN_1
 62
     2
  6
CONTINUOUS
 10
0.301142
 20
4.221941
  0
SEQEND
  8
0
  0
SOLID
  8
PLAN_1
 62
     2
 10
-1.420429
 20
4.221941
 11
-1.361394
 21
4.237685
 12
-1.420429
 22
4.221941
 13
-1.361394
 23
4.206201
  0
POLYLINE
  8
PLAN_1
 62
     2
  6
CONTINUOUS
 66
     1
 40
0.003000
 41
0.003000
  0
VERTEX
  8
PLAN_1
 62
     2
  6
CONTINUOUS
 10
-1.420429
 20
4.221941
  0
VERTEX
  8
PLAN_1
 62
     2
  6
CONTINUOUS
 10
-1.361394
 20
4.237685
  0
VERTEX
  8
PLAN_1
 62
     2
  6
CONTINUOUS
 10
-1.361394
 20
4.206201
  0
VERTEX
  8
PLAN_1
 62
     2
  6
CONTINUOUS
 10
-1.420429
 20
4.221941
  0
SEQEND
  8
0
  0
POLYLINE
  8
PLAN_1
 62
     2
  6
CONTINUOUS
 66
     1
 40
0.003000
 41
0.003000
  0
VERTEX
  8
PLAN_1
 62
     2
  6
CONTINUOUS
 10
-0.573701
 20
4.262984
  0
VERTEX
  8
PLAN_1
 62
     2
  6
CONTINUOUS
 10
-0.573701
 20
4.245555
  0
VERTEX
  8
PLAN_1
 62
     2
  6
CONTINUOUS
 10
-0.582697
 20
4.245555
  0
VERTEX
  8
PLAN_1
 62
     2
  6
CONTINUOUS
 10
-0.582697
 20
4.262984
  0
VERTEX
  8
PLAN_1
 62
     2
  6
CONTINUOUS
 10
-0.614744
 20
4.262984
  0
VERTEX
  8
PLAN_1
 62
     2
  6
CONTINUOUS
 10
-0.614744
 20
4.271980
  0
VERTEX
  8
PLAN_1
 62
     2
  6
CONTINUOUS
 10
-0.581008
 20
4.318646
  0
VERTEX
  8
PLAN_1
 62
     2
  6
CONTINUOUS
 10
-0.573701
 20
4.318646
  0
VERTEX
  8
PLAN_1
 62
     2
  6
CONTINUOUS
 10
-0.573701
 20
4.270854
  0
VERTEX
  8
PLAN_1
 62
     2
  6
CONTINUOUS
 10
-0.563020
 20
4.270854
  0
VERTEX
  8
PLAN_1
 62
     2
  6
CONTINUOUS
 10
-0.563020
 20
4.262984
  0
VERTEX
  8
PLAN_1
 62
     2
  6
CONTINUOUS
 10
-0.573701
 20
4.262984
  0
SEQEND
  8
0
  0
SOLID
  8
PLAN_1
 62
     2
 10
-0.606311
 20
4.270854
 11
-0.582697
 21
4.270854
 12
-0.606311
 22
4.270854
 13
-0.582697
 23
4.304028
  0
POLYLINE
  8
PLAN_1
 62
     2
  6
CONTINUOUS
 66
     1
 40
0.003000
 41
0.003000
  0
VERTEX
  8
PLAN_1
 62
     2
  6
CONTINUOUS
 10
-0.606311
 20
4.270854
  0
VERTEX
  8
PLAN_1
 62
     2
  6
CONTINUOUS
 10
-0.582697
 20
4.270854
  0
VERTEX
  8
PLAN_1
 62
     2
  6
CONTINUOUS
 10
-0.582697
 20
4.304028
  0
VERTEX
  8
PLAN_1
 62
     2
  6
CONTINUOUS
 10
-0.606311
 20
4.270854
  0
SEQEND
  8
0
  0
POLYLINE
  8
PLAN_1
 62
     2
  6
CONTINUOUS
 66
     1
 40
0.003000
 41
0.003000
  0
VERTEX
  8
PLAN_1
 62
     2
  6
CONTINUOUS
 10
-0.521976
 20
4.245555
  0
VERTEX
  8
PLAN_1
 62
     2
  6
CONTINUOUS
 10
-0.532094
 20
4.245555
  0
VERTEX
  8
PLAN_1
 62
     2
  6
CONTINUOUS
 10
-0.532094
 20
4.297280
  0
VERTEX
  8
PLAN_1
 62
     2
  6
CONTINUOUS
 10
-0.548961
 20
4.297280
  0
VERTEX
  8
PLAN_1
 62
     2
  6
CONTINUOUS
 10
-0.548961
 20
4.304591
  0
VERTEX
  8
PLAN_1
 62
     2
  6
CONTINUOUS
 10
-0.545028
 20
4.305154
  0
VERTEX
  8
PLAN_1
 62
     2
  6
CONTINUOUS
 10
-0.541091
 20
4.305154
  0
VERTEX
  8
PLAN_1
 62
     2
  6
CONTINUOUS
 10
-0.538280
 20
4.306276
  0
VERTEX
  8
PLAN_1
 62
     2
  6
CONTINUOUS
 10
-0.535469
 20
4.307402
  0
VERTEX
  8
PLAN_1
 62
     2
  6
CONTINUOUS
 10
-0.533783
 20
4.309087
  0
VERTEX
  8
PLAN_1
 62
     2
  6
CONTINUOUS
 10
-0.532094
 20
4.311339
  0
VERTEX
  8
PLAN_1
 62
     2
  6
CONTINUOUS
 10
-0.530409
 20
4.314713
  0
VERTEX
  8
PLAN_1
 62
     2
  6
CONTINUOUS
 10
-0.529283
 20
4.318646
  0
VERTEX
  8
PLAN_1
 62
     2
  6
CONTINUOUS
 10
-0.521976
 20
4.318646
  0
VERTEX
  8
PLAN_1
 62
     2
  6
CONTINUOUS
 10
-0.521976
 20
4.245555
  0
SEQEND
  8
0
  0
POLYLINE
  8
PLAN_1
 62
     2
  6
CONTINUOUS
 66
     1
 40
0.003933
 41
0.003933
  0
VERTEX
  8
PLAN_1
 62
     2
  6
CONTINUOUS
 10
-2.059130
 20
4.402980
  0
VERTEX
  8
PLAN_1
 62
     2
  6
CONTINUOUS
 10
0.271906
 20
4.402980
  0
SEQEND
  8
0
  0
SOLID
  8
PLAN_1
 62
     2
 10
0.301142
 20
4.402980
 11
0.242106
 21
4.418724
 12
0.301142
 22
4.402980
 13
0.242106
 23
4.387240
  0
POLYLINE
  8
PLAN_1
 62
     2
  6
CONTINUOUS
 66
     1
 40
0.003000
 41
0.003000
  0
VERTEX
  8
PLAN_1
 62
     2
  6
CONTINUOUS
 10
0.301142
 20
4.402980
  0
VERTEX
  8
PLAN_1
 62
     2
  6
CONTINUOUS
 10
0.242106
 20
4.418724
  0
VERTEX
  8
PLAN_1
 62
     2
  6
CONTINUOUS
 10
0.242106
 20
4.387240
  0
VERTEX
  8
PLAN_1
 62
     2
  6
CONTINUOUS
 10
0.301142
 20
4.402980
  0
SEQEND
  8
0
  0
SOLID
  8
PLAN_1
 62
     2
 10
-2.088929
 20
4.402980
 11
-2.029894
 21
4.418724
 12
-2.088929
 22
4.402980
 13
-2.029894
 23
4.387240
  0
POLYLINE
  8
PLAN_1
 62
     2
  6
CONTINUOUS
 66
     1
 40
0.003000
 41
0.003000
  0
VERTEX
  8
PLAN_1
 62
     2
  6
CONTINUOUS
 10
-2.088929
 20
4.402980
  0
VERTEX
  8
PLAN_1
 62
     2
  6
CONTINUOUS
 10
-2.029894
 20
4.418724
  0
VERTEX
  8
PLAN_1
 62
     2
  6
CONTINUOUS
 10
-2.029894
 20
4.387240
  0
VERTEX
  8
PLAN_1
 62
     2
  6
CONTINUOUS
 10
-2.088929
 20
4.402980
  0
SEQEND
  8
0
  0
POLYLINE
  8
PLAN_1
 62
     2
  6
CONTINUOUS
 66
     1
 40
0.003000
 41
0.003000
  0
VERTEX
  8
PLAN_1
 62
     2
  6
CONTINUOUS
 10
-0.936343
 20
4.468764
  0
VERTEX
  8
PLAN_1
 62
     2
  6
CONTINUOUS
 10
-0.935220
 20
4.469890
  0
VERTEX
  8
PLAN_1
 62
     2
  6
CONTINUOUS
 10
-0.933531
 20
4.470449
  0
VERTEX
  8
PLAN_1
 62
     2
  6
CONTINUOUS
 10
-0.932409
 20
4.471575
  0
VERTEX
  8
PLAN_1
 62
     2
  6
CONTINUOUS
 10
-0.930720
 20
4.472138
  0
VERTEX
  8
PLAN_1
 62
     2
  6
CONTINUOUS
 10
-0.928472
 20
4.472701
  0
VERTEX
  8
PLAN_1
 62
     2
  6
CONTINUOUS
 10
-0.926783
 20
4.473260
  0
VERTEX
  8
PLAN_1
 62
     2
  6
CONTINUOUS
 10
-0.924535
 20
4.473260
  0
VERTEX
  8
PLAN_1
 62
     2
  6
CONTINUOUS
 10
-0.922287
 20
4.473823
  0
VERTEX
  8
PLAN_1
 62
     2
  6
CONTINUOUS
 10
-0.917791
 20
4.473260
  0
VERTEX
  8
PLAN_1
 62
     2
  6
CONTINUOUS
 10
-0.913291
 20
4.472138
  0
VERTEX
  8
PLAN_1
 62
     2
  6
CONTINUOUS
 10
-0.909354
 20
4.469890
  0
VERTEX
  8
PLAN_1
 62
     2
  6
CONTINUOUS
 10
-0.905421
 20
4.467638
  0
VERTEX
  8
PLAN_1
 62
     2
  6
CONTINUOUS
 10
-0.902610
 20
4.464268
  0
VERTEX
  8
PLAN_1
 62
     2
  6
CONTINUOUS
 10
-0.900358
 20
4.460331
  0
VERTEX
  8
PLAN_1
 62
     2
  6
CONTINUOUS
 10
-0.898673
 20
4.455272
  0
VERTEX
  8
PLAN_1
 62
     2
  6
CONTINUOUS
 10
-0.898110
 20
4.450209
  0
VERTEX
  8
PLAN_1
 62
     2
  6
CONTINUOUS
 10
-0.898110
 20
4.446835
  0
VERTEX
  8
PLAN_1
 62
     2
  6
CONTINUOUS
 10
-0.899236
 20
4.442902
  0
VERTEX
  8
PLAN_1
 62
     2
  6
CONTINUOUS
 10
-0.900358
 20
4.438402
  0
VERTEX
  8
PLAN_1
 62
     2
  6
CONTINUOUS
 10
-0.902610
 20
4.434469
  0
VERTEX
  8
PLAN_1
 62
     2
  6
CONTINUOUS
 10
-0.904295
 20
4.432217
  0
VERTEX
  8
PLAN_1
 62
     2
  6
CONTINUOUS
 10
-0.905984
 20
4.430531
  0
VERTEX
  8
PLAN_1
 62
     2
  6
CONTINUOUS
 10
-0.908232
 20
4.428846
  0
VERTEX
  8
PLAN_1
 62
     2
  6
CONTINUOUS
 10
-0.911043
 20
4.427157
  0
VERTEX
  8
PLAN_1
 62
     2
  6
CONTINUOUS
 10
-0.913854
 20
4.426035
  0
VERTEX
  8
PLAN_1
 62
     2
  6
CONTINUOUS
 10
-0.916665
 20
4.425472
  0
VERTEX
  8
PLAN_1
 62
     2
  6
CONTINUOUS
 10
-0.920602
 20
4.424909
  0
VERTEX
  8
PLAN_1
 62
     2
  6
CONTINUOUS
 10
-0.924535
 20
4.424346
  0
VERTEX
  8
PLAN_1
 62
     2
  6
CONTINUOUS
 10
-0.928472
 20
4.424909
  0
VERTEX
  8
PLAN_1
 62
     2
  6
CONTINUOUS
 10
-0.931846
 20
4.425472
  0
VERTEX
  8
PLAN_1
 62
     2
  6
CONTINUOUS
 10
-0.935780
 20
4.426594
  0
VERTEX
  8
PLAN_1
 62
     2
  6
CONTINUOUS
 10
-0.939154
 20
4.428283
  0
VERTEX
  8
PLAN_1
 62
     2
  6
CONTINUOUS
 10
-0.942528
 20
4.431094
  0
VERTEX
  8
PLAN_1
 62
     2
  6
CONTINUOUS
 10
-0.945339
 20
4.434469
  0
VERTEX
  8
PLAN_1
 62
     2
  6
CONTINUOUS
 10
-0.947028
 20
4.438965
  0
VERTEX
  8
PLAN_1
 62
     2
  6
CONTINUOUS
 10
-0.948150
 20
4.444587
  0
VERTEX
  8
PLAN_1
 62
     2
  6
CONTINUOUS
 10
-0.938591
 20
4.444587
  0
VERTEX
  8
PLAN_1
 62
     2
  6
CONTINUOUS
 10
-0.938031
 20
4.441776
  0
VERTEX
  8
PLAN_1
 62
     2
  6
CONTINUOUS
 10
-0.936906
 20
4.438965
  0
VERTEX
  8
PLAN_1
 62
     2
  6
CONTINUOUS
 10
-0.935780
 20
4.436717
  0
VERTEX
  8
PLAN_1
 62
     2
  6
CONTINUOUS
 10
-0.933531
 20
4.435028
  0
VERTEX
  8
PLAN_1
 62
     2
  6
CONTINUOUS
 10
-0.931283
 20
4.433906
  0
VERTEX
  8
PLAN_1
 62
     2
  6
CONTINUOUS
 10
-0.929035
 20
4.432780
  0
VERTEX
  8
PLAN_1
 62
     2
  6
CONTINUOUS
 10
-0.926224
 20
4.432780
  0
VERTEX
  8
PLAN_1
 62
     2
  6
CONTINUOUS
 10
-0.923413
 20
4.432217
  0
VERTEX
  8
PLAN_1
 62
     2
  6
CONTINUOUS
 10
-0.920039
 20
4.432780
  0
VERTEX
  8
PLAN_1
 62
     2
  6
CONTINUOUS
 10
-0.916665
 20
4.433906
  0
VERTEX
  8
PLAN_1
 62
     2
  6
CONTINUOUS
 10
-0.914417
 20
4.435028
  0
VERTEX
  8
PLAN_1
 62
     2
  6
CONTINUOUS
 10
-0.912165
 20
4.437280
  0
VERTEX
  8
PLAN_1
 62
     2
  6
CONTINUOUS
 10
-0.910480
 20
4.439528
  0
VERTEX
  8
PLAN_1
 62
     2
  6
CONTINUOUS
 10
-0.908795
 20
4.442339
  0
VERTEX
  8
PLAN_1
 62
     2
  6
CONTINUOUS
 10
-0.908232
 20
4.445713
  0
VERTEX
  8
PLAN_1
 62
     2
  6
CONTINUOUS
 10
-0.907669
 20
4.449087
  0
VERTEX
  8
PLAN_1
 62
     2
  6
CONTINUOUS
 10
-0.908232
 20
4.453020
  0
VERTEX
  8
PLAN_1
 62
     2
  6
CONTINUOUS
 10
-0.909354
 20
4.455831
  0
VERTEX
  8
PLAN_1
 62
     2
  6
CONTINUOUS
 10
-0.910480
 20
4.458642
  0
VERTEX
  8
PLAN_1
 62
     2
  6
CONTINUOUS
 10
-0.912728
 20
4.460894
  0
VERTEX
  8
PLAN_1
 62
     2
  6
CONTINUOUS
 10
-0.914980
 20
4.463142
  0
VERTEX
  8
PLAN_1
 62
     2
  6
CONTINUOUS
 10
-0.917791
 20
4.464268
  0
VERTEX
  8
PLAN_1
 62
     2
  6
CONTINUOUS
 10
-0.920602
 20
4.464827
  0
VERTEX
  8
PLAN_1
 62
     2
  6
CONTINUOUS
 10
-0.923972
 20
4.465390
  0
VERTEX
  8
PLAN_1
 62
     2
  6
CONTINUOUS
 10
-0.926224
 20
4.465390
  0
VERTEX
  8
PLAN_1
 62
     2
  6
CONTINUOUS
 10
-0.927909
 20
4.464827
  0
VERTEX
  8
PLAN_1
 62
     2
  6
CONTINUOUS
 10
-0.929598
 20
4.464268
  0
VERTEX
  8
PLAN_1
 62
     2
  6
CONTINUOUS
 10
-0.931846
 20
4.463705
  0
VERTEX
  8
PLAN_1
 62
     2
  6
CONTINUOUS
 10
-0.932969
 20
4.462579
  0
VERTEX
  8
PLAN_1
 62
     2
  6
CONTINUOUS
 10
-0.934657
 20
4.461453
  0
VERTEX
  8
PLAN_1
 62
     2
  6
CONTINUOUS
 10
-0.936343
 20
4.459768
  0
VERTEX
  8
PLAN_1
 62
     2
  6
CONTINUOUS
 10
-0.937469
 20
4.458083
  0
VERTEX
  8
PLAN_1
 62
     2
  6
CONTINUOUS
 10
-0.945339
 20
4.458642
  0
VERTEX
  8
PLAN_1
 62
     2
  6
CONTINUOUS
 10
-0.940280
 20
4.498000
  0
VERTEX
  8
PLAN_1
 62
     2
  6
CONTINUOUS
 10
-0.902047
 20
4.498000
  0
VERTEX
  8
PLAN_1
 62
     2
  6
CONTINUOUS
 10
-0.902047
 20
4.489004
  0
VERTEX
  8
PLAN_1
 62
     2
  6
CONTINUOUS
 10
-0.932969
 20
4.489004
  0
VERTEX
  8
PLAN_1
 62
     2
  6
CONTINUOUS
 10
-0.936343
 20
4.468764
  0
SEQEND
  8
0
  0
POLYLINE
  8
PLAN_1
 62
     2
  6
CONTINUOUS
 66
     1
 40
0.003000
 41
0.003000
  0
VERTEX
  8
PLAN_1
 62
     2
  6
CONTINUOUS
 10
-0.889677
 20
4.498000
  0
VERTEX
  8
PLAN_1
 62
     2
  6
CONTINUOUS
 10
-0.839075
 20
4.498000
  0
VERTEX
  8
PLAN_1
 62
     2
  6
CONTINUOUS
 10
-0.839075
 20
4.490130
  0
VERTEX
  8
PLAN_1
 62
     2
  6
CONTINUOUS
 10
-0.842449
 20
4.486193
  0
VERTEX
  8
PLAN_1
 62
     2
  6
CONTINUOUS
 10
-0.846386
 20
4.481697
  0
VERTEX
  8
PLAN_1
 62
     2
  6
CONTINUOUS
 10
-0.850323
 20
4.474949
  0
VERTEX
  8
PLAN_1
 62
     2
  6
CONTINUOUS
 10
-0.854819
 20
4.467638
  0
VERTEX
  8
PLAN_1
 62
     2
  6
CONTINUOUS
 10
-0.859315
 20
4.458642
  0
VERTEX
  8
PLAN_1
 62
     2
  6
CONTINUOUS
 10
-0.863252
 20
4.449087
  0
VERTEX
  8
PLAN_1
 62
     2
  6
CONTINUOUS
 10
-0.866626
 20
4.438402
  0
VERTEX
  8
PLAN_1
 62
     2
  6
CONTINUOUS
 10
-0.869437
 20
4.426594
  0
VERTEX
  8
PLAN_1
 62
     2
  6
CONTINUOUS
 10
-0.879559
 20
4.426594
  0
VERTEX
  8
PLAN_1
 62
     2
  6
CONTINUOUS
 10
-0.877870
 20
4.434469
  0
VERTEX
  8
PLAN_1
 62
     2
  6
CONTINUOUS
 10
-0.875622
 20
4.442339
  0
VERTEX
  8
PLAN_1
 62
     2
  6
CONTINUOUS
 10
-0.872811
 20
4.450772
  0
VERTEX
  8
PLAN_1
 62
     2
  6
CONTINUOUS
 10
-0.868874
 20
4.459205
  0
VERTEX
  8
PLAN_1
 62
     2
  6
CONTINUOUS
 10
-0.864378
 20
4.467079
  0
VERTEX
  8
PLAN_1
 62
     2
  6
CONTINUOUS
 10
-0.859878
 20
4.474949
  0
VERTEX
  8
PLAN_1
 62
     2
  6
CONTINUOUS
 10
-0.854819
 20
4.482256
  0
VERTEX
  8
PLAN_1
 62
     2
  6
CONTINUOUS
 10
-0.849760
 20
4.489004
  0
VERTEX
  8
PLAN_1
 62
     2
  6
CONTINUOUS
 10
-0.889677
 20
4.489004
  0
VERTEX
  8
PLAN_1
 62
     2
  6
CONTINUOUS
 10
-0.889677
 20
4.498000
  0
SEQEND
  8
0
  0
POLYLINE
  8
PLAN_1
 62
     2
  6
CONTINUOUS
 66
     1
 40
0.003933
 41
0.003933
  0
VERTEX
  8
PLAN_1
 62
     2
  6
CONTINUOUS
 10
-2.177764
 20
4.221941
  0
VERTEX
  8
PLAN_1
 62
     2
  6
CONTINUOUS
 10
-2.023709
 20
4.221941
  0
SEQEND
  8
0
  0
SOLID
  8
PLAN_1
 62
     2
 10
-1.994472
 20
4.221941
 11
-2.053508
 21
4.237685
 12
-1.994472
 22
4.221941
 13
-2.053508
 23
4.206201
  0
POLYLINE
  8
PLAN_1
 62
     2
  6
CONTINUOUS
 66
     1
 40
0.003000
 41
0.003000
  0
VERTEX
  8
PLAN_1
 62
     2
  6
CONTINUOUS
 10
-1.994472
 20
4.221941
  0
VERTEX
  8
PLAN_1
 62
     2
  6
CONTINUOUS
 10
-2.053508
 20
4.237685
  0
VERTEX
  8
PLAN_1
 62
     2
  6
CONTINUOUS
 10
-2.053508
 20
4.206201
  0
VERTEX
  8
PLAN_1
 62
     2
  6
CONTINUOUS
 10
-1.994472
 20
4.221941
  0
SEQEND
  8
0
  0
SOLID
  8
PLAN_1
 62
     2
 10
-2.207563
 20
4.221941
 11
-2.148528
 21
4.237685
 12
-2.207563
 22
4.221941
 13
-2.148528
 23
4.206201
  0
POLYLINE
  8
PLAN_1
 62
     2
  6
CONTINUOUS
 66
     1
 40
0.003000
 41
0.003000
  0
VERTEX
  8
PLAN_1
 62
     2
  6
CONTINUOUS
 10
-2.207563
 20
4.221941
  0
VERTEX
  8
PLAN_1
 62
     2
  6
CONTINUOUS
 10
-2.148528
 20
4.237685
  0
VERTEX
  8
PLAN_1
 62
     2
  6
CONTINUOUS
 10
-2.148528
 20
4.206201
  0
VERTEX
  8
PLAN_1
 62
     2
  6
CONTINUOUS
 10
-2.207563
 20
4.221941
  0
SEQEND
  8
0
  0
POLYLINE
  8
PLAN_1
 62
     2
  6
CONTINUOUS
 66
     1
 40
0.003000
 41
0.003000
  0
VERTEX
  8
PLAN_1
 62
     2
  6
CONTINUOUS
 10
-2.114791
 20
4.287724
  0
VERTEX
  8
PLAN_1
 62
     2
  6
CONTINUOUS
 10
-2.113106
 20
4.288846
  0
VERTEX
  8
PLAN_1
 62
     2
  6
CONTINUOUS
 10
-2.111980
 20
4.289409
  0
VERTEX
  8
PLAN_1
 62
     2
  6
CONTINUOUS
 10
-2.110295
 20
4.290535
  0
VERTEX
  8
PLAN_1
 62
     2
  6
CONTINUOUS
 10
-2.108606
 20
4.291098
  0
VERTEX
  8
PLAN_1
 62
     2
  6
CONTINUOUS
 10
-2.106921
 20
4.291657
  0
VERTEX
  8
PLAN_1
 62
     2
  6
CONTINUOUS
 10
-2.104673
 20
4.292220
  0
VERTEX
  8
PLAN_1
 62
     2
  6
CONTINUOUS
 10
-2.102984
 20
4.292220
  0
VERTEX
  8
PLAN_1
 62
     2
  6
CONTINUOUS
 10
-2.100173
 20
4.292220
  0
VERTEX
  8
PLAN_1
 62
     2
  6
CONTINUOUS
 10
-2.095677
 20
4.292220
  0
VERTEX
  8
PLAN_1
 62
     2
  6
CONTINUOUS
 10
-2.091740
 20
4.291098
  0
VERTEX
  8
PLAN_1
 62
     2
  6
CONTINUOUS
 10
-2.087803
 20
4.288846
  0
VERTEX
  8
PLAN_1
 62
     2
  6
CONTINUOUS
 10
-2.083870
 20
4.286598
  0
VERTEX
  8
PLAN_1
 62
     2
  6
CONTINUOUS
 10
-2.081059
 20
4.283224
  0
VERTEX
  8
PLAN_1
 62
     2
  6
CONTINUOUS
 10
-2.078248
 20
4.279291
  0
VERTEX
  8
PLAN_1
 62
     2
  6
CONTINUOUS
 10
-2.077122
 20
4.274228
  0
VERTEX
  8
PLAN_1
 62
     2
  6
CONTINUOUS
 10
-2.076559
 20
4.269169
  0
VERTEX
  8
PLAN_1
 62
     2
  6
CONTINUOUS
 10
-2.076559
 20
4.265795
  0
VERTEX
  8
PLAN_1
 62
     2
  6
CONTINUOUS
 10
-2.077122
 20
4.261862
  0
VERTEX
  8
PLAN_1
 62
     2
  6
CONTINUOUS
 10
-2.078807
 20
4.257362
  0
VERTEX
  8
PLAN_1
 62
     2
  6
CONTINUOUS
 10
-2.081059
 20
4.253425
  0
VERTEX
  8
PLAN_1
 62
     2
  6
CONTINUOUS
 10
-2.082744
 20
4.251177
  0
VERTEX
  8
PLAN_1
 62
     2
  6
CONTINUOUS
 10
-2.084433
 20
4.249492
  0
VERTEX
  8
PLAN_1
 62
     2
  6
CONTINUOUS
 10
-2.086681
 20
4.247803
  0
VERTEX
  8
PLAN_1
 62
     2
  6
CONTINUOUS
 10
-2.088929
 20
4.246118
  0
VERTEX
  8
PLAN_1
 62
     2
  6
CONTINUOUS
 10
-2.091740
 20
4.244992
  0
VERTEX
  8
PLAN_1
 62
     2
  6
CONTINUOUS
 10
-2.095114
 20
4.243870
  0
VERTEX
  8
PLAN_1
 62
     2
  6
CONTINUOUS
 10
-2.099051
 20
4.243307
  0
VERTEX
  8
PLAN_1
 62
     2
  6
CONTINUOUS
 10
-2.102984
 20
4.243307
  0
VERTEX
  8
PLAN_1
 62
     2
  6
CONTINUOUS
 10
-2.106358
 20
4.243307
  0
VERTEX
  8
PLAN_1
 62
     2
  6
CONTINUOUS
 10
-2.110295
 20
4.244433
  0
VERTEX
  8
PLAN_1
 62
     2
  6
CONTINUOUS
 10
-2.114228
 20
4.245555
  0
VERTEX
  8
PLAN_1
 62
     2
  6
CONTINUOUS
 10
-2.117602
 20
4.247244
  0
VERTEX
  8
PLAN_1
 62
     2
  6
CONTINUOUS
 10
-2.120976
 20
4.250055
  0
VERTEX
  8
PLAN_1
 62
     2
  6
CONTINUOUS
 10
-2.123224
 20
4.253425
  0
VERTEX
  8
PLAN_1
 62
     2
  6
CONTINUOUS
 10
-2.125476
 20
4.257925
  0
VERTEX
  8
PLAN_1
 62
     2
  6
CONTINUOUS
 10
-2.126598
 20
4.263547
  0
VERTEX
  8
PLAN_1
 62
     2
  6
CONTINUOUS
 10
-2.117039
 20
4.263547
  0
VERTEX
  8
PLAN_1
 62
     2
  6
CONTINUOUS
 10
-2.116480
 20
4.260736
  0
VERTEX
  8
PLAN_1
 62
     2
  6
CONTINUOUS
 10
-2.115354
 20
4.257925
  0
VERTEX
  8
PLAN_1
 62
     2
  6
CONTINUOUS
 10
-2.113669
 20
4.255677
  0
VERTEX
  8
PLAN_1
 62
     2
  6
CONTINUOUS
 10
-2.111980
 20
4.253988
  0
VERTEX
  8
PLAN_1
 62
     2
  6
CONTINUOUS
 10
-2.109732
 20
4.252866
  0
VERTEX
  8
PLAN_1
 62
     2
  6
CONTINUOUS
 10
-2.107484
 20
4.251740
  0
VERTEX
  8
PLAN_1
 62
     2
  6
CONTINUOUS
 10
-2.104673
 20
4.251177
  0
VERTEX
  8
PLAN_1
 62
     2
  6
CONTINUOUS
 10
-2.101299
 20
4.251177
  0
VERTEX
  8
PLAN_1
 62
     2
  6
CONTINUOUS
 10
-2.097925
 20
4.251740
  0
VERTEX
  8
PLAN_1
 62
     2
  6
CONTINUOUS
 10
-2.095114
 20
4.252866
  0
VERTEX
  8
PLAN_1
 62
     2
  6
CONTINUOUS
 10
-2.092303
 20
4.253988
  0
VERTEX
  8
PLAN_1
 62
     2
  6
CONTINUOUS
 10
-2.090055
 20
4.256236
  0
VERTEX
  8
PLAN_1
 62
     2
  6
CONTINUOUS
 10
-2.088366
 20
4.258488
  0
VERTEX
  8
PLAN_1
 62
     2
  6
CONTINUOUS
 10
-2.087244
 20
4.261299
  0
VERTEX
  8
PLAN_1
 62
     2
  6
CONTINUOUS
 10
-2.086118
 20
4.264673
  0
VERTEX
  8
PLAN_1
 62
     2
  6
CONTINUOUS
 10
-2.086118
 20
4.268043
  0
VERTEX
  8
PLAN_1
 62
     2
  6
CONTINUOUS
 10
-2.086681
 20
4.271980
  0
VERTEX
  8
PLAN_1
 62
     2
  6
CONTINUOUS
 10
-2.087244
 20
4.274791
  0
VERTEX
  8
PLAN_1
 62
     2
  6
CONTINUOUS
 10
-2.088929
 20
4.277602
  0
VERTEX
  8
PLAN_1
 62
     2
  6
CONTINUOUS
 10
-2.090614
 20
4.279850
  0
VERTEX
  8
PLAN_1
 62
     2
  6
CONTINUOUS
 10
-2.093425
 20
4.282102
  0
VERTEX
  8
PLAN_1
 62
     2
  6
CONTINUOUS
 10
-2.096236
 20
4.283224
  0
VERTEX
  8
PLAN_1
 62
     2
  6
CONTINUOUS
 10
-2.099051
 20
4.283787
  0
VERTEX
  8
PLAN_1
 62
     2
  6
CONTINUOUS
 10
-2.102421
 20
4.284350
  0
VERTEX
  8
PLAN_1
 62
     2
  6
CONTINUOUS
 10
-2.104110
 20
4.284350
  0
VERTEX
  8
PLAN_1
 62
     2
  6
CONTINUOUS
 10
-2.106358
 20
4.283787
  0
VERTEX
  8
PLAN_1
 62
     2
  6
CONTINUOUS
 10
-2.108043
 20
4.283224
  0
VERTEX
  8
PLAN_1
 62
     2
  6
CONTINUOUS
 10
-2.109732
 20
4.282661
  0
VERTEX
  8
PLAN_1
 62
     2
  6
CONTINUOUS
 10
-2.111417
 20
4.281539
  0
VERTEX
  8
PLAN_1
 62
     2
  6
CONTINUOUS
 10
-2.113106
 20
4.280413
  0
VERTEX
  8
PLAN_1
 62
     2
  6
CONTINUOUS
 10
-2.114791
 20
4.278728
  0
VERTEX
  8
PLAN_1
 62
     2
  6
CONTINUOUS
 10
-2.115917
 20
4.277039
  0
VERTEX
  8
PLAN_1
 62
     2
  6
CONTINUOUS
 10
-2.123787
 20
4.277602
  0
VERTEX
  8
PLAN_1
 62
     2
  6
CONTINUOUS
 10
-2.118165
 20
4.316961
  0
VERTEX
  8
PLAN_1
 62
     2
  6
CONTINUOUS
 10
-2.080496
 20
4.316961
  0
VERTEX
  8
PLAN_1
 62
     2
  6
CONTINUOUS
 10
-2.080496
 20
4.307965
  0
VERTEX
  8
PLAN_1
 62
     2
  6
CONTINUOUS
 10
-2.111417
 20
4.307965
  0
VERTEX
  8
PLAN_1
 62
     2
  6
CONTINUOUS
 10
-2.114791
 20
4.287724
  0
SEQEND
  8
0
  0
POLYLINE
  8
PLAN_1
 62
     2
  6
CONTINUOUS
 66
     1
 40
0.003933
 41
0.003933
  0
VERTEX
  8
PLAN_1
 62
     2
  6
CONTINUOUS
 10
-2.207563
 20
4.245555
  0
VERTEX
  8
PLAN_1
 62
     2
  6
CONTINUOUS
 10
-2.207563
 20
4.066764
  0
SEQEND
  8
0
  0
POLYLINE
  8
PLAN_1
 62
     2
  6
CONTINUOUS
 66
     1
 40
0.003933
 41
0.003933
  0
VERTEX
  8
PLAN_1
 62
     2
  6
CONTINUOUS
 10
-1.289429
 20
4.061705
  0
VERTEX
  8
PLAN_1
 62
     2
  6
CONTINUOUS
 10
0.493988
 20
4.061705
  0
SEQEND
  8
0
  0
POLYLINE
  8
PLAN_1
 62
     2
  6
CONTINUOUS
 66
     1
 40
0.003933
 41
0.003933
  0
VERTEX
  8
PLAN_1
 62
     2
  6
CONTINUOUS
 10
-1.994472
 20
4.245555
  0
VERTEX
  8
PLAN_1
 62
     2
  6
CONTINUOUS
 10
-1.994472
 20
4.066764
  0
SEQEND
  8
0
  0
POLYLINE
  8
PLAN_1
 62
     2
  6
CONTINUOUS
 66
     1
 40
0.003933
 41
0.003933
  0
VERTEX
  8
PLAN_1
 62
     2
  6
CONTINUOUS
 10
-1.420429
 20
4.245555
  0
VERTEX
  8
PLAN_1
 62
     2
  6
CONTINUOUS
 10
-1.420429
 20
4.094878
  0
SEQEND
  8
0
  0
POLYLINE
  8
PLAN_1
 62
     2
  6
CONTINUOUS
 66
     1
 40
0.003933
 41
0.003933
  0
VERTEX
  8
PLAN_1
 62
     2
  6
CONTINUOUS
 10
0.301142
 20
1.639024
  0
VERTEX
  8
PLAN_1
 62
     2
  6
CONTINUOUS
 10
0.301142
 20
4.033031
  0
SEQEND
  8
0
  0
POLYLINE
  8
PLAN_1
 62
     2
  6
CONTINUOUS
 66
     1
 40
0.003933
 41
0.003933
  0
VERTEX
  8
PLAN_1
 62
     2
  6
CONTINUOUS
 10
0.301142
 20
4.103870
  0
VERTEX
  8
PLAN_1
 62
     2
  6
CONTINUOUS
 10
0.301142
 20
4.426594
  0
SEQEND
  8
0
  0
POLYLINE
  8
PLAN_1
 62
     2
  6
CONTINUOUS
 66
     1
 40
0.003933
 41
0.003933
  0
VERTEX
  8
PLAN_1
 62
     2
  6
CONTINUOUS
 10
-2.088929
 20
4.340012
  0
VERTEX
  8
PLAN_1
 62
     2
  6
CONTINUOUS
 10
-2.088929
 20
4.426594
  0
SEQEND
  8
0
  0
ENDSEC
  0
EOF
